  0
SECTION
  2
HEADER
  9
$ACADVER
  1
AC1015
  9
$ACADMAINTVER
 70
    18
  9
$DWGCODEPAGE
  3
ANSI_1252
  9
$INSBASE
 10
0.0
 20
0.0
 30
0.0
  9
$EXTMIN
 10
-172.2143546913452
 20
-165.6258997698615
 30
-0.0015258207003583
  9
$EXTMAX
 10
200.4190070699192
 20
198.7130132723983
 30
0.0000000349246037
  9
$LIMMIN
 10
0.0
 20
0.0
  9
$LIMMAX
 10
420.0
 20
297.0
  9
$ORTHOMODE
 70
     0
  9
$REGENMODE
 70
     1
  9
$FILLMODE
 70
     1
  9
$QTEXTMODE
 70
     0
  9
$MIRRTEXT
 70
     0
  9
$LTSCALE
 40
1.0
  9
$ATTMODE
 70
     1
  9
$TEXTSIZE
 40
2.5
  9
$TRACEWID
 40
1.0
  9
$TEXTSTYLE
  7
Standard
  9
$CLAYER
  8
0
  9
$CELTYPE
  6
ByLayer
  9
$CECOLOR
 62
   256
  9
$CELTSCALE
 40
1.0
  9
$DISPSILH
 70
     0
  9
$DIMSCALE
 40
1.0
  9
$DIMASZ
 40
2.5
  9
$DIMEXO
 40
0.625
  9
$DIMDLI
 40
3.75
  9
$DIMRND
 40
0.0
  9
$DIMDLE
 40
0.0
  9
$DIMEXE
 40
1.25
  9
$DIMTP
 40
0.0
  9
$DIMTM
 40
0.0
  9
$DIMTXT
 40
2.5
  9
$DIMCEN
 40
2.5
  9
$DIMTSZ
 40
0.0
  9
$DIMTOL
 70
     0
  9
$DIMLIM
 70
     0
  9
$DIMTIH
 70
     0
  9
$DIMTOH
 70
     0
  9
$DIMSE1
 70
     0
  9
$DIMSE2
 70
     0
  9
$DIMTAD
 70
     1
  9
$DIMZIN
 70
     8
  9
$DIMBLK
  1

  9
$DIMASO
 70
     1
  9
$DIMSHO
 70
     1
  9
$DIMPOST
  1

  9
$DIMAPOST
  1

  9
$DIMALT
 70
     0
  9
$DIMALTD
 70
     3
  9
$DIMALTF
 40
0.03937007874016
  9
$DIMLFAC
 40
1.0
  9
$DIMTOFL
 70
     1
  9
$DIMTVP
 40
0.0
  9
$DIMTIX
 70
     0
  9
$DIMSOXD
 70
     0
  9
$DIMSAH
 70
     0
  9
$DIMBLK1
  1

  9
$DIMBLK2
  1

  9
$DIMSTYLE
  2
ISO-25
  9
$DIMCLRD
 70
     0
  9
$DIMCLRE
 70
     0
  9
$DIMCLRT
 70
     0
  9
$DIMTFAC
 40
1.0
  9
$DIMGAP
 40
0.625
  9
$DIMJUST
 70
     0
  9
$DIMSD1
 70
     0
  9
$DIMSD2
 70
     0
  9
$DIMTOLJ
 70
     0
  9
$DIMTZIN
 70
     8
  9
$DIMALTZ
 70
     0
  9
$DIMALTTZ
 70
     0
  9
$DIMUPT
 70
     0
  9
$DIMDEC
 70
     2
  9
$DIMTDEC
 70
     2
  9
$DIMALTU
 70
     2
  9
$DIMALTTD
 70
     3
  9
$DIMTXSTY
  7
Standard
  9
$DIMAUNIT
 70
     0
  9
$DIMADEC
 70
     0
  9
$DIMALTRND
 40
0.0
  9
$DIMAZIN
 70
     0
  9
$DIMDSEP
 70
    44
  9
$DIMATFIT
 70
     3
  9
$DIMFRAC
 70
     0
  9
$DIMLDRBLK
  1

  9
$DIMLUNIT
 70
     2
  9
$DIMLWD
 70
    -2
  9
$DIMLWE
 70
    -2
  9
$DIMTMOVE
 70
     0
  9
$LUNITS
 70
     2
  9
$LUPREC
 70
     4
  9
$SKETCHINC
 40
1.0
  9
$FILLETRAD
 40
0.0
  9
$AUNITS
 70
     0
  9
$AUPREC
 70
     0
  9
$MENU
  1
.
  9
$ELEVATION
 40
0.0
  9
$PELEVATION
 40
0.0
  9
$THICKNESS
 40
0.0
  9
$LIMCHECK
 70
     0
  9
$CHAMFERA
 40
0.0
  9
$CHAMFERB
 40
0.0
  9
$CHAMFERC
 40
0.0
  9
$CHAMFERD
 40
0.0
  9
$SKPOLY
 70
     0
  9
$TDCREATE
 40
2460398.356956019
  9
$TDUCREATE
 40
2460398.065289352
  9
$TDUPDATE
 40
2460398.369780092
  9
$TDUUPDATE
 40
2460398.078113426
  9
$TDINDWG
 40
0.0065740741
  9
$TDUSRTIMER
 40
0.0065740741
  9
$USRTIMER
 70
     1
  9
$ANGBASE
 50
0.0
  9
$ANGDIR
 70
     0
  9
$PDMODE
 70
     0
  9
$PDSIZE
 40
0.0
  9
$PLINEWID
 40
0.0
  9
$SPLFRAME
 70
     0
  9
$SPLINETYPE
 70
     6
  9
$SPLINESEGS
 70
     8
  9
$HANDSEED
  5
CC5
  9
$SURFTAB1
 70
     6
  9
$SURFTAB2
 70
     6
  9
$SURFTYPE
 70
     6
  9
$SURFU
 70
     6
  9
$SURFV
 70
     6
  9
$UCSBASE
  2

  9
$UCSNAME
  2

  9
$UCSORG
 10
0.0
 20
0.0
 30
0.0
  9
$UCSXDIR
 10
1.0
 20
0.0
 30
0.0
  9
$UCSYDIR
 10
0.0
 20
1.0
 30
0.0
  9
$UCSORTHOREF
  2

  9
$UCSORTHOVIEW
 70
     0
  9
$UCSORGTOP
 10
0.0
 20
0.0
 30
0.0
  9
$UCSORGBOTTOM
 10
0.0
 20
0.0
 30
0.0
  9
$UCSORGLEFT
 10
0.0
 20
0.0
 30
0.0
  9
$UCSORGRIGHT
 10
0.0
 20
0.0
 30
0.0
  9
$UCSORGFRONT
 10
0.0
 20
0.0
 30
0.0
  9
$UCSORGBACK
 10
0.0
 20
0.0
 30
0.0
  9
$PUCSBASE
  2

  9
$PUCSNAME
  2

  9
$PUCSORG
 10
0.0
 20
0.0
 30
0.0
  9
$PUCSXDIR
 10
1.0
 20
0.0
 30
0.0
  9
$PUCSYDIR
 10
0.0
 20
1.0
 30
0.0
  9
$PUCSORTHOREF
  2

  9
$PUCSORTHOVIEW
 70
     0
  9
$PUCSORGTOP
 10
0.0
 20
0.0
 30
0.0
  9
$PUCSORGBOTTOM
 10
0.0
 20
0.0
 30
0.0
  9
$PUCSORGLEFT
 10
0.0
 20
0.0
 30
0.0
  9
$PUCSORGRIGHT
 10
0.0
 20
0.0
 30
0.0
  9
$PUCSORGFRONT
 10
0.0
 20
0.0
 30
0.0
  9
$PUCSORGBACK
 10
0.0
 20
0.0
 30
0.0
  9
$USERI1
 70
     0
  9
$USERI2
 70
     0
  9
$USERI3
 70
     0
  9
$USERI4
 70
     0
  9
$USERI5
 70
     0
  9
$USERR1
 40
0.0
  9
$USERR2
 40
0.0
  9
$USERR3
 40
0.0
  9
$USERR4
 40
0.0
  9
$USERR5
 40
0.0
  9
$WORLDVIEW
 70
     1
  9
$SHADEDGE
 70
     3
  9
$SHADEDIF
 70
    70
  9
$TILEMODE
 70
     1
  9
$MAXACTVP
 70
    48
  9
$PINSBASE
 10
0.0
 20
0.0
 30
0.0
  9
$PLIMCHECK
 70
     0
  9
$PEXTMIN
 10
0.0
 20
0.0
 30
0.0
  9
$PEXTMAX
 10
0.0
 20
0.0
 30
0.0
  9
$PLIMMIN
 10
0.0
 20
0.0
  9
$PLIMMAX
 10
12.0
 20
9.0
  9
$UNITMODE
 70
     0
  9
$VISRETAIN
 70
     1
  9
$PLINEGEN
 70
     0
  9
$PSLTSCALE
 70
     1
  9
$TREEDEPTH
 70
  3020
  9
$CMLSTYLE
  2
Standard
  9
$CMLJUST
 70
     0
  9
$CMLSCALE
 40
20.0
  9
$PROXYGRAPHICS
 70
     1
  9
$MEASUREMENT
 70
     1
  9
$CELWEIGHT
370
    -1
  9
$ENDCAPS
280
     0
  9
$JOINSTYLE
280
     0
  9
$LWDISPLAY
290
     0
  9
$INSUNITS
 70
     4
  9
$HYPERLINKBASE
  1

  9
$STYLESHEET
  1

  9
$XEDIT
290
     1
  9
$CEPSNTYPE
380
     0
  9
$PSTYLEMODE
290
     1
  9
$FINGERPRINTGUID
  2
{6C1266EE-7BC1-BF4A-B059-A6E7702B10CE}
  9
$VERSIONGUID
  2
{E78F691B-0E7C-BD46-9AC3-DD9C88F488A1}
  9
$EXTNAMES
290
     1
  9
$PSVPSCALE
 40
0.0
  9
$OLESTARTUP
290
     0
  0
ENDSEC
  0
SECTION
  2
CLASSES
  0
CLASS
  1
ACDBDICTIONARYWDFLT
  2
AcDbDictionaryWithDefault
  3
ObjectDBX Classes
 90
        0
280
     0
281
     0
  0
CLASS
  1
ACDBPLACEHOLDER
  2
AcDbPlaceHolder
  3
ObjectDBX Classes
 90
        0
280
     0
281
     0
  0
CLASS
  1
LAYOUT
  2
AcDbLayout
  3
ObjectDBX Classes
 90
        0
280
     0
281
     0
  0
CLASS
  1
DICTIONARYVAR
  2
AcDbDictionaryVar
  3
ObjectDBX Classes
 90
        0
280
     0
281
     0
  0
CLASS
  1
TABLESTYLE
  2
AcDbTableStyle
  3
ObjectDBX Classes
 90
     4095
280
     0
281
     0
  0
CLASS
  1
MATERIAL
  2
AcDbMaterial
  3
ObjectDBX Classes
 90
     1153
280
     0
281
     0
  0
CLASS
  1
VISUALSTYLE
  2
AcDbVisualStyle
  3
ObjectDBX Classes
 90
     4095
280
     0
281
     0
  0
CLASS
  1
SCALE
  2
AcDbScale
  3
ObjectDBX Classes
 90
     1153
280
     0
281
     0
  0
CLASS
  1
MLEADERSTYLE
  2
AcDbMLeaderStyle
  3
ACDB_MLEADERSTYLE_CLASS
 90
     4095
280
     0
281
     0
  0
CLASS
  1
CELLSTYLEMAP
  2
AcDbCellStyleMap
  3
ObjectDBX Classes
 90
     1152
280
     0
281
     0
  0
CLASS
  1
EXACXREFPANELOBJECT
  2
ExAcXREFPanelObject
  3
EXAC_ESW
 90
    33793
280
     0
281
     0
  0
CLASS
  1
NPOCOLLECTION
  2
AcDbImpNonPersistentObjectsCollection
  3
ObjectDBX Classes
 90
    33921
280
     0
281
     0
  0
CLASS
  1
LAYER_INDEX
  2
AcDbLayerIndex
  3
ObjectDBX Classes
 90
    32768
280
     0
281
     0
  0
CLASS
  1
SPATIAL_INDEX
  2
AcDbSpatialIndex
  3
ObjectDBX Classes
 90
    32768
280
     0
281
     0
  0
CLASS
  1
IDBUFFER
  2
AcDbIdBuffer
  3
ObjectDBX Classes
 90
    32768
280
     0
281
     0
  0
CLASS
  1
ACDBSECTIONVIEWSTYLE
  2
AcDbSectionViewStyle
  3
ObjectDBX Classes
 90
     1025
280
     0
281
     0
  0
CLASS
  1
ACDBDETAILVIEWSTYLE
  2
AcDbDetailViewStyle
  3
ObjectDBX Classes
 90
     1025
280
     0
281
     0
  0
CLASS
  1
XRECORD
  2
AcDbXrecord
  3
ObjectDBX Classes
 90
        0
280
     0
281
     0
  0
ENDSEC
  0
SECTION
  2
TABLES
  0
TABLE
  2
VPORT
  5
8
102
{ACAD_XDICTIONARY
360
BD3
102
}
330
0
100
AcDbSymbolTable
 70
     1
  0
VPORT
  5
EA
330
8
100
AcDbSymbolTableRecord
100
AcDbViewportTableRecord
  2
*Active
 70
     0
 10
0.0
 20
0.0
 11
1.0
 21
1.0
 12
14.102326189287
 22
16.5435567512684
 13
0.0
 23
0.0
 14
10.0
 24
10.0
 15
10.0
 25
10.0
 16
0.0
 26
0.0
 36
1.0
 17
0.0
 27
0.0
 37
0.0
 40
402.5171348774499
 41
0.9846153846153846
 42
50.0
 43
0.0
 44
0.0
 50
0.0
 51
0.0
 71
     0
 72
  1000
 73
     1
 74
     3
 75
     0
 76
     1
 77
     0
 78
     0
281
     0
 65
     1
110
0.0
120
0.0
130
0.0
111
1.0
121
0.0
131
0.0
112
0.0
122
1.0
132
0.0
 79
     0
146
0.0
1001
ACAD_NAV_VCDISPLAY
1070
     3
  0
ENDTAB
  0
TABLE
  2
LTYPE
  5
5
330
0
100
AcDbSymbolTable
 70
     1
  0
LTYPE
  5
14
330
5
100
AcDbSymbolTableRecord
100
AcDbLinetypeTableRecord
  2
ByBlock
 70
     0
  3

 72
    65
 73
     0
 40
0.0
  0
LTYPE
  5
15
330
5
100
AcDbSymbolTableRecord
100
AcDbLinetypeTableRecord
  2
ByLayer
 70
     0
  3

 72
    65
 73
     0
 40
0.0
  0
LTYPE
  5
16
330
5
100
AcDbSymbolTableRecord
100
AcDbLinetypeTableRecord
  2
Continuous
 70
     0
  3
Solid line
 72
    65
 73
     0
 40
0.0
  0
ENDTAB
  0
TABLE
  2
LAYER
  5
2
102
{ACAD_XDICTIONARY
360
1FF
102
}
330
0
100
AcDbSymbolTable
 70
     1
  0
LAYER
  5
10
102
{ACAD_XDICTIONARY
360
13C
102
}
330
2
100
AcDbSymbolTableRecord
100
AcDbLayerTableRecord
  2
0
 70
     0
 62
     7
  6
Continuous
370
    -3
390
F
  0
ENDTAB
  0
TABLE
  2
STYLE
  5
3
330
0
100
AcDbSymbolTable
 70
     1
  0
STYLE
  5
11
330
3
100
AcDbSymbolTableRecord
100
AcDbTextStyleTableRecord
  2
Standard
 70
     0
 40
0.0
 41
1.0
 50
0.0
 71
     0
 42
2.5
  3
arial.ttf
  4

1001
ACAD
1000
Arial
1071
       34
  0
ENDTAB
  0
TABLE
  2
VIEW
  5
6
330
0
100
AcDbSymbolTable
 70
     0
  0
ENDTAB
  0
TABLE
  2
UCS
  5
7
330
0
100
AcDbSymbolTable
 70
     0
  0
ENDTAB
  0
TABLE
  2
APPID
  5
9
330
0
100
AcDbSymbolTable
 70
     8
  0
APPID
  5
12
330
9
100
AcDbSymbolTableRecord
100
AcDbRegAppTableRecord
  2
ACAD
 70
     0
  0
APPID
  5
9E
330
9
100
AcDbSymbolTableRecord
100
AcDbRegAppTableRecord
  2
ACAD_PSEXT
 70
     0
  0
APPID
  5
133
330
9
100
AcDbSymbolTableRecord
100
AcDbRegAppTableRecord
  2
AcadAnnoPO
 70
     0
  0
APPID
  5
134
330
9
100
AcDbSymbolTableRecord
100
AcDbRegAppTableRecord
  2
AcadAnnotative
 70
     0
  0
APPID
  5
135
330
9
100
AcDbSymbolTableRecord
100
AcDbRegAppTableRecord
  2
ACAD_DSTYLE_DIMJAG
 70
     0
  0
APPID
  5
136
330
9
100
AcDbSymbolTableRecord
100
AcDbRegAppTableRecord
  2
ACAD_DSTYLE_DIMTALN
 70
     0
  0
APPID
  5
165
330
9
100
AcDbSymbolTableRecord
100
AcDbRegAppTableRecord
  2
ACAD_MLEADERVER
 70
     0
  0
APPID
  5
217
330
9
100
AcDbSymbolTableRecord
100
AcDbRegAppTableRecord
  2
ACAD_NAV_VCDISPLAY
 70
     0
  0
ENDTAB
  0
TABLE
  2
DIMSTYLE
  5
A
330
0
100
AcDbSymbolTable
 70
     1
100
AcDbDimStyleTable
 71
     0
  0
DIMSTYLE
105
27
330
A
100
AcDbSymbolTableRecord
100
AcDbDimStyleTableRecord
  2
ISO-25
 70
     0
 41
2.5
 42
0.625
 43
3.75
 44
1.25
 73
     0
 74
     0
 77
     1
 78
     8
140
2.5
141
2.5
143
0.03937007874016
147
0.625
171
     3
172
     1
271
     2
272
     2
274
     3
278
    44
283
     0
284
     8
340
11
  0
ENDTAB
  0
TABLE
  2
BLOCK_RECORD
  5
1
330
0
100
AcDbSymbolTable
 70
     7
  0
BLOCK_RECORD
  5
1F
102
{ACAD_XDICTIONARY
360
1CE
102
}
330
1
100
AcDbSymbolTableRecord
100
AcDbBlockTableRecord
  2
*Model_Space
340
22
  0
BLOCK_RECORD
  5
D2
102
{ACAD_XDICTIONARY
360
B86
102
}
330
1
100
AcDbSymbolTableRecord
100
AcDbBlockTableRecord
  2
*Paper_Space
340
D3
  0
BLOCK_RECORD
  5
D6
102
{ACAD_XDICTIONARY
360
B88
102
}
330
1
100
AcDbSymbolTableRecord
100
AcDbBlockTableRecord
  2
*Paper_Space0
340
D7
  0
BLOCK_RECORD
  5
A47
330
1
100
AcDbSymbolTableRecord
100
AcDbBlockTableRecord
  2
SAE200_32_2-Front
340
0
102
{BLKREFS
331
B7C
102
}
  0
BLOCK_RECORD
  5
A88
330
1
100
AcDbSymbolTableRecord
100
AcDbBlockTableRecord
  2
SAE200_32_2-Left
340
0
102
{BLKREFS
331
B7D
102
}
  0
BLOCK_RECORD
  5
AA4
330
1
100
AcDbSymbolTableRecord
100
AcDbBlockTableRecord
  2
SAE200_32_2-Right
340
0
102
{BLKREFS
331
B7E
102
}
  0
BLOCK_RECORD
  5
AC3
330
1
100
AcDbSymbolTableRecord
100
AcDbBlockTableRecord
  2
SAE200_32_2-Top
340
0
102
{BLKREFS
331
B7F
102
}
  0
BLOCK_RECORD
  5
AF2
330
1
100
AcDbSymbolTableRecord
100
AcDbBlockTableRecord
  2
SAE200_32_2-Bottom
340
0
102
{BLKREFS
331
B80
102
}
  0
BLOCK_RECORD
  5
B17
330
1
100
AcDbSymbolTableRecord
100
AcDbBlockTableRecord
  2
SAE200_32_2-ISO
340
0
102
{BLKREFS
331
B81
102
}
  0
ENDTAB
  0
ENDSEC
  0
SECTION
  2
BLOCKS
  0
BLOCK
  5
20
330
1F
100
AcDbEntity
  8
0
100
AcDbBlockBegin
  2
*Model_Space
 70
     0
 10
0.0
 20
0.0
 30
0.0
  3
*Model_Space
  1

  0
ENDBLK
  5
21
330
1F
100
AcDbEntity
  8
0
100
AcDbBlockEnd
  0
BLOCK
  5
D4
330
D2
100
AcDbEntity
 67
     1
  8
0
100
AcDbBlockBegin
  2
*Paper_Space
 70
     0
 10
0.0
 20
0.0
 30
0.0
  3
*Paper_Space
  1

  0
ENDBLK
  5
D5
330
D2
100
AcDbEntity
 67
     1
  8
0
100
AcDbBlockEnd
  0
BLOCK
  5
D8
330
D6
100
AcDbEntity
 67
     1
  8
0
100
AcDbBlockBegin
  2
*Paper_Space0
 70
     0
 10
0.0
 20
0.0
 30
0.0
  3
*Paper_Space0
  1

  0
ENDBLK
  5
D9
330
D6
100
AcDbEntity
 67
     1
  8
0
100
AcDbBlockEnd
  0
BLOCK
  5
A48
330
A47
100
AcDbEntity
  8
0
100
AcDbBlockBegin
  2
SAE200_32_2-Front
 70
     0
 10
0.0
 20
0.0
 30
0.0
  3
SAE200_32_2-Front
  1

  0
SPLINE
  5
A4A
330
A47
100
AcDbEntity
  8
0
100
AcDbSpline
210
0.0
220
0.0
230
1.0
 70
     8
 71
     3
 72
    14
 73
    10
 74
     0
 42
0.000000001
 43
0.0000000001
 40
0.0
 40
0.0
 40
0.0
 40
0.0
 40
0.4040437154302975
 40
0.4040437154302975
 40
0.4040437154302975
 40
0.8364893629558997
 40
0.8364893629558997
 40
0.8364893629558997
 40
0.9348773122753815
 40
0.9348773122753815
 40
0.9348773122753815
 40
0.9348773122753815
 10
20.59587679529573
 20
26.03376382998798
 30
0.0
 10
20.26648871280064
 20
25.75737441108753
 30
0.0
 10
19.76608263660368
 20
25.57487912269314
 30
0.0
 10
19.30360042329836
 20
25.38395605879844
 30
0.0
 10
18.80860839009992
 20
25.17961220975332
 30
0.0
 10
18.3460177746351
 20
24.95217277330733
 30
0.0
 10
18.12898905910478
 20
24.54768497141293
 30
0.0
 10
18.07961173183453
 20
24.45565785637352
 30
0.0
 10
18.04369807329613
 20
24.35307277809587
 30
0.0
 10
18.02247574161739
 20
24.23962776545391
 30
0.0
  0
SPLINE
  5
A4B
330
A47
100
AcDbEntity
  8
0
100
AcDbSpline
210
0.0
220
0.0
230
1.0
 70
     8
 71
     3
 72
     8
 73
     4
 74
     0
 42
0.000000001
 43
0.0000000001
 40
0.0
 40
0.0
 40
0.0
 40
0.0
 40
0.0004635353851578
 40
0.0004635353851578
 40
0.0004635353851578
 40
0.0004635353851578
 10
20.59589446256031
 20
26.0337417347051
 30
0.0
 10
20.59560478270591
 20
26.03351077911704
 30
0.0
 10
20.59530875947123
 20
26.03327477920899
 30
0.0
 10
20.5950055233063
 20
26.03303304655721
 30
0.0
  0
SPLINE
  5
A4C
330
A47
100
AcDbEntity
  8
0
100
AcDbSpline
210
0.0
220
0.0
230
1.0
 70
     8
 71
     3
 72
    34
 73
    30
 74
     0
 42
0.000000001
 43
0.0000000001
 40
0.0
 40
0.0
 40
0.0
 40
0.0
 40
0.0049947312027581
 40
0.0049947312027581
 40
0.0071857635835195
 40
0.0071857635835195
 40
0.0087439339372658
 40
0.0087439339372658
 40
0.0108483173484417
 40
0.0108483173484417
 40
0.0127663686316461
 40
0.0127663686316461
 40
0.0153719315670764
 40
0.0153719315670764
 40
0.0203379583529593
 40
0.0203379583529593
 40
0.0324293244206503
 40
0.0324293244206503
 40
0.0453552263172393
 40
0.0453552263172393
 40
0.0615546984357692
 40
0.0615546984357692
 40
0.1101394507585089
 40
0.1101394507585089
 40
0.1651287306388769
 40
0.1651287306388769
 40
0.219488622719132
 40
0.219488622719132
 40
0.2273400391957937
 40
0.2273400391957937
 40
0.2273400391957937
 40
0.2273400391957937
 10
15.99949795610791
 20
23.9999919491095
 30
0.0
 10
15.99924194483955
 20
24.01561745878602
 30
0.0
 10
15.99897501692115
 20
24.03150459973731
 30
0.0
 10
15.99856460836389
 20
24.05511147912961
 30
0.0
 10
15.99843479975601
 20
24.0624795791357
 30
0.0
 10
15.99821280114766
 20
24.07495528614326
 30
0.0
 10
15.99811965429667
 20
24.08015367449066
 30
0.0
 10
15.99790947952046
 20
24.0918320499294
 30
0.0
 10
15.99779341158878
 20
24.09824168035727
 30
0.0
 10
15.99759867040393
 20
24.10896594283818
 30
0.0
 10
15.99751525180771
 20
24.11354469033686
 30
0.0
 10
15.99733952283467
 20
24.12316967005847
 30
0.0
 10
15.997252940425
 20
24.12789328064825
 30
0.0
 10
15.99702080165492
 20
24.1405413406148
 30
0.0
 10
15.99688256752759
 20
24.14807970267806
 30
0.0
 10
15.99648565611943
 20
24.16988195493283
 30
0.0
 10
15.99631481885896
 20
24.17924711602833
 30
0.0
 10
15.99578627939866
 20
24.20975488265134
 30
0.0
 10
15.99537545937126
 20
24.23486328642813
 30
0.0
 10
15.99465265022529
 20
24.29178211513337
 30
0.0
 10
15.99438882507294
 20
24.32279193333743
 30
0.0
 10
15.99376272015989
 20
24.43882422778283
 30
0.0
 10
15.99397708441765
 20
24.51421708640888
 30
0.0
 10
15.99513521642442
 20
24.73066727486355
 30
0.0
 10
15.99646102823125
 20
24.87379837029721
 30
0.0
 10
15.99871656784191
 20
25.18052854566755
 30
0.0
 10
15.99948351614371
 20
25.34998754900723
 30
0.0
 10
15.99990517243981
 20
25.54868820806678
 30
0.0
 10
15.9999544009589
 20
25.57389291999407
 30
0.0
 10
15.99999999999998
 20
25.59914049897316
 30
0.0
  0
SPLINE
  5
A4D
330
A47
100
AcDbEntity
  8
0
100
AcDbSpline
210
0.0
220
0.0
230
1.0
 70
     8
 71
     3
 72
    12
 73
     8
 74
     0
 42
0.000000001
 43
0.0000000001
 40
0.0026794533924774
 40
0.0026794533924774
 40
0.0026794533924774
 40
0.0026794533924774
 40
0.0068273888713166
 40
0.0068273888713166
 40
0.0119466059221411
 40
0.0119466059221411
 40
0.0121400227981702
 40
0.0121400227981702
 40
0.0121400227981702
 40
0.0121400227981702
 10
15.99993279078815
 20
24.00375565104041
 30
0.0
 10
15.99989138724089
 20
24.0060292067957
 30
0.0
 10
15.99984149275656
 20
24.00872873231091
 30
0.0
 10
15.99973209810783
 20
24.01453548084226
 30
0.0
 10
15.99966453065104
 20
24.0180343446558
 30
0.0
 10
15.99965792150389
 20
24.01837493101983
 30
0.0
 10
15.99965779379551
 20
24.01838150819255
 30
0.0
 10
15.99965779379443
 20
24.01838150824809
 30
0.0
  0
SPLINE
  5
A4E
330
A47
100
AcDbEntity
  8
0
100
AcDbSpline
210
0.0
220
0.0
230
1.0
 70
     8
 71
     3
 72
    12
 73
     8
 74
     0
 42
0.000000001
 43
0.0000000001
 40
0.0
 40
0.0
 40
0.0
 40
0.0
 40
0.0048607485500559
 40
0.0048607485500559
 40
0.00946715363425
 40
0.00946715363425
 40
0.0143551430887052
 40
0.0143551430887052
 40
0.0143551430887052
 40
0.0143551430887052
 10
15.99993921844789
 20
23.99999993234912
 30
0.0
 10
15.99991850252795
 20
24.01270703549359
 30
0.0
 10
15.99989739450642
 20
24.0238829703141
 30
0.0
 10
15.99985858124628
 20
24.04077032288629
 30
0.0
 10
15.99984049747914
 20
24.04695996219511
 30
0.0
 10
15.99981283247018
 20
24.05528988542712
 30
0.0
 10
15.99980377569496
 20
24.05727890429299
 30
0.0
 10
15.99980377568576
 20
24.05727890633793
 30
0.0
  0
SPLINE
  5
A4F
330
A47
100
AcDbEntity
  8
0
100
AcDbSpline
210
0.0
220
0.0
230
1.0
 70
     8
 71
     3
 72
    34
 73
    30
 74
     0
 42
0.000000001
 43
0.0000000001
 40
0.0592369886769177
 40
0.0592369886769177
 40
0.0592369886769177
 40
0.0592369886769177
 40
0.0633636478666155
 40
0.0633636478666155
 40
0.067826079674919
 40
0.067826079674919
 40
0.0740310760273953
 40
0.0740310760273953
 40
0.0851573323189596
 40
0.0851573323189596
 40
0.1054732668701329
 40
0.1054732668701329
 40
0.1227039525716202
 40
0.1227039525716202
 40
0.1234206398104578
 40
0.1234206398104578
 40
0.1236980114304094
 40
0.1236980114304094
 40
0.1239781663262113
 40
0.1239781663262113
 40
0.1241178363264195
 40
0.1241178363264195
 40
0.1242575509548367
 40
0.1242575509548367
 40
0.1245392285714872
 40
0.1245392285714872
 40
0.1256673081840308
 40
0.1256673081840308
 40
0.1261845577628391
 40
0.1261845577628391
 40
0.1261845577628391
 40
0.1261845577628391
 10
18.07794547394319
 20
24.49229857815936
 30
0.0
 10
18.07794547407174
 20
24.49229857853263
 30
0.0
 10
18.07695033399098
 20
24.48941594764492
 30
0.0
 10
18.07383411869337
 20
24.47996704888602
 30
0.0
 10
18.0716196533515
 20
24.4730791451542
 30
0.0
 10
18.06588741011969
 20
24.45433058300129
 30
0.0
 10
18.06215723513095
 20
24.44144526834057
 30
0.0
 10
18.05183095186807
 20
24.40297742718992
 30
0.0
 10
18.0452313079846
 20
24.37514255622831
 30
0.0
 10
18.02845251182237
 20
24.29288815864583
 30
0.0
 10
18.01962265354029
 20
24.23463721804829
 30
0.0
 10
18.0075734135714
 20
24.12383190504173
 30
0.0
 10
18.00365086152265
 20
24.07254534381826
 30
0.0
 10
18.0007282084568
 20
24.01515123773958
 30
0.0
 10
18.00061241194308
 20
24.01283101999045
 30
0.0
 10
18.00045234269987
 20
24.00955412082972
 30
0.0
 10
18.00040750668851
 20
24.00862860503231
 30
0.0
 10
18.00031835087803
 20
24.00677257038931
 30
0.0
 10
18.00027279279401
 20
24.0058155545027
 30
0.0
 10
18.00021143423173
 20
24.00451641924344
 30
0.0
 10
18.00019196498824
 20
24.00410240853919
 30
0.0
 10
18.00015746669765
 20
24.00336647043547
 30
0.0
 10
18.00014215793673
 20
24.0030386323221
 30
0.0
 10
18.0001029537623
 20
24.00219720543581
 30
0.0
 10
18.00008509759719
 20
24.00181140739161
 30
0.0
 10
18.00001825198126
 20
24.00036545805509
 30
0.0
 10
18.00001512270378
 20
24.00029286323344
 30
0.0
 10
18.00000790896578
 20
24.00013536756886
 30
0.0
 10
18.00000712852467
 20
24.00011830218229
 30
0.0
 10
18.0000071285456
 20
24.00011830263973
 30
0.0
  0
SPLINE
  5
A50
330
A47
100
AcDbEntity
  8
0
100
AcDbSpline
210
0.0
220
0.0
230
1.0
 70
     8
 71
     3
 72
     8
 73
     4
 74
     0
 42
0.000000001
 43
0.0000000001
 40
0.1350702802184468
 40
0.1350702802184468
 40
0.1350702802184468
 40
0.1350702802184468
 40
0.1406885796339937
 40
0.1406885796339937
 40
0.1406885796339937
 40
0.1406885796339937
 10
18.00011676193667
 20
24.00252061738636
 30
0.0
 10
18.00011676193764
 20
24.00252061740808
 30
0.0
 10
18.00008517782086
 20
24.0018375922115
 30
0.0
 10
18.00000746722307
 20
23.99999968361071
 30
0.0
  0
SPLINE
  5
A51
330
A47
100
AcDbEntity
  8
0
100
AcDbSpline
210
0.0
220
0.0
230
1.0
 70
     8
 71
     3
 72
     8
 73
     4
 74
     0
 42
0.000000001
 43
0.0000000001
 40
0.0092995630526622
 40
0.0092995630526622
 40
0.0092995630526622
 40
0.0092995630526622
 40
0.0098073953542561
 40
0.0098073953542561
 40
0.0098073953542561
 40
0.0098073953542561
 10
18.00009602820446
 20
24.00204697161543
 30
0.0
 10
18.00007647034181
 20
24.00138597207558
 30
0.0
 10
18.00005653477878
 20
24.00070045676976
 30
0.0
 10
18.00003652275873
 20
23.99999901456657
 30
0.0
  0
SPLINE
  5
A52
330
A47
100
AcDbEntity
  8
0
100
AcDbSpline
210
0.0
220
0.0
230
1.0
 70
     8
 71
     3
 72
     8
 73
     4
 74
     0
 42
0.000000001
 43
0.0000000001
 40
0.0068365228005386
 40
0.0068365228005386
 40
0.0068365228005386
 40
0.0068365228005386
 40
0.0117994070878838
 40
0.0117994070878838
 40
0.0117994070878838
 40
0.0117994070878838
 10
18.00002079871943
 20
24.00266594883286
 30
0.0
 10
18.00002079869894
 20
24.00266594554462
 30
0.0
 10
18.0000152966341
 20
24.00179240273278
 30
0.0
 10
18.00000782565452
 20
23.99999996870296
 30
0.0
  0
SPLINE
  5
A53
330
A47
100
AcDbEntity
  8
0
100
AcDbSpline
210
0.0
220
0.0
230
1.0
 70
     8
 71
     3
 72
    14
 73
    10
 74
     0
 42
0.000000001
 43
0.0000000001
 40
0.0
 40
0.0
 40
0.0
 40
0.0
 40
0.3343476143538549
 40
0.3343476143538549
 40
0.3343476143538549
 40
0.7709452046846725
 40
0.7709452046846725
 40
0.7709452046846725
 40
0.996423575352356
 40
0.996423575352356
 40
0.996423575352356
 40
0.996423575352356
 10
-20.5958767952818
 20
26.03376383000004
 30
0.0
 10
-20.31424601036061
 20
25.80585579660275
 30
0.0
 10
-19.93002501006257
 20
25.63899544453186
 30
0.0
 10
-19.54492737807413
 20
25.48241422625773
 30
0.0
 10
-19.04205943181052
 20
25.27794743883452
 30
0.0
 10
-18.53566673345105
 20
25.08287576272739
 30
0.0
 10
-18.24468782385064
 20
24.72030235467714
 30
0.0
 10
-18.09441340207555
 20
24.53305335673225
 30
0.0
 10
-18.00288956087281
 20
24.31757669006105
 30
0.0
 10
-18.00006722831266
 20
24.0144886604937
 30
0.0
  0
LINE
  5
A54
330
A47
100
AcDbEntity
  8
0
100
AcDbLine
 10
-20.0
 20
26.03376383
 30
0.0
 11
-18.0
 21
26.03376383
 31
0.0
  0
SPLINE
  5
A55
330
A47
100
AcDbEntity
  8
0
100
AcDbSpline
210
0.0
220
0.0
230
1.0
 70
     8
 71
     3
 72
    36
 73
    32
 74
     0
 42
0.000000001
 43
0.0000000001
 40
0.0088631334549358
 40
0.0088631334549358
 40
0.0088631334549358
 40
0.0088631334549358
 40
0.0180443115488503
 40
0.0180443115488503
 40
0.0473497368143436
 40
0.0473497368143436
 40
0.1155432034466413
 40
0.1155432034466413
 40
0.1763439243002946
 40
0.1763439243002946
 40
0.2067982786013975
 40
0.2067982786013975
 40
0.2150481369240897
 40
0.2150481369240897
 40
0.2169184270300113
 40
0.2169184270300113
 40
0.2182560722058918
 40
0.2182560722058918
 40
0.2190576245975401
 40
0.2190576245975401
 40
0.2203201039021668
 40
0.2203201039021668
 40
0.2215714370185958
 40
0.2215714370185958
 40
0.2233482574561792
 40
0.2233482574561792
 40
0.2267409055645452
 40
0.2267409055645452
 40
0.2368985969732701
 40
0.2368985969732701
 40
0.2488955995642821
 40
0.2488955995642821
 40
0.2488955995642821
 40
0.2488955995642821
 10
-15.99999999999999
 20
25.80214406201094
 30
0.0
 10
-15.99998364643737
 20
25.77199276544452
 30
0.0
 10
-15.99995775199687
 20
25.74172746516874
 30
0.0
 10
-15.99985419455774
 20
25.61558770743951
 30
0.0
 10
-15.9997584766852
 20
25.52055458506842
 30
0.0
 10
-15.99893031714443
 20
25.21234306869964
 30
0.0
 10
-15.9973771145381
 20
25.00796812486644
 30
0.0
 10
-15.99476496519165
 20
24.67387010463002
 30
0.0
 10
-15.99398874645972
 20
24.54107418637148
 30
0.0
 10
-15.99416276433532
 20
24.37565053804423
 30
0.0
 10
-15.99433331827923
 20
24.32488668473355
 30
0.0
 10
-15.99543793195812
 20
24.23670029122604
 30
0.0
 10
-15.9957360472854
 20
24.21608260609851
 30
0.0
 10
-15.99625850443026
 20
24.1859604339906
 30
0.0
 10
-15.99636309080107
 20
24.18011371617774
 30
0.0
 10
-15.99655466238089
 20
24.16973492714193
 30
0.0
 10
-15.99663939441718
 20
24.16523860301312
 30
0.0
 10
-15.9967762834283
 20
24.15811129870773
 30
0.0
 10
-15.99682832674968
 20
24.1554315385081
 30
0.0
 10
-15.99695967465645
 20
24.14873210178754
 30
0.0
 10
-15.99703873689418
 20
24.14476247658861
 30
0.0
 10
-15.9971824319642
 20
24.13761885413107
 30
0.0
 10
-15.99724874943325
 20
24.13435833278378
 30
0.0
 10
-15.99739637521185
 20
24.12714422544824
 30
0.0
 10
-15.99747384801141
 20
24.1233971028125
 30
0.0
 10
-15.99768440964497
 20
24.11325820740169
 30
0.0
 10
-15.9978063847177
 20
24.1074456699213
 30
0.0
 10
-15.99828298220643
 20
24.08477113906144
 30
0.0
 10
-15.99862743409991
 20
24.06848165793483
 30
0.0
 10
-15.99936491222598
 20
24.03272588296665
 30
0.0
 10
-15.99975483854423
 20
24.01286937932359
 30
0.0
 10
-15.99993724733665
 20
24.00331989072907
 30
0.0
  0
SPLINE
  5
A56
330
A47
100
AcDbEntity
  8
0
100
AcDbSpline
210
0.0
220
0.0
230
1.0
 70
     8
 71
     3
 72
     8
 73
     4
 74
     0
 42
0.000000001
 43
0.0000000001
 40
0.0200906516779746
 40
0.0200906516779746
 40
0.0200906516779746
 40
0.0200906516779746
 40
0.0222972911416809
 40
0.0222972911416809
 40
0.0222972911416809
 40
0.0222972911416809
 10
-15.99950536935616
 20
24.01859608677239
 30
0.0
 10
-15.99950694481213
 20
24.01269046299192
 30
0.0
 10
-15.99950781722014
 20
24.00644439717904
 30
0.0
 10
-15.99950870334823
 20
23.99999988999912
 30
0.0
  0
SPLINE
  5
A57
330
A47
100
AcDbEntity
  8
0
100
AcDbSpline
210
0.0
220
0.0
230
1.0
 70
     8
 71
     3
 72
    18
 73
    14
 74
     0
 42
0.000000001
 43
0.0000000001
 40
0.0300297329133501
 40
0.0300297329133501
 40
0.0300297329133501
 40
0.0300297329133501
 40
0.0330299213329222
 40
0.0330299213329222
 40
0.0346427004615935
 40
0.0346427004615935
 40
0.036953018692097
 40
0.036953018692097
 40
0.0392480647579063
 40
0.0392480647579063
 40
0.0416670472515996
 40
0.0416670472515996
 40
0.0429497547352688
 40
0.0429497547352688
 40
0.0429497547352688
 40
0.0429497547352688
 10
-15.99785860748956
 20
24.10496250749627
 30
0.0
 10
-15.99792403537854
 20
24.10155647282976
 30
0.0
 10
-15.99801005127994
 20
24.0970533485752
 30
0.0
 10
-15.99818776295656
 20
24.08773009214061
 30
0.0
 10
-15.99825938128296
 20
24.08397139232209
 30
0.0
 10
-15.99845402926608
 20
24.07376729683877
 30
0.0
 10
-15.99858996766196
 20
24.06665348686948
 30
0.0
 10
-15.99887186999023
 20
24.05191120102804
 30
0.0
 10
-15.99902079341659
 20
24.04412451237716
 30
0.0
 10
-15.99931986577965
 20
24.02841683511184
 30
0.0
 10
-15.9994724335301
 20
24.02036329431957
 30
0.0
 10
-15.99969930680944
 20
24.00828191458448
 30
0.0
 10
-15.99977701433699
 20
24.00412450710549
 30
0.0
 10
-15.99985376061332
 20
23.9999973821396
 30
0.0
  0
SPLINE
  5
A58
330
A47
100
AcDbEntity
  8
0
100
AcDbSpline
210
0.0
220
0.0
230
1.0
 70
     8
 71
     3
 72
    12
 73
     8
 74
     0
 42
0.000000001
 43
0.0000000001
 40
0.013740151476729
 40
0.013740151476729
 40
0.013740151476729
 40
0.013740151476729
 40
0.0168507023974851
 40
0.0168507023974851
 40
0.0187967916478502
 40
0.0187967916478502
 40
0.0208294386044109
 40
0.0208294386044109
 40
0.0208294386044109
 40
0.0208294386044109
 10
-15.9998963367412
 20
24.02074910590441
 30
0.0
 10
-15.99989633671793
 20
24.02074911311931
 30
0.0
 10
-15.99989974909417
 20
24.01970682433598
 30
0.0
 10
-15.99991028400762
 20
24.01561470668441
 30
0.0
 10
-15.99991554356371
 20
24.0134497467586
 30
0.0
 10
-15.99992815489347
 20
24.00778044174972
 30
0.0
 10
-15.99993565069931
 20
24.00418463282683
 30
0.0
 10
-15.99994385456502
 20
24.00000018340743
 30
0.0
  0
SPLINE
  5
A59
330
A47
100
AcDbEntity
  8
0
100
AcDbSpline
210
0.0
220
0.0
230
1.0
 70
     8
 71
     3
 72
    22
 73
    18
 74
     0
 42
0.000000001
 43
0.0000000001
 40
0.0
 40
0.0
 40
0.0
 40
0.0
 40
0.0026318235466647
 40
0.0026318235466647
 40
0.0043936141678337
 40
0.0043936141678337
 40
0.0057085615093944
 40
0.0057085615093944
 40
0.0064402451840627
 40
0.0064402451840627
 40
0.0072729336041308
 40
0.0072729336041308
 40
0.0080033923998831
 40
0.0080033923998831
 40
0.0088918020475538
 40
0.0088918020475538
 40
0.0092846936597246
 40
0.0092846936597246
 40
0.0092846936597246
 40
0.0092846936597246
 10
-18.0002018931351
 20
24.00000019429041
 30
0.0
 10
-18.0001934826289
 20
24.00871928446907
 30
0.0
 10
-18.00019718408198
 20
24.01752688106779
 30
0.0
 10
-18.00024251542357
 20
24.03217167699669
 30
0.0
 10
-18.00027135089517
 20
24.03805639684673
 30
0.0
 10
-18.00034689403775
 20
24.04828920054417
 30
0.0
 10
-18.00038831090631
 20
24.05272709205798
 30
0.0
 10
-18.000461639683
 20
24.05912425926994
 30
0.0
 10
-18.00048986979652
 20
24.06133467570437
 30
0.0
 10
-18.00054792402544
 20
24.06552313396344
 30
0.0
 10
-18.00057792396338
 20
24.06746835476337
 30
0.0
 10
-18.00062369132578
 20
24.07028289249631
 30
0.0
 10
-18.00064132736991
 20
24.07129698104406
 30
0.0
 10
-18.00067044983192
 20
24.0729332941044
 30
0.0
 10
-18.00068017640899
 20
24.07344706800844
 30
0.0
 10
-18.00068648540764
 20
24.07378025231669
 30
0.0
 10
-18.00068740041794
 20
24.07382775365141
 30
0.0
 10
-18.00068740049894
 20
24.07382775786551
 30
0.0
  0
SPLINE
  5
A5A
330
A47
100
AcDbEntity
  8
0
100
AcDbSpline
210
0.0
220
0.0
230
1.0
 70
     8
 71
     3
 72
    22
 73
    18
 74
     0
 42
0.000000001
 43
0.0000000001
 40
0.0004057169350521
 40
0.0004057169350521
 40
0.0004057169350521
 40
0.0004057169350521
 40
0.0008216970313745
 40
0.0008216970313745
 40
0.0013441857099951
 40
0.0013441857099951
 40
0.002140354244562
 40
0.002140354244562
 40
0.0035075285015208
 40
0.0035075285015208
 40
0.0059572718835413
 40
0.0059572718835413
 40
0.0098332822310902
 40
0.0098332822310902
 40
0.0146315838270239
 40
0.0146315838270239
 40
0.0147085225749039
 40
0.0147085225749039
 40
0.0147085225749039
 40
0.0147085225749039
 10
-18.00001083442294
 20
24.0039783582835
 30
0.0
 10
-18.00001321450485
 20
24.00536361554411
 30
0.0
 10
-18.00001606566067
 20
24.00676521818864
 30
0.0
 10
-18.00002324339318
 20
24.00982494753032
 30
0.0
 10
-18.00002781459217
 20
24.01148552746914
 30
0.0
 10
-18.00004034271613
 20
24.01550010879909
 30
0.0
 10
-18.00004891139819
 20
24.01779783372774
 30
0.0
 10
-18.00007409649627
 20
24.02372628413917
 30
0.0
 10
-18.00009226806027
 20
24.02718205553036
 30
0.0
 10
-18.00014692659663
 20
24.03618733912835
 30
0.0
 10
-18.00018700208638
 20
24.04129837421531
 30
0.0
 10
-18.00029232265977
 20
24.05291571260153
 30
0.0
 10
-18.00035943198499
 20
24.05858528795557
 30
0.0
 10
-18.00047867496353
 20
24.06779548190256
 30
0.0
 10
-18.00052507919081
 20
24.07069983361398
 30
0.0
 10
-18.00052656584929
 20
24.07079651907939
 30
0.0
 10
-18.00052657766511
 20
24.07079728707834
 30
0.0
 10
-18.00052657766341
 20
24.07079728696775
 30
0.0
  0
SPLINE
  5
A5B
330
A47
100
AcDbEntity
  8
0
100
AcDbSpline
210
0.0
220
0.0
230
1.0
 70
     8
 71
     3
 72
     8
 73
     4
 74
     0
 42
0.000000001
 43
0.0000000001
 40
0.0
 40
0.0
 40
0.0
 40
0.0
 40
0.0017279544909011
 40
0.0017279544909011
 40
0.0017279544909011
 40
0.0017279544909011
 10
-18.00002204449562
 20
24.00000006301111
 30
0.0
 10
-18.00001462385132
 20
24.00254160225474
 30
0.0
 10
-18.00000721733549
 20
24.00525169931635
 30
0.0
 10
-17.99999999999999
 20
24.00811966823174
 30
0.0
  0
SPLINE
  5
A5C
330
A47
100
AcDbEntity
  8
0
100
AcDbSpline
210
0.0
220
0.0
230
1.0
 70
     8
 71
     3
 72
     8
 73
     4
 74
     0
 42
0.000000001
 43
0.0000000001
 40
0.3923627735699339
 40
0.3923627735699339
 40
0.3923627735699339
 40
0.3923627735699339
 40
0.3930061162888506
 40
0.3930061162888506
 40
0.3930061162888506
 40
0.3930061162888506
 10
-20.59225653701792
 20
26.03073003459369
 30
0.0
 10
-20.59337795924592
 20
26.03164184954575
 30
0.0
 10
-20.59443510258962
 20
26.03250235172419
 30
0.0
 10
-20.59540935288997
 20
26.0332959821496
 30
0.0
  0
SPLINE
  5
A5D
330
A47
100
AcDbEntity
  8
0
100
AcDbSpline
210
0.0
220
0.0
230
1.0
 70
     8
 71
     3
 72
     8
 73
     4
 74
     0
 42
0.000000001
 43
0.0000000001
 40
0.0163122886888189
 40
0.0163122886888189
 40
0.0163122886888189
 40
0.0163122886888189
 40
0.0169414615498058
 40
0.0169414615498058
 40
0.0169414615498058
 40
0.0169414615498058
 10
-20.59435494702822
 20
26.03248759947779
 30
0.0
 10
-20.59488970363393
 20
26.03289761492441
 30
0.0
 10
-20.5954161937282
 20
26.03330125114268
 30
0.0
 10
-20.59592966639004
 20
26.03369491680176
 30
0.0
  0
LINE
  5
A5E
330
A47
100
AcDbEntity
  8
0
100
AcDbLine
 10
13.99999999999998
 20
-2.0
 30
0.0
 11
-13.99999999999998
 21
-1.999999999999996
 31
0.0
  0
LINE
  5
A5F
330
A47
100
AcDbEntity
  8
0
100
AcDbLine
 10
-13.99999999999998
 20
0.0
 30
0.0
 11
13.99999999999998
 21
0.0
 31
0.0
  0
ARC
  5
A60
330
A47
100
AcDbEntity
  8
0
100
AcDbCircle
 10
-13.99999999999998
 20
2.0
 30
0.0
 40
3.999999999999996
100
AcDbArc
 50
180.0
 51
270.0
  0
ARC
  5
A61
330
A47
100
AcDbEntity
  8
0
100
AcDbCircle
 10
-13.99999999999998
 20
2.0
 30
0.0
 40
1.999999999999997
100
AcDbArc
 50
180.0
 51
270.0
  0
ARC
  5
A62
330
A47
100
AcDbEntity
  8
0
100
AcDbCircle
 10
13.99999999999998
 20
2.0
 30
0.0
 40
3.999999999999996
100
AcDbArc
 50
270.0
 51
0.0
  0
LINE
  5
A63
330
A47
100
AcDbEntity
  8
0
100
AcDbLine
 10
20.59587679528182
 20
26.03376383
 30
0.0
 11
57.5000000000001
 21
56.99999999999999
 31
0.0
  0
LINE
  5
A64
330
A47
100
AcDbEntity
  8
0
100
AcDbLine
 10
15.99999999999998
 20
23.43601475290881
 30
0.0
 11
15.99999999999999
 21
56.99999999999999
 31
0.0
  0
LINE
  5
A65
330
A47
100
AcDbEntity
  8
0
100
AcDbLine
 10
17.99999999999998
 20
23.43601475290881
 30
0.0
 11
15.99999999999998
 21
23.43601475290881
 31
0.0
  0
LINE
  5
A66
330
A47
100
AcDbEntity
  8
0
100
AcDbLine
 10
17.99999999999999
 20
56.99999999999999
 30
0.0
 11
17.99999999999998
 21
23.43601475290881
 31
0.0
  0
LINE
  5
A67
330
A47
100
AcDbEntity
  8
0
100
AcDbLine
 10
17.99999999999999
 20
56.99999999999999
 30
0.0
 11
15.99999999999999
 21
56.99999999999999
 31
0.0
  0
LINE
  5
A68
330
A47
100
AcDbEntity
  8
0
100
AcDbLine
 10
15.99999999999999
 20
56.99999999999999
 30
0.0
 11
15.99999999999999
 21
83.99999999999998
 31
0.0
  0
LINE
  5
A69
330
A47
100
AcDbEntity
  8
0
100
AcDbLine
 10
17.99999999999999
 20
83.99999999999998
 30
0.0
 11
17.99999999999999
 21
56.99999999999999
 31
0.0
  0
LINE
  5
A6A
330
A47
100
AcDbEntity
  8
0
100
AcDbLine
 10
15.99999999999999
 20
83.99999999999998
 30
0.0
 11
17.99999999999999
 21
83.99999999999998
 31
0.0
  0
LINE
  5
A6B
330
A47
100
AcDbEntity
  8
0
100
AcDbLine
 10
17.99999999999998
 20
23.43601475290881
 30
0.0
 11
17.99999999999998
 21
2.000000000000001
 31
0.0
  0
LINE
  5
A6C
330
A47
100
AcDbEntity
  8
0
100
AcDbLine
 10
15.99999999999998
 20
2.0
 30
0.0
 11
15.99999999999998
 21
23.43601475290881
 31
0.0
  0
ARC
  5
A6D
330
A47
100
AcDbEntity
  8
0
100
AcDbCircle
 10
13.99999999999998
 20
2.0
 30
0.0
 40
1.999999999999997
100
AcDbArc
 50
270.0
 51
0.0
  0
LINE
  5
A6E
330
A47
100
AcDbEntity
  8
0
100
AcDbLine
 10
20.00000000000001
 20
84.0
 30
0.0
 11
18.0
 21
84.0
 31
0.0
  0
LINE
  5
A6F
330
A47
100
AcDbEntity
  8
0
100
AcDbLine
 10
57.5000000000001
 20
56.99999999999999
 30
0.0
 11
57.5
 21
84.0
 31
0.0
  0
LINE
  5
A70
330
A47
100
AcDbEntity
  8
0
100
AcDbLine
 10
57.5
 20
84.0
 30
0.0
 11
20.00000000000001
 21
84.0
 31
0.0
  0
CIRCLE
  5
A71
330
A47
100
AcDbEntity
  8
0
100
AcDbCircle
 10
38.00000000000001
 20
64.0
 30
0.0
 40
5.5
  0
CIRCLE
  5
A72
330
A47
100
AcDbEntity
  8
0
100
AcDbCircle
 10
49.0
 20
59.0
 30
0.0
 40
2.5
  0
CIRCLE
  5
A73
330
A47
100
AcDbEntity
  8
0
100
AcDbCircle
 10
27.00000000000001
 20
49.0
 30
0.0
 40
2.5
  0
CIRCLE
  5
A74
330
A47
100
AcDbEntity
  8
0
100
AcDbCircle
 10
27.00000000000001
 20
69.0
 30
0.0
 40
2.5
  0
CIRCLE
  5
A75
330
A47
100
AcDbEntity
  8
0
100
AcDbCircle
 10
49.0
 20
79.0
 30
0.0
 40
2.5
  0
LINE
  5
A76
330
A47
100
AcDbEntity
  8
0
100
AcDbLine
 10
-57.5000000000001
 20
56.99999999999999
 30
0.0
 11
-20.59587679528182
 21
26.03376383
 31
0.0
  0
LINE
  5
A77
330
A47
100
AcDbEntity
  8
0
100
AcDbLine
 10
-15.99999999999999
 20
56.99999999999999
 30
0.0
 11
-15.99999999999998
 21
23.43601475290881
 31
0.0
  0
LINE
  5
A78
330
A47
100
AcDbEntity
  8
0
100
AcDbLine
 10
-17.99999999999999
 20
56.99999999999999
 30
0.0
 11
-15.99999999999999
 21
56.99999999999999
 31
0.0
  0
LINE
  5
A79
330
A47
100
AcDbEntity
  8
0
100
AcDbLine
 10
-17.99999999999998
 20
23.43601475290881
 30
0.0
 11
-17.99999999999999
 21
56.99999999999999
 31
0.0
  0
LINE
  5
A7A
330
A47
100
AcDbEntity
  8
0
100
AcDbLine
 10
-15.99999999999998
 20
23.43601475290881
 30
0.0
 11
-17.99999999999998
 21
23.43601475290881
 31
0.0
  0
LINE
  5
A7B
330
A47
100
AcDbEntity
  8
0
100
AcDbLine
 10
-15.99999999999999
 20
83.99999999999998
 30
0.0
 11
-15.99999999999999
 21
56.99999999999999
 31
0.0
  0
LINE
  5
A7C
330
A47
100
AcDbEntity
  8
0
100
AcDbLine
 10
-17.99999999999999
 20
83.99999999999998
 30
0.0
 11
-15.99999999999999
 21
83.99999999999998
 31
0.0
  0
LINE
  5
A7D
330
A47
100
AcDbEntity
  8
0
100
AcDbLine
 10
-17.99999999999999
 20
56.99999999999999
 30
0.0
 11
-17.99999999999999
 21
83.99999999999998
 31
0.0
  0
CIRCLE
  5
A7E
330
A47
100
AcDbEntity
  8
0
100
AcDbCircle
 10
-38.00000000000001
 20
64.0
 30
0.0
 40
5.5
  0
CIRCLE
  5
A7F
330
A47
100
AcDbEntity
  8
0
100
AcDbCircle
 10
-49.0
 20
59.0
 30
0.0
 40
2.5
  0
CIRCLE
  5
A80
330
A47
100
AcDbEntity
  8
0
100
AcDbCircle
 10
-49.0
 20
79.0
 30
0.0
 40
2.5
  0
CIRCLE
  5
A81
330
A47
100
AcDbEntity
  8
0
100
AcDbCircle
 10
-27.00000000000001
 20
69.0
 30
0.0
 40
2.5
  0
CIRCLE
  5
A82
330
A47
100
AcDbEntity
  8
0
100
AcDbCircle
 10
-27.00000000000001
 20
49.0
 30
0.0
 40
2.5
  0
LINE
  5
A83
330
A47
100
AcDbEntity
  8
0
100
AcDbLine
 10
-57.5
 20
84.0
 30
0.0
 11
-20.00000000000001
 21
84.0
 31
0.0
  0
LINE
  5
A84
330
A47
100
AcDbEntity
  8
0
100
AcDbLine
 10
-57.5000000000001
 20
56.99999999999999
 30
0.0
 11
-57.5
 21
84.0
 31
0.0
  0
LINE
  5
A85
330
A47
100
AcDbEntity
  8
0
100
AcDbLine
 10
-15.99999999999998
 20
2.0
 30
0.0
 11
-15.99999999999998
 21
23.43601475290881
 31
0.0
  0
LINE
  5
A86
330
A47
100
AcDbEntity
  8
0
100
AcDbLine
 10
-17.99999999999998
 20
23.43601475290881
 30
0.0
 11
-17.99999999999998
 21
2.000000000000001
 31
0.0
  0
LINE
  5
A87
330
A47
100
AcDbEntity
  8
0
100
AcDbLine
 10
-20.00000000000001
 20
84.0
 30
0.0
 11
-18.0
 21
84.0
 31
0.0
  0
ENDBLK
  5
A49
330
A47
100
AcDbEntity
  8
0
100
AcDbBlockEnd
  0
BLOCK
  5
A89
330
A88
100
AcDbEntity
  8
0
100
AcDbBlockBegin
  2
SAE200_32_2-Left
 70
     0
 10
0.0
 20
0.0
 30
0.0
  3
SAE200_32_2-Left
  1

  0
SPLINE
  5
A8B
330
A88
100
AcDbEntity
  8
0
100
AcDbSpline
210
0.0
220
0.0
230
1.0
 70
     8
 71
     3
 72
     8
 73
     4
 74
     0
 42
0.000000001
 43
0.0000000001
 40
-0.2411267055269259
 40
-0.2411267055269259
 40
-0.2411267055269259
 40
-0.2411267055269259
 40
-0.1138116216976934
 40
-0.1138116216976934
 40
-0.1138116216976934
 40
-0.1138116216976934
 10
0.2924477935067073
 20
25.54043392626256
 30
0.0
 10
0.1994065870595844
 20
25.57443765208649
 30
0.0
 10
0.1231233187305956
 20
25.627393516101
 30
0.0
 10
0.0714947882517039
 20
25.71459459338145
 30
0.0
  0
SPLINE
  5
A8C
330
A88
100
AcDbEntity
  8
0
100
AcDbSpline
210
0.0
220
0.0
230
1.0
 70
     8
 71
     3
 72
    11
 73
     7
 74
     0
 42
0.000000001
 43
0.0000000001
 40
-0.3700813069069283
 40
-0.3700813069069283
 40
-0.3700813069069283
 40
-0.3700813069069283
 40
-0.0998153274892796
 40
-0.0998153274892796
 40
-0.0998153274892796
 40
0.0
 40
0.0
 40
0.0
 40
0.0
 10
0.6190264651516499
 20
25.47856854071114
 30
0.0
 10
0.3668822865006469
 20
25.50146014384542
 30
0.0
 10
0.1531434504662211
 20
25.54643763520594
 30
0.0
 10
0.0553813865225699
 20
25.74411627845691
 30
0.0
 10
0.0192756493166157
 20
25.81712346403108
 30
0.0
 10
0.0000063280412768
 20
25.91371603650041
 30
0.0
 10
0.0000000002864614
 20
26.03376383011561
 30
0.0
  0
SPLINE
  5
A8D
330
A88
100
AcDbEntity
  8
0
100
AcDbSpline
210
0.0
220
0.0
230
1.0
 70
     8
 71
     3
 72
    14
 73
    10
 74
     0
 42
0.000000001
 43
0.0000000001
 40
0.0
 40
0.0
 40
0.0
 40
0.0
 40
0.3343476143538549
 40
0.3343476143538549
 40
0.3343476143538549
 40
0.7709452046846725
 40
0.7709452046846725
 40
0.7709452046846725
 40
1.0
 40
1.0
 40
1.0
 40
1.0
 10
1.999999999999998
 20
26.03376383000004
 30
0.0
 10
2.000062187193704
 20
25.80585579660275
 30
0.0
 10
1.996574144204405
 20
25.63899544453186
 30
0.0
 10
1.998909916777412
 20
25.48241422625773
 30
0.0
 10
2.001960013841531
 20
25.27794743883452
 30
0.0
 10
1.999852579257393
 20
25.08287576272739
 30
0.0
 10
2.000198875965255
 20
24.72030235467714
 30
0.0
 10
2.000380555670536
 20
24.53008330719041
 30
0.0
 10
1.999953471989673
 20
24.31073402305721
 30
0.0
 10
1.999999999939397
 20
24.00000000764107
 30
0.0
  0
LINE
  5
A8E
330
A88
100
AcDbEntity
  8
0
100
AcDbLine
 10
0.0
 20
26.03376383
 30
0.0
 11
2.000000000000001
 21
26.03376383
 31
0.0
  0
SPLINE
  5
A8F
330
A88
100
AcDbEntity
  8
0
100
AcDbSpline
210
0.0
220
0.0
230
1.0
 70
     8
 71
     3
 72
    16
 73
    12
 74
     0
 42
0.000000001
 43
0.0000000001
 40
0.0
 40
0.0
 40
0.0
 40
0.0
 40
0.0046587233870605
 40
0.0046587233870605
 40
0.00669268878422
 40
0.00669268878422
 40
0.0083279232008401
 40
0.0083279232008401
 40
0.0097069147024537
 40
0.0097069147024537
 40
0.01175720243819
 40
0.01175720243819
 40
0.01175720243819
 40
0.01175720243819
 10
1.999477504149446
 20
23.99999626602371
 30
0.0
 10
1.999398745880557
 20
24.01474268246087
 30
0.0
 10
1.9992736190502
 20
24.02898762447844
 30
0.0
 10
1.999048394780576
 20
24.04631355323396
 30
0.0
 10
1.998973723141144
 20
24.05121919498757
 30
0.0
 10
1.998839432473531
 20
24.05900801494454
 30
0.0
 10
1.998779308880957
 20
24.0621268721399
 30
0.0
 10
1.998678855075291
 20
24.06695000388627
 30
0.0
 10
1.998636610588391
 20
24.06881585243263
 30
0.0
 10
1.998552237137212
 20
24.07237141631046
 30
0.0
 10
1.998519882659948
 20
24.07355384946584
 30
0.0
 10
1.998519882660548
 20
24.07355384944378
 30
0.0
  0
SPLINE
  5
A90
330
A88
100
AcDbEntity
  8
0
100
AcDbSpline
210
0.0
220
0.0
230
1.0
 70
     8
 71
     3
 72
    12
 73
     8
 74
     0
 42
0.000000001
 43
0.0000000001
 40
0.0033851745788805
 40
0.0033851745788805
 40
0.0033851745788805
 40
0.0033851745788805
 40
0.0057192509521901
 40
0.0057192509521901
 40
0.0104193512628947
 40
0.0104193512628947
 40
0.0105375268319105
 40
0.0105375268319105
 40
0.0105375268319105
 40
0.0105375268319105
 10
1.999346843711396
 20
24.01924154808796
 30
0.0
 10
1.999241824554702
 20
24.02291996407309
 30
0.0
 10
1.999146239408904
 20
24.02600035438506
 30
0.0
 10
1.998911014180517
 20
24.03329223590613
 30
0.0
 10
1.998827879312078
 20
24.03549063124441
 30
0.0
 10
1.998824184650011
 20
24.03559198972195
 30
0.0
 10
1.998824139572698
 20
24.0355932246781
 30
0.0
 10
1.998824139572681
 20
24.03559322467856
 30
0.0
  0
SPLINE
  5
A91
330
A88
100
AcDbEntity
  8
0
100
AcDbSpline
210
0.0
220
0.0
230
1.0
 70
     8
 71
     3
 72
    32
 73
    28
 74
     0
 42
0.000000001
 43
0.0000000001
 40
0.0093593411129858
 40
0.0093593411129858
 40
0.0093593411129858
 40
0.0093593411129858
 40
0.0109585059466311
 40
0.0109585059466311
 40
0.0137028441247166
 40
0.0137028441247166
 40
0.0162678919683619
 40
0.0162678919683619
 40
0.0206589672286338
 40
0.0206589672286338
 40
0.0301215821259821
 40
0.0301215821259821
 40
0.053291886859213
 40
0.053291886859213
 40
0.0766847963103817
 40
0.0766847963103817
 40
0.0989736288451836
 40
0.0989736288451836
 40
0.1316609249768267
 40
0.1316609249768267
 40
0.161027602724524
 40
0.161027602724524
 40
0.1973335049482636
 40
0.1973335049482636
 40
0.2566623154079538
 40
0.2566623154079538
 40
0.2898317444800777
 40
0.2898317444800777
 40
0.2898317444800777
 40
0.2898317444800777
 10
1.999337386403993
 20
24.01957207453985
 30
0.0
 10
1.999242272256235
 20
24.02213434632001
 30
0.0
 10
1.99912761309076
 20
24.0251356422445
 30
0.0
 10
1.998752507926156
 20
24.03447372993533
 30
0.0
 10
1.998437844005135
 20
24.04183042946478
 30
0.0
 10
1.9977156003531
 20
24.05707895301863
 30
0.0
 10
1.997312089546253
 20
24.06498739584012
 30
0.0
 10
1.996103424189488
 20
24.08678212622933
 30
0.0
 10
1.995209710497079
 20
24.10105981769194
 30
0.0
 10
1.992018101878172
 20
24.14623636937772
 30
0.0
 10
1.989270715135209
 20
24.17762702337196
 30
0.0
 10
1.977777833701371
 20
24.28550574357642
 30
0.0
 10
1.966070068115657
 20
24.36216280184222
 30
0.0
 10
1.934034089842104
 20
24.51390930357374
 30
0.0
 10
1.913483180386914
 20
24.58949478352965
 30
0.0
 10
1.863610460205928
 20
24.7316727920406
 30
0.0
 10
1.834464996369552
 20
24.79906516266418
 30
0.0
 10
1.752155279084035
 20
24.95312299411862
 30
0.0
 10
1.692770098491803
 20
25.0355292598967
 30
0.0
 10
1.573312968802719
 20
25.16245977786082
 30
0.0
 10
1.51300996061598
 20
25.21170766835346
 30
0.0
 10
1.379618445431007
 20
25.30001675097914
 30
0.0
 10
1.305452789129687
 20
25.33542581199075
 30
0.0
 10
1.112654693451487
 20
25.40752144332761
 30
0.0
 10
0.9938203620242934
 20
25.43238718265748
 30
0.0
 10
0.7845291844895972
 20
25.46222491035522
 30
0.0
 10
0.7044406749440441
 20
25.47082883431255
 30
0.0
 10
0.6190113376798672
 20
25.47856132224904
 30
0.0
  0
LINE
  5
A92
330
A88
100
AcDbEntity
  8
0
100
AcDbLine
 10
1.999999999999998
 20
-2.0
 30
0.0
 11
85.99999999999997
 21
-1.999999999999996
 31
0.0
  0
LINE
  5
A93
330
A88
100
AcDbEntity
  8
0
100
AcDbLine
 10
2.0
 20
2.000000000000071
 30
0.0
 11
1.999999999999998
 21
-2.000000000000001
 31
0.0
  0
LINE
  5
A94
330
A88
100
AcDbEntity
  8
0
100
AcDbLine
 10
85.99999999999997
 20
-1.999999999999996
 30
0.0
 11
85.99999999999997
 21
2.0
 31
0.0
  0
LINE
  5
A95
330
A88
100
AcDbEntity
  8
0
100
AcDbLine
 10
2.0
 20
2.000000000000071
 30
0.0
 11
2.0
 21
24.0
 31
0.0
  0
LINE
  5
A96
330
A88
100
AcDbEntity
  8
0
100
AcDbLine
 10
1.999999999999997
 20
56.99999999999999
 30
0.0
 11
2.000000000000001
 21
26.03376383
 31
0.0
  0
LINE
  5
A97
330
A88
100
AcDbEntity
  8
0
100
AcDbLine
 10
0.0
 20
56.99999999999999
 30
0.0
 11
1.999999999999997
 21
56.99999999999999
 31
0.0
  0
LINE
  5
A98
330
A88
100
AcDbEntity
  8
0
100
AcDbLine
 10
0.0
 20
26.03376383
 30
0.0
 11
0.0
 21
56.99999999999999
 31
0.0
  0
LINE
  5
A99
330
A88
100
AcDbEntity
  8
0
100
AcDbLine
 10
85.99999999999997
 20
23.43601475290881
 30
0.0
 11
45.99999999999998
 21
56.99999999999999
 31
0.0
  0
LINE
  5
A9A
330
A88
100
AcDbEntity
  8
0
100
AcDbLine
 10
45.99999999999998
 20
56.99999999999999
 30
0.0
 11
45.99999999999998
 21
83.99999999999998
 31
0.0
  0
LINE
  5
A9B
330
A88
100
AcDbEntity
  8
0
100
AcDbLine
 10
1.999999999999997
 20
56.99999999999999
 30
0.0
 11
1.999999999999992
 21
84.0
 31
0.0
  0
LINE
  5
A9C
330
A88
100
AcDbEntity
  8
0
100
AcDbLine
 10
85.99999999999997
 20
23.43601475290881
 30
0.0
 11
85.99999999999997
 21
2.000000000000001
 31
0.0
  0
LINE
  5
A9D
330
A88
100
AcDbEntity
  8
0
100
AcDbLine
 10
4.000000000000003
 20
84.0
 30
0.0
 11
45.99999999999998
 21
83.99999999999998
 31
0.0
  0
LINE
  5
A9E
330
A88
100
AcDbEntity
  8
0
100
AcDbLine
 10
0.0
 20
84.0
 30
0.0
 11
1.999999999999992
 21
84.0
 31
0.0
  0
LINE
  5
A9F
330
A88
100
AcDbEntity
  8
0
100
AcDbLine
 10
0.0
 20
56.99999999999999
 30
0.0
 11
0.0
 21
84.0
 31
0.0
  0
LINE
  5
AA0
330
A88
100
AcDbEntity
  8
0
100
AcDbLine
 10
2.0
 20
84.0
 30
0.0
 11
4.000000000000003
 21
84.0
 31
0.0
  0
CIRCLE
  5
AA1
330
A88
100
AcDbEntity
  8
0
100
AcDbCircle
 10
38.49999999999997
 20
58.99999999999998
 30
0.0
 40
2.5
  0
CIRCLE
  5
AA2
330
A88
100
AcDbEntity
  8
0
100
AcDbCircle
 10
38.49999999999997
 20
78.99999999999998
 30
0.0
 40
2.5
  0
CIRCLE
  5
AA3
330
A88
100
AcDbEntity
  8
0
100
AcDbCircle
 10
38.49999999999996
 20
38.99999999999998
 30
0.0
 40
2.5
  0
ENDBLK
  5
A8A
330
A88
100
AcDbEntity
  8
0
100
AcDbBlockEnd
  0
BLOCK
  5
AA5
330
AA4
100
AcDbEntity
  8
0
100
AcDbBlockBegin
  2
SAE200_32_2-Right
 70
     0
 10
0.0
 20
0.0
 30
0.0
  3
SAE200_32_2-Right
  1

  0
LINE
  5
AA7
330
AA4
100
AcDbEntity
  8
0
100
AcDbLine
 10
-2.000000000000001
 20
26.03376383
 30
0.0
 11
0.0
 21
26.03376383
 31
0.0
  0
SPLINE
  5
AA8
330
AA4
100
AcDbEntity
  8
0
100
AcDbSpline
210
0.0
220
0.0
230
1.0
 70
     8
 71
     3
 72
    14
 73
    10
 74
     0
 42
0.000000001
 43
0.0000000001
 40
0.0
 40
0.0
 40
0.0
 40
0.0
 40
0.4040437154302975
 40
0.4040437154302975
 40
0.4040437154302975
 40
0.8364893629558997
 40
0.8364893629558997
 40
0.8364893629558997
 40
1.0
 40
1.0
 40
1.0
 40
1.0
 10
-1.999999714357237
 20
26.03376382998798
 30
0.0
 10
-1.999995318815158
 20
25.75737441108753
 30
0.0
 10
-1.999663367052725
 20
25.57487912269314
 30
0.0
 10
-2.000202654153762
 20
25.38395605879844
 30
0.0
 10
-2.000779850013279
 20
25.17961220975332
 30
0.0
 10
-1.997496434804918
 20
24.95217277330733
 30
0.0
 10
-2.000279421499275
 20
24.54768497141293
 30
0.0
 10
-2.001331687673957
 20
24.39474538572684
 30
0.0
 10
-2.000072440405636
 20
24.21264574434593
 30
0.0
 10
-1.999999996301279
 20
24.00000000101464
 30
0.0
  0
SPLINE
  5
AA9
330
AA4
100
AcDbEntity
  8
0
100
AcDbSpline
210
0.0
220
0.0
230
1.0
 70
     8
 71
     3
 72
    11
 73
     7
 74
     0
 42
0.000000001
 43
0.0000000001
 40
-0.9467004598379581
 40
-0.9467004598379581
 40
-0.9467004598379581
 40
-0.9467004598379581
 40
-0.8088011686408441
 40
-0.8088011686408441
 40
-0.8088011686408441
 40
-0.4664300189731212
 40
-0.4664300189731212
 40
-0.4664300189731212
 40
-0.4664300189731212
 10
-1.983436354867554
 20
24.34713409368091
 30
0.0
 10
-1.955352547260367
 20
24.61843624597092
 30
0.0
 10
-1.893038354005461
 20
24.8200066314244
 30
0.0
 10
-1.807912791749749
 20
24.97433923320069
 30
0.0
 10
-1.596566262245545
 20
25.35751038544273
 30
0.0
 10
-1.240564344713088
 20
25.42512787200438
 30
0.0
 10
-0.8994216289823274
 20
25.45608508469474
 30
0.0
  0
SPLINE
  5
AAA
330
AA4
100
AcDbEntity
  8
0
100
AcDbSpline
210
0.0
220
0.0
230
1.0
 70
     8
 71
     3
 72
    14
 73
    10
 74
     0
 42
0.000000001
 43
0.0000000001
 40
-0.457472785426795
 40
-0.457472785426795
 40
-0.457472785426795
 40
-0.457472785426795
 40
-0.3900455992168052
 40
-0.3900455992168052
 40
-0.3900455992168052
 40
-0.0961003405649227
 40
-0.0961003405649227
 40
-0.0961003405649227
 40
0.0
 40
0.0
 40
0.0
 40
0.0
 10
-0.8726797129394345
 20
25.45844454073287
 30
0.0
 10
-0.8056690822235996
 20
25.46420112331713
 30
0.0
 10
-0.739396646494805
 20
25.46881880082467
 30
0.0
 10
-0.6750808734997918
 20
25.47442792762034
 30
0.0
 10
-0.394699656500202
 20
25.49888061976784
 30
0.0
 10
-0.1544104047963501
 20
25.5290051158841
 30
0.0
 10
-0.0514007326579251
 20
25.75301658310937
 30
0.0
 10
-0.0177234941837122
 20
25.82625327483058
 30
0.0
 10
-0.0022238181093269
 20
25.92063670830084
 30
0.0
 10
0.0000025254026723
 20
26.03376376347802
 30
0.0
  0
SPLINE
  5
AAB
330
AA4
100
AcDbEntity
  8
0
100
AcDbSpline
210
0.0
220
0.0
230
1.0
 70
     8
 71
     3
 72
    30
 73
    26
 74
     0
 42
0.000000001
 43
0.0000000001
 40
0.1236589528076477
 40
0.1236589528076477
 40
0.1236589528076477
 40
0.1236589528076477
 40
0.1264521798440418
 40
0.1264521798440418
 40
0.1320600148611876
 40
0.1320600148611876
 40
0.1368144450912973
 40
0.1368144450912973
 40
0.1430688229392214
 40
0.1430688229392214
 40
0.1540874462925986
 40
0.1540874462925986
 40
0.1799745167002197
 40
0.1799745167002197
 40
0.2101128472157899
 40
0.2101128472157899
 40
0.2194742638495573
 40
0.2194742638495573
 40
0.2236476402878138
 40
0.2236476402878138
 40
0.227294757306512
 40
0.227294757306512
 40
0.230970043900045
 40
0.230970043900045
 40
0.2370672265219951
 40
0.2370672265219951
 40
0.2370672265219951
 40
0.2370672265219951
 10
-1.86416491627049
 20
24.91451900037372
 30
0.0
 10
-1.864164916262651
 20
24.91451900039204
 30
0.0
 10
-1.864455489641712
 20
24.91384223276722
 30
0.0
 10
-1.866301886271281
 20
24.90948484278058
 30
0.0
 10
-1.868967033342064
 20
24.90317071866843
 30
0.0
 10
-1.875599512513483
 20
24.88658539823142
 30
0.0
 10
-1.879302968212699
 20
24.87704213979442
 30
0.0
 10
-1.888274032148848
 20
24.85270137393812
 30
0.0
 10
-1.893711053450071
 20
24.83706951346372
 30
0.0
 10
-1.908257018007434
 20
24.79210004789057
 30
0.0
 10
-1.917094620442055
 20
24.76115635579092
 30
0.0
 10
-1.94350990257791
 20
24.65590204550402
 30
0.0
 10
-1.957110691741703
 20
24.57885242162453
 30
0.0
 10
-1.979096151039037
 20
24.41338841939817
 30
0.0
 10
-1.986664472347272
 20
24.32506843596963
 30
0.0
 10
-1.993787025583448
 20
24.20037643907989
 30
0.0
 10
-1.995290058742521
 20
24.16911064594
 30
0.0
 10
-1.997034631802907
 20
24.12406081047873
 30
0.0
 10
-1.99752084335821
 20
24.10994844278978
 30
0.0
 10
-1.998259121409876
 20
24.08598653276929
 30
0.0
 10
-1.998541193229824
 20
24.0756365315243
 30
0.0
 10
-1.998997934448066
 20
24.05726323701331
 30
0.0
 10
-1.999179515983105
 20
24.04899739200962
 30
0.0
 10
-1.999589441584077
 20
24.0284929477479
 30
0.0
 10
-1.999777529111259
 20
24.01660234518736
 30
0.0
 10
-1.999907415634556
 20
24.0070103021962
 30
0.0
  0
SPLINE
  5
AAC
330
AA4
100
AcDbEntity
  8
0
100
AcDbSpline
210
0.0
220
0.0
230
1.0
 70
     8
 71
     3
 72
    10
 73
     6
 74
     0
 42
0.000000001
 43
0.0000000001
 40
0.0072521581957816
 40
0.0072521581957816
 40
0.0072521581957816
 40
0.0072521581957816
 40
0.0104037783034713
 40
0.0104037783034713
 40
0.0133682874500941
 40
0.0133682874500941
 40
0.0133682874500941
 40
0.0133682874500941
 10
-1.999764000826228
 20
24.01783670956195
 30
0.0
 10
-1.99976400082623
 20
24.01783670956185
 30
0.0
 10
-1.999784214742609
 20
24.01650368222548
 30
0.0
 10
-1.999839590784109
 20
24.01254345775097
 30
0.0
 10
-1.999873359461004
 20
24.00999723314547
 30
0.0
 10
-1.999906940268472
 20
24.00722566534132
 30
0.0
  0
SPLINE
  5
AAD
330
AA4
100
AcDbEntity
  8
0
100
AcDbSpline
210
0.0
220
0.0
230
1.0
 70
     8
 71
     3
 72
    10
 73
     6
 74
     0
 42
0.000000001
 43
0.0000000001
 40
0.0085091083057443
 40
0.0085091083057443
 40
0.0085091083057443
 40
0.0085091083057443
 40
0.0107498362241113
 40
0.0107498362241113
 40
0.016768937154142
 40
0.016768937154142
 40
0.016768937154142
 40
0.016768937154142
 10
-1.999863521792998
 20
24.02332998865054
 30
0.0
 10
-1.999863521769043
 20
24.02332999203217
 30
0.0
 10
-1.999868115817605
 20
24.02269436570801
 30
0.0
 10
-1.999891906645312
 20
24.01822560492765
 30
0.0
 10
-1.999923050574702
 20
24.01057081342417
 30
0.0
 10
-1.999897253926978
 20
24.00000044961933
 30
0.0
  0
SPLINE
  5
AAE
330
AA4
100
AcDbEntity
  8
0
100
AcDbSpline
210
0.0
220
0.0
230
1.0
 70
     8
 71
     3
 72
    10
 73
     6
 74
     0
 42
0.000000001
 43
0.0000000001
 40
0.0
 40
0.0
 40
0.0
 40
0.0
 40
0.0029425804235577
 40
0.0029425804235577
 40
0.0059992250403235
 40
0.0059992250403235
 40
0.0059992250403235
 40
0.0059992250403235
 10
-0.8727955073645933
 20
25.45875311048463
 30
0.0
 10
-0.8786875007544223
 20
25.45825681196998
 30
0.0
 10
-0.8841066558045312
 20
25.45779019003126
 30
0.0
 10
-0.8934617237324664
 20
25.45697292275669
 30
0.0
 10
-0.8974434151290838
 20
25.45661751411574
 30
0.0
 10
-0.8995196421638866
 20
25.45643124435412
 30
0.0
  0
LINE
  5
AAF
330
AA4
100
AcDbEntity
  8
0
100
AcDbLine
 10
-1.999999999999978
 20
-2.000000000000008
 30
0.0
 11
-86.00000000000001
 21
-2.0
 31
0.0
  0
LINE
  5
AB0
330
AA4
100
AcDbEntity
  8
0
100
AcDbLine
 10
-1.999999999999976
 20
24.0
 30
0.0
 11
-1.999999999999976
 21
1.999999999999997
 31
0.0
  0
LINE
  5
AB1
330
AA4
100
AcDbEntity
  8
0
100
AcDbLine
 10
-1.999999999999978
 20
-2.000000000000008
 30
0.0
 11
-1.999999999999976
 21
1.999999999999999
 31
0.0
  0
LINE
  5
AB2
330
AA4
100
AcDbEntity
  8
0
100
AcDbLine
 10
-85.99999999999997
 20
-1.999999999999996
 30
0.0
 11
-85.99999999999997
 21
2.0
 31
0.0
  0
LINE
  5
AB3
330
AA4
100
AcDbEntity
  8
0
100
AcDbLine
 10
0.0
 20
56.99999999999999
 30
0.0
 11
0.0
 21
26.03376383
 31
0.0
  0
LINE
  5
AB4
330
AA4
100
AcDbEntity
  8
0
100
AcDbLine
 10
-1.999999999999997
 20
56.99999999999999
 30
0.0
 11
0.0
 21
56.99999999999999
 31
0.0
  0
LINE
  5
AB5
330
AA4
100
AcDbEntity
  8
0
100
AcDbLine
 10
-2.000000000000001
 20
26.03376383
 30
0.0
 11
-1.999999999999997
 21
56.99999999999999
 31
0.0
  0
LINE
  5
AB6
330
AA4
100
AcDbEntity
  8
0
100
AcDbLine
 10
0.0
 20
56.99999999999999
 30
0.0
 11
0.0
 21
84.0
 31
0.0
  0
CIRCLE
  5
AB7
330
AA4
100
AcDbEntity
  8
0
100
AcDbCircle
 10
-38.50000000000001
 20
68.99999999999998
 30
0.0
 40
2.5
  0
CIRCLE
  5
AB8
330
AA4
100
AcDbEntity
  8
0
100
AcDbCircle
 10
-38.50000000000001
 20
48.99999999999998
 30
0.0
 40
2.5
  0
LINE
  5
AB9
330
AA4
100
AcDbEntity
  8
0
100
AcDbLine
 10
-45.99999999999998
 20
56.99999999999999
 30
0.0
 11
-85.99999999999997
 21
23.43601475290881
 31
0.0
  0
LINE
  5
ABA
330
AA4
100
AcDbEntity
  8
0
100
AcDbLine
 10
-45.99999999999998
 20
83.99999999999998
 30
0.0
 11
-45.99999999999998
 21
56.99999999999999
 31
0.0
  0
LINE
  5
ABB
330
AA4
100
AcDbEntity
  8
0
100
AcDbLine
 10
-85.99999999999997
 20
23.43601475290881
 30
0.0
 11
-85.99999999999997
 21
2.000000000000001
 31
0.0
  0
LINE
  5
ABC
330
AA4
100
AcDbEntity
  8
0
100
AcDbLine
 10
-4.000000000000003
 20
84.0
 30
0.0
 11
-45.99999999999998
 21
83.99999999999998
 31
0.0
  0
LINE
  5
ABD
330
AA4
100
AcDbEntity
  8
0
100
AcDbLine
 10
-2.0
 20
84.0
 30
0.0
 11
-4.000000000000003
 21
84.0
 31
0.0
  0
LINE
  5
ABE
330
AA4
100
AcDbEntity
  8
0
100
AcDbLine
 10
0.0
 20
84.0
 30
0.0
 11
-1.999999999999992
 21
84.0
 31
0.0
  0
LINE
  5
ABF
330
AA4
100
AcDbEntity
  8
0
100
AcDbLine
 10
-1.999999999999997
 20
56.99999999999999
 30
0.0
 11
-1.999999999999992
 21
84.0
 31
0.0
  0
SPLINE
  5
AC0
330
AA4
100
AcDbEntity
  8
0
100
AcDbSpline
210
0.0
220
0.0
230
1.0
 70
     8
 71
     3
 72
    34
 73
    30
 74
     0
 42
0.000000001
 43
0.0000000001
 40
0.0
 40
0.0
 40
0.0
 40
0.0
 40
0.0708054973466134
 40
0.0708054973466134
 40
0.1131750928223827
 40
0.1131750928223827
 40
0.1541066541816238
 40
0.1541066541816238
 40
0.1746237180899011
 40
0.1746237180899011
 40
0.2054795820113171
 40
0.2054795820113171
 40
0.235367874355985
 40
0.235367874355985
 40
0.255729601366441
 40
0.255729601366441
 40
0.2684740300731112
 40
0.2684740300731112
 40
0.2757945934471639
 40
0.2757945934471639
 40
0.2775430028386326
 40
0.2775430028386326
 40
0.2793092992839436
 40
0.2793092992839436
 40
0.2828834983301381
 40
0.2828834983301381
 40
0.2864028767137609
 40
0.2864028767137609
 40
0.2865057122375573
 40
0.2865057122375573
 40
0.2865057122375573
 40
0.2865057122375573
 10
-0.6190113376798334
 20
25.47856132224905
 30
0.0
 10
-0.8013740397880241
 20
25.46205507932037
 30
0.0
 10
-0.9572312981358306
 20
25.44224680187881
 30
0.0
 10
-1.187621234366864
 20
25.38138034129582
 30
0.0
 10
-1.272550083478284
 20
25.35150769499163
 30
0.0
 10
-1.44164821347425
 20
25.26378269902745
 30
0.0
 10
-1.52721532551363
 20
25.20541054867888
 30
0.0
 10
-1.6472573576199
 20
25.08577395107546
 30
0.0
 10
-1.686148437172542
 20
25.04014896091094
 30
0.0
 10
-1.775912462799965
 20
24.9138446601199
 30
0.0
 10
-1.82373168853366
 20
24.82524584605297
 30
0.0
 10
-1.898463513252209
 20
24.64124453171883
 30
0.0
 10
-1.926993838106938
 20
24.54476017029624
 30
0.0
 10
-1.962370104898596
 20
24.38118895913476
 30
0.0
 10
-1.973402604640337
 20
24.31404204381984
 30
0.0
 10
-1.986755982849233
 20
24.20462705493824
 30
0.0
 10
-1.990806111110203
 20
24.16220117162902
 30
0.0
 10
-1.995562649625698
 20
24.09663830989497
 30
0.0
 10
-1.996994235312881
 20
24.07211676843091
 30
0.0
 10
-1.998248493580974
 20
24.04586738667618
 30
0.0
 10
-1.998466740780015
 20
24.04101642172071
 30
0.0
 10
-1.998845842826329
 20
24.03217874892083
 30
0.0
 10
-1.99900776792542
 20
24.02816743876456
 30
0.0
 10
-1.999408718198412
 20
24.01785438088452
 30
0.0
 10
-1.999566509775707
 20
24.01326693747419
 30
0.0
 10
-1.999784805805209
 20
24.00681426612419
 30
0.0
 10
-1.99985016685117
 20
24.00474898009136
 30
0.0
 10
-1.999900581405097
 20
24.00313792730254
 30
0.0
 10
-1.99990199756769
 20
24.00309263640851
 30
0.0
 10
-1.999903398841787
 20
24.00304778662655
 30
0.0
  0
SPLINE
  5
AC1
330
AA4
100
AcDbEntity
  8
0
100
AcDbSpline
210
0.0
220
0.0
230
1.0
 70
     8
 71
     3
 72
     8
 73
     4
 74
     0
 42
0.000000001
 43
0.0000000001
 40
0.0210658913353695
 40
0.0210658913353695
 40
0.0210658913353695
 40
0.0210658913353695
 40
0.0231453378134556
 40
0.0231453378134556
 40
0.0231453378134556
 40
0.0231453378134556
 10
-1.999346890316678
 20
24.01922942943439
 30
0.0
 10
-1.999398653189694
 20
24.01303319928691
 30
0.0
 10
-1.999442349968512
 20
24.00657840906526
 30
0.0
 10
-1.999477504149444
 20
23.99999626602371
 30
0.0
  0
SPLINE
  5
AC2
330
AA4
100
AcDbEntity
  8
0
100
AcDbSpline
210
0.0
220
0.0
230
1.0
 70
     8
 71
     3
 72
     8
 73
     4
 74
     0
 42
0.000000001
 43
0.0000000001
 40
0.0236830034962023
 40
0.0236830034962023
 40
0.0236830034962023
 40
0.0236830034962023
 40
0.0271575379911618
 40
0.0271575379911618
 40
0.0271575379911618
 40
0.0271575379911618
 10
-1.999336170606448
 20
24.01960482189795
 30
0.0
 10
-1.999491031747191
 20
24.0141950683432
 30
0.0
 10
-1.999666406182515
 20
24.00749317246262
 30
0.0
 10
-1.999829738966407
 20
23.99999566365783
 30
0.0
  0
ENDBLK
  5
AA6
330
AA4
100
AcDbEntity
  8
0
100
AcDbBlockEnd
  0
BLOCK
  5
AC4
330
AC3
100
AcDbEntity
  8
0
100
AcDbBlockBegin
  2
SAE200_32_2-Top
 70
     0
 10
0.0
 20
0.0
 30
0.0
  3
SAE200_32_2-Top
  1

  0
SPLINE
  5
AC6
330
AC3
100
AcDbEntity
  8
0
100
AcDbSpline
210
0.0
220
0.0
230
1.0
 70
     8
 71
     3
 72
    11
 73
     7
 74
     0
 42
0.000000001
 43
0.0000000001
 40
-1.0
 40
-1.0
 40
-1.0
 40
-1.0
 40
-0.8088011686408441
 40
-0.8088011686408441
 40
-0.8088011686408441
 40
-0.6568764900186521
 40
-0.6568764900186521
 40
-0.6568764900186521
 40
-0.6568764900186521
 10
15.99999999999999
 20
-1.999999999999977
 30
0.0
 10
16.0050328073258
 20
-2.000114941014095
 30
0.0
 10
16.1147755506441
 20
-1.925940287618589
 30
0.0
 10
16.31143594488744
 20
-1.807912791749749
 30
0.0
 10
16.46770032673928
 20
-1.714129324293441
 30
0.0
 10
16.67487226452262
 20
-1.591862121295856
 30
0.0
 10
16.91606375110644
 20
-1.455048972441797
 30
0.0
  0
LINE
  5
AC7
330
AC3
100
AcDbEntity
  8
0
100
AcDbLine
 10
15.99999999999999
 20
-1.999999999999977
 30
0.0
 11
15.99999999999999
 21
-2.069381573054869
 31
0.0
  0
SPLINE
  5
AC8
330
AC3
100
AcDbEntity
  8
0
100
AcDbSpline
210
0.0
220
0.0
230
1.0
 70
     8
 71
     3
 72
    42
 73
    38
 74
     0
 42
0.000000001
 43
0.0000000001
 40
0.0
 40
0.0
 40
0.0
 40
0.0
 40
0.0146512305723669
 40
0.0146512305723669
 40
0.0174002147191556
 40
0.0174002147191556
 40
0.0181837045143538
 40
0.0181837045143538
 40
0.0185520903187759
 40
0.0185520903187759
 40
0.0187360164882526
 40
0.0187360164882526
 40
0.0189203697355671
 40
0.0189203697355671
 40
0.0191047407792843
 40
0.0191047407792843
 40
0.0194765507518642
 40
0.0194765507518642
 40
0.0209764086892849
 40
0.0209764086892849
 40
0.0268518216429842
 40
0.0268518216429842
 40
0.0408115292128927
 40
0.0408115292128927
 40
0.0826914909544653
 40
0.0826914909544653
 40
0.1456934323578102
 40
0.1456934323578102
 40
0.1858010346393728
 40
0.1858010346393728
 40
0.2064952650492764
 40
0.2064952650492764
 40
0.2173407092837021
 40
0.2173407092837021
 40
0.2234136178130187
 40
0.2234136178130187
 40
0.2298852548556244
 40
0.2298852548556244
 40
0.2298852548556244
 40
0.2298852548556244
 10
15.99999803612772
 20
-4.000000051217374
 30
0.0
 10
15.99998048937837
 20
-3.998827456408594
 30
0.0
 10
15.99995735295925
 20
-3.99734675044414
 30
0.0
 10
15.9999368644655
 20
-3.996060361034255
 30
0.0
 10
15.99993503774846
 20
-3.995946178163023
 30
0.0
 10
15.99990821858842
 20
-3.994264898773323
 30
0.0
 10
15.99990057156343
 20
-3.993785634282821
 30
0.0
 10
15.99988018204243
 20
-3.992505109745734
 30
0.0
 10
15.99987210093159
 20
-3.991997366209549
 30
0.0
 10
15.99985601932667
 20
-3.990985327388012
 30
0.0
 10
15.99984994722036
 20
-3.990602980150832
 30
0.0
 10
15.99983631108126
 20
-3.989743507987567
 30
0.0
 10
15.99982865653994
 20
-3.989260665737691
 30
0.0
 10
15.99981219261161
 20
-3.988220907616915
 30
0.0
 10
15.99980329149595
 20
-3.987658187722989
 30
0.0
 10
15.99977564947341
 20
-3.985908417847311
 30
0.0
 10
15.99975580364548
 20
-3.984649073770944
 30
0.0
 10
15.9996578016177
 20
-3.978412946216711
 30
0.0
 10
15.99958092429992
 20
-3.973466357015059
 30
0.0
 10
15.99921928037316
 20
-3.949951712431515
 30
0.0
 10
15.99895397383932
 20
-3.931935373400317
 30
0.0
 10
15.99809325220629
 20
-3.87087355532985
 30
0.0
 10
15.99755603664263
 20
-3.828074290234601
 30
0.0
 10
15.99567314627675
 20
-3.656620614575633
 30
0.0
 10
15.99490057549585
 20
-3.529423517067915
 30
0.0
 10
15.99383186936066
 20
-3.206947467369151
 30
0.0
 10
15.9938410982589
 20
-3.005561473394521
 30
0.0
 10
15.99471045438586
 20
-2.673459567514415
 30
0.0
 10
15.99523992353699
 20
-2.544149402645663
 30
0.0
 10
15.9967860822834
 20
-2.35478272177615
 30
0.0
 10
15.9975319079745
 20
-2.290064605526928
 30
0.0
 10
15.99869629008033
 20
-2.195770327998112
 30
0.0
 10
15.99907124214957
 20
-2.164708736370692
 30
0.0
 10
15.99945727035365
 20
-2.123296027677143
 30
0.0
 10
15.99955902101582
 20
-2.109630222796748
 30
0.0
 10
15.99969507283585
 20
-2.085600273399026
 30
0.0
 10
15.9997252611001
 20
-2.075194938760345
 30
0.0
 10
15.9997330778943
 20
-2.069381573054869
 30
0.0
  0
SPLINE
  5
AC9
330
AC3
100
AcDbEntity
  8
0
100
AcDbSpline
210
0.0
220
0.0
230
1.0
 70
     8
 71
     3
 72
     8
 73
     4
 74
     0
 42
0.000000001
 43
0.0000000001
 40
0.0
 40
0.0
 40
0.0
 40
0.0
 40
0.0003534756917494
 40
0.0003534756917494
 40
0.0003534756917494
 40
0.0003534756917494
 10
15.99998528176037
 20
-4.000000100760666
 30
0.0
 10
15.99998416468053
 20
-3.999634532045558
 30
0.0
 10
15.99998308073063
 20
-3.999283169761644
 30
0.0
 10
15.9999820369801
 20
-3.998945140184377
 30
0.0
  0
LINE
  5
ACA
330
AC3
100
AcDbEntity
  8
0
100
AcDbLine
 10
-16.0
 20
-1.999999999999999
 30
0.0
 11
-16.0
 21
-2.056071210297308
 31
0.0
  0
SPLINE
  5
ACB
330
AC3
100
AcDbEntity
  8
0
100
AcDbSpline
210
0.0
220
0.0
230
1.0
 70
     8
 71
     3
 72
    11
 73
     7
 74
     0
 42
0.000000001
 43
0.0000000001
 40
-1.0
 40
-1.0
 40
-1.0
 40
-1.0
 40
-0.8105852053058494
 40
-0.8105852053058494
 40
-0.8105852053058494
 40
-0.6570397650406132
 40
-0.6570397650406132
 40
-0.6570397650406132
 40
-0.6570397650406132
 10
-16.00000000000002
 20
-2.00000000000001
 30
0.0
 10
-15.99999959166584
 20
-1.999532947483232
 30
0.0
 10
-16.11433533467089
 20
-1.928673893407778
 30
0.0
 10
-16.30623024009667
 20
-1.811697674546656
 30
0.0
 10
-16.46178613416415
 20
-1.716873164905813
 30
0.0
 10
-16.6699879698748
 20
-1.593220168177174
 30
0.0
 10
-16.91334666315223
 20
-1.454936423069569
 30
0.0
  0
SPLINE
  5
ACC
330
AC3
100
AcDbEntity
  8
0
100
AcDbSpline
210
0.0
220
0.0
230
1.0
 70
     8
 71
     3
 72
    12
 73
     8
 74
     0
 42
0.000000001
 43
0.0000000001
 40
0.0078614295528553
 40
0.0078614295528553
 40
0.0078614295528553
 40
0.0078614295528553
 40
0.0101693814986594
 40
0.0101693814986594
 40
0.0131604514844096
 40
0.0131604514844096
 40
0.0162314596968851
 40
0.0162314596968851
 40
0.0162314596968851
 40
0.0162314596968851
 10
-16.00003440325859
 20
-3.972548896979002
 30
0.0
 10
-16.00003440325913
 20
-3.972548896801381
 30
0.0
 10
-16.00003096119726
 20
-3.973626936069971
 30
0.0
 10
-16.00001675910182
 20
-3.977818219619796
 30
0.0
 10
-16.00000437478244
 20
-3.981430248280607
 30
0.0
 10
-15.9999768114779
 20
-3.989929896666656
 30
0.0
 10
-15.99996160610953
 20
-3.994849865080571
 30
0.0
 10
-15.99994647188151
 20
-3.99999273282167
 30
0.0
  0
SPLINE
  5
ACD
330
AC3
100
AcDbEntity
  8
0
100
AcDbSpline
210
0.0
220
0.0
230
1.0
 70
     8
 71
     3
 72
     8
 73
     4
 74
     0
 42
0.000000001
 43
0.0000000001
 40
0.0087728349966385
 40
0.0087728349966385
 40
0.0087728349966385
 40
0.0087728349966385
 40
0.0124417576920058
 40
0.0124417576920058
 40
0.0124417576920058
 40
0.0124417576920058
 10
-15.99995424776695
 20
-3.992503653993095
 30
0.0
 10
-15.99995424779924
 20
-3.992503660631172
 30
0.0
 10
-15.99995740380867
 20
-3.99320404316316
 30
0.0
 10
-15.99996308332167
 20
-3.994516096478518
 30
0.0
  0
SPLINE
  5
ACE
330
AC3
100
AcDbEntity
  8
0
100
AcDbSpline
210
0.0
220
0.0
230
1.0
 70
     8
 71
     3
 72
    28
 73
    24
 74
     0
 42
0.000000001
 43
0.0000000001
 40
0.0
 40
0.0
 40
0.0
 40
0.0
 40
0.0080649646400952
 40
0.0080649646400952
 40
0.018665555018659
 40
0.018665555018659
 40
0.0310557480544227
 40
0.0310557480544227
 40
0.0530251861973626
 40
0.0530251861973626
 40
0.1189654775576973
 40
0.1189654775576973
 40
0.1532488800339112
 40
0.1532488800339112
 40
0.1946323309560467
 40
0.1946323309560467
 40
0.2049116038802152
 40
0.2049116038802152
 40
0.2126215633092584
 40
0.2126215633092584
 40
0.2130137716257728
 40
0.2130137716257728
 40
0.2130701020660477
 40
0.2130701020660477
 40
0.2130701020660477
 40
0.2130701020660477
 10
-15.99950884333897
 20
-2.056071210297309
 30
0.0
 10
-15.99950559191069
 20
-2.06899476806214
 30
0.0
 10
-15.999505980217
 20
-2.085572859903372
 30
0.0
 10
-15.99940481646244
 20
-2.127755955829324
 30
0.0
 10
-15.99924820485984
 20
-2.155390159221552
 30
0.0
 10
-15.99862657297464
 20
-2.220616220248773
 30
0.0
 10
-15.99813905211097
 20
-2.259440906352469
 30
0.0
 10
-15.99701177035449
 20
-2.365973632142795
 30
0.0
 10
-15.9964762623075
 20
-2.43392957657848
 30
0.0
 10
-15.99469292094218
 20
-2.711491131950448
 30
0.0
 10
-15.99410472754911
 20
-2.927331780267829
 30
0.0
 10
-15.99408614576949
 20
-3.242521951515294
 30
0.0
 10
-15.99424173257099
 20
-3.348589255116511
 30
0.0
 10
-15.9951755598973
 20
-3.579061422194818
 30
0.0
 10
-15.9960942071282
 20
-3.702978519643376
 30
0.0
 10
-15.99799892079104
 20
-3.860687763855414
 30
0.0
 10
-15.998413036785
 20
-3.892167484075282
 30
0.0
 10
-15.99919536277427
 20
-3.947440818601941
 30
0.0
 10
-15.99959718148373
 20
-3.974259840031691
 30
0.0
 10
-15.99992657911777
 20
-3.995427974754021
 30
0.0
 10
-15.99994095501392
 20
-3.996349763226153
 30
0.0
 10
-15.99995211279456
 20
-3.997064589111685
 30
0.0
 10
-15.99995343203405
 20
-3.997149095472085
 30
0.0
 10
-15.99995467586279
 20
-3.997228761632141
 30
0.0
  0
SPLINE
  5
ACF
330
AC3
100
AcDbEntity
  8
0
100
AcDbSpline
210
0.0
220
0.0
230
1.0
 70
     8
 71
     3
 72
     8
 73
     4
 74
     0
 42
0.000000001
 43
0.0000000001
 40
0.0
 40
0.0
 40
0.0
 40
0.0
 40
0.0005561962844245
 40
0.0005561962844245
 40
0.0005561962844245
 40
0.0005561962844245
 10
-18.00006736105014
 20
-3.999999716979843
 30
0.0
 10
-18.00006369391128
 20
-3.999122791865818
 30
0.0
 10
-18.00006004774125
 20
-3.998227668811034
 30
0.0
 10
-18.00005641122974
 20
-3.997320797086068
 30
0.0
  0
SPLINE
  5
AD0
330
AC3
100
AcDbEntity
  8
0
100
AcDbSpline
210
0.0
220
0.0
230
1.0
 70
     8
 71
     3
 72
     8
 73
     4
 74
     0
 42
0.000000001
 43
0.0000000001
 40
0.0017550956720796
 40
0.0017550956720796
 40
0.0017550956720796
 40
0.0017550956720796
 40
0.0020811414683673
 40
0.0020811414683673
 40
0.0020811414683673
 40
0.0020811414683673
 10
-18.00003333997928
 20
-3.991262336297267
 30
0.0
 10
-18.00003128892335
 20
-3.990699024438597
 30
0.0
 10
-18.00002926163397
 20
-3.990130106374796
 30
0.0
 10
-18.00002724180471
 20
-3.989559805752601
 30
0.0
  0
SPLINE
  5
AD1
330
AC3
100
AcDbEntity
  8
0
100
AcDbSpline
210
0.0
220
0.0
230
1.0
 70
     8
 71
     3
 72
    12
 73
     8
 74
     0
 42
0.000000001
 43
0.0000000001
 40
0.0
 40
0.0
 40
0.0
 40
0.0
 40
0.0022625755545906
 40
0.0022625755545906
 40
0.0051869215717101
 40
0.0051869215717101
 40
0.0075871643257398
 40
0.0075871643257398
 40
0.0075871643257398
 40
0.0075871643257398
 10
-18.00003508784537
 20
-4.000000271190592
 30
0.0
 10
-18.00008880705759
 20
-3.993035082798895
 30
0.0
 10
-18.00015237503659
 20
-3.986537433959393
 30
0.0
 10
-18.00031199419635
 20
-3.972669776354564
 30
0.0
 10
-18.0004134507772
 20
-3.965478375724133
 30
0.0
 10
-18.00060923929034
 20
-3.953402382407698
 30
0.0
 10
-18.00070220280941
 20
-3.948301528864481
 30
0.0
 10
-18.00079693700132
 20
-3.943543550336356
 30
0.0
  0
SPLINE
  5
AD2
330
AC3
100
AcDbEntity
  8
0
100
AcDbSpline
210
0.0
220
0.0
230
1.0
 70
     8
 71
     3
 72
    12
 73
     8
 74
     0
 42
0.000000001
 43
0.0000000001
 40
0.0
 40
0.0
 40
0.0
 40
0.0
 40
0.0016328970983608
 40
0.0016328970983608
 40
0.0033042252068876
 40
0.0033042252068876
 40
0.0046516141003415
 40
0.0046516141003415
 40
0.0046516141003415
 40
0.0046516141003415
 10
-18.00000942576579
 20
-4.000000047996817
 30
0.0
 10
-18.00002888365287
 20
-3.996372184836637
 30
0.0
 10
-18.00004856904555
 20
-3.993446294495556
 30
0.0
 10
-18.00008132167337
 20
-3.988970031170542
 30
0.0
 10
-18.00009460916894
 20
-3.987391782684239
 30
0.0
 10
-18.00010954537575
 20
-3.985655781025005
 30
0.0
 10
-18.00011310031312
 20
-3.985269544024857
 30
0.0
 10
-18.00011310031314
 20
-3.985269544022766
 30
0.0
  0
SPLINE
  5
AD3
330
AC3
100
AcDbEntity
  8
0
100
AcDbSpline
210
0.0
220
0.0
230
1.0
 70
     8
 71
     3
 72
    24
 73
    20
 74
     0
 42
0.000000001
 43
0.0000000001
 40
0.0207845574846901
 40
0.0207845574846901
 40
0.0207845574846901
 40
0.0207845574846901
 40
0.0215563564558769
 40
0.0215563564558769
 40
0.0252147467726052
 40
0.0252147467726052
 40
0.0318787275746072
 40
0.0318787275746072
 40
0.0394783304759574
 40
0.0394783304759574
 40
0.0477123675061634
 40
0.0477123675061634
 40
0.0602712148245748
 40
0.0602712148245748
 40
0.0763889086305438
 40
0.0763889086305438
 40
0.1028482348504742
 40
0.1028482348504742
 40
0.1130628959120284
 40
0.1130628959120284
 40
0.1130628959120284
 40
0.1130628959120284
 10
-19.70782454039109
 20
-2.02145691433773
 30
0.0
 10
-19.70948637203754
 20
-2.021253009786625
 30
0.0
 10
-19.7112071454318
 20
-2.021044257089834
 30
0.0
 10
-19.72133971940065
 20
-2.019832513572095
 30
0.0
 10
-19.73079162083301
 20
-2.018767456693565
 30
0.0
 10
-19.75839958159863
 20
-2.015886712050711
 30
0.0
 10
-19.77775344483211
 20
-2.014126425879089
 30
0.0
 10
-19.82226414750089
 20
-2.010727881661264
 30
0.0
 10
-19.84771474738284
 20
-2.009162531658827
 30
0.0
 10
-19.90033709456978
 20
-2.006560247031798
 30
0.0
 10
-19.92801860597593
 20
-2.005536615194654
 30
0.0
 10
-19.99651991441494
 20
-2.003564035018925
 30
0.0
 10
-20.03725793977009
 20
-2.002902047939045
 30
0.0
 10
-20.12541310198509
 20
-2.001880371567503
 30
0.0
 10
-20.17356418174925
 20
-2.001610611854091
 30
0.0
 10
-20.3072114819944
 20
-2.000722099311452
 30
0.0
 10
-20.39285728726883
 20
-2.000242287092604
 30
0.0
 10
-20.50403385400749
 20
-2.000062413009856
 30
0.0
 10
-20.53419281927475
 20
-2.000044915307382
 30
0.0
 10
-20.56285815098338
 20
-2.000032835044396
 30
0.0
  0
LINE
  5
AD4
330
AC3
100
AcDbEntity
  8
0
100
AcDbLine
 10
-14.0
 20
-1.999999999999998
 30
0.0
 11
13.99999999999998
 21
-1.999999999999978
 31
0.0
  0
LINE
  5
AD5
330
AC3
100
AcDbEntity
  8
0
100
AcDbLine
 10
-13.99999999999998
 20
-85.99999999999997
 30
0.0
 11
13.99999999999998
 21
-86.00000000000001
 31
0.0
  0
CIRCLE
  5
AD6
330
AC3
100
AcDbEntity
  8
0
100
AcDbCircle
 10
0.0
 20
-48.0
 30
0.0
 40
2.5
  0
CIRCLE
  5
AD7
330
AC3
100
AcDbEntity
  8
0
100
AcDbCircle
 10
0.0
 20
-68.0
 30
0.0
 40
2.5
  0
LINE
  5
AD8
330
AC3
100
AcDbEntity
  8
0
100
AcDbLine
 10
13.99999999999998
 20
-1.999999999999978
 30
0.0
 11
15.99999999999998
 21
-1.999999999999977
 31
0.0
  0
LINE
  5
AD9
330
AC3
100
AcDbEntity
  8
0
100
AcDbLine
 10
20.00000000000001
 20
0.0
 30
0.0
 11
57.5
 21
0.0
 31
0.0
  0
ARC
  5
ADA
330
AC3
100
AcDbEntity
  8
0
100
AcDbCircle
 10
20.0
 20
-4.000000000000004
 30
0.0
 40
4.000000000000003
100
AcDbArc
 50
89.99999999999987
 51
180.0
  0
LINE
  5
ADB
330
AC3
100
AcDbEntity
  8
0
100
AcDbLine
 10
15.99999999999998
 20
-85.99999999999997
 30
0.0
 11
15.99999999999999
 21
-45.99999999999998
 31
0.0
  0
LINE
  5
ADC
330
AC3
100
AcDbEntity
  8
0
100
AcDbLine
 10
17.99999999999998
 20
-85.99999999999997
 30
0.0
 11
15.99999999999998
 21
-85.99999999999997
 31
0.0
  0
LINE
  5
ADD
330
AC3
100
AcDbEntity
  8
0
100
AcDbLine
 10
17.99999999999999
 20
-45.99999999999998
 30
0.0
 11
17.99999999999998
 21
-85.99999999999997
 31
0.0
  0
LINE
  5
ADE
330
AC3
100
AcDbEntity
  8
0
100
AcDbLine
 10
15.99999999999999
 20
-45.99999999999998
 30
0.0
 11
17.99999999999999
 21
-45.99999999999998
 31
0.0
  0
LINE
  5
ADF
330
AC3
100
AcDbEntity
  8
0
100
AcDbLine
 10
18.0
 20
-4.000000000000003
 30
0.0
 11
17.99999999999999
 21
-45.99999999999998
 31
0.0
  0
LINE
  5
AE0
330
AC3
100
AcDbEntity
  8
0
100
AcDbLine
 10
15.99999999999999
 20
-45.99999999999998
 30
0.0
 11
16.0
 21
-4.000000000000003
 31
0.0
  0
LINE
  5
AE1
330
AC3
100
AcDbEntity
  8
0
100
AcDbLine
 10
15.99999999999998
 20
-85.99999999999997
 30
0.0
 11
13.99999999999998
 21
-85.99999999999997
 31
0.0
  0
ARC
  5
AE2
330
AC3
100
AcDbEntity
  8
0
100
AcDbCircle
 10
20.0
 20
-4.000000000000004
 30
0.0
 40
2.000000000000003
100
AcDbArc
 50
89.99999999999975
 51
180.0
  0
LINE
  5
AE3
330
AC3
100
AcDbEntity
  8
0
100
AcDbLine
 10
57.5
 20
0.0
 30
0.0
 11
57.5
 21
-1.999999999999992
 31
0.0
  0
LINE
  5
AE4
330
AC3
100
AcDbEntity
  8
0
100
AcDbLine
 10
57.5
 20
-1.999999999999992
 30
0.0
 11
20.00000000000001
 21
-1.999999999999999
 31
0.0
  0
LINE
  5
AE5
330
AC3
100
AcDbEntity
  8
0
100
AcDbLine
 10
-16.0
 20
-1.999999999999999
 30
0.0
 11
-14.0
 21
-1.999999999999998
 31
0.0
  0
LINE
  5
AE6
330
AC3
100
AcDbEntity
  8
0
100
AcDbLine
 10
-15.99999999999998
 20
-85.99999999999997
 30
0.0
 11
-13.99999999999998
 21
-85.99999999999997
 31
0.0
  0
LINE
  5
AE7
330
AC3
100
AcDbEntity
  8
0
100
AcDbLine
 10
-57.5
 20
-1.999999999999992
 30
0.0
 11
-20.00000000000001
 21
-1.999999999999999
 31
0.0
  0
LINE
  5
AE8
330
AC3
100
AcDbEntity
  8
0
100
AcDbLine
 10
-15.99999999999999
 20
-45.99999999999998
 30
0.0
 11
-16.0
 21
-4.000000000000003
 31
0.0
  0
LINE
  5
AE9
330
AC3
100
AcDbEntity
  8
0
100
AcDbLine
 10
-18.0
 20
-4.000000000000003
 30
0.0
 11
-17.99999999999999
 21
-45.99999999999998
 31
0.0
  0
LINE
  5
AEA
330
AC3
100
AcDbEntity
  8
0
100
AcDbLine
 10
-20.00000000000001
 20
0.0
 30
0.0
 11
-57.5
 21
0.0
 31
0.0
  0
LINE
  5
AEB
330
AC3
100
AcDbEntity
  8
0
100
AcDbLine
 10
-57.5
 20
0.0
 30
0.0
 11
-57.5
 21
-1.999999999999992
 31
0.0
  0
ARC
  5
AEC
330
AC3
100
AcDbEntity
  8
0
100
AcDbCircle
 10
-20.0
 20
-4.000000000000004
 30
0.0
 40
2.000000000000003
100
AcDbArc
 50
0.0
 51
90.00000000000026
  0
ARC
  5
AED
330
AC3
100
AcDbEntity
  8
0
100
AcDbCircle
 10
-20.0
 20
-4.000000000000004
 30
0.0
 40
4.000000000000003
100
AcDbArc
 50
0.0
 51
90.00000000000012
  0
LINE
  5
AEE
330
AC3
100
AcDbEntity
  8
0
100
AcDbLine
 10
-15.99999999999999
 20
-45.99999999999998
 30
0.0
 11
-15.99999999999998
 21
-85.99999999999997
 31
0.0
  0
LINE
  5
AEF
330
AC3
100
AcDbEntity
  8
0
100
AcDbLine
 10
-17.99999999999998
 20
-85.99999999999997
 30
0.0
 11
-17.99999999999999
 21
-45.99999999999998
 31
0.0
  0
LINE
  5
AF0
330
AC3
100
AcDbEntity
  8
0
100
AcDbLine
 10
-15.99999999999998
 20
-85.99999999999997
 30
0.0
 11
-17.99999999999998
 21
-85.99999999999997
 31
0.0
  0
LINE
  5
AF1
330
AC3
100
AcDbEntity
  8
0
100
AcDbLine
 10
-17.99999999999999
 20
-45.99999999999998
 30
0.0
 11
-15.99999999999999
 21
-45.99999999999998
 31
0.0
  0
ENDBLK
  5
AC5
330
AC3
100
AcDbEntity
  8
0
100
AcDbBlockEnd
  0
BLOCK
  5
AF3
330
AF2
100
AcDbEntity
  8
0
100
AcDbBlockBegin
  2
SAE200_32_2-Bottom
 70
     0
 10
0.0
 20
0.0
 30
0.0
  3
SAE200_32_2-Bottom
  1

  0
LINE
  5
AF5
330
AF2
100
AcDbEntity
  8
0
100
AcDbLine
 10
20.59587679528182
 20
2.000000000000001
 30
0.0
 11
20.59587679528182
 21
0.0
 31
0.0
  0
SPLINE
  5
AF6
330
AF2
100
AcDbEntity
  8
0
100
AcDbSpline
210
0.0
220
0.0
230
1.0
 70
     8
 71
     3
 72
    14
 73
    10
 74
     0
 42
0.000000001
 43
0.0000000001
 40
0.0
 40
0.0
 40
0.0
 40
0.0
 40
0.4040437154302975
 40
0.4040437154302975
 40
0.4040437154302975
 40
0.8364893629558997
 40
0.8364893629558997
 40
0.8364893629558997
 40
1.0
 40
1.0
 40
1.0
 40
1.0
 10
20.59587679529573
 20
1.999999714357237
 30
0.0
 10
20.26648871280064
 20
1.999995318815158
 30
0.0
 10
19.76608263660368
 20
1.999663367052725
 30
0.0
 10
19.30360042329836
 20
2.000202654153762
 30
0.0
 10
18.80860839009992
 20
2.000779850013279
 30
0.0
 10
18.3460177746351
 20
1.997496434804918
 30
0.0
 10
18.12898905910478
 20
2.000279421499275
 30
0.0
 10
18.04692902743081
 20
2.001331687673957
 30
0.0
 10
18.00205432414059
 20
2.000072440405636
 30
0.0
 10
17.99999989510917
 20
1.999999996301279
 30
0.0
  0
SPLINE
  5
AF7
330
AF2
100
AcDbEntity
  8
0
100
AcDbSpline
210
0.0
220
0.0
230
1.0
 70
     8
 71
     3
 72
    17
 73
    13
 74
     0
 42
0.000000001
 43
0.0000000001
 40
-0.9986027087398763
 40
-0.9986027087398763
 40
-0.9986027087398763
 40
-0.9986027087398763
 40
-0.8088011686408441
 40
-0.8088011686408441
 40
-0.8088011686408441
 40
-0.3900455992168052
 40
-0.3900455992168052
 40
-0.3900455992168052
 40
-0.0961003405649227
 40
-0.0961003405649227
 40
-0.0961003405649227
 40
0.0
 40
0.0
 40
0.0
 40
0.0
 10
16.00012711006176
 20
1.999990628968228
 30
0.0
 10
16.00664146103873
 20
1.999028454288569
 30
0.0
 10
16.11621275529716
 20
1.925077736381955
 30
0.0
 10
16.31143594488744
 20
1.807912791749749
 30
0.0
 10
16.74215319765052
 20
1.54941397724911
 30
0.0
 10
17.55963511266165
 20
1.074513055937262
 30
0.0
 10
18.41023042707774
 20
0.6750808734997918
 30
0.0
 10
19.00730537475667
 20
0.394699656500202
 30
0.0
 10
19.62287639546484
 20
0.1544104047963501
 30
0.0
 10
20.13727042247586
 20
0.0514007326579251
 30
0.0
 10
20.30544269171755
 20
0.0177234941837122
 30
0.0
 10
20.46097490913413
 20
0.0022238181093269
 30
0.0
 10
20.59587680938806
 20
-0.0000025254026723
 30
0.0
  0
LINE
  5
AF8
330
AF2
100
AcDbEntity
  8
0
100
AcDbLine
 10
20.59587679528182
 20
0.0
 30
0.0
 11
20.00000000000001
 21
0.0
 31
0.0
  0
ARC
  5
AF9
330
AF2
100
AcDbEntity
  8
0
100
AcDbCircle
 10
20.0
 20
4.000000000000004
 30
0.0
 40
4.000000000000002
100
AcDbArc
 50
219.484471235148
 51
270.0
  0
ARC
  5
AFA
330
AF2
100
AcDbEntity
  8
0
100
AcDbCircle
 10
20.0
 20
4.000000000000004
 30
0.0
 40
2.000000000000003
100
AcDbArc
 50
180.0
 51
268.2606276216297
  0
SPLINE
  5
AFB
330
AF2
100
AcDbEntity
  8
0
100
AcDbSpline
210
0.0
220
0.0
230
1.0
 70
     8
 71
     3
 72
    17
 73
    13
 74
     0
 42
0.000000001
 43
0.0000000001
 40
-1.0
 40
-1.0
 40
-1.0
 40
-1.0
 40
-0.8105852053058494
 40
-0.8105852053058494
 40
-0.8105852053058494
 40
-0.3906125808896856
 40
-0.3906125808896856
 40
-0.3906125808896856
 40
-0.0998153274892796
 40
-0.0998153274892796
 40
-0.0998153274892796
 40
0.0
 40
0.0
 40
0.0
 40
0.0
 10
-16.00000000000002
 20
2.00000000000001
 30
0.0
 10
-15.99999959166584
 20
1.999532947483232
 30
0.0
 10
-16.11433533467089
 20
1.928673893407778
 30
0.0
 10
-16.30623024009667
 20
1.811697674546656
 30
0.0
 10
-16.73170179406839
 20
1.552336679494973
 30
0.0
 10
-17.55102531100497
 20
1.07730557057597
 30
0.0
 10
-18.40633577892205
 20
0.6771212159682005
 30
0.0
 10
-18.99856946372632
 20
0.4000257473396634
 30
0.0
 10
-19.60630565559817
 20
0.1605701333371909
 30
0.0
 10
-20.114184330175
 20
0.0553813865225699
 30
0.0
 10
-20.28851223607824
 20
0.0192756493166157
 30
0.0
 10
-20.44888650979669
 20
0.0000063280412768
 30
0.0
 10
-20.59587679542445
 20
0.0000000002864614
 30
0.0
  0
LINE
  5
AFC
330
AF2
100
AcDbEntity
  8
0
100
AcDbLine
 10
-20.00000000000001
 20
0.0
 30
0.0
 11
-20.59587679528182
 21
0.0
 31
0.0
  0
ARC
  5
AFD
330
AF2
100
AcDbEntity
  8
0
100
AcDbCircle
 10
-20.0
 20
4.000000000000004
 30
0.0
 40
4.000000000000002
100
AcDbArc
 50
270.0
 51
320.5005229097154
  0
SPLINE
  5
AFE
330
AF2
100
AcDbEntity
  8
0
100
AcDbSpline
210
0.0
220
0.0
230
1.0
 70
     8
 71
     3
 72
    14
 73
    10
 74
     0
 42
0.000000001
 43
0.0000000001
 40
0.0
 40
0.0
 40
0.0
 40
0.0
 40
0.3343476143538549
 40
0.3343476143538549
 40
0.3343476143538549
 40
0.7709452046846725
 40
0.7709452046846725
 40
0.7709452046846725
 40
1.0
 40
1.0
 40
1.0
 40
1.0
 10
-20.5958767952818
 20
1.999999999999998
 30
0.0
 10
-20.31424601036061
 20
2.000062187193704
 30
0.0
 10
-19.93002501006257
 20
1.996574144204405
 30
0.0
 10
-19.54492737807413
 20
1.998909916777412
 30
0.0
 10
-19.04205943181052
 20
2.001960013841531
 30
0.0
 10
-18.53566673345105
 20
1.999852579257393
 30
0.0
 10
-18.24468782385064
 20
2.000198875965255
 30
0.0
 10
-18.09202982468693
 20
2.000380555670536
 30
0.0
 10
-18.0000009313762
 20
1.999953471989673
 30
0.0
 10
-17.9999999970375
 20
1.999999999939397
 30
0.0
  0
ARC
  5
AFF
330
AF2
100
AcDbEntity
  8
0
100
AcDbCircle
 10
-20.0
 20
4.000000000000004
 30
0.0
 40
2.000000000000003
100
AcDbArc
 50
278.4086838141006
 51
359.2021944587552
  0
LINE
  5
B00
330
AF2
100
AcDbEntity
  8
0
100
AcDbLine
 10
-20.59587679528182
 20
0.0
 30
0.0
 11
-20.59587679528182
 21
2.000000000000001
 31
0.0
  0
SPLINE
  5
B01
330
AF2
100
AcDbEntity
  8
0
100
AcDbSpline
210
0.0
220
0.0
230
1.0
 70
     8
 71
     3
 72
    16
 73
    12
 74
     0
 42
0.000000001
 43
0.0000000001
 40
0.025418000926977
 40
0.025418000926977
 40
0.025418000926977
 40
0.025418000926977
 40
0.0287965900226569
 40
0.0287965900226569
 40
0.0349713621620711
 40
0.0349713621620711
 40
0.0411615638865646
 40
0.0411615638865646
 40
0.0473936574186054
 40
0.0473936574186054
 40
0.050173793852095
 40
0.050173793852095
 40
0.050173793852095
 40
0.050173793852095
 10
-18.00224042837237
 20
3.891230727491013
 30
0.0
 10
-18.00224042837245
 20
3.891230727488849
 30
0.0
 10
-18.00220461537957
 20
3.892180955913047
 30
0.0
 10
-18.00204722672545
 20
3.896565680387967
 30
0.0
 10
-18.00189480809764
 20
3.900918807011689
 30
0.0
 10
-18.00149649150243
 20
3.914004769920439
 30
0.0
 10
-18.0012505340364
 20
3.922795639022074
 30
0.0
 10
-18.00075580156878
 20
3.944811393844804
 30
0.0
 10
-18.0005040739222
 20
3.958191023689244
 30
0.0
 10
-18.0002088164533
 20
3.981181019146029
 30
0.0
 10
-18.00012542535108
 20
3.988916832161068
 30
0.0
 10
-18.0000564168958
 20
3.997320904073077
 30
0.0
  0
SPLINE
  5
B02
330
AF2
100
AcDbEntity
  8
0
100
AcDbSpline
210
0.0
220
0.0
230
1.0
 70
     8
 71
     3
 72
    10
 73
     6
 74
     0
 42
0.000000001
 43
0.0000000001
 40
0.0858877808904087
 40
0.0858877808904087
 40
0.0858877808904087
 40
0.0858877808904087
 40
0.0869265379501765
 40
0.0869265379501765
 40
0.087138450168817
 40
0.087138450168817
 40
0.087138450168817
 40
0.087138450168817
 10
-18.00004413431707
 20
3.994194416452617
 30
0.0
 10
-18.00003246302342
 20
3.99595781919806
 30
0.0
 10
-18.00001992962449
 20
3.998012815133725
 30
0.0
 10
-18.00000503867438
 20
4.000826697830256
 30
0.0
 10
-18.00000251813965
 20
4.001318468692216
 30
0.0
 10
-18.00000000412207
 20
4.001821659210636
 30
0.0
  0
SPLINE
  5
B03
330
AF2
100
AcDbEntity
  8
0
100
AcDbSpline
210
0.0
220
0.0
230
1.0
 70
     8
 71
     3
 72
    16
 73
    12
 74
     0
 42
0.000000001
 43
0.0000000001
 40
0.0945263164446436
 40
0.0945263164446436
 40
0.0945263164446436
 40
0.0945263164446436
 40
0.0965277108298985
 40
0.0965277108298985
 40
0.1027041761298542
 40
0.1027041761298542
 40
0.1088840012186471
 40
0.1088840012186471
 40
0.1151440737431011
 40
0.1151440737431011
 40
0.1161812869058715
 40
0.1161812869058715
 40
0.1161812869058715
 40
0.1161812869058715
 10
-17.99999976673962
 20
4.07112056906235
 30
0.0
 10
-18.00002177299723
 20
4.077045524014984
 30
0.0
 10
-18.00004668415681
 20
4.082614544294312
 30
0.0
 10
-18.00015110445202
 20
4.103138256894304
 30
0.0
 10
-18.00024963060145
 20
4.11690695000452
 30
0.0
 10
-18.00045455536345
 20
4.141320009933819
 30
0.0
 10
-18.00056327814335
 20
4.152101505495586
 30
0.0
 10
-18.00075343205842
 20
4.169353227974183
 30
0.0
 10
-18.00083758763672
 20
4.176001351810113
 30
0.0
 10
-18.00086370506364
 20
4.178039688954775
 30
0.0
 10
-18.00086569707159
 20
4.178193325029792
 30
0.0
 10
-18.00086569715125
 20
4.178193331178074
 30
0.0
  0
SPLINE
  5
B04
330
AF2
100
AcDbEntity
  8
0
100
AcDbSpline
210
0.0
220
0.0
230
1.0
 70
     8
 71
     3
 72
    26
 73
    22
 74
     0
 42
0.000000001
 43
0.0000000001
 40
0.0
 40
0.0
 40
0.0
 40
0.0
 40
0.0217727005444214
 40
0.0217727005444214
 40
0.0509125977146541
 40
0.0509125977146541
 40
0.0618835134649802
 40
0.0618835134649802
 40
0.0706791262922469
 40
0.0706791262922469
 40
0.0776076456143124
 40
0.0776076456143124
 40
0.0826120943550002
 40
0.0826120943550002
 40
0.0898160902559377
 40
0.0898160902559377
 40
0.0937765976428237
 40
0.0937765976428237
 40
0.0959282685278406
 40
0.0959282685278406
 40
0.0979687413033067
 40
0.0979687413033067
 40
0.0979687413033067
 40
0.0979687413033067
 10
-20.56285815098339
 20
2.000032835044396
 30
0.0
 10
-20.50175757412256
 20
2.000058584302928
 30
0.0
 10
-20.43367166357179
 20
2.000128833725321
 30
0.0
 10
-20.27329921387492
 20
2.000860962477326
 30
0.0
 10
-20.1811674077343
 20
2.001369921771029
 30
0.0
 10
-20.05923781133244
 20
2.002612715091436
 30
0.0
 10
-20.02443450401982
 20
2.003088941184382
 30
0.0
 10
-19.96019991104913
 20
2.004540337344359
 30
0.0
 10
-19.9308559019411
 20
2.005408438718911
 30
0.0
 10
-19.87849839092788
 20
2.007571378126909
 30
0.0
 10
-19.85519696443938
 20
2.008751813032241
 30
0.0
 10
-19.81628642621669
 20
2.011199724599757
 30
0.0
 10
-19.80017456753557
 20
2.01236413758582
 30
0.0
 10
-19.76318310653693
 20
2.015408647179893
 30
0.0
 10
-19.74302141128245
 20
2.017404490291387
 30
0.0
 10
-19.71500813355905
 20
2.020563164313351
 30
0.0
 10
-19.70571870304125
 20
2.021699987026716
 30
0.0
 10
-19.69489241786944
 20
2.023092707022381
 30
0.0
 10
-19.69173029478026
 20
2.023515255631624
 30
0.0
 10
-19.68761524498647
 20
2.024074346726004
 30
0.0
 10
-19.68653509762114
 20
2.024226671096866
 30
0.0
 10
-19.68653509764403
 20
2.024226671093649
 30
0.0
  0
SPLINE
  5
B05
330
AF2
100
AcDbEntity
  8
0
100
AcDbSpline
210
0.0
220
0.0
230
1.0
 70
     8
 71
     3
 72
    10
 73
     6
 74
     0
 42
0.000000001
 43
0.0000000001
 40
0.0182466747060359
 40
0.0182466747060359
 40
0.0182466747060359
 40
0.0182466747060359
 40
0.018976400634075
 40
0.018976400634075
 40
0.0218584382979152
 40
0.0218584382979152
 40
0.0218584382979152
 40
0.0218584382979152
 10
-18.0000000148534
 20
3.98136222102439
 30
0.0
 10
-18.0000041027546
 20
3.982687137412708
 30
0.0
 10
-18.00000829595034
 20
3.984010799364247
 30
0.0
 10
-18.00002963739988
 20
3.990477102702678
 30
0.0
 10
-18.00004835906718
 20
3.995455761405598
 30
0.0
 10
-18.00006736105015
 20
3.99999971697984
 30
0.0
  0
SPLINE
  5
B06
330
AF2
100
AcDbEntity
  8
0
100
AcDbSpline
210
0.0
220
0.0
230
1.0
 70
     8
 71
     3
 72
    18
 73
    14
 74
     0
 42
0.000000001
 43
0.0000000001
 40
0.0233113568784108
 40
0.0233113568784108
 40
0.0233113568784108
 40
0.0233113568784108
 40
0.0259047221214094
 40
0.0259047221214094
 40
0.0336144410838847
 40
0.0336144410838847
 40
0.0387789402962351
 40
0.0387789402962351
 40
0.0429285157105226
 40
0.0429285157105226
 40
0.0456155977613009
 40
0.0456155977613009
 40
0.048112921360667
 40
0.048112921360667
 40
0.048112921360667
 40
0.048112921360667
 10
-18.00224042837236
 20
3.89123072749125
 30
0.0
 10
-18.00224042835904
 20
3.891230727846084
 30
0.0
 10
-18.00222048792417
 20
3.891759817634623
 30
0.0
 10
-18.0020821387589
 20
3.895559166676675
 30
0.0
 10
-18.00188417164942
 20
3.901064263408484
 30
0.0
 10
-18.00144925323361
 20
3.915747594816263
 30
0.0
 10
-18.00124566942816
 20
3.923200781521335
 30
0.0
 10
-18.00087506957136
 20
3.939380060627953
 30
0.0
 10
-18.00070778307976
 20
3.947613755482638
 30
0.0
 10
-18.00045347171695
 20
3.962868353144611
 30
0.0
 10
-18.00035832191952
 20
3.969327835658875
 30
0.0
 10
-18.00019193191595
 20
3.982769936970794
 30
0.0
 10
-18.0001183966076
 20
3.989772978449945
 30
0.0
 10
-18.0000564106522
 20
3.997321827712645
 30
0.0
  0
LINE
  5
B07
330
AF2
100
AcDbEntity
  8
0
100
AcDbLine
 10
13.99999999999998
 20
86.00000000000001
 30
0.0
 11
-13.99999999999998
 21
85.99999999999997
 31
0.0
  0
LINE
  5
B08
330
AF2
100
AcDbEntity
  8
0
100
AcDbLine
 10
13.99999999999998
 20
1.999999999999978
 30
0.0
 11
-14.0
 21
1.999999999999998
 31
0.0
  0
CIRCLE
  5
B09
330
AF2
100
AcDbEntity
  8
0
100
AcDbCircle
 10
0.0
 20
68.0
 30
0.0
 40
2.5
  0
CIRCLE
  5
B0A
330
AF2
100
AcDbEntity
  8
0
100
AcDbCircle
 10
0.0
 20
48.0
 30
0.0
 40
2.5
  0
LINE
  5
B0B
330
AF2
100
AcDbEntity
  8
0
100
AcDbLine
 10
13.99999999999998
 20
1.999999999999978
 30
0.0
 11
17.99999999999999
 21
1.999999999999976
 31
0.0
  0
LINE
  5
B0C
330
AF2
100
AcDbEntity
  8
0
100
AcDbLine
 10
18.0
 20
1.999999999999976
 30
0.0
 11
17.99999999999998
 21
85.99999999999997
 31
0.0
  0
LINE
  5
B0D
330
AF2
100
AcDbEntity
  8
0
100
AcDbLine
 10
13.99999999999998
 20
85.99999999999997
 30
0.0
 11
17.99999999999998
 21
85.99999999999997
 31
0.0
  0
LINE
  5
B0E
330
AF2
100
AcDbEntity
  8
0
100
AcDbLine
 10
57.5000000000001
 20
0.0
 30
0.0
 11
20.59587679528182
 21
0.0
 31
0.0
  0
LINE
  5
B0F
330
AF2
100
AcDbEntity
  8
0
100
AcDbLine
 10
57.5000000000001
 20
1.999999999999997
 30
0.0
 11
57.5000000000001
 21
0.0
 31
0.0
  0
LINE
  5
B10
330
AF2
100
AcDbEntity
  8
0
100
AcDbLine
 10
20.59587679528182
 20
2.000000000000001
 30
0.0
 11
57.5000000000001
 21
1.999999999999997
 31
0.0
  0
LINE
  5
B11
330
AF2
100
AcDbEntity
  8
0
100
AcDbLine
 10
-18.0
 20
2.0
 30
0.0
 11
-14.0
 21
1.999999999999998
 31
0.0
  0
LINE
  5
B12
330
AF2
100
AcDbEntity
  8
0
100
AcDbLine
 10
-13.99999999999998
 20
85.99999999999997
 30
0.0
 11
-17.99999999999998
 21
85.99999999999997
 31
0.0
  0
LINE
  5
B13
330
AF2
100
AcDbEntity
  8
0
100
AcDbLine
 10
-18.0
 20
2.0
 30
0.0
 11
-17.99999999999998
 21
85.99999999999997
 31
0.0
  0
LINE
  5
B14
330
AF2
100
AcDbEntity
  8
0
100
AcDbLine
 10
-57.5000000000001
 20
1.999999999999997
 30
0.0
 11
-20.59587679528182
 21
2.000000000000001
 31
0.0
  0
LINE
  5
B15
330
AF2
100
AcDbEntity
  8
0
100
AcDbLine
 10
-57.5000000000001
 20
0.0
 30
0.0
 11
-57.5000000000001
 21
1.999999999999997
 31
0.0
  0
LINE
  5
B16
330
AF2
100
AcDbEntity
  8
0
100
AcDbLine
 10
-20.59587679528182
 20
0.0
 30
0.0
 11
-57.5000000000001
 21
0.0
 31
0.0
  0
ENDBLK
  5
AF4
330
AF2
100
AcDbEntity
  8
0
100
AcDbBlockEnd
  0
BLOCK
  5
B18
330
B17
100
AcDbEntity
  8
0
100
AcDbBlockBegin
  2
SAE200_32_2-ISO
 70
     0
 10
0.0
 20
0.0
 30
0.0
  3
SAE200_32_2-ISO
  1

  0
SPLINE
  5
B1A
330
B17
100
AcDbEntity
  8
0
100
AcDbSpline
210
0.0
220
0.0
230
1.0
 70
     8
 71
     3
 72
    14
 73
    10
 74
     0
 42
0.000000001
 43
0.0000000001
 40
0.0
 40
0.0
 40
0.0
 40
0.0
 40
0.4040437154302975
 40
0.4040437154302975
 40
0.4040437154302975
 40
0.8364893629558997
 40
0.8364893629558997
 40
0.8364893629558997
 40
1.0
 40
1.0
 40
1.0
 40
1.0
 10
43.31940956906326
 20
-4.025870870904983
 30
0.0
 10
43.08650013040656
 20
-4.117067970391472
 30
0.0
 10
42.73289432592298
 20
-4.061649305516239
 30
0.0
 10
42.40548868315047
 20
-4.028949924491735
 30
0.0
 10
42.05506832073621
 20
-3.993951966447104
 30
0.0
 10
41.73028908478706
 20
-3.989463212079549
 30
0.0
 10
41.57485873955983
 20
-4.232260666816827
 30
0.0
 10
41.51608947015104
 20
-4.324064033838639
 30
0.0
 10
41.48524868543342
 20
-4.453913661966453
 30
0.0
 10
41.48384721045129
 20
-4.626669892023576
 30
0.0
  0
LINE
  5
B1B
330
B17
100
AcDbEntity
  8
0
100
AcDbLine
 10
41.48384728200491
 20
-4.626669937183507
 30
0.0
 11
40.06963371963181
 21
-5.443166518111239
 31
0.0
  0
LINE
  5
B1C
330
B17
100
AcDbEntity
  8
0
100
AcDbLine
 10
42.89806084437801
 20
-3.782605304501767
 30
0.0
 11
43.31940936707349
 21
-4.025870987502653
 31
0.0
  0
ELLIPSE
  5
B1D
330
B17
100
AcDbEntity
  8
0
100
AcDbEllipse
 10
41.48384728200491
 20
-4.599101885429495
 30
0.0
 11
2.000000000000003
 21
-0.000000000000119
 31
0.0
210
0.0
220
0.0
230
1.0
 40
0.5773502691896259
 41
0.7853981633976863
 42
2.356194490192574
  0
LINE
  5
B1E
330
B17
100
AcDbEntity
  8
0
100
AcDbLine
 10
40.06963371963181
 20
-4.572864807823449
 30
0.0
 11
40.06963371963181
 21
-3.782605304501767
 31
0.0
  0
LINE
  5
B1F
330
B17
100
AcDbEntity
  8
0
100
AcDbLine
 10
40.06963371963181
 20
-5.443166518111251
 30
0.0
 11
40.06963371963181
 21
-4.572864807823449
 31
0.0
  0
LINE
  5
B20
330
B17
100
AcDbEntity
  8
0
100
AcDbLine
 10
-20.74154946241129
 20
-58.51544427841345
 30
0.0
 11
-40.54053933563458
 21
-47.08449214542527
 31
0.0
  0
ELLIPSE
  5
B21
330
B17
100
AcDbEntity
  8
0
100
AcDbEllipse
 10
-17.91312233766508
 20
-45.45149898356982
 30
0.0
 11
-2.5
 21
0.0
 31
0.0
210
0.0
220
0.0
230
1.0
 40
0.5773502691896258
 41
5.313653197063817
 42
5.681921090500463
  0
LINE
  5
B22
330
B17
100
AcDbEntity
  8
0
100
AcDbLine
 10
-40.54053933563458
 20
-45.45149898356982
 30
0.0
 11
-20.74154946241129
 21
-56.88245111655799
 31
0.0
  0
ELLIPSE
  5
B23
330
B17
100
AcDbEntity
  8
0
100
AcDbEllipse
 10
-17.91312233766508
 20
-43.81850582171437
 30
0.0
 11
-2.5
 21
0.0000000000000001
 31
0.0
210
0.0
220
0.0
230
1.0
 40
0.5773502691896259
 41
5.313653197063816
 42
7.252717417295354
  0
LINE
  5
B24
330
B17
100
AcDbEntity
  8
0
100
AcDbLine
 10
41.48384728200491
 20
-4.626669937183507
 30
0.0
 11
41.48384728200493
 21
-22.58959471759349
 31
0.0
  0
ELLIPSE
  5
B25
330
B17
100
AcDbEntity
  8
0
100
AcDbEllipse
 10
38.65542015725873
 20
-20.95660155573803
 30
0.0
 11
2.000000000000006
 21
-3.464101615137762
 31
0.0
210
0.0
220
0.0
230
1.0
 40
0.5773502691896261
 41
0.0
 42
0.7853981633974483
  0
LINE
  5
B26
330
B17
100
AcDbEntity
  8
0
100
AcDbLine
 10
-19.32733590003815
 20
-56.0659545356303
 30
0.0
 11
-20.74154946241129
 21
-56.88245111655799
 31
0.0
  0
LINE
  5
B27
330
B17
100
AcDbEntity
  8
0
100
AcDbLine
 10
41.48384728200493
 20
-22.58959471759349
 30
0.0
 11
-17.91312233766508
 21
-56.88245111655797
 31
0.0
  0
ELLIPSE
  5
B28
330
B17
100
AcDbEntity
  8
0
100
AcDbEllipse
 10
-20.74154946241126
 20
-55.24945795470252
 30
0.0
 11
1.999999999999998
 21
-3.464101615137752
 31
0.0
210
0.0
220
0.0
230
1.0
 40
0.5773502691896258
 41
5.497787143782137
 42
7.068583470577035
  0
LINE
  5
B29
330
B17
100
AcDbEntity
  8
0
100
AcDbLine
 10
69.41456513887363
 20
6.191909760108802
 30
0.0
 11
70.82877870124672
 21
7.008406341036526
 31
0.0
  0
LINE
  5
B2A
330
B17
100
AcDbEntity
  8
0
100
AcDbLine
 10
43.31940936707349
 20
-4.025870987502653
 30
0.0
 11
69.41456513887363
 21
6.191909760108802
 31
0.0
  0
ELLIPSE
  5
B2B
330
B17
100
AcDbEntity
  8
0
100
AcDbEllipse
 10
57.04019646810895
 20
20.68472407157599
 30
0.0
 11
-2.749999999999998
 21
4.763139720814415
 31
0.0
210
0.0
220
0.0
230
1.0
 40
0.5773502691896258
 41
0.2600508977279009
 42
2.881541755861896
  0
ELLIPSE
  5
B2C
330
B17
100
AcDbEntity
  8
0
100
AcDbEllipse
 10
64.81837106116097
 20
12.11150997183486
 30
0.0
 11
1.250000000000128
 21
-2.165063509461023
 31
0.0
210
0.0
220
0.0
230
0.9999999999999998
 40
0.5773502691896257
 41
3.742856870268585
 42
5.681921090500111
  0
ELLIPSE
  5
B2D
330
B17
100
AcDbEntity
  8
0
100
AcDbEllipse
 10
49.26202187505694
 20
12.92800655276258
 30
0.0
 11
1.250000000000128
 21
-2.165063509461023
 31
0.0
210
0.0
220
0.0
230
1.0
 40
0.5773502691896255
 41
3.742856870268587
 42
5.681921090500116
  0
ELLIPSE
  5
B2E
330
B17
100
AcDbEntity
  8
0
100
AcDbEllipse
 10
49.26202187505694
 20
29.25793817131711
 30
0.0
 11
1.250000000000128
 21
-2.165063509461023
 31
0.0
210
0.0
220
0.0
230
1.0
 40
0.5773502691896255
 41
3.742856870268585
 42
5.681921090500111
  0
ELLIPSE
  5
B2F
330
B17
100
AcDbEntity
  8
0
100
AcDbEllipse
 10
64.81837106116097
 20
28.44144159038938
 30
0.0
 11
1.250000000000128
 21
-2.165063509461023
 31
0.0
210
0.0
220
0.0
230
0.9999999999999998
 40
0.5773502691896257
 41
3.742856870268585
 42
5.681921090500111
  0
LINE
  5
B30
330
B17
100
AcDbEntity
  8
0
100
AcDbLine
 10
44.31227440675111
 20
44.36312491848005
 30
0.0
 11
70.82877870124665
 21
29.05381402608519
 31
0.0
  0
LINE
  5
B31
330
B17
100
AcDbEntity
  8
0
100
AcDbLine
 10
70.82877870124672
 20
7.008406341036526
 30
0.0
 11
70.82877870124665
 21
29.05381402608519
 31
0.0
  0
ELLIPSE
  5
B32
330
B17
100
AcDbEntity
  8
0
100
AcDbEllipse
 10
41.48384728200491
 20
42.73013175662459
 30
0.0
 11
4.000000000000003
 21
-0.0000000000002383
 31
0.0
210
0.0
220
0.0
230
1.0
 40
0.5773502691896259
 41
0.7853981633976863
 42
2.356194490192585
  0
ELLIPSE
  5
B33
330
B17
100
AcDbEntity
  8
0
100
AcDbEllipse
 10
14.26023620632283
 20
18.03111018356087
 30
0.0
 11
1.249999999999871
 21
2.165063509461171
 31
0.0
210
0.0
220
0.0
230
0.9999999999999998
 40
0.577350269189626
 41
3.742856870268582
 42
5.681921090500121
  0
ELLIPSE
  5
B34
330
B17
100
AcDbEntity
  8
0
100
AcDbEllipse
 10
15.67444976869592
 20
17.21461360263314
 30
0.0
 11
-1.25
 21
-2.165063509461097
 31
0.0
210
0.0
220
0.0
230
1.0
 40
0.5773502691896259
 41
0.0
 42
6.283185307179586
  0
ELLIPSE
  5
B35
330
B17
100
AcDbEntity
  8
0
100
AcDbEllipse
 10
14.26023620632283
 20
1.701178565006342
 30
0.0
 11
1.249999999999871
 21
2.165063509461171
 31
0.0
210
0.0
220
0.0
230
0.9999999999999998
 40
0.577350269189626
 41
3.742856870268582
 42
5.681921090500121
  0
ELLIPSE
  5
B36
330
B17
100
AcDbEntity
  8
0
100
AcDbEllipse
 10
15.67444976869592
 20
0.8846819840786146
 30
0.0
 11
-1.25
 21
-2.165063509461097
 31
0.0
210
0.0
220
0.0
230
1.0
 40
0.5773502691896259
 41
0.0
 42
6.283185307179586
  0
LINE
  5
B37
330
B17
100
AcDbEntity
  8
0
100
AcDbLine
 10
-19.32733590003817
 20
-38.56352178116391
 30
0.0
 11
8.95693534742373
 21
5.171289033949189
 31
0.0
  0
LINE
  5
B38
330
B17
100
AcDbEntity
  8
0
100
AcDbLine
 10
-17.91312233766508
 20
-39.38001836209163
 30
0.0
 11
-19.32733590003817
 21
-38.56352178116391
 31
0.0
  0
LINE
  5
B39
330
B17
100
AcDbEntity
  8
0
100
AcDbLine
 10
10.37114890979682
 20
4.354792453021469
 30
0.0
 11
-17.91312233766508
 21
-39.38001836209163
 31
0.0
  0
LINE
  5
B3A
330
B17
100
AcDbEntity
  8
0
100
AcDbLine
 10
10.37114890979682
 20
4.354792453021469
 30
0.0
 11
8.95693534742373
 21
5.171289033949193
 31
0.0
  0
LINE
  5
B3B
330
B17
100
AcDbEntity
  8
0
100
AcDbLine
 10
8.95693534742373
 20
5.171289033949193
 30
0.0
 11
8.956935347423726
 21
27.21669671899781
 31
0.0
  0
LINE
  5
B3C
330
B17
100
AcDbEntity
  8
0
100
AcDbLine
 10
10.37114890979682
 20
26.40020013807007
 30
0.0
 11
10.37114890979682
 21
4.354792453021469
 31
0.0
  0
LINE
  5
B3D
330
B17
100
AcDbEntity
  8
0
100
AcDbLine
 10
8.956935347423726
 20
27.21669671899781
 30
0.0
 11
10.37114890979682
 21
26.40020013807007
 31
0.0
  0
LINE
  5
B3E
330
B17
100
AcDbEntity
  8
0
100
AcDbLine
 10
-17.91312233766508
 20
-39.38001836209163
 30
0.0
 11
-17.91312233766508
 21
-56.88245111655797
 31
0.0
  0
LINE
  5
B3F
330
B17
100
AcDbEntity
  8
0
100
AcDbLine
 10
40.06963371963181
 20
-3.782605304501767
 30
0.0
 11
40.06963371963181
 21
43.54662833755231
 31
0.0
  0
LINE
  5
B40
330
B17
100
AcDbEntity
  8
0
100
AcDbLine
 10
40.06963371963181
 20
43.54662833755231
 30
0.0
 11
10.37114890979683
 21
26.40020013807007
 31
0.0
  0
LINE
  5
B41
330
B17
100
AcDbEntity
  8
0
100
AcDbLine
 10
8.956935347423726
 20
27.21669671899781
 30
0.0
 11
38.65542015725873
 21
44.36312491848005
 31
0.0
  0
LINE
  5
B42
330
B17
100
AcDbEntity
  8
0
100
AcDbLine
 10
-19.32733590003817
 20
-56.06595453563024
 30
0.0
 11
-19.32733590003817
 21
-38.56352178116391
 31
0.0
  0
LINE
  5
B43
330
B17
100
AcDbEntity
  8
0
100
AcDbLine
 10
-20.74154946241129
 20
-56.88245111655799
 30
0.0
 11
-20.74154946241129
 21
-58.51544427841345
 31
0.0
  0
LINE
  5
B44
330
B17
100
AcDbEntity
  8
0
100
AcDbLine
 10
-19.32733590003817
 20
-56.06595453563024
 30
0.0
 11
-17.91312233766508
 21
-56.88245111655797
 31
0.0
  0
ELLIPSE
  5
B45
330
B17
100
AcDbEntity
  8
0
100
AcDbEllipse
 10
-20.74154946241126
 20
-55.24945795470252
 30
0.0
 11
0.9999999999999989
 21
-1.732050807568875
 31
0.0
210
0.0
220
0.0
230
1.0
 40
0.5773502691896258
 41
5.497787143782137
 42
7.068583470577032
  0
LINE
  5
B46
330
B17
100
AcDbEntity
  8
0
100
AcDbLine
 10
42.89806084437801
 20
-3.782605304501767
 30
0.0
 11
42.89806084437802
 21
43.54662833755231
 31
0.0
  0
ELLIPSE
  5
B47
330
B17
100
AcDbEntity
  8
0
100
AcDbEllipse
 10
41.48384728200491
 20
42.73013175662459
 30
0.0
 11
-2.000000000000003
 21
-0.0000000000001193
 31
0.0
210
0.0
220
0.0
230
1.0
 40
0.5773502691896261
 41
3.926990816986995
 42
5.497787143781893
  0
LINE
  5
B48
330
B17
100
AcDbEntity
  8
0
100
AcDbLine
 10
70.82877870124665
 20
29.05381402608519
 30
0.0
 11
69.41456513887354
 21
28.23731744515746
 31
0.0
  0
LINE
  5
B49
330
B17
100
AcDbEntity
  8
0
100
AcDbLine
 10
69.41456513887363
 20
6.191909760108802
 30
0.0
 11
69.41456513887354
 21
28.23731744515746
 31
0.0
  0
LINE
  5
B4A
330
B17
100
AcDbEntity
  8
0
100
AcDbLine
 10
40.06963371963181
 20
43.54662833755231
 30
0.0
 11
38.65542015725873
 21
44.36312491848005
 31
0.0
  0
LINE
  5
B4B
330
B17
100
AcDbEntity
  8
0
100
AcDbLine
 10
42.89806084437802
 20
43.54662833755231
 30
0.0
 11
44.31227440675111
 21
44.36312491848005
 31
0.0
  0
LINE
  5
B4C
330
B17
100
AcDbEntity
  8
0
100
AcDbLine
 10
69.41456513887354
 20
28.23731744515746
 30
0.0
 11
42.89806084437802
 21
43.54662833755231
 31
0.0
  0
ELLIPSE
  5
B4D
330
B17
100
AcDbEntity
  8
0
100
AcDbEllipse
 10
55.62598290573586
 20
19.86822749064826
 30
0.0
 11
-2.75
 21
4.763139720814414
 31
0.0
210
0.0
220
0.0
230
1.0
 40
0.5773502691896255
 41
0.0
 42
6.283185307179586
  0
ELLIPSE
  5
B4E
330
B17
100
AcDbEntity
  8
0
100
AcDbEllipse
 10
63.40415749878786
 20
11.29501339090713
 30
0.0
 11
-1.249999999999999
 21
2.165063509461097
 31
0.0
210
0.0
220
0.0
230
1.0
 40
0.5773502691896257
 41
0.0
 42
6.283185307179586
  0
ELLIPSE
  5
B4F
330
B17
100
AcDbEntity
  8
0
100
AcDbEllipse
 10
47.84780831268384
 20
12.11150997183485
 30
0.0
 11
-1.249999999999999
 21
2.165063509461097
 31
0.0
210
0.0
220
0.0
230
1.0
 40
0.5773502691896257
 41
0.0
 42
6.283185307179586
  0
ELLIPSE
  5
B50
330
B17
100
AcDbEntity
  8
0
100
AcDbEllipse
 10
47.84780831268384
 20
28.44144159038938
 30
0.0
 11
-1.249999999999999
 21
2.165063509461097
 31
0.0
210
0.0
220
0.0
230
1.0
 40
0.5773502691896257
 41
0.0
 42
6.283185307179586
  0
ELLIPSE
  5
B51
330
B17
100
AcDbEntity
  8
0
100
AcDbEllipse
 10
63.40415749878786
 20
27.62494500946166
 30
0.0
 11
-1.249999999999999
 21
2.165063509461097
 31
0.0
210
0.0
220
0.0
230
1.0
 40
0.5773502691896257
 41
0.0
 42
6.283185307179586
  0
LINE
  5
B52
330
B17
100
AcDbEntity
  8
0
100
AcDbLine
 10
-18.74154946241127
 20
-58.71355956984027
 30
0.0
 11
40.65542015725874
 21
-24.42070317087579
 31
0.0
  0
LINE
  5
B53
330
B17
100
AcDbEntity
  8
0
100
AcDbLine
 10
-13.79588491689982
 20
-30.01046555552982
 30
0.0
 11
-40.54053933563458
 21
-45.45149898356982
 31
0.0
  0
ELLIPSE
  5
B54
330
B17
100
AcDbEntity
  8
0
100
AcDbEllipse
 10
-40.54053933563458
 20
-43.81850582171438
 30
0.0
 11
2.000000000000204
 21
-3.464101615137634
 31
0.0
210
0.0
220
0.0
230
1.0
 40
0.5773502691896258
 41
3.926990816987
 42
5.497787143781897
  0
LINE
  5
B55
330
B17
100
AcDbEntity
  8
0
100
AcDbLine
 10
-41.95475289800767
 20
-43.00200924078665
 30
0.0
 11
-10.42509672959261
 21
-24.79835376449586
 31
0.0
  0
LINE
  5
B56
330
B17
100
AcDbEntity
  8
0
100
AcDbLine
 10
-43.36896646038076
 20
-42.18551265985893
 30
0.0
 11
-41.95475289800767
 21
-43.00200924078665
 31
0.0
  0
LINE
  5
B57
330
B17
100
AcDbEntity
  8
0
100
AcDbLine
 10
-40.54053933563458
 20
-47.08449214542527
 30
0.0
 11
-40.54053933563458
 21
-45.45149898356982
 31
0.0
  0
ELLIPSE
  5
B58
330
B17
100
AcDbEntity
  8
0
100
AcDbEllipse
 10
-40.54053933563458
 20
-43.81850582171438
 30
0.0
 11
1.000000000000102
 21
-1.732050807568816
 31
0.0
210
0.0
220
0.0
230
1.0
 40
0.5773502691896257
 41
3.926990816987
 42
5.497787143781896
  0
LINE
  5
B59
330
B17
100
AcDbEntity
  8
0
100
AcDbLine
 10
-11.9027146975795
 20
53.14046316345313
 30
0.0
 11
-7.096648394812721
 21
45.70903957550207
 31
0.0
  0
LINE
  5
B5A
330
B17
100
AcDbEntity
  8
0
100
AcDbLine
 10
-13.67048165054577
 20
18.2352343287928
 30
0.0
 11
-41.95475289800767
 21
-25.49957648632031
 31
0.0
  0
LINE
  5
B5B
330
B17
100
AcDbEntity
  8
0
100
AcDbLine
 10
-15.08469521291887
 20
19.05173090972053
 30
0.0
 11
-13.67048165054577
 21
18.2352343287928
 31
0.0
  0
LINE
  5
B5C
330
B17
100
AcDbEntity
  8
0
100
AcDbLine
 10
-43.36896646038076
 20
-24.68307990539259
 30
0.0
 11
-15.08469521291887
 21
19.05173090972052
 31
0.0
  0
LINE
  5
B5D
330
B17
100
AcDbEntity
  8
0
100
AcDbLine
 10
-41.95475289800767
 20
-25.49957648632031
 30
0.0
 11
-43.36896646038076
 21
-24.68307990539259
 31
0.0
  0
LINE
  5
B5E
330
B17
100
AcDbEntity
  8
0
100
AcDbLine
 10
-13.67048165054577
 20
40.28064201384141
 30
0.0
 11
-13.67048165054577
 21
18.2352343287928
 31
0.0
  0
LINE
  5
B5F
330
B17
100
AcDbEntity
  8
0
100
AcDbLine
 10
-15.08469521291887
 20
41.09713859476913
 30
0.0
 11
-13.67048165054577
 21
40.28064201384141
 31
0.0
  0
LINE
  5
B60
330
B17
100
AcDbEntity
  8
0
100
AcDbLine
 10
-15.08469521291887
 20
19.05173090972053
 30
0.0
 11
-15.08469521291887
 21
41.09713859476913
 31
0.0
  0
ELLIPSE
  5
B61
330
B17
100
AcDbEntity
  8
0
100
AcDbEllipse
 10
1.885867535558229
 20
50.89509756590185
 30
0.0
 11
-2.750000000000003
 21
4.763139720814412
 31
0.0
210
0.0
220
0.0
230
1.0
 40
0.5773502691896259
 41
4.712388980384691
 42
7.853981633974486
  0
ELLIPSE
  5
B62
330
B17
100
AcDbEntity
  8
0
100
AcDbEllipse
 10
3.300081097931331
 20
51.7115941468296
 30
0.0
 11
-2.750000000000002
 21
4.763139720814412
 31
0.0
210
0.0
220
0.0
230
1.0
 40
0.5773502691896258
 41
0.2600508977278987
 42
1.570796326794896
  0
ELLIPSE
  5
B63
330
B17
100
AcDbEntity
  8
0
100
AcDbEllipse
 10
-5.89230705749379
 20
51.30334585636571
 30
0.0
 11
1.250000000000001
 21
-2.165063509461097
 31
0.0
210
0.0
220
0.0
230
1.0
 40
0.5773502691896259
 41
0.0
 42
6.283185307179586
  0
ELLIPSE
  5
B64
330
B17
100
AcDbEntity
  8
0
100
AcDbEllipse
 10
-5.89230705749379
 20
67.63327747492025
 30
0.0
 11
1.250000000000001
 21
-2.165063509461097
 31
0.0
210
0.0
220
0.0
230
1.0
 40
0.5773502691896259
 41
0.0
 42
6.283185307179586
  0
ELLIPSE
  5
B65
330
B17
100
AcDbEntity
  8
0
100
AcDbEllipse
 10
-4.478093495120689
 20
52.11984243729346
 30
0.0
 11
1.25000000000013
 21
-2.165063509461022
 31
0.0
210
0.0
220
0.0
230
1.0
 40
0.577350269189626
 41
3.742856870268587
 42
5.681921090500114
  0
ELLIPSE
  5
B66
330
B17
100
AcDbEntity
  8
0
100
AcDbEllipse
 10
-4.478093495120689
 20
68.44977405584798
 30
0.0
 11
1.25000000000013
 21
-2.165063509461022
 31
0.0
210
0.0
220
0.0
230
1.0
 40
0.577350269189626
 41
3.742856870268587
 42
5.681921090500114
  0
LINE
  5
B67
330
B17
100
AcDbEntity
  8
0
100
AcDbLine
 10
14.6137895969161
 20
58.24356679425138
 30
0.0
 11
14.6137895969161
 21
59.87655995610686
 31
0.0
  0
ELLIPSE
  5
B68
330
B17
100
AcDbEntity
  8
0
100
AcDbEllipse
 10
13.19957603454301
 20
59.06006337517911
 30
0.0
 11
2.000000000000003
 21
0.0000000000000002
 31
0.0
210
0.0
220
0.0
230
1.0
 40
0.5773502691896261
 41
5.497787143782136
 42
7.068583470577035
  0
LINE
  5
B69
330
B17
100
AcDbEntity
  8
0
100
AcDbLine
 10
16.0280031592892
 20
57.42707021332366
 30
0.0
 11
16.0280031592892
 21
31.29917962363642
 31
0.0
  0
ELLIPSE
  5
B6A
330
B17
100
AcDbEntity
  8
0
100
AcDbEllipse
 10
13.19957603454301
 20
59.06006337517911
 30
0.0
 11
4.000000000000003
 21
-0.0000000000000007
 31
0.0
210
0.0
220
0.0
230
1.0
 40
0.5773502691896259
 41
5.497787143782137
 42
7.068583470577036
  0
LINE
  5
B6B
330
B17
100
AcDbEntity
  8
0
100
AcDbLine
 10
14.6137895969161
 20
59.87655995610686
 30
0.0
 11
16.02800315928919
 21
60.69305653703458
 31
0.0
  0
LINE
  5
B6C
330
B17
100
AcDbEntity
  8
0
100
AcDbLine
 10
14.6137895969161
 20
58.2435667942514
 30
0.0
 11
16.0280031592892
 21
57.42707021332366
 31
0.0
  0
LINE
  5
B6D
330
B17
100
AcDbEntity
  8
0
100
AcDbLine
 10
17.19957603454301
 20
31.97558753853948
 30
0.0
 11
17.19957603454301
 21
59.06006337517911
 31
0.0
  0
LINE
  5
B6E
330
B17
100
AcDbEntity
  8
0
100
AcDbLine
 10
-11.90271469757942
 20
75.18587084850171
 30
0.0
 11
14.6137895969161
 21
59.87655995610686
 31
0.0
  0
LINE
  5
B6F
330
B17
100
AcDbEntity
  8
0
100
AcDbLine
 10
-11.9027146975795
 20
53.14046316345313
 30
0.0
 11
-11.90271469757942
 21
75.18587084850171
 31
0.0
  0
LINE
  5
B70
330
B17
100
AcDbEntity
  8
0
100
AcDbLine
 10
-41.95475289800767
 20
-43.00200924078665
 30
0.0
 11
-41.95475289800767
 21
-25.49957648632031
 31
0.0
  0
LINE
  5
B71
330
B17
100
AcDbEntity
  8
0
100
AcDbLine
 10
-13.67048165054577
 20
40.28064201384141
 30
0.0
 11
16.0280031592892
 21
57.42707021332366
 31
0.0
  0
LINE
  5
B72
330
B17
100
AcDbEntity
  8
0
100
AcDbLine
 10
-43.36896646038076
 20
-24.68307990539259
 30
0.0
 11
-43.36896646038076
 21
-42.18551265985893
 31
0.0
  0
LINE
  5
B73
330
B17
100
AcDbEntity
  8
0
100
AcDbLine
 10
14.6137895969161
 20
58.2435667942514
 30
0.0
 11
-15.08469521291888
 21
41.09713859476913
 31
0.0
  0
LINE
  5
B74
330
B17
100
AcDbEntity
  8
0
100
AcDbLine
 10
16.02800315928919
 20
60.69305653703458
 30
0.0
 11
-10.48850113520632
 21
76.00236742942943
 31
0.0
  0
LINE
  5
B75
330
B17
100
AcDbEntity
  8
0
100
AcDbLine
 10
-10.48850113520632
 20
76.00236742942943
 30
0.0
 11
-11.90271469757942
 21
75.18587084850171
 31
0.0
  0
ELLIPSE
  5
B76
330
B17
100
AcDbEntity
  8
0
100
AcDbEllipse
 10
-9.781394354019759
 20
23.74658625005496
 30
0.0
 11
1.24999999999987
 21
2.165063509461171
 31
0.0
210
0.0
220
0.0
230
1.0
 40
0.5773502691896257
 41
3.742856870268582
 42
5.68192109050012
  0
ELLIPSE
  5
B77
330
B17
100
AcDbEntity
  8
0
100
AcDbEllipse
 10
-8.367180791646662
 20
22.93008966912723
 30
0.0
 11
1.249999999999999
 21
2.165063509461097
 31
0.0
210
0.0
220
0.0
230
1.0
 40
0.5773502691896257
 41
0.0
 42
6.283185307179586
  0
ELLIPSE
  5
B78
330
B17
100
AcDbEntity
  8
0
100
AcDbEllipse
 10
-9.781394354019759
 20
40.07651786860948
 30
0.0
 11
1.24999999999987
 21
2.165063509461171
 31
0.0
210
0.0
220
0.0
230
1.0
 40
0.5773502691896257
 41
3.742856870268582
 42
5.681921090500118
  0
ELLIPSE
  5
B79
330
B17
100
AcDbEntity
  8
0
100
AcDbEllipse
 10
-8.367180791646662
 20
39.26002128768176
 30
0.0
 11
1.249999999999999
 21
2.165063509461097
 31
0.0
210
0.0
220
0.0
230
1.0
 40
0.5773502691896257
 41
0.0
 42
6.283185307179586
  0
ELLIPSE
  5
B7A
330
B17
100
AcDbEntity
  8
0
100
AcDbEllipse
 10
-9.781394354019754
 20
7.416654631500443
 30
0.0
 11
1.24999999999987
 21
2.165063509461171
 31
0.0
210
0.0
220
0.0
230
1.0
 40
0.5773502691896257
 41
3.742856870268582
 42
5.681921090500116
  0
ELLIPSE
  5
B7B
330
B17
100
AcDbEntity
  8
0
100
AcDbEllipse
 10
-8.367180791646662
 20
6.600158050572715
 30
0.0
 11
1.249999999999999
 21
2.165063509461097
 31
0.0
210
0.0
220
0.0
230
1.0
 40
0.5773502691896257
 41
0.0
 42
6.283185307179586
  0
ENDBLK
  5
B19
330
B17
100
AcDbEntity
  8
0
100
AcDbBlockEnd
  0
ENDSEC
  0
SECTION
  2
ENTITIES
  0
INSERT
  5
B7C
330
1F
100
AcDbEntity
  8
0
100
AcDbBlockReference
  2
SAE200_32_2-Front
 10
0.0
 20
0.0
 30
0.0
  0
INSERT
  5
B7D
330
1F
100
AcDbEntity
  8
0
100
AcDbBlockReference
  2
SAE200_32_2-Left
 10
86.20000025254039
 20
0.0
 30
0.0
  0
INSERT
  5
B7E
330
1F
100
AcDbEntity
  8
0
100
AcDbBlockReference
  2
SAE200_32_2-Right
 10
-86.20000277794307
 20
0.0
 30
0.0
  0
INSERT
  5
B7F
330
1F
100
AcDbEntity
  8
0
100
AcDbBlockReference
  2
SAE200_32_2-Top
 10
0.0
 20
-30.70000025254029
 30
0.0
  0
INSERT
  5
B80
330
1F
100
AcDbEntity
  8
0
100
AcDbBlockReference
  2
SAE200_32_2-Bottom
 10
0.0
 20
112.7000027779429
 30
0.0
  0
INSERT
  5
B81
330
1F
100
AcDbEntity
  8
0
100
AcDbBlockReference
  2
SAE200_32_2-ISO
 10
129.5689667129212
 20
-106.7023676819697
 30
0.0
  0
MTEXT
  5
B82
330
1F
100
AcDbEntity
  8
0
100
AcDbMText
 10
0.0
 20
-145.4000005050806
 30
0.0
 40
9.566666750846762
 41
0.0
 71
     5
 72
     5
  1
SAE200/32/2
 73
     1
 44
1.0
1001
ACAD
1000
MTEXTBEGIN
1070
    73
1070
     1
1070
    44
1040
1.0
1070
    74
1070
     0
1000
MTEXTEND
  0
ENDSEC
  0
SECTION
  2
OBJECTS
  0
DICTIONARY
  5
C
330
0
100
AcDbDictionary
281
     1
  3
ACAD_CIP_PREVIOUS_PRODUCT_INFO
350
216
  3
ACAD_COLOR
350
6B
  3
ACAD_DETAILVIEWSTYLE
350
21B
  3
ACAD_GROUP
350
D
  3
ACAD_LAYOUT
350
1A
  3
ACAD_MATERIAL
350
6A
  3
ACAD_MLEADERSTYLE
350
12D
  3
ACAD_MLINESTYLE
350
17
  3
ACAD_PLOTSETTINGS
350
19
  3
ACAD_PLOTSTYLENAME
350
E
  3
ACAD_SCALELIST
350
10C
  3
ACAD_SECTIONVIEWSTYLE
350
219
  3
ACAD_TABLESTYLE
350
7E
  3
ACAD_VISUALSTYLE
350
EF
  3
ACDB_RECOMPOSE_DATA
350
C83
  3
AcDbVariableDictionary
350
5E
  3
DWGPROPS
350
C84
  0
DICTIONARY
  5
BD3
330
8
100
AcDbDictionary
280
     1
281
     1
  0
DICTIONARY
  5
1FF
330
2
100
AcDbDictionary
280
     1
281
     1
  3
ACAD_LAYERSTATES
360
200
  0
DICTIONARY
  5
13C
330
10
100
AcDbDictionary
280
     1
281
     1
  0
DICTIONARY
  5
1CE
330
1F
100
AcDbDictionary
280
     1
281
     1
  3
ACAD_LAYOUTSELFREF
360
BDB
  0
DICTIONARY
  5
B86
330
D2
100
AcDbDictionary
280
     1
281
     1
  3
ACAD_LAYOUTSELFREF
360
BE4
  0
DICTIONARY
  5
B88
330
D6
100
AcDbDictionary
280
     1
281
     1
  3
ACAD_LAYOUTSELFREF
360
BE7
  0
XRECORD
  5
216
102
{ACAD_REACTORS
330
C
102
}
330
C
100
AcDbXrecord
280
     1
300
ACD
300
2021
300
87393ACD_2021_0F
  0
DICTIONARY
  5
6B
102
{ACAD_REACTORS
330
C
102
}
330
C
100
AcDbDictionary
281
     1
  0
DICTIONARY
  5
21B
102
{ACAD_REACTORS
330
C
102
}
330
C
100
AcDbDictionary
281
     1
  3
Metric50
350
21C
  0
DICTIONARY
  5
D
102
{ACAD_REACTORS
330
C
102
}
330
C
100
AcDbDictionary
281
     1
  0
DICTIONARY
  5
1A
102
{ACAD_REACTORS
330
C
102
}
330
C
100
AcDbDictionary
281
     1
  3
Layout1
350
D3
  3
Layout2
350
D7
  3
Model
350
22
  0
DICTIONARY
  5
6A
102
{ACAD_REACTORS
330
C
102
}
330
C
100
AcDbDictionary
281
     1
  3
ByBlock
350
ED
  3
ByLayer
350
EC
  3
Global
350
EE
  0
DICTIONARY
  5
12D
102
{ACAD_REACTORS
330
C
102
}
330
C
100
AcDbDictionary
281
     1
  3
Standard
350
12E
  0
DICTIONARY
  5
17
102
{ACAD_REACTORS
330
C
102
}
330
C
100
AcDbDictionary
281
     1
  3
Standard
350
18
  0
DICTIONARY
  5
19
102
{ACAD_REACTORS
330
C
102
}
330
C
100
AcDbDictionary
281
     1
  0
ACDBDICTIONARYWDFLT
  5
E
102
{ACAD_REACTORS
330
C
102
}
330
C
100
AcDbDictionary
281
     1
  3
Normal
350
F
100
AcDbDictionaryWithDefault
340
F
  0
DICTIONARY
  5
10C
102
{ACAD_REACTORS
330
C
102
}
330
C
100
AcDbDictionary
281
     1
  3
A0
350
10D
  3
A1
350
1BE
  3
A2
350
1BF
  3
A3
350
1C0
  3
A4
350
1C1
  3
A5
350
1C2
  3
A6
350
1C3
  3
A7
350
1C4
  3
A8
350
1C5
  3
A9
350
1C6
  3
B0
350
1C7
  3
B1
350
1C8
  3
B2
350
1C9
  3
B3
350
1CA
  3
B4
350
1CB
  3
B5
350
1CC
  3
B6
350
1CD
  0
DICTIONARY
  5
219
102
{ACAD_REACTORS
330
C
102
}
330
C
100
AcDbDictionary
281
     1
  3
Metric50
350
21A
  0
DICTIONARY
  5
7E
102
{ACAD_REACTORS
330
C
102
}
330
C
100
AcDbDictionary
281
     1
  3
Standard
350
7F
  0
DICTIONARY
  5
EF
102
{ACAD_REACTORS
330
C
102
}
330
C
100
AcDbDictionary
281
     1
  3
2dWireframe
350
F5
  3
Basic
350
F4
  3
Brighten
350
FB
  3
ColorChange
350
FF
  3
Conceptual
350
F8
  3
Dim
350
FA
  3
EdgeColorOff
350
1E6
  3
Facepattern
350
FE
  3
Flat
350
F0
  3
FlatWithEdges
350
F1
  3
Gouraud
350
F2
  3
GouraudWithEdges
350
F3
  3
Hidden
350
F7
  3
JitterOff
350
1E4
  3
Linepattern
350
FD
  3
OverhangOff
350
1E5
  3
Realistic
350
F9
  3
Shaded
350
1F3
  3
Shaded with edges
350
1F2
  3
Shades of Gray
350
1EF
  3
Sketchy
350
1F0
  3
Thicken
350
FC
  3
Wireframe
350
F6
  3
X-Ray
350
1F1
  0
XRECORD
  5
C83
102
{ACAD_REACTORS
330
C
102
}
330
C
100
AcDbXrecord
280
     1
 90
        1
330
7F
  0
DICTIONARY
  5
5E
102
{ACAD_REACTORS
330
C
102
}
330
C
100
AcDbDictionary
281
     1
  3
CANNOSCALE
350
146
  3
CENTEREXE
350
259
  3
CENTERLTYPEFILE
350
25A
  3
CMLEADERSTYLE
350
145
  3
CTABLESTYLE
350
84
  3
CVIEWDETAILSTYLE
350
227
  3
CVIEWSECTIONSTYLE
350
228
  3
DIMASSOC
350
5F
  3
HIDETEXT
350
63
  3
INDEXCTL
350
C30
  3
LAYEREVAL
350
1AE
  3
LAYERNOTIFY
350
1AF
  3
LIGHTINGUNITS
350
C2E
  3
MSLTSCALE
350
C2D
  3
PSOLHEIGHT
350
C80
  3
PSOLWIDTH
350
C7F
  3
SORTENTS
350
C2F
  3
XCLIPFRAME
350
C81
  0
XRECORD
  5
C84
102
{ACAD_REACTORS
330
C
102
}
330
C
100
AcDbXrecord
280
     1
  1
DWGPROPS COOKIE
  2

  3

  4

  6

  7

  8
truole
  9

300
=
301
=
302
=
303
=
304
=
305
=
306
=
307
=
308
=
309
=
 40
0.0065740740740741
 41
2460398.356956019
 42
2460398.369780092
  1

 90
        0
  0
DICTIONARY
  5
200
102
{ACAD_REACTORS
330
1FF
102
}
330
1FF
100
AcDbDictionary
281
     1
  0
XRECORD
  5
BDB
102
{ACAD_REACTORS
330
1CE
102
}
330
1CE
100
AcDbXrecord
280
     1
340
1F
  0
XRECORD
  5
BE4
102
{ACAD_REACTORS
330
B86
102
}
330
B86
100
AcDbXrecord
280
     1
340
D2
  0
XRECORD
  5
BE7
102
{ACAD_REACTORS
330
B88
102
}
330
B88
100
AcDbXrecord
280
     1
340
D6
  0
ACDBDETAILVIEWSTYLE
  5
21C
102
{ACAD_XDICTIONARY
360
CC3
102
}
102
{ACAD_REACTORS
330
21B
102
}
330
21B
100
AcDbModelDocViewStyle
 70
     0
  3
Metric50
290
     0
100
AcDbDetailViewStyle
 70
     0
 71
     0
 90
        3
 71
     1
340
11
 40
5.0
340
0
 40
5.0
300

 40
0.0
280
     1
 71
     2
340
16
 90
       25
 71
     3
340
11
 40
5.0
 90
        0
 40
15.0
 90
        1
300
%<\AcVar ViewDetailId>% (%<\AcVar ViewScale \f "%sn">%)
 71
     4
340
16
 90
       25
340
16
 90
       25
280
     0
  0
LAYOUT
  5
D3
102
{ACAD_XDICTIONARY
360
C88
102
}
102
{ACAD_REACTORS
330
1A
102
}
330
1A
100
AcDbPlotSettings
  1

  2
C:\Documents and Settings\basas\Application Data\Autodesk\AutoCAD 2005\R16.1\enu\plotters\Default Windows System Printer.pc3
  4

  6

 40
0.0
 41
0.0
 42
0.0
 43
0.0
 44
0.0
 45
0.0
 46
0.0
 47
0.0
 48
0.0
 49
0.0
140
0.0
141
0.0
142
1.0
143
1.0
 70
   688
 72
     0
 73
     0
 74
     5
  7

 75
    16
147
1.0
148
0.0
149
0.0
100
AcDbLayout
  1
Layout1
 70
     1
 71
     1
 10
0.0
 20
0.0
 11
12.0
 21
9.0
 12
0.0
 22
0.0
 32
0.0
 14
0.0
 24
0.0
 34
0.0
 15
0.0
 25
0.0
 35
0.0
146
0.0
 13
0.0
 23
0.0
 33
0.0
 16
1.0
 26
0.0
 36
0.0
 17
0.0
 27
1.0
 37
0.0
 76
     0
330
D2
  0
LAYOUT
  5
D7
102
{ACAD_XDICTIONARY
360
C8A
102
}
102
{ACAD_REACTORS
330
1A
102
}
330
1A
100
AcDbPlotSettings
  1

  2
C:\Documents and Settings\basas\Application Data\Autodesk\AutoCAD 2005\R16.1\enu\plotters\Default Windows System Printer.pc3
  4

  6

 40
0.0
 41
0.0
 42
0.0
 43
0.0
 44
0.0
 45
0.0
 46
0.0
 47
0.0
 48
0.0
 49
0.0
140
0.0
141
0.0
142
1.0
143
1.0
 70
   688
 72
     0
 73
     0
 74
     5
  7

 75
    16
147
1.0
148
0.0
149
0.0
100
AcDbLayout
  1
Layout2
 70
     1
 71
     2
 10
0.0
 20
0.0
 11
12.0
 21
9.0
 12
0.0
 22
0.0
 32
0.0
 14
0.0
 24
0.0
 34
0.0
 15
0.0
 25
0.0
 35
0.0
146
0.0
 13
0.0
 23
0.0
 33
0.0
 16
1.0
 26
0.0
 36
0.0
 17
0.0
 27
1.0
 37
0.0
 76
     0
330
D6
  0
LAYOUT
  5
22
102
{ACAD_XDICTIONARY
360
C85
102
}
102
{ACAD_REACTORS
330
1A
102
}
330
1A
100
AcDbPlotSettings
  1

  2
none_device
  4
ISO_A4_(210.00_x_297.00_MM)
  6

 40
7.5
 41
20.0
 42
7.5
 43
20.0
 44
210.0
 45
297.0
 46
11.54999923706054
 47
-13.65000009536743
 48
0.0
 49
0.0
140
0.0
141
0.0
142
1.0
143
8.704084754739808
 70
 11952
 72
     1
 73
     0
 74
     0
  7

 75
     0
147
0.1148885871608098
148
0.0
149
0.0
100
AcDbLayout
  1
Model
 70
     1
 71
     0
 10
0.0
 20
0.0
 11
12.0
 21
9.0
 12
0.0
 22
0.0
 32
0.0
 14
0.0
 24
0.0
 34
0.0
 15
0.0
 25
0.0
 35
0.0
146
0.0
 13
0.0
 23
0.0
 33
0.0
 16
1.0
 26
0.0
 36
0.0
 17
0.0
 27
1.0
 37
0.0
 76
     0
330
1F
331
EA
1001
ACAD_PSEXT
1000
None
1000
None
1000
Not applicable
1000
The layout will not be plotted unless a new plotter configuration name is selected.
1070
     0
  0
MATERIAL
  5
ED
102
{ACAD_XDICTIONARY
360
1F9
102
}
102
{ACAD_REACTORS
330
6A
102
}
330
6A
100
AcDbMaterial
  1
ByBlock
  0
MATERIAL
  5
EC
102
{ACAD_XDICTIONARY
360
1F7
102
}
102
{ACAD_REACTORS
330
6A
102
}
330
6A
100
AcDbMaterial
  1
ByLayer
  0
MATERIAL
  5
EE
102
{ACAD_XDICTIONARY
360
173
102
}
102
{ACAD_REACTORS
330
6A
102
}
330
6A
100
AcDbMaterial
  1
Global
 43
0.0007999999797903
 43
0.0
 43
0.0
 43
0.0
 43
0.0
 43
0.0007999999797903
 43
0.0
 43
0.0
 43
0.0
 43
0.0
 43
1.0
 43
0.0
 43
0.0
 43
0.0
 43
0.0
 43
1.0
 49
0.0007999999797903
 49
0.0
 49
0.0
 49
0.0
 49
0.0
 49
0.0007999999797903
 49
0.0
 49
0.0
 49
0.0
 49
0.0
 49
1.0
 49
0.0
 49
0.0
 49
0.0
 49
0.0
 49
1.0
142
0.0007999999797903
142
0.0
142
0.0
142
0.0
142
0.0
142
0.0007999999797903
142
0.0
142
0.0
142
0.0
142
0.0
142
1.0
142
0.0
142
0.0
142
0.0
142
0.0
142
1.0
144
0.0007999999797903
144
0.0
144
0.0
144
0.0
144
0.0
144
0.0007999999797903
144
0.0
144
0.0
144
0.0
144
0.0
144
1.0
144
0.0
144
0.0
144
0.0
144
0.0
144
1.0
1001
ACAD
1070
    -1
1070
     3
1070
     0
1000

1071
        0
1070
     0
  0
MLEADERSTYLE
  5
12E
102
{ACAD_XDICTIONARY
360
CAF
102
}
102
{ACAD_REACTORS
330
12D
102
}
330
12D
100
AcDbMLeaderStyle
170
     2
171
     1
172
     0
 90
        2
 40
0.0
 41
0.0
173
     1
 91
-1056964608
340
14
 92
       -2
290
     1
 42
2.0
291
     1
 43
8.0
  3
Standard
 44
4.0
300

342
11
174
     1
178
     1
175
     1
176
     0
 93
-1056964608
 45
4.0
292
     0
297
     0
 46
4.0
 94
-1056964608
 47
1.0
 49
1.0
140
1.0
293
     1
141
0.0
294
     1
177
     0
142
1.0
295
     0
296
     0
143
3.75
1001
ACAD_MLEADERVER
1070
     2
  0
MLINESTYLE
  5
18
102
{ACAD_REACTORS
330
17
102
}
330
17
100
AcDbMlineStyle
  2
STANDARD
 70
     0
  3

 62
   256
 51
90.0
 52
90.0
 71
     2
 49
0.5
 62
   256
  6
BYLAYER
 49
-0.5
 62
   256
  6
BYLAYER
  0
ACDBPLACEHOLDER
  5
F
102
{ACAD_REACTORS
330
E
102
}
330
E
  0
SCALE
  5
10D
102
{ACAD_REACTORS
330
10C
102
}
330
10C
100
AcDbScale
 70
     0
300
1:1
140
1.0
141
1.0
290
     1
  0
SCALE
  5
1BE
102
{ACAD_REACTORS
330
10C
102
}
330
10C
100
AcDbScale
 70
     0
300
1:2
140
1.0
141
2.0
290
     0
  0
SCALE
  5
1BF
102
{ACAD_REACTORS
330
10C
102
}
330
10C
100
AcDbScale
 70
     0
300
1:4
140
1.0
141
4.0
290
     0
  0
SCALE
  5
1C0
102
{ACAD_REACTORS
330
10C
102
}
330
10C
100
AcDbScale
 70
     0
300
1:5
140
1.0
141
5.0
290
     0
  0
SCALE
  5
1C1
102
{ACAD_REACTORS
330
10C
102
}
330
10C
100
AcDbScale
 70
     0
300
1:8
140
1.0
141
8.0
290
     0
  0
SCALE
  5
1C2
102
{ACAD_REACTORS
330
10C
102
}
330
10C
100
AcDbScale
 70
     0
300
1:10
140
1.0
141
10.0
290
     0
  0
SCALE
  5
1C3
102
{ACAD_REACTORS
330
10C
102
}
330
10C
100
AcDbScale
 70
     0
300
1:16
140
1.0
141
16.0
290
     0
  0
SCALE
  5
1C4
102
{ACAD_REACTORS
330
10C
102
}
330
10C
100
AcDbScale
 70
     0
300
1:20
140
1.0
141
20.0
290
     0
  0
SCALE
  5
1C5
102
{ACAD_REACTORS
330
10C
102
}
330
10C
100
AcDbScale
 70
     0
300
1:30
140
1.0
141
30.0
290
     0
  0
SCALE
  5
1C6
102
{ACAD_REACTORS
330
10C
102
}
330
10C
100
AcDbScale
 70
     0
300
1:40
140
1.0
141
40.0
290
     0
  0
SCALE
  5
1C7
102
{ACAD_REACTORS
330
10C
102
}
330
10C
100
AcDbScale
 70
     0
300
1:50
140
1.0
141
50.0
290
     0
  0
SCALE
  5
1C8
102
{ACAD_REACTORS
330
10C
102
}
330
10C
100
AcDbScale
 70
     0
300
1:100
140
1.0
141
100.0
290
     0
  0
SCALE
  5
1C9
102
{ACAD_REACTORS
330
10C
102
}
330
10C
100
AcDbScale
 70
     0
300
2:1
140
2.0
141
1.0
290
     0
  0
SCALE
  5
1CA
102
{ACAD_REACTORS
330
10C
102
}
330
10C
100
AcDbScale
 70
     0
300
4:1
140
4.0
141
1.0
290
     0
  0
SCALE
  5
1CB
102
{ACAD_REACTORS
330
10C
102
}
330
10C
100
AcDbScale
 70
     0
300
8:1
140
8.0
141
1.0
290
     0
  0
SCALE
  5
1CC
102
{ACAD_REACTORS
330
10C
102
}
330
10C
100
AcDbScale
 70
     0
300
10:1
140
10.0
141
1.0
290
     0
  0
SCALE
  5
1CD
102
{ACAD_REACTORS
330
10C
102
}
330
10C
100
AcDbScale
 70
     0
300
100:1
140
100.0
141
1.0
290
     0
  0
ACDBSECTIONVIEWSTYLE
  5
21A
102
{ACAD_XDICTIONARY
360
CC1
102
}
102
{ACAD_REACTORS
330
219
102
}
330
219
100
AcDbModelDocViewStyle
 70
     0
  3
Metric50
290
     0
100
AcDbSectionViewStyle
 70
     0
 71
     0
 90
      102
 71
     1
340
11
 40
5.0
340
0
340
0
 40
5.0
300
I, O, Q, S, X, Z
 40
10.0
 90
        0
 40
2.5
 90
        0
 71
     2
340
16
 90
       25
340
16
 90
       50
 40
5.0
 40
2.5
 40
5.0
 71
     3
340
11
 40
5.0
 90
        0
 40
15.0
 90
        1
300
%<\AcVar ViewSectionStartId>%-%<\AcVar ViewSectionEndId>% (%<\AcVar ViewScale \f "%sn">%)
 71
     4
300
ANSI31
 40
1.0
 90
        0
290
     0
290
     0
 90
        6
 40
0.0
 40
1.570796326794896
 40
0.2617993877991494
 40
1.308996938995747
 40
-0.2617993877991494
 40
1.832595714594046
  0
TABLESTYLE
  5
7F
102
{ACAD_XDICTIONARY
360
162
102
}
102
{ACAD_REACTORS
330
7E
102
}
330
7E
100
AcDbTableStyle
  3
Standard
 70
     0
 71
     0
 40
1.5
 41
1.5
280
     0
281
     0
  7
Standard
140
4.5
170
     2
 62
     0
 63
     7
283
     0
274
    -2
284
     1
 64
     0
275
    -2
285
     1
 65
     0
276
    -2
286
     1
 66
     0
277
    -2
287
     1
 67
     0
278
    -2
288
     1
 68
     0
279
    -2
289
     1
 69
     0
  7
Standard
140
6.0
170
     5
 62
     0
 63
     7
283
     0
274
    -2
284
     1
 64
     0
275
    -2
285
     1
 65
     0
276
    -2
286
     1
 66
     0
277
    -2
287
     1
 67
     0
278
    -2
288
     1
 68
     0
279
    -2
289
     1
 69
     0
  7
Standard
140
4.5
170
     5
 62
     0
 63
     7
283
     0
274
    -2
284
     1
 64
     0
275
    -2
285
     1
 65
     0
276
    -2
286
     1
 66
     0
277
    -2
287
     1
 67
     0
278
    -2
288
     1
 68
     0
279
    -2
289
     1
 69
     0
  0
VISUALSTYLE
  5
F5
102
{ACAD_XDICTIONARY
360
C99
102
}
102
{ACAD_REACTORS
330
EF
102
}
330
EF
100
AcDbVisualStyle
  2
2dWireframe
 70
     4
 71
     0
 72
     2
 73
     1
 90
        0
 40
-0.6
 41
-30.0
 62
     5
 63
     7
 74
     1
 91
        4
 64
     7
 65
   257
 75
     1
175
     1
 42
1.0
 92
        0
 66
   257
 43
1.0
 76
     1
 77
     6
 78
     2
 67
     7
 79
     5
170
     0
171
     0
290
     0
174
     0
 93
        1
 44
0.0
173
     0
291
     0
 45
0.0
1001
ACAD
1000
AcDbSavedByObjectVersion
1070
     0
  0
VISUALSTYLE
  5
F4
102
{ACAD_XDICTIONARY
360
C97
102
}
102
{ACAD_REACTORS
330
EF
102
}
330
EF
100
AcDbVisualStyle
  2
Basic
 70
     7
 71
     1
 72
     0
 73
     1
 90
        0
 40
-0.6
 41
-30.0
 62
     5
 63
     7
 74
     0
 91
        4
 64
     7
 65
   257
 75
     1
175
     1
 42
1.0
 92
        8
 66
     7
 43
1.0
 76
     1
 77
     6
 78
     2
 67
     7
 79
     5
170
     0
171
     0
290
     0
174
     0
 93
        1
 44
0.0
173
     0
291
     1
 45
0.0
1001
ACAD
1000
AcDbSavedByObjectVersion
1070
     0
  0
VISUALSTYLE
  5
FB
102
{ACAD_XDICTIONARY
360
CA5
102
}
102
{ACAD_REACTORS
330
EF
102
}
330
EF
100
AcDbVisualStyle
  2
Brighten
 70
    12
 71
     2
 72
     2
 73
     1
 90
        0
 40
-0.6
 41
-30.0
 62
     5
 63
     7
 74
     1
 91
        4
 64
     7
 65
   257
 75
     1
175
     1
 42
1.0
 92
        8
 66
     7
 43
1.0
 76
     1
 77
     6
 78
     2
 67
     7
 79
     5
170
     0
171
     0
290
     0
174
     0
 93
        1
 44
50.0
173
     0
291
     1
 45
0.0
1001
ACAD
1000
AcDbSavedByObjectVersion
1070
     0
  0
VISUALSTYLE
  5
FF
102
{ACAD_XDICTIONARY
360
CAD
102
}
102
{ACAD_REACTORS
330
EF
102
}
330
EF
100
AcDbVisualStyle
  2
ColorChange
 70
    16
 71
     2
 72
     2
 73
     3
 90
        0
 40
-0.6
 41
-30.0
 62
     5
 63
     8
 74
     1
 91
        4
 64
     7
 65
   257
 75
     1
175
     1
 42
1.0
 92
        8
 66
     8
 43
1.0
 76
     1
 77
     6
 78
     2
 67
     7
 79
     5
170
     0
171
     0
290
     0
174
     0
 93
        1
 44
0.0
173
     0
291
     1
 45
0.0
1001
ACAD
1000
AcDbSavedByObjectVersion
1070
     0
  0
VISUALSTYLE
  5
F8
102
{ACAD_XDICTIONARY
360
C9F
102
}
102
{ACAD_REACTORS
330
EF
102
}
330
EF
100
AcDbVisualStyle
  2
Conceptual
 70
     9
 71
     3
 72
     2
 73
     1
 90
        0
 40
-0.6
 41
-30.0
 62
     5
 63
     7
 74
     2
 91
        2
 64
     7
 65
   257
 75
     1
175
     1
 42
40.0
 92
        8
 66
     7
 43
1.0
 76
     1
 77
     6
 78
     2
 67
     7
 79
     3
170
     0
171
     0
290
     0
174
     0
 93
        1
 44
0.0
173
     0
291
     0
 45
0.0
1001
ACAD
1000
AcDbSavedByObjectVersion
1070
     0
  0
VISUALSTYLE
  5
FA
102
{ACAD_XDICTIONARY
360
CA3
102
}
102
{ACAD_REACTORS
330
EF
102
}
330
EF
100
AcDbVisualStyle
  2
Dim
 70
    11
 71
     2
 72
     2
 73
     1
 90
        0
 40
-0.6
 41
-30.0
 62
     5
 63
     7
 74
     1
 91
        4
 64
     7
 65
   257
 75
     1
175
     1
 42
1.0
 92
        8
 66
     7
 43
1.0
 76
     1
 77
     6
 78
     2
 67
     7
 79
     5
170
     0
171
     0
290
     0
174
     0
 93
        1
 44
-50.0
173
     0
291
     1
 45
0.0
1001
ACAD
1000
AcDbSavedByObjectVersion
1070
     0
  0
VISUALSTYLE
  5
1E6
102
{ACAD_XDICTIONARY
360
CB5
102
}
102
{ACAD_REACTORS
330
EF
102
}
330
EF
100
AcDbVisualStyle
  2
EdgeColorOff
 70
    22
 71
     2
 72
     2
 73
     0
 90
        0
 40
-0.6
 41
-30.0
 62
     5
 63
     7
 74
     1
 91
        4
 64
     7
 65
   257
 75
     1
175
     1
 42
1.0
 92
        8
 66
     7
 43
1.0
 76
     1
 77
     6
 78
     2
 67
     7
 79
     5
170
     0
171
     0
290
     0
174
     0
 93
        1
 44
0.0
173
     0
291
     1
 45
0.0
1001
ACAD
1000
AcDbSavedByObjectVersion
1070
     0
  0
VISUALSTYLE
  5
FE
102
{ACAD_XDICTIONARY
360
CAB
102
}
102
{ACAD_REACTORS
330
EF
102
}
330
EF
100
AcDbVisualStyle
  2
Facepattern
 70
    15
 71
     2
 72
     2
 73
     1
 90
        0
 40
-0.6
 41
-30.0
 62
     5
 63
     7
 74
     1
 91
        4
 64
     7
 65
   257
 75
     1
175
     1
 42
1.0
 92
        8
 66
     7
 43
1.0
 76
     1
 77
     6
 78
     2
 67
     7
 79
     5
170
     0
171
     0
290
     0
174
     0
 93
        1
 44
0.0
173
     0
291
     1
 45
0.0
1001
ACAD
1000
AcDbSavedByObjectVersion
1070
     0
  0
VISUALSTYLE
  5
F0
102
{ACAD_XDICTIONARY
360
C8F
102
}
102
{ACAD_REACTORS
330
EF
102
}
330
EF
100
AcDbVisualStyle
  2
Flat
 70
     0
 71
     2
 72
     1
 73
     1
 90
        2
 40
-0.6
 41
30.0
 62
     5
 63
     7
 74
     0
 91
        0
 64
     7
 65
   257
 75
     1
175
     1
 42
1.0
 92
        8
 66
     7
 43
1.0
 76
     1
 77
     6
 78
     2
 67
     7
 79
     5
170
     0
171
     0
290
     0
174
     0
 93
       13
 44
0.0
173
     0
291
     1
 45
0.0
1001
ACAD
1000
AcDbSavedByObjectVersion
1070
     0
  0
VISUALSTYLE
  5
F1
102
{ACAD_XDICTIONARY
360
C91
102
}
102
{ACAD_REACTORS
330
EF
102
}
330
EF
100
AcDbVisualStyle
  2
FlatWithEdges
 70
     1
 71
     2
 72
     1
 73
     1
 90
        2
 40
-0.6
 41
30.0
 62
     5
 63
     7
 74
     1
 91
        0
 64
     7
 65
   257
 75
     1
175
     1
 42
1.0
 92
        0
 66
   257
 43
1.0
 76
     1
 77
     6
 78
     2
 67
     7
 79
     5
170
     0
171
     0
290
     0
174
     0
 93
       13
 44
0.0
173
     0
291
     1
 45
0.0
1001
ACAD
1000
AcDbSavedByObjectVersion
1070
     0
  0
VISUALSTYLE
  5
F2
102
{ACAD_XDICTIONARY
360
C93
102
}
102
{ACAD_REACTORS
330
EF
102
}
330
EF
100
AcDbVisualStyle
  2
Gouraud
 70
     2
 71
     2
 72
     2
 73
     1
 90
        2
 40
-0.6
 41
30.0
 62
     5
 63
     7
 74
     0
 91
        0
 64
     7
 65
   257
 75
     1
175
     1
 42
1.0
 92
        0
 66
     7
 43
1.0
 76
     1
 77
     6
 78
     2
 67
     7
 79
     5
170
     0
171
     0
290
     0
174
     0
 93
       13
 44
0.0
173
     0
291
     1
 45
0.0
1001
ACAD
1000
AcDbSavedByObjectVersion
1070
     0
  0
VISUALSTYLE
  5
F3
102
{ACAD_XDICTIONARY
360
C95
102
}
102
{ACAD_REACTORS
330
EF
102
}
330
EF
100
AcDbVisualStyle
  2
GouraudWithEdges
 70
     3
 71
     2
 72
     2
 73
     1
 90
        2
 40
-0.6
 41
30.0
 62
     5
 63
     7
 74
     1
 91
        0
 64
     7
 65
   257
 75
     1
175
     1
 42
1.0
 92
        0
 66
   257
 43
1.0
 76
     1
 77
     6
 78
     2
 67
     7
 79
     5
170
     0
171
     0
290
     0
174
     0
 93
       13
 44
0.0
173
     0
291
     1
 45
0.0
1001
ACAD
1000
AcDbSavedByObjectVersion
1070
     0
  0
VISUALSTYLE
  5
F7
102
{ACAD_XDICTIONARY
360
C9D
102
}
102
{ACAD_REACTORS
330
EF
102
}
330
EF
100
AcDbVisualStyle
  2
Hidden
 70
     6
 71
     1
 72
     2
 73
     2
 90
        0
 40
-0.6
 41
-30.0
 62
     5
 63
     7
 74
     2
 91
        2
 64
     7
 65
   257
 75
     2
175
     1
 42
40.0
 92
        0
 66
   257
 43
1.0
 76
     1
 77
     6
 78
     2
 67
     7
 79
     3
170
     0
171
     0
290
     0
174
     0
 93
        1
 44
0.0
173
     0
291
     0
 45
0.0
1001
ACAD
1000
AcDbSavedByObjectVersion
1070
     0
  0
VISUALSTYLE
  5
1E4
102
{ACAD_XDICTIONARY
360
CB1
102
}
102
{ACAD_REACTORS
330
EF
102
}
330
EF
100
AcDbVisualStyle
  2
JitterOff
 70
    20
 71
     2
 72
     2
 73
     0
 90
        0
 40
-0.6
 41
-30.0
 62
     5
 63
     7
 74
     1
 91
        4
 64
     7
 65
   257
 75
     1
175
     1
 42
1.0
 92
       10
 66
     7
 43
1.0
 76
     1
 77
     6
 78
     2
 67
     7
 79
     5
170
     0
171
     0
290
     0
174
     0
 93
        1
 44
0.0
173
     0
291
     1
 45
0.0
1001
ACAD
1000
AcDbSavedByObjectVersion
1070
     0
  0
VISUALSTYLE
  5
FD
102
{ACAD_XDICTIONARY
360
CA9
102
}
102
{ACAD_REACTORS
330
EF
102
}
330
EF
100
AcDbVisualStyle
  2
Linepattern
 70
    14
 71
     2
 72
     2
 73
     1
 90
        0
 40
-0.6
 41
-30.0
 62
     5
 63
     7
 74
     1
 91
        4
 64
     7
 65
   257
 75
     7
175
     7
 42
1.0
 92
        8
 66
     7
 43
1.0
 76
     1
 77
     6
 78
     2
 67
     7
 79
     5
170
     0
171
     0
290
     0
174
     0
 93
        1
 44
0.0
173
     0
291
     1
 45
0.0
1001
ACAD
1000
AcDbSavedByObjectVersion
1070
     0
  0
VISUALSTYLE
  5
1E5
102
{ACAD_XDICTIONARY
360
CB3
102
}
102
{ACAD_REACTORS
330
EF
102
}
330
EF
100
AcDbVisualStyle
  2
OverhangOff
 70
    21
 71
     2
 72
     2
 73
     0
 90
        0
 40
-0.6
 41
-30.0
 62
     5
 63
     7
 74
     1
 91
        4
 64
     7
 65
   257
 75
     1
175
     1
 42
1.0
 92
        9
 66
     7
 43
1.0
 76
     1
 77
     6
 78
     2
 67
     7
 79
     5
170
     0
171
     0
290
     0
174
     0
 93
        1
 44
0.0
173
     0
291
     1
 45
0.0
1001
ACAD
1000
AcDbSavedByObjectVersion
1070
     0
  0
VISUALSTYLE
  5
F9
102
{ACAD_XDICTIONARY
360
CA1
102
}
102
{ACAD_REACTORS
330
EF
102
}
330
EF
100
AcDbVisualStyle
  2
Realistic
 70
     8
 71
     2
 72
     2
 73
     0
 90
        2
 40
-0.6
 41
30.0
 62
     5
 63
     7
 74
     0
 91
        0
 64
     7
 65
   257
 75
     1
175
     1
 42
1.0
 92
        8
 66
   257
 43
1.0
 76
     1
 77
     6
 78
     2
 67
     7
 79
     3
170
     0
171
     0
290
     0
174
     0
 93
       13
 44
0.0
173
     0
291
     0
 45
0.0
1001
ACAD
1000
AcDbSavedByObjectVersion
1070
     0
  0
VISUALSTYLE
  5
1F3
102
{ACAD_XDICTIONARY
360
CBF
102
}
102
{ACAD_REACTORS
330
EF
102
}
330
EF
100
AcDbVisualStyle
  2
Shaded
 70
    27
 71
     2
 72
     2
 73
     1
 90
        2
 40
-0.6
 41
30.0
 62
     5
 63
     7
 74
     0
 91
        4
 64
     7
 65
   257
 75
     1
175
     1
 42
1.0
 92
        8
 66
   257
 43
1.0
 76
     1
 77
     6
 78
     2
 67
     8
 79
     3
170
     0
171
     0
290
     0
174
     0
 93
        5
 44
0.0
173
     0
291
     0
 45
0.0
1001
ACAD
1000
AcDbSavedByObjectVersion
1070
     0
  0
VISUALSTYLE
  5
1F2
102
{ACAD_XDICTIONARY
360
CBD
102
}
102
{ACAD_REACTORS
330
EF
102
}
330
EF
100
AcDbVisualStyle
  2
Shaded with edges
 70
    26
 71
     2
 72
     2
 73
     1
 90
        2
 40
-0.6
 41
30.0
 62
     5
 63
     7
 74
     1
 91
        2
 64
     7
 65
   257
 75
     2
175
     1
 42
1.0
 92
        8
 66
   257
 43
1.0
 76
     1
 77
     6
 78
     2
 67
     7
 79
     3
170
     0
171
     0
290
     0
174
     0
 93
        5
 44
0.0
173
     0
291
     0
 45
0.0
1001
ACAD
1000
AcDbSavedByObjectVersion
1070
     0
  0
VISUALSTYLE
  5
1EF
102
{ACAD_XDICTIONARY
360
CB7
102
}
102
{ACAD_REACTORS
330
EF
102
}
330
EF
100
AcDbVisualStyle
  2
Shades of Gray
 70
    23
 71
     2
 72
     2
 73
     3
 90
        0
 40
-0.6
 41
-30.0
 62
     5
 63
     7
 74
     2
 91
        2
 64
     7
 65
     7
 75
     1
175
     1
 42
40.0
 92
        8
 66
     7
 43
1.0
 76
     1
 77
     6
 78
     2
 67
     7
 79
     3
170
     0
171
     0
290
     0
174
     0
 93
        1
 44
0.0
173
     0
291
     0
 45
0.0
1001
ACAD
1000
AcDbSavedByObjectVersion
1070
     0
  0
VISUALSTYLE
  5
1F0
102
{ACAD_XDICTIONARY
360
CB9
102
}
102
{ACAD_REACTORS
330
EF
102
}
330
EF
100
AcDbVisualStyle
  2
Sketchy
 70
    24
 71
     1
 72
     2
 73
     2
 90
        0
 40
-0.6
 41
-30.0
 62
     5
 63
     7
 74
     2
 91
        2
 64
     7
 65
     7
 75
     1
175
     1
 42
40.0
 92
       11
 66
     7
 43
1.0
 76
     1
 77
     6
 78
     2
 67
     7
 79
     6
170
     0
171
     0
290
     0
174
     0
 93
        1
 44
0.0
173
     0
291
     0
 45
0.0
1001
ACAD
1000
AcDbSavedByObjectVersion
1070
     0
  0
VISUALSTYLE
  5
FC
102
{ACAD_XDICTIONARY
360
CA7
102
}
102
{ACAD_REACTORS
330
EF
102
}
330
EF
100
AcDbVisualStyle
  2
Thicken
 70
    13
 71
     2
 72
     2
 73
     1
 90
        0
 40
-0.6
 41
-30.0
 62
     5
 63
     7
 74
     1
 91
        4
 64
     7
 65
   257
 75
     1
175
     1
 42
1.0
 92
       12
 66
     7
 43
1.0
 76
     1
 77
     6
 78
     2
 67
     7
 79
     5
170
     0
171
     0
290
     0
174
     0
 93
        1
 44
0.0
173
     0
291
     1
 45
0.0
1001
ACAD
1000
AcDbSavedByObjectVersion
1070
     0
  0
VISUALSTYLE
  5
F6
102
{ACAD_XDICTIONARY
360
C9B
102
}
102
{ACAD_REACTORS
330
EF
102
}
330
EF
100
AcDbVisualStyle
  2
Wireframe
 70
     5
 71
     0
 72
     2
 73
     0
 90
        0
 40
-0.6
 41
-30.0
 62
     5
 63
     7
 74
     1
 91
        4
 64
     7
 65
   257
 75
     1
175
     1
 42
1.0
 92
        0
 66
   257
 43
1.0
 76
     1
 77
     6
 78
     2
 67
     7
 79
     3
170
     0
171
     0
290
     0
174
     0
 93
        1
 44
0.0
173
     0
291
     0
 45
0.0
1001
ACAD
1000
AcDbSavedByObjectVersion
1070
     0
  0
VISUALSTYLE
  5
1F1
102
{ACAD_XDICTIONARY
360
CBB
102
}
102
{ACAD_REACTORS
330
EF
102
}
330
EF
100
AcDbVisualStyle
  2
X-Ray
 70
    25
 71
     2
 72
     2
 73
     1
 90
        1
 40
0.5
 41
-30.0
 62
     5
 63
     7
 74
     1
 91
        0
 64
     7
 65
   257
 75
     1
175
     1
 42
1.0
 92
        8
 66
     7
 43
1.0
 76
     1
 77
     6
 78
     2
 67
     7
 79
     3
170
     0
171
     0
290
     0
174
     0
 93
       13
 44
0.0
173
     0
291
     0
 45
0.0
1001
ACAD
1000
AcDbSavedByObjectVersion
1070
     0
  0
DICTIONARYVAR
  5
146
102
{ACAD_REACTORS
330
5E
102
}
330
5E
100
DictionaryVariables
280
     0
  1
1:1
  0
DICTIONARYVAR
  5
259
102
{ACAD_REACTORS
330
5E
102
}
330
5E
100
DictionaryVariables
280
     0
  1
3.500000
  0
DICTIONARYVAR
  5
25A
102
{ACAD_REACTORS
330
5E
102
}
330
5E
100
DictionaryVariables
280
     0
  1
acadiso.lin
  0
DICTIONARYVAR
  5
145
102
{ACAD_REACTORS
330
5E
102
}
330
5E
100
DictionaryVariables
280
     0
  1
STANDARD
  0
DICTIONARYVAR
  5
84
102
{ACAD_REACTORS
330
5E
102
}
330
5E
100
DictionaryVariables
280
     0
  1
STANDARD
  0
DICTIONARYVAR
  5
227
102
{ACAD_REACTORS
330
5E
102
}
330
5E
100
DictionaryVariables
280
     0
  1
Metric50
  0
DICTIONARYVAR
  5
228
102
{ACAD_REACTORS
330
5E
102
}
330
5E
100
DictionaryVariables
280
     0
  1
Metric50
  0
DICTIONARYVAR
  5
5F
102
{ACAD_REACTORS
330
5E
102
}
330
5E
100
DictionaryVariables
280
     0
  1
2
  0
DICTIONARYVAR
  5
63
102
{ACAD_REACTORS
330
5E
102
}
330
5E
100
DictionaryVariables
280
     0
  1
1
  0
DICTIONARYVAR
  5
C30
102
{ACAD_REACTORS
330
5E
102
}
330
5E
100
DictionaryVariables
280
     0
  1
0
  0
DICTIONARYVAR
  5
1AE
102
{ACAD_REACTORS
330
5E
102
}
330
5E
100
DictionaryVariables
280
     0
  1
0
  0
DICTIONARYVAR
  5
1AF
102
{ACAD_REACTORS
330
5E
102
}
330
5E
100
DictionaryVariables
280
     0
  1
0
  0
DICTIONARYVAR
  5
C2E
102
{ACAD_REACTORS
330
5E
102
}
330
5E
100
DictionaryVariables
280
     0
  1
2
  0
DICTIONARYVAR
  5
C2D
102
{ACAD_REACTORS
330
5E
102
}
330
5E
100
DictionaryVariables
280
     0
  1
1
  0
DICTIONARYVAR
  5
C80
102
{ACAD_REACTORS
330
5E
102
}
330
5E
100
DictionaryVariables
280
     0
  1
80.000000
  0
DICTIONARYVAR
  5
C7F
102
{ACAD_REACTORS
330
5E
102
}
330
5E
100
DictionaryVariables
280
     0
  1
5.000000
  0
DICTIONARYVAR
  5
C2F
102
{ACAD_REACTORS
330
5E
102
}
330
5E
100
DictionaryVariables
280
     0
  1
127
  0
DICTIONARYVAR
  5
C81
102
{ACAD_REACTORS
330
5E
102
}
330
5E
100
DictionaryVariables
280
     0
  1
2
  0
DICTIONARY
  5
CC3
330
21C
100
AcDbDictionary
280
     1
281
     1
  3
ACAD_XREC_ROUNDTRIP
360
CC4
  0
DICTIONARY
  5
C88
330
D3
100
AcDbDictionary
280
     1
281
     1
  3
ACAD_XREC_ROUNDTRIP
360
C89
  0
DICTIONARY
  5
C8A
330
D7
100
AcDbDictionary
280
     1
281
     1
  3
ACAD_XREC_ROUNDTRIP
360
C8B
  0
DICTIONARY
  5
C85
330
22
100
AcDbDictionary
280
     1
281
     1
  3
ACAD_XREC_ROUNDTRIP
360
C86
  0
DICTIONARY
  5
1F9
330
ED
100
AcDbDictionary
280
     1
281
     1
  3
ACAD_XREC_ROUNDTRIP
360
C8D
  3
FBXASSET
360
1FA
  0
DICTIONARY
  5
1F7
330
EC
100
AcDbDictionary
280
     1
281
     1
  3
ACAD_XREC_ROUNDTRIP
360
C8C
  3
FBXASSET
360
1F8
  0
DICTIONARY
  5
173
330
EE
100
AcDbDictionary
280
     1
281
     1
  3
ACAD_XREC_ROUNDTRIP
360
C8E
  3
BUMPTILE
360
175
  3
DIFFUSETILE
360
174
  3
FBXASSET
360
1FB
  3
OPACITYTILE
360
176
  3
REFLECTIONTILE
360
177
  0
DICTIONARY
  5
CAF
330
12E
100
AcDbDictionary
280
     1
281
     1
  3
ACAD_XREC_ROUNDTRIP
360
CB0
  0
DICTIONARY
  5
CC1
330
21A
100
AcDbDictionary
280
     1
281
     1
  3
ACAD_XREC_ROUNDTRIP
360
CC2
  0
DICTIONARY
  5
162
330
7F
100
AcDbDictionary
280
     1
281
     1
  3
ACAD_ROUNDTRIP_2008_TABLESTYLE_CELLSTYLEMAP
360
C82
  3
ACAD_XREC_ROUNDTRIP
360
C87
  0
DICTIONARY
  5
C99
330
F5
100
AcDbDictionary
280
     1
281
     1
  3
ACAD_XREC_ROUNDTRIP
360
C9A
  0
DICTIONARY
  5
C97
330
F4
100
AcDbDictionary
280
     1
281
     1
  3
ACAD_XREC_ROUNDTRIP
360
C98
  0
DICTIONARY
  5
CA5
330
FB
100
AcDbDictionary
280
     1
281
     1
  3
ACAD_XREC_ROUNDTRIP
360
CA6
  0
DICTIONARY
  5
CAD
330
FF
100
AcDbDictionary
280
     1
281
     1
  3
ACAD_XREC_ROUNDTRIP
360
CAE
  0
DICTIONARY
  5
C9F
330
F8
100
AcDbDictionary
280
     1
281
     1
  3
ACAD_XREC_ROUNDTRIP
360
CA0
  0
DICTIONARY
  5
CA3
330
FA
100
AcDbDictionary
280
     1
281
     1
  3
ACAD_XREC_ROUNDTRIP
360
CA4
  0
DICTIONARY
  5
CB5
330
1E6
100
AcDbDictionary
280
     1
281
     1
  3
ACAD_XREC_ROUNDTRIP
360
CB6
  0
DICTIONARY
  5
CAB
330
FE
100
AcDbDictionary
280
     1
281
     1
  3
ACAD_XREC_ROUNDTRIP
360
CAC
  0
DICTIONARY
  5
C8F
330
F0
100
AcDbDictionary
280
     1
281
     1
  3
ACAD_XREC_ROUNDTRIP
360
C90
  0
DICTIONARY
  5
C91
330
F1
100
AcDbDictionary
280
     1
281
     1
  3
ACAD_XREC_ROUNDTRIP
360
C92
  0
DICTIONARY
  5
C93
330
F2
100
AcDbDictionary
280
     1
281
     1
  3
ACAD_XREC_ROUNDTRIP
360
C94
  0
DICTIONARY
  5
C95
330
F3
100
AcDbDictionary
280
     1
281
     1
  3
ACAD_XREC_ROUNDTRIP
360
C96
  0
DICTIONARY
  5
C9D
330
F7
100
AcDbDictionary
280
     1
281
     1
  3
ACAD_XREC_ROUNDTRIP
360
C9E
  0
DICTIONARY
  5
CB1
330
1E4
100
AcDbDictionary
280
     1
281
     1
  3
ACAD_XREC_ROUNDTRIP
360
CB2
  0
DICTIONARY
  5
CA9
330
FD
100
AcDbDictionary
280
     1
281
     1
  3
ACAD_XREC_ROUNDTRIP
360
CAA
  0
DICTIONARY
  5
CB3
330
1E5
100
AcDbDictionary
280
     1
281
     1
  3
ACAD_XREC_ROUNDTRIP
360
CB4
  0
DICTIONARY
  5
CA1
330
F9
100
AcDbDictionary
280
     1
281
     1
  3
ACAD_XREC_ROUNDTRIP
360
CA2
  0
DICTIONARY
  5
CBF
330
1F3
100
AcDbDictionary
280
     1
281
     1
  3
ACAD_XREC_ROUNDTRIP
360
CC0
  0
DICTIONARY
  5
CBD
330
1F2
100
AcDbDictionary
280
     1
281
     1
  3
ACAD_XREC_ROUNDTRIP
360
CBE
  0
DICTIONARY
  5
CB7
330
1EF
100
AcDbDictionary
280
     1
281
     1
  3
ACAD_XREC_ROUNDTRIP
360
CB8
  0
DICTIONARY
  5
CB9
330
1F0
100
AcDbDictionary
280
     1
281
     1
  3
ACAD_XREC_ROUNDTRIP
360
CBA
  0
DICTIONARY
  5
CA7
330
FC
100
AcDbDictionary
280
     1
281
     1
  3
ACAD_XREC_ROUNDTRIP
360
CA8
  0
DICTIONARY
  5
C9B
330
F6
100
AcDbDictionary
280
     1
281
     1
  3
ACAD_XREC_ROUNDTRIP
360
C9C
  0
DICTIONARY
  5
CBB
330
1F1
100
AcDbDictionary
280
     1
281
     1
  3
ACAD_XREC_ROUNDTRIP
360
CBC
  0
XRECORD
  5
CC4
102
{ACAD_REACTORS
330
CC3
102
}
330
CC3
100
AcDbXrecord
280
     1
102
DISPLAYNAME
  1
Metric50
102
FLAGS
 90
        0
  0
XRECORD
  5
C89
102
{ACAD_REACTORS
330
C88
102
}
330
C88
100
AcDbXrecord
280
     1
102
SHADEPLOT
 70
     0
102
SHADEPLOTRESLEVEL
 70
     2
102
SHADEPLOTCUSTOMDPI
 70
   300
  0
XRECORD
  5
C8B
102
{ACAD_REACTORS
330
C8A
102
}
330
C8A
100
AcDbXrecord
280
     1
102
SHADEPLOT
 70
     0
102
SHADEPLOTRESLEVEL
 70
     2
102
SHADEPLOTCUSTOMDPI
 70
   300
  0
XRECORD
  5
C86
102
{ACAD_REACTORS
330
C85
102
}
330
C85
100
AcDbXrecord
280
     1
102
SHADEPLOT
 70
     0
102
SHADEPLOTRESLEVEL
 70
     2
102
SHADEPLOTCUSTOMDPI
 70
   300
  0
XRECORD
  5
C8D
102
{ACAD_REACTORS
330
1F9
102
}
330
1F9
100
AcDbXrecord
280
     1
102
MATERIAL
148
0.0
149
0.0
149
0.0
 93
        0
 94
       63
282
     0
 72
     1
 77
     1
171
     1
175
     1
179
     1
273
     0
  0
XRECORD
  5
1FA
102
{ACAD_REACTORS
330
1F9
102
}
330
1F9
100
AcDbXrecord
280
     1
 70
     1
 90
429727718
  1
D62C5603-E3A1-4AEA-B7FB-FE5D8D0755AF
310
504B03040A0000080000CC70623B3DEE336E79000000790000001B0000006175746F6465736B2D64657369676E2D7061636B6167652E786D6C3C3F786D6C2076657273696F6E3D22312E302220656E636F64696E673D227574662D3822203F3E3C666F726D6174733E3C666F726D61743E687474703A2F2F736368656D612E
310
6175746F6465736B2E636F6D2F64657369676E2D7061636B6167652F323030393C2F666F726D61743E3C2F666F726D6174733E504B0304140006080800CC70623BD486FD9CA0000000F4000000130000005B436F6E74656E745F54797065735D2E786D6C7D8EC10E82300C865F65E91D8A1E8C310C0EEA1BF002731658846E
310
D98AC1B77784ABF1D8FE5FBFBF75BBCE937A534CCEB38643598122B6FEE978D0B0485F9C41B54DDD7D022595594E1A469170414C76A4D9A4D207E29CF43ECE46F218070CC6BECC4078ACAA135ACF422C856C0E68EA1BF5669944DDD7BCDE7B1F8E415D77AECB980613C2E4AC91FC167A2B244592486606FC29C8FD7F045B9A
310
EF7053A7E60B504B0304140006080800CC70623B853B8169EB0000007C01000008000000636F72652E786D6C8D90416EC3201045AF62CDB6C206821CC7C244919D9CA01740401C94182C03558F5F9C3852BBEB6A467FFE9B197D7EFC9E1EC5975982F5AE035262288C535E5B377690E21535501C055FBC8FBF6C503839990E
310
5619041F179FE64D52DE45E362569DD7661365082642A11EB9E920A89B99642953CC8E702F67A9EE7234257977194EC9EAE275C4EABCCF5EAD5940D4AC6F0E35A568B8F43562CD7046CD199FD07E60174276A7BE677B5EADB0E0D14EEFFB6A31321A0D82627C4084204C3F096B71DD52F6819B16635EADF63F509AF53FA164
310
5DDCD1EDDD17164090FCC8732078B56691CB33A85CD7DCC40F504B0304140006080800CC70623B55019EA25F0000007C00000007000000636E782E786D6C4DCB3B0E80201045D1AD90E915ED2CF8AC45050C11660C8261F98AB1B07AC9C97D42D718D865D3E909258CFD00CCE24AC6E326A164D74DC0B4128928FF32603847
310
2BA13128B1252AC747C6BAB984FC68F0B87FE8960A5C09FE86CFB69FBA01504B0304140006080800CC70623BDBABAAF470010000D40300000C0000006662782F636F72652E786D6CC553D16E823014FD95A6AF4B694182CC941A83FA05FB810A9511A125A5257EFE2E82712ECEB8A7F100CD39F7F69E734AF9FADC366850B6
310
AF8DCE7018308C942E4C59EB2AC3DE1D498AD15A706B8CFB56869196ADCAF00863C12B6B7C374385D14E6907A836A59A41D9F7CA615434B0C8705F7CAA5606D23BA8E84F41278B93AC54100640439DE0BDB320004D43C63716C7C399D30917DCFBBA9CD9BA8469F5B156168B24CED3F7248AC8769F27244EB73B92EED8862C
310
B7F13E0C179B3C8F979C8ECD82BBBABDAA2BAC924E9558448CBD9330242CFA08E3154B5651FCC6D215639C8EE5774DBE2B5F6CF2B5768B68963BB5F5588420E442FC700B1139D4CB01F450C1E918227C2E09DF070D8140C84E1E9AAB8F1340832A9CB13130A5F1376A908D57309505ECF2A0DF179C4E9D30F5B239B87E3823
310
7A79C6F31DE1A8A5AEC08474B03C7837EAE4938639B44E5932B833D2C6B6B279CDC613877FA26EE21F4A2A4C63EC7F29A2F301D1F9F7A0E37D145F504B0304140006080800CC70623B9C113CC27E0000009D0000000B0000006662782F636E782E786D6C4DCCDF0A83201C86E15B91DFB94BFB330DD428C8FB886521330DA7
310
6397BF1A1DECE883878F57749FCDA1B7892F1BBC047A23808C7F84D9FA55424E0BE6803A256208E9EF06C84F9B91703228B1C690F78B66B34CD9A5439DF5CF0BFBF65E35BCA1B8D6A5C6F540381E886698B5741C695F9503EBA150A2F8958E3DC3EA0B504B0304140006080800CC70623B7DF2F77C2A010000120200003100
310
00006662782F41393633353835312D344632462D344230382D423046372D3739314545314133324237412F636F72652E786D6C8D51DB8EC22014FC15C2939B0D2DB4B45643319AE817EC0F6041255A68B86CFCFC856D4D76DF7CE190393373060EDB3DC707F856CE6B6B7A480A0C81328395DA5C7B18C3057510EC3873D686
310
3F34088C18550F330C39BB3A1BA7051AAC09CA84841A2BD5020AEF55806078A44B0FFD7053A328440C89E1EFC52486BBB8AA8214A99D789CF9E05200300FC927E4FB4D5B375D43103D5527440FB843077C5AA3F5861C8F645F5787F59E95B390B318B55CE45AA638FAA2957BD7248B390B7A7CC51F9C124149C82B8C378810
310
84AB2F42B7B8DD56F413775B8C5999E9FF4471926F8AA236A1AE96B8B3CC434E5839373893369E1FAF30EA395917409EB7F26AF8801C171837A4A6AC9C89E9F9C9B1A58BA30FD6A5EF5DDDCF894B9AD9B6A59C957943A9FCAE2FD5BC4DFE03504B0304140006080800CC70623BAD7543B64E01000033030000300000006662
310
782F41393633353835312D344632462D344230382D423046372D3739314545314133324237412F636E782E786D6CD593CD6EC32010845F0571AD6CE3D48AD20813A9873E410FBD12D82434182C7EAAE6EDBB2424CD25871E7B41D6EC30B3FA84F9E67BB2E40B4234DE8DB46F1925E094D7C6ED479AD3AE5951B2113C789FEE
310
6C943839C1488B4C05DF079FE72A69D8C96C13AAD6B8631503449F83828872B949AC57D26200B826A308D316B4064D6E46FCDA41C05550DC9E483A00797BFD207EFB092A45DE9514C1BBD22178396BD39D891265658C238DEA00936C654E5E433CB65A26D9F6EDB5EBC14EBF49A45CB856E66048291F6939A9A81BB5C89177
310
38143CA680F4AA299D66A042CEB3354A2684DC9D8D178FE0D9B8B41CAAD720F880EE7EF93C0C18769E099ECC04D5A102C8049A8A05632F4DDF376CF1DE0F6BB65C2F8627B65A33C6BB62177CEBBDAD973006829F89F22E814B54F4BC2BE347F8AA8F681390B50FA73F804400B5F542E796F19FF974E7F78DB802FE05E20750
310
4B0304140006080800CC70623BE75B7789680500003C100000340000006662782F41393633353835312D344632462D344230382D423046372D3739314545314133324237412F6F626A656374732E786D6CAD575B8F9B3818FD2B887D06C22499CB8AA1CA655245D5B455A356FB305264C061D8018C6C3393D95FBFC7600890
310
A4CD5EF210B0B1BFEBF98E3F7B1FF6596ABC522E1296DF9BAE3D320D9A872C4AF2F8DE2CE5CEBA358D0FBEC719939D65A691938CDE9B6ADAF4BD98B3B2D05311DD91329583D9D5FC0F438434A7A611A644887B5384CF34233629258BA878B12322891DEFF6B66BD70BFB62634E8AE781D082709A4B588AF91C528CDA28B73F
310
1C998EEF39EABBEFA97FBD6A7C7E9553F9D3D79FE442923C3C523610337627CB87ABE99D359D4CC6D6E4FACAB5E6ABF9D2726FC6A3C5F56271377BB88362213924694B38DD99FE47C48627A1E7D49F5A8BB5E1A74C0A599ED3B0F21F1E56366B89112D681E218F0915D0D6F17AD41FBA2A369DCF6335D62ABBD39779D5DDD1
310
11D4D8DE3CBB96B2E04FB8202E41051754A1AA8E8F76B4C6DFE810B580B1547F4B84911149794252234D024EF8BBE963A95AE27B3D310A9D5C215C7960FAEE415ED75694C6AFB17BCACA5D99A60A9AA65F217B0BFC53292ACB92BF283FAD0D3621576592CB5BED907C2FA8E9DF794E35E97BEA31BED21FEB401ABB94C44839
310
DCACBF0E1C5DA8DA5B2F4DFFD32AD86F543D9E565E7056502E157C00AD2671CD534549AB752FCA9CDA00677A313F04E51B22FF19E57B300579E3C97EB29F682D92935CEC18CF901B7B54FD8C51F362B56FC72FE0B3C1EAE335EDCCBF5AEC39ADB17DC238973F804BA5E6F6BFE7AF1FB32E523BE9F3BD571418E3631DCA4D48
310
5250CF639223210A9446CA30052EDF057BD35F8329C1ECD84552BF0DC8D18BE7BCE23BFE6BD960AB4A7DE79923A103BEBD80F911CBAA2C60DB19B01CF164A5583B772EE6D3FFA56666CBCDA74DC97724A48F9A58967497E489C4D979006FD7A05E227A1EBDD0F737C623387A9C844D3709995625106D157315F8B8392CD4E0
310
A0B9A720C4BE9829CEF37EA1E13111214D53925356365ADA634861B52519DD27A00AEB808EAF0628E6F435519D446F45CF2C9CF5214F0A15B2F6D06B79DA3EE3CBF7F56780D2F4E7EF73A0F5E5B02A38D07DC852C6B7C1FBB6664213E0C39E3EBA7FF4E1AD23EA2829407C85E586727488B751B2DB9502BC7B228A3FD68B6E
310
A65A22397E690AA8D158D7E404EC8CDA235CC3B7D1898680131CEC2CDF2638C65196279577750F15884AEE19F94199155B92B13297978469D4F8D358DF0AEF7631E28DC8F0D9F437D5D39A83B2231A1D52D543813A824EF8D44BCFF2FA6A31BD1E8DAD87F1CCB526B3879935BF59CDADD5C37479BB1CDD4CA7B3556B516589
310
EF352754B706114D9C885EC9131DE6EFEB43D99AFE2391C2F958179413D7CFEF6B1B6DB1E7600F00DE6E5C67454A339A4BA2E0FBA85ED26F045D454F463DBFCE484C2F90F2E5E3666003662ED8F755951A7D1BECD5B30B550B2785C8E7320B7292A4838DDA71BBC863ED7613CAF659337A3354231D4FF4A182A54904C2898C
310
98B28C4AD0CE056CCF332A80986E571EE9DBC305BB5FEB7E509220A58D25CF042D712A806AC0AD0C657FDEF80D2D9CEAA2EE4D1C76F60BFE74219A06527D6F82DF6412526107381E55E353090704D085B52408A8913C4ED159D79BDA71BB4BC506F4831350EB6F975CD22D69BF7AC49B91A2C0A9DDA3D5CA36AD20FC478E37
310
E61844E2352865EBCB61A275A65283CAAA9DD27703B4102F5AF51EF5F573B75CBB5AD38BC845F7A49F82A0966A49C2E3EA5EA0ECD326CD965F1DB402C6FA8B51A4658C5C5E2EC9E214602E55810345408596591009A82E7E7FFACA19EEA299B14A0081A705CB3296EBC14CDF658DCD336EA6D1136881AAEB87B81AB9EE53D5
310
F5EB8BC8362082DA24122F98680A4E7930C01A0079749CEA14382A0783E5EBA5A10F8C098456A03D6A4AEB6BB881E2513747552A5DB22C7EDAF83BD5528081A365F7FF06504B0304140006080000CC70623B000000000000000000000000350000006662782F41393633353835312D344632462D344230382D423046372D37
310
39314545314133324237412F76657274696365732E62696E504B0304140006080800CC70623BF270F1330600000004000000360000006662782F41393633353835312D344632462D344230382D423046372D3739314545314133324237412F747269616E676C65732E62696E636660600000504B0304140006080000CC7062
310
3B000000000000000000000000370000006662782F41393633353835312D344632462D344230382D423046372D3739314545314133324237412F617474726962757465732E62696E504B0304140006080800CC70623B08DA0BD19000000041010000360000006662782F41393633353835312D344632462D344230382D4230
310
46372D3739314545314133324237412F6469726563746F72792E786D6C858F410AC3201045AF22B36F53E9A60B35CBEEBAE80D244E44489C6234F4F835464A48035D0DF398FF9F8AF63D0E6CC63039F212F8F9020C7D47C6792B21C5FE7403D62A1188E2E60C98D7234A5830286103A55745067B9D86B8A3CF9C7F90C11DE6
310
07FB144396D7B6A82D282E9A152AD114D5EF2CB866EEE831B8EEA07A7BB5A8D7D61A2BAAEB7FD5F70921FF497D00504B0304140006080800CC70623BEDD1DC58FD000000A00100003B0000006662782F41393633353835312D344632462D344230382D423046372D3739314545314133324237412F7265736F75726365732F
310
636F72652E786D6C8D504B6E833010BD0A9A6D65B00922041947112427E8052C33A156828DFCA97AFC9A40A576D7CDCCE87D344F8F9FBFE667F689CE6B6B3A6039850C8DB2A336530731DC4903D95970676DF82583CCC8193B5861107C72362E3BA4AC096842428D1D7107A5F7182053CF7474E0D507CE32973124857FE48B
310
540F3961CEF244279DE03EB81420DB9EAC1384436FA353E879B1B182C7A8C75DA3C7F453DF353A1075D537A7BA6464B8F535A99AE14A9A2BBD90E350DD183B5CFABE3AF262350B1EF4FC9351399401471025A527C218A1E53BAB5A5AB765F5469B96525EACF23FA6B88CFF34456DC2A1DCE36E360F82A5202F42F062ED2BAD
310
579969AFDD8A6F504B010214000A0000080000CC70623B3DEE336E79000000790000001B00000000000000000000000000000000006175746F6465736B2D64657369676E2D7061636B6167652E786D6C504B01021400140006080800CC70623BD486FD9CA0000000F40000001300000000000000000000000000B20000005B
310
436F6E74656E745F54797065735D2E786D6C504B01021400140006080800CC70623B853B8169EB0000007C010000080000000000000000000000000083010000636F72652E786D6C504B01021400140006080800CC70623B55019EA25F0000007C000000070000000000000000000000000094020000636E782E786D6C504B
310
01021400140006080800CC70623BDBABAAF470010000D40300000C00000000000000000000000000180300006662782F636F72652E786D6C504B01021400140006080800CC70623B9C113CC27E0000009D0000000B00000000000000000000000000B20400006662782F636E782E786D6C504B01021400140006080800CC70
310
623B7DF2F77C2A010000120200003100000000000000000000000000590500006662782F41393633353835312D344632462D344230382D423046372D3739314545314133324237412F636F72652E786D6C504B01021400140006080800CC70623BAD7543B64E010000330300003000000000000000000000000000D2060000
310
6662782F41393633353835312D344632462D344230382D423046372D3739314545314133324237412F636E782E786D6C504B01021400140006080800CC70623BE75B7789680500003C10000034000000000000000000000000006E0800006662782F41393633353835312D344632462D344230382D423046372D3739314545
310
314133324237412F6F626A656374732E786D6C504B01021400140006080000CC70623B0000000000000000000000003500000000000000000000000000280E00006662782F41393633353835312D344632462D344230382D423046372D3739314545314133324237412F76657274696365732E62696E504B01021400140006
310
080800CC70623BF270F133060000000400000036000000000000000000000000007B0E00006662782F41393633353835312D344632462D344230382D423046372D3739314545314133324237412F747269616E676C65732E62696E504B01021400140006080000CC70623B0000000000000000000000003700000000000000
310
000000000000D50E00006662782F41393633353835312D344632462D344230382D423046372D3739314545314133324237412F617474726962757465732E62696E504B01021400140006080800CC70623B08DA0BD1900000004101000036000000000000000000000000002A0F00006662782F41393633353835312D344632
310
462D344230382D423046372D3739314545314133324237412F6469726563746F72792E786D6C504B01021400140006080800CC70623BEDD1DC58FD000000A00100003B000000000000000000000000000E1000006662782F41393633353835312D344632462D344230382D423046372D3739314545314133324237412F7265
310
736F75726365732F636F72652E786D6C504B0506000000000E000E0080040000641100000000
  0
XRECORD
  5
C8C
102
{ACAD_REACTORS
330
1F7
102
}
330
1F7
100
AcDbXrecord
280
     1
102
MATERIAL
148
0.0
149
0.0
149
0.0
 93
        0
 94
       63
282
     0
 72
     1
 77
     1
171
     1
175
     1
179
     1
273
     0
  0
XRECORD
  5
1F8
102
{ACAD_REACTORS
330
1F7
102
}
330
1F7
100
AcDbXrecord
280
     1
 70
     1
 90
429727718
  1
30362254-06B7-45E0-A893-8CFA70E3D6BC
310
504B03040A0000080000CC70623B3DEE336E79000000790000001B0000006175746F6465736B2D64657369676E2D7061636B6167652E786D6C3C3F786D6C2076657273696F6E3D22312E302220656E636F64696E673D227574662D3822203F3E3C666F726D6174733E3C666F726D61743E687474703A2F2F736368656D612E
310
6175746F6465736B2E636F6D2F64657369676E2D7061636B6167652F323030393C2F666F726D61743E3C2F666F726D6174733E504B0304140006080800CC70623BD486FD9CA0000000F4000000130000005B436F6E74656E745F54797065735D2E786D6C7D8EC10E82300C865F65E91D8A1E8C310C0EEA1BF002731658846E
310
D98AC1B77784ABF1D8FE5FBFBF75BBCE937A534CCEB38643598122B6FEE978D0B0485F9C41B54DDD7D022595594E1A469170414C76A4D9A4D207E29CF43ECE46F218070CC6BECC4078ACAA135ACF422C856C0E68EA1BF5669944DDD7BCDE7B1F8E415D77AECB980613C2E4AC91FC167A2B244592486606FC29C8FD7F045B9A
310
EF7053A7E60B504B0304140006080800CC70623B1EC5D7A3EB0000007C01000008000000636F72652E786D6C8D90416EC3201045AF82665B6103C6756C6122AB4D4ED00B204C5C94182C03558F5F9C3852BBEB6A467FFE9B197D71FC9E6FE8CBACC17AD7032D0820E3B41FAD9B7A48F1820F808E52ACDEC75F36404ECDA687
310
4D0629A6D5A76597B477D1B89855E747B38B2A041301E95B6E7A08FAD3CCAA50296647B8168BD2573599823EBB0CA76447F43862C7BCCF5EAC59410E4DDD9C7973C2755553CCCFA4C603E3040F1565ED3B1FDE4E432BCA0D9622DAF9795FAF464533826484B498524CD807E51D79ED187F21878E10516EF63F505AC67F42C9
310
BA58B1FDDD071640D2FCC87D2045B96591CB3DA85CB7DCE40F504B0304140006080800CC70623B55019EA25F0000007C00000007000000636E782E786D6C4DCB3B0E80201045D1AD90E915ED2CF8AC45050C11660C8261F98AB1B07AC9C97D42D718D865D3E909258CFD00CCE24AC6E326A164D74DC0B4128928FF32603847
310
2BA13128B1252AC747C6BAB984FC68F0B87FE8960A5C09FE86CFB69FBA01504B0304140006080800CC70623B8C9102E971010000D40300000C0000006662782F636F72652E786D6CC5535B6E833010BC8AE5DF0A6C08340F1947A84D4ED00B38C6A128602363A31CBFCB234A53A551FA553EC09AD9F5CE8C31DB9E9B1AF5CA
310
7695D1198E428A91D2D214952E33ECDD315861B4E5CC1AE3BE9561A445A3323CC098B3D21ADFCE9034DA29ED00D5A6503328BA4E398C640D8B0C77F253352214DE4145770A5B214FA2546114020D759C75CE8200340D19DE981F0F6746269C33EFAB6266AB02A655C74A59CCF365BADC27CB5D902ED22848F6340DF238A141
310
BE88E2F57B92BFEDF23523433367AE6A2EEAA455C2A902F398D2751045018D3FA264435F3771F242571B4A1919CA6F9A7C5B3CD9E42BED16F12C776AEB308F40C848FC700B1139D4891EF410CEC810227CC6846F8386402064270EF5C5C709A05E49676C024C61FC95EA45ED154CA5211D1FF4FB8291A913A68E9B83EBBB33
310
E2A7673CDE118E5AE8124C0807CB8377834E366998436B950D7A7746DAD846D4CFD978E0F04FD455FC5D49D2D4C6FE9722321F10997F0F32DC47FE05504B0304140006080800CC70623BFFEA85907E0000009D0000000B0000006662782F636E782E786D6C4DCCD10A83201886E15B91FFDC95D95A811AB6F23E625948A6C3
310
E9D8E5AF46073BFAE0E1E365ED67B3E8ADC3CB78C7815C7240DA3DFC64DCC221C519D7805AC182F7F1EF06C88D9BE6703008B6049F9E274D7A1E938DBB5AE3D6131B2589BA0D3D965551E0B2EA732C9B9A624AAEB41E3A557677029960D9AFB4EF11165F504B0304140006080800CC70623B4FEEA4082C0100001202000031
310
0000006662782F39464131463745442D413632322D343644302D413938332D3331353338454246344243312F636F72652E786D6C8D515B6EC32010BC0AE2AB55850DD871ED0813254D72825EC00192A2C460F1A872FC42ED48ED5F7E00CDCECCCEB26C731F6FE05B39AFADE921293004CA082BB5B9F43086336A21D870E6AC
310
0D7F68109861543DCC30E4ECE26C9C164858139409093556AA051CBC570102714B8F1E7AF1A5C6A11862480C7F2DA6415C878B2A4891CA89C7990F2E050073937C42DE1DB7E4F87ED8A36D4329AA9B3D46DBAEAD504556557BD81DEBDD0761E52CE42C462D17B996298E3E6BE59E35C962CE821E1FF18553435012728A7187
310
0841987E927A8D9B35ADDF70BBC6989599FE4F1427F9A4286A132ABAC49D651EF234CD5CE04CDA78BA3DC2A8FB645D00B9DF8B57E215725C60BCA2A463E54C4CE327C7A65E1C7DB02E7DEFCBF594B864C5CA6CDBD49C957943E9FA5D5FBAF336F90F504B0304140006080800CC70623BAD7543B64E01000033030000300000
310
006662782F39464131463745442D413632322D343644302D413938332D3331353338454246344243312F636E782E786D6CD593CD6EC32010845F0571AD6CE3D48AD20813A9873E410FBD12D82434182C7EAAE6EDBB2424CD25871E7B41D6EC30B3FA84F9E67BB2E40B4234DE8DB46F1925E094D7C6ED479AD3AE5951B2113C
310
789FEE6C943839C1488B4C05DF079FE72A69D8C96C13AAD6B8631503449F83828872B949AC57D26200B826A308D316B4064D6E46FCDA41C05550DC9E483A00797BFD207EFB092A45DE9514C1BBD22178396BD39D891265658C238DEA00936C654E5E433CB65A26D9F6EDB5EBC14EBF49A45CB856E66048291F6939A9A81BB5
310
C8917738143CA680F4AA299D66A042CEB3354A2684DC9D8D178FE0D9B8B41CAAD720F880EE7EF93C0C18769E099ECC04D5A102C8049A8A05632F4DDF376CF1DE0F6BB65C2F8627B65A33C6BB62177CEBBDAD973006829F89F22E814B54F4BC2BE347F8AA8F681390B50FA73F804400B5F542E796F19FF974E7F78DB802FE05
310
E207504B0304140006080800CC70623B16AB87BA640500003C100000340000006662782F39464131463745442D413632322D343644302D413938332D3331353338454246344243312F6F626A656374732E786D6CAD575B6FA33818FD2B887DE6924B3BED8A326A92B68A663B534DD4D13E548A0C38942D60649B369D5FBFC7
310
600890A493BDE42160637FD7F31D7FF63E6FB3D478A55C242CBF3247B66B1A340F5994E4F19559CA8D75611A9F7D8F33263BCB4C232719BD32D5B4E97B316765A1A722BA21652A07B3B7B33F0D11D29C9A46981221AE4C113ED38CD8A4942CA2E2C58E882476BCD9DA23BB5ED8171B73523C0F841684D35CC252CCE79062D4
310
468DFA43D7747CCF51DF7D4FFDEB5593E3AB9CCA9FBEFE241792E4E19EB28198C968BAB8199F5D5A67D3E9C49A9E8F47D6EC76B6B0469F26EEFC7C3EBFBCBEB98462213924694B38DD98FE1D62C393D073EA4FADC5DAF04326852CCF6958F90F0F2B9BB5C48816348F90C7840A68EB78EDF68723159BCEE7891A6B95DDE9D3
310
BCEAEEE8086A6C6F9E5D4B59F0175C10A7A0820BAA5055C7473B5AE3CFDD452D602CD5DF12616444529E90D448938013FE6EFA58AA96F85E4F8C42275708571E98FE6827AF6B2B4AE3D7D83D64E5A64C53054DD3AF90BD06FEA9149565C94FCA0F6B834DC85599E4F2423B24DF0B6AFA979E534DFA9E7A4CC6FA631D486393
310
921829879BF5D781A373557BCB85E97FB90DB62B558F8795179C15944B051F40AB495CF35451D26A4727654E6D8033BD98EF82F21D91FF8AF2DD9982BCF1643BDD4EB516C9492E368C67C88DED563FC36D5EACF66DFF057C3658BDBFA69DF9578B3DA735B64F18C7F20770A9D45CFCF7FCF563D6456A277DBEF78A02637CA2
310
43B90A490AEAB94F72244481D24819A6C0E59B606BFA4B3025981DBB48EAB701D97BF19C577CC77F2D1B6C55A9EF3C732474C0B727303F625995056C3B02963D9EAC146BE78EC5FCEC7FA999EBC5EACBAAE41B12D27B4D2C0BBA49F244E2ECDC81B76B502F113D8F5EE8FB1BE3111CDD4FC2AA9B844CAB1288B68AB90A7CDC
310
1C166AB0D3DC5310625FCC14E779BFD0709F8890A629C9292B1B2DED31A4B0DA928CEE135085754027E3018A397D4D5427D15BD1330B677DC8934285AC3DF45A9EB68FF8F2B8FC0A509AFEECFD0FF2DE25CC6047F7214B195F07EFEB9A094D800F7BFAE8FED187B78EA8A3A400F115961BCAD1215E47C966530AF0EE8128FE
310
58CEBB996A8964FFA529A046635D9353B0336A8F700DDF46271A024E70B0B37C9DE01847591E54DED53D54202AB947E4076556AC49C6CA5C9E1226B7F1A7B1BE15DEED62C41B91E1B3E9AFAAA735036547343A925075041DF0A9979E893B391F8FCFA6967B3EFB644DCF6E5CEBFAE272625DCC6FAF3FB93793C5F90CE1EF57
310
407342756B10D1C489E8953CD1617E5CEECAD6F4EF8914CE5D5D504E5C3F1F9736DA62CFC11E00BCDDB8CC8A9466349744C1F75EBDA4DF09BA8A9E8C7A7E9991989E20E5DBDD6A6003664ED8F7A04A8DBE0DF6EAD9B9AA858342E47399053949D2C146EDB85DE4B176BB0965FBAC19BD19AA918E27FA50C1D22402E144464C
310
59462568E704B6E71915404CB72B8FF4EDE184DDAF753F284990D2C6926782963815403548A70C657FDEF80D2D9CEAA2AE4C1C76F60BFE74219A06527D6582DF6412526107381E55E353090704D085B52408D0933C4ED159D79BDA71BB4BC506F4831350EB6F979CD22D69BF7AC49B91A2C0A9DDA3D5CA36AD20FC478E37E6
310
1844E2352865EBCB6EA275A652E3836BE04EFB400BF1A2556F515F1FBB35B2AB35BD889C744FFA1004B5544B121E57F70215746DD2F5E2C1412B602CBF19455AC6C8E5E9922C4E01E65215385004546899059180EAFCF7A707CE7017CD8CDB0410789AB32C63B91E5CEBBBACB17AC6CD347A022D5075FD106377347AAABA7E
310
7D11590744509B44E205134DC1290F06580320F78E537D3D73540E06CB970B431F185308AD40BBD794D6D77003C5A36E8EAA54BA64597CD8F83BD552A080A365F7FF06504B0304140006080000CC70623B000000000000000000000000350000006662782F39464131463745442D413632322D343644302D413938332D3331
310
353338454246344243312F76657274696365732E62696E504B0304140006080800CC70623BF270F1330600000004000000360000006662782F39464131463745442D413632322D343644302D413938332D3331353338454246344243312F747269616E676C65732E62696E636660600000504B0304140006080000CC70623B
310
000000000000000000000000370000006662782F39464131463745442D413632322D343644302D413938332D3331353338454246344243312F617474726962757465732E62696E504B0304140006080800CC70623B08DA0BD19000000041010000360000006662782F39464131463745442D413632322D343644302D413938
310
332D3331353338454246344243312F6469726563746F72792E786D6C858F410AC3201045AF22B36F53E9A60B35CBEEBAE80D244E44489C6234F4F835464A48035D0DF398FF9F8AF63D0E6CC63039F212F8F9020C7D47C6792B21C5FE7403D62A1188E2E60C98D7234A5830286103A55745067B9D86B8A3CF9C7F90C11DE607
310
FB144396D7B6A82D282E9A152AD114D5EF2CB866EEE831B8EEA07A7BB5A8D7D61A2BAAEB7FD5F70921FF497D00504B0304140006080800CC70623B0D6EF93BFE000000A00100003B0000006662782F39464131463745442D413632322D343644302D413938332D3331353338454246344243312F7265736F75726365732F63
310
6F72652E786D6C8D50596E833010BD0A9ADFCA60B334011947A8694ED00B586642AC041B79A97AFC9A40A5F6AF3F33A3B7689E1E3F7DCD8FEC139DD7D6F4C0720A191A65476DA61E62B892236427C19DB5E1970C322367EC618541F0C9D9B8EC90B226A009093576C41D94DE63804C3DD2D18357379C652E63480A7FCF17A9
310
EE72C29CE5894E3AC17D702940B63D59270887DE46A7D0F36263058F518FBB468FE9A7BE6A7420864373B8D4873369AA8691FA421B3294352543C5CAF65C0F6FEF43CB8BD52C78D0F34F46E550061C419494B6843142CB0F5677F4B52BEB177AEC28E5C52AFF638ACBF84F53D42654E51E77B379102C05791282176B5F693D
310
CB4C7BED567C03504B010214000A0000080000CC70623B3DEE336E79000000790000001B00000000000000000000000000000000006175746F6465736B2D64657369676E2D7061636B6167652E786D6C504B01021400140006080800CC70623BD486FD9CA0000000F40000001300000000000000000000000000B20000005B
310
436F6E74656E745F54797065735D2E786D6C504B01021400140006080800CC70623B1EC5D7A3EB0000007C010000080000000000000000000000000083010000636F72652E786D6C504B01021400140006080800CC70623B55019EA25F0000007C000000070000000000000000000000000094020000636E782E786D6C504B
310
01021400140006080800CC70623B8C9102E971010000D40300000C00000000000000000000000000180300006662782F636F72652E786D6C504B01021400140006080800CC70623BFFEA85907E0000009D0000000B00000000000000000000000000B30400006662782F636E782E786D6C504B01021400140006080800CC70
310
623B4FEEA4082C0100001202000031000000000000000000000000005A0500006662782F39464131463745442D413632322D343644302D413938332D3331353338454246344243312F636F72652E786D6C504B01021400140006080800CC70623BAD7543B64E010000330300003000000000000000000000000000D5060000
310
6662782F39464131463745442D413632322D343644302D413938332D3331353338454246344243312F636E782E786D6C504B01021400140006080800CC70623B16AB87BA640500003C1000003400000000000000000000000000710800006662782F39464131463745442D413632322D343644302D413938332D3331353338
310
454246344243312F6F626A656374732E786D6C504B01021400140006080000CC70623B0000000000000000000000003500000000000000000000000000270E00006662782F39464131463745442D413632322D343644302D413938332D3331353338454246344243312F76657274696365732E62696E504B01021400140006
310
080800CC70623BF270F133060000000400000036000000000000000000000000007A0E00006662782F39464131463745442D413632322D343644302D413938332D3331353338454246344243312F747269616E676C65732E62696E504B01021400140006080000CC70623B0000000000000000000000003700000000000000
310
000000000000D40E00006662782F39464131463745442D413632322D343644302D413938332D3331353338454246344243312F617474726962757465732E62696E504B01021400140006080800CC70623B08DA0BD190000000410100003600000000000000000000000000290F00006662782F39464131463745442D413632
310
322D343644302D413938332D3331353338454246344243312F6469726563746F72792E786D6C504B01021400140006080800CC70623B0D6EF93BFE000000A00100003B000000000000000000000000000D1000006662782F39464131463745442D413632322D343644302D413938332D3331353338454246344243312F7265
310
736F75726365732F636F72652E786D6C504B0506000000000E000E0080040000641100000000
  0
XRECORD
  5
C8E
102
{ACAD_REACTORS
330
173
102
}
330
173
100
AcDbXrecord
280
     1
102
MATERIAL
148
0.0
149
0.0
149
0.0
 93
        0
 94
       63
282
     0
 72
     1
 77
     1
171
     1
175
     1
179
     1
273
     0
  0
XRECORD
  5
175
102
{ACAD_REACTORS
330
173
102
}
330
173
100
AcDbXrecord
280
     1
270
     1
271
     1
  0
XRECORD
  5
174
102
{ACAD_REACTORS
330
173
102
}
330
173
100
AcDbXrecord
280
     1
270
     1
271
     1
  0
XRECORD
  5
1FB
102
{ACAD_REACTORS
330
173
102
}
330
173
100
AcDbXrecord
280
     1
 70
     0
 90
1673772943
  1
ECE7A1D2-D628-4531-984C-D00F80459256
310
504B03040A0000080000CC70623B3DEE336E79000000790000001B0000006175746F6465736B2D64657369676E2D7061636B6167652E786D6C3C3F786D6C2076657273696F6E3D22312E302220656E636F64696E673D227574662D3822203F3E3C666F726D6174733E3C666F726D61743E687474703A2F2F736368656D612E
310
6175746F6465736B2E636F6D2F64657369676E2D7061636B6167652F323030393C2F666F726D61743E3C2F666F726D6174733E504B0304140006080800CC70623BD486FD9CA0000000F4000000130000005B436F6E74656E745F54797065735D2E786D6C7D8EC10E82300C865F65E91D8A1E8C310C0EEA1BF002731658846E
310
D98AC1B77784ABF1D8FE5FBFBF75BBCE937A534CCEB38643598122B6FEE978D0B0485F9C41B54DDD7D022595594E1A469170414C76A4D9A4D207E29CF43ECE46F218070CC6BECC4078ACAA135ACF422C856C0E68EA1BF5669944DDD7BCDE7B1F8E415D77AECB980613C2E4AC91FC167A2B244592486606FC29C8FD7F045B9A
310
EF7053A7E60B504B0304140006080800CC70623BD9DDAED0EC0000007C01000008000000636F72652E786D6C8D90416EC3201045AF82665B61836D9CD8C2444DD39CA01740405C94182C03558F5F9C3852BBEB6A467FFE9B197D7EF89E6EE8CB2CC17A37002D0820E394D7D68D03A478C17B4007C117EFE32F1B20272733C0
310
2A83E0E3E2D3BC49CABB685CCCAAF3DA6CA20CC14440EA969B0182FA34932C648AD911AEC52CD5558EA6A0CF2EC329598D1E47ACCEFBECC59A050463A7EA5833865FEBDD0E37353BE3EE8DBDE3F6786A48D375FBF6CC78B9C282473B3DEFABC5C86834888A900E538A49F5419B9EB47DD5BC907D4F082F57FB1F28CDFA9F50
310
B22ED6D5F6EE030B20687EE43E10BC5CB3C8E51E54AE6B6EE207504B0304140006080800CC70623B55019EA25F0000007C00000007000000636E782E786D6C4DCB3B0E80201045D1AD90E915ED2CF8AC45050C11660C8261F98AB1B07AC9C97D42D718D865D3E909258CFD00CCE24AC6E326A164D74DC0B4128928FF326038
310
472BA13128B1252AC747C6BAB984FC68F0B87FE8960A5C09FE86CFB69FBA01504B0304140006080800CC70623BA24EB22D72010000D40300000C0000006662782F636F72652E786D6CC5535B6E833010BC8AE5DF0A6C5E49888CA3A6694ED00B38E05014B091B1518EDFE511A5A9D228FD2A1F60CDEC7A67C6986DCE4D8D7A
310
69BA4AAB0C073EC548AA5C17952A33ECECD15B61B4E1CC686DBF9561A44423333CC098B3D268D7CE50AE9595CA02AA74216750749DB418E5352C32DCE59FB211BE70162ABA93DF8AFC244AE9073ED050C759670D0840D390E18DF9F1706664C23973AE2A66B62A605A75ACA4C13C4976E1364A12EF355A2EBD384AF65EFA96
310
BC7B8BED2EA6719AAE16FB8491A199335B351775B991C2CA02F390D2D40B028F861F41BCA68B7518BFD0D59A524686F29B26D7164F36B94AD9289CE54E6D1DE6010819891F6E21228B3AD1831EC219194284CF98F06DD01008846CC5A1BEF83801D4CBDC6A1303536877A57A513B0953A94FC707FDBE6064EA84A9E3E6E0FA
310
EE8CF0E9198F7784A316AA0413C2C2F2E0ECA0934D1AE6D05A69BCDE9E91D2A611F573361E38FC1375157F5752AE6B6DFE4B11990F88CCBF0719EE23FF02504B0304140006080800CC70623B408A7D3B7C0000009D0000000B0000006662782F636E782E786D6C4DCCD10A83201886E15B91FFDC552A92A0064DBC8F581632
310
D3703A76F9ABD1C18E3E78F878E5F0D9027ABBFCF2292AE86E2D20171F69F6715550CB827B40839639A5F2770314A7CD293819B45C73AAFB45B35BA61ACAA1C1C7E7855C58C15BC331339661262CC762340413D68D77DA5B42298546CBE6573AF60CEB2F504B0304140006080800CC70623B449FB9BD290100001202000031
310
0000006662782F36394639363044362D344446342D343946362D394244322D3234314243333846323333332F636F72652E786D6C8D515B6EC32010BC0AE22B55850D98B871848994463E412FE002495162B07854397EA176A4F62F3F2C9A9D991D587EB84F37F0AD7D30CEF6905418026DA553C65E7A98E219ED203808EE9D
310
8B7F6810D871D23D2C3014FCE25D9A57483A1BB58D19B54EE9151C43D0110279CB971E06F9A5A7B11A53CC8C70ADE6515EC78BAE4895DB992778883E0700CB907242D17643D7E2538BD869608875438BBAE38922CAC8F1BDD90DB4691A5E2F42C153326A951B95E398B3D1FE599322163C9AE9115F7A3D46ADA0A018778810
310
84E907617BDCEE297BC5BB3DC6BC2EF47FA234AB2745C9D8D8D035EE220B50105E2F0DC1954B9FB747187D9F9D8FA0CCDB042D5FA0C015C65B42DF78BD10F3F3B363CB56C7109DCFDFBBB97E662ED92EB62D13BC2E1BCAE5777DB9966D8A1F504B0304140006080800CC70623BAD7543B64E01000033030000300000006662
310
782F36394639363044362D344446342D343946362D394244322D3234314243333846323333332F636E782E786D6CD593CD6EC32010845F0571AD6CE3D48AD20813A9873E410FBD12D82434182C7EAAE6EDBB2424CD25871E7B41D6EC30B3FA84F9E67BB2E40B4234DE8DB46F1925E094D7C6ED479AD3AE5951B2113C789FEE
310
6C943839C1488B4C05DF079FE72A69D8C96C13AAD6B8631503449F83828872B949AC57D26200B826A308D316B4064D6E46FCDA41C05550DC9E483A00797BFD207EFB092A45DE9514C1BBD22178396BD39D891265658C238DEA00936C654E5E433CB65A26D9F6EDB5EBC14EBF49A45CB856E66048291F6939A9A81BB5C89177
310
38143CA680F4AA299D66A042CEB3354A2684DC9D8D178FE0D9B8B41CAAD720F880EE7EF93C0C18769E099ECC04D5A102C8049A8A05632F4DDF376CF1DE0F6BB65C2F8627B65A33C6BB62177CEBBDAD973006829F89F22E814B54F4BC2BE347F8AA8F681390B50FA73F804400B5F542E796F19FF974E7F78DB802FE05E20750
310
4B0304140006080800CC70623B8D05915C650500003B100000340000006662782F36394639363044362D344446342D343946362D394244322D3234314243333846323333332F6F626A656374732E786D6CAD575B6FA33814FE2B887D06429276DA1565D4266D158D3A339A6846FB502932E050B66023DB74D2FDF5FB190C01
310
9276B2973C046C8ECFF53B17071F77456EBD502133CEAE6CDF9DD81665314F32965ED995DA3A17B6F5310C04E7AA47665B8C14F4CAD6DB7618A48257A5D94AE89654B91AEDDEDDFC61C998326A5B714EA4BCB265FC440BE2924AF184CA6737218AB8E976E7FA6E4338649B0A523E8D98964450A6A029F619B8588D52FE7039
310
B1BD30F0F4F730D0FF866AF6369557DB33949F31A9088B0F848DD8CCFCF9F2767A76E99CCDE733677E3EF59D9BBB9BA5E37F984D16E78BC5E5F5ED25044B25C0C96822E8D60EEFE11B91C581D77CEA34368A1F5329E68CD1B8B61F16D63A1B8E092D294B10C78C4A48EB593D192E7DED9BDEE7995E1B91FDEDD3ACEA9FE831
310
6A756F9F7D4D79F4274C90A7A04248AA51D5F8C718DAE06FB2F75AC4796EBE65D22A88A22223B995679120E2D50E41AA49C260C046A35368846B0BECD0DFF3EBEB8AD4F835768F69B9ADF25C43D30E6B646F807FAA64AD59F61715C7A54127C4AACA98BA3006A9D792DAE165E0D59B61A01FB3A9F9D838D2DAE62445C86166
310
F37564E842E7DE6A69879FEEA2DD5AE7E371E1A5E025154AC307D06A03D73EB5978C58FFA4C8E9033066E0F3BD53BEC1F39F91BE7B55103791EDE6BBB991A2046172CB4581D8B893FA674DDA17A77B3B7C413D1B511FD2743BFF8A38F03A658705E3ADF8015C3A3417FF3D7E439FF591DA0B5F18BC20C1B8981957AE6392A3
310
F43C640C01D1A0B4728E2DD4F26DB4B3C3152A252A3B4E913CEC1C72F012782FF88EFF8637AA552DBEF76408E8A8DE9E50F9E1CB3A2DA0DB1B6039A893B56063DC5B3E3FFB5F72E67AB9FEB4AEC496C4F4C1149625DD662C53E89D7BF0F6151A046260D1337DFDC94502430F83B0EE07A130A224BCAD7DAE1D9FB6CD422FF6
310
920702629C4BB9AE79C12F243C6432A6794E18E5552BA56B431AAB5D91317302B2B071E86C3A42B1A02F999E24061403B5D0EB639195DA655DD3EBEAB4FB862DDF579F014AD0E73C22F99E28DA57FB98E75C6CA2D74D53086D600F4786E0FE3144B771A8A7B900F03594DB8A633CBC49B2EDB69228BB479CF863B5E807AAAB
310
23872F6DFEB4129B949CA33823F58830E86D65621E10047D9DB34D862E8EAC3C2ABC2F7B2C40D67CDFE01F5545B92105AF983AC54D93D69E56FB8E797F88913F898A9FEC705D3F9D1B54EC8426FB500D40A03BD0119B06E1B95DDC7EB8F6975367793EBD70E66733DFB9BC982F9CE564727731999F5D4ECFCE3B8D6A4DC2A0
310
6D50FD148437D110834A64C6CDDF57FBACB5C307A2A477DFE4939736CFEF2B175371E0E10CF0DD1D5C15654E0BCA14D1E87DD02FF93782A162C0A3D95F1524A52770F972BF1EE9809D13CE7DD599467F8ECE9ADD85CE85A34CD45355448C64F9E8A031DC2D596ACC6E5DD93D9B82DE2EF5CAF81363A8E47996A0DE24564A79
310
4115AACE09C55E14540231FDA13C319787134EBF34E3A022514E5B4D9E0826E25C02D5805B15ABE1BEF51B26383D445DD9E875EE33FE4C22DA16427D65A3BCA92CA6D28DD01DF5DC53330704308475351050232CCD31583787BA75774AFB06E5070DD0C8EF484E19968C5D83BA5B90B244D31E54D55A372320FE4786B7EA58
310
44E135AA5467CB7EA333A61683CC6A8C3257034C10CF46F40EF9F5BE59BE5BD30C3C72D235E95D10345C1D45445A5F0BB47E46A5EBE5570F9380B5FA629579952296A773720405982B9DE04011506178964401AA8BDF1FBF0A8EAB6861DD6580C0E38217056766716DAEB2D6FA0917D3E4116581EADB879C4E7CFFB11EFACD
310
3D641311495D92C8676CB409A72D18610D803CE8A626049E8EC1887CB5B44CC39883690DDA8399B4B9855B481E7D71D4A9D22F96E5BB73BF5793020C02137BF837504B0304140006080000CC70623B000000000000000000000000350000006662782F36394639363044362D344446342D343946362D394244322D32343142
310
43333846323333332F76657274696365732E62696E504B0304140006080800CC70623BF270F1330600000004000000360000006662782F36394639363044362D344446342D343946362D394244322D3234314243333846323333332F747269616E676C65732E62696E636660600000504B0304140006080000CC70623B0000
310
00000000000000000000370000006662782F36394639363044362D344446342D343946362D394244322D3234314243333846323333332F617474726962757465732E62696E504B0304140006080800CC70623B08DA0BD19000000041010000360000006662782F36394639363044362D344446342D343946362D394244322D
310
3234314243333846323333332F6469726563746F72792E786D6C858F410AC3201045AF22B36F53E9A60B35CBEEBAE80D244E44489C6234F4F835464A48035D0DF398FF9F8AF63D0E6CC63039F212F8F9020C7D47C6792B21C5FE7403D62A1188E2E60C98D7234A5830286103A55745067B9D86B8A3CF9C7F90C11DE607FB14
310
4396D7B6A82D282E9A152AD114D5EF2CB866EEE831B8EEA07A7BB5A8D7D61A2BAAEB7FD5F70921FF497D00504B0304140006080800CC70623BCA768048FE000000A00100003B0000006662782F36394639363044362D344446342D343946362D394244322D3234314243333846323333332F7265736F75726365732F636F72
310
652E786D6C8D50596E833010BD0A9ADFCA60D600328E9AA639412F609909B1126CE4A5EAF16B0295DABFFECC8CDEA2797AECF8353F924FB44E193D409E5248504B332A3D0D10FC95B4901C39B3C6F85F3248B49871801506CE266BC2B243D2688FDA47549B11775038871E12F988C7004EDE7016A9083E2ADC3D5D84BC8B09
310
D33C8D74D471E6BC8D0192EDC93A815B742658898E651BCB59086ADC356A8C3FD555A1055ED7E7E254D615792D0F075295F585746FF53B694EE78A565DD736979A65AB9933AFE69F8CD2A2F038022F28ED489E135A7CE4554F9BBEA85E68DB53CAB255FEC71496F19FA6A0B42F8B3DEE6673C0F318E4497096AD7DC5F52C33
310
EEB55BFE0D504B010214000A0000080000CC70623B3DEE336E79000000790000001B00000000000000000000000000000000006175746F6465736B2D64657369676E2D7061636B6167652E786D6C504B01021400140006080800CC70623BD486FD9CA0000000F40000001300000000000000000000000000B20000005B436F
310
6E74656E745F54797065735D2E786D6C504B01021400140006080800CC70623BD9DDAED0EC0000007C010000080000000000000000000000000083010000636F72652E786D6C504B01021400140006080800CC70623B55019EA25F0000007C000000070000000000000000000000000095020000636E782E786D6C504B0102
310
1400140006080800CC70623BA24EB22D72010000D40300000C00000000000000000000000000190300006662782F636F72652E786D6C504B01021400140006080800CC70623B408A7D3B7C0000009D0000000B00000000000000000000000000B50400006662782F636E782E786D6C504B01021400140006080800CC70623B
310
449FB9BD290100001202000031000000000000000000000000005A0500006662782F36394639363044362D344446342D343946362D394244322D3234314243333846323333332F636F72652E786D6C504B01021400140006080800CC70623BAD7543B64E010000330300003000000000000000000000000000D20600006662
310
782F36394639363044362D344446342D343946362D394244322D3234314243333846323333332F636E782E786D6C504B01021400140006080800CC70623B8D05915C650500003B10000034000000000000000000000000006E0800006662782F36394639363044362D344446342D343946362D394244322D32343142433338
310
46323333332F6F626A656374732E786D6C504B01021400140006080000CC70623B0000000000000000000000003500000000000000000000000000250E00006662782F36394639363044362D344446342D343946362D394244322D3234314243333846323333332F76657274696365732E62696E504B010214001400060808
310
00CC70623BF270F13306000000040000003600000000000000000000000000780E00006662782F36394639363044362D344446342D343946362D394244322D3234314243333846323333332F747269616E676C65732E62696E504B01021400140006080000CC70623B00000000000000000000000037000000000000000000
310
00000000D20E00006662782F36394639363044362D344446342D343946362D394244322D3234314243333846323333332F617474726962757465732E62696E504B01021400140006080800CC70623B08DA0BD190000000410100003600000000000000000000000000270F00006662782F36394639363044362D344446342D
310
343946362D394244322D3234314243333846323333332F6469726563746F72792E786D6C504B01021400140006080800CC70623BCA768048FE000000A00100003B000000000000000000000000000B1000006662782F36394639363044362D344446342D343946362D394244322D3234314243333846323333332F7265736F
310
75726365732F636F72652E786D6C504B0506000000000E000E0080040000621100000000
  0
XRECORD
  5
176
102
{ACAD_REACTORS
330
173
102
}
330
173
100
AcDbXrecord
280
     1
270
     1
271
     1
  0
XRECORD
  5
177
102
{ACAD_REACTORS
330
173
102
}
330
173
100
AcDbXrecord
280
     1
270
     1
271
     1
  0
XRECORD
  5
CB0
102
{ACAD_REACTORS
330
CAF
102
}
330
CAF
100
AcDbXrecord
280
     1
102
ACAD_ROUNDTRIP_2012_MLEADER_STYLE
298
     1
  0
XRECORD
  5
CC2
102
{ACAD_REACTORS
330
CC1
102
}
330
CC1
100
AcDbXrecord
280
     1
102
DISPLAYNAME
  1
Metric50
102
FLAGS
 90
        0
  0
CELLSTYLEMAP
  5
C82
102
{ACAD_REACTORS
330
162
102
}
330
162
100
AcDbCellStyleMap
 90
        3
300
CELLSTYLE
  1
TABLEFORMAT_BEGIN
 90
        5
170
     1
 91
        0
 92
    32768
 62
   257
 93
        1
300
CONTENTFORMAT
  1
CONTENTFORMAT_BEGIN
 90
        0
 91
        0
 92
      512
 93
        0
300

 40
0.0
140
1.0
 94
        5
 62
     0
340
11
144
6.0
309
CONTENTFORMAT_END
171
     1
301
MARGIN
  1
CELLMARGIN_BEGIN
 40
1.5
 40
1.5
 40
1.5
 40
1.5
 40
4.5
 40
4.5
309
CELLMARGIN_END
 94
        6
 95
        1
302
GRIDFORMAT
  1
GRIDFORMAT_BEGIN
 90
        0
 91
        1
 62
     0
 92
       -2
340
14
 93
        0
 40
1.125
309
GRIDFORMAT_END
 95
        2
302
GRIDFORMAT
  1
GRIDFORMAT_BEGIN
 90
        0
 91
        1
 62
     0
 92
       -2
340
14
 93
        0
 40
1.125
309
GRIDFORMAT_END
 95
        4
302
GRIDFORMAT
  1
GRIDFORMAT_BEGIN
 90
        0
 91
        1
 62
     0
 92
       -2
340
14
 93
        0
 40
1.125
309
GRIDFORMAT_END
 95
        8
302
GRIDFORMAT
  1
GRIDFORMAT_BEGIN
 90
        0
 91
        1
 62
     0
 92
       -2
340
14
 93
        0
 40
1.125
309
GRIDFORMAT_END
 95
       16
302
GRIDFORMAT
  1
GRIDFORMAT_BEGIN
 90
        0
 91
        1
 62
     0
 92
       -2
340
14
 93
        0
 40
1.125
309
GRIDFORMAT_END
 95
       32
302
GRIDFORMAT
  1
GRIDFORMAT_BEGIN
 90
        0
 91
        1
 62
     0
 92
       -2
340
14
 93
        0
 40
1.125
309
GRIDFORMAT_END
309
TABLEFORMAT_END
  1
CELLSTYLE_BEGIN
 90
        1
 91
        1
300
_TITLE
309
CELLSTYLE_END
300
CELLSTYLE
  1
TABLEFORMAT_BEGIN
 90
        5
170
     1
 91
        0
 92
        0
 62
   257
 93
        1
300
CONTENTFORMAT
  1
CONTENTFORMAT_BEGIN
 90
        0
 91
        0
 92
      512
 93
        0
300

 40
0.0
140
1.0
 94
        5
 62
     0
340
11
144
4.5
309
CONTENTFORMAT_END
171
     1
301
MARGIN
  1
CELLMARGIN_BEGIN
 40
1.5
 40
1.5
 40
1.5
 40
1.5
 40
4.5
 40
4.5
309
CELLMARGIN_END
 94
        6
 95
        1
302
GRIDFORMAT
  1
GRIDFORMAT_BEGIN
 90
        0
 91
        1
 62
     0
 92
       -2
340
14
 93
        0
 40
1.125
309
GRIDFORMAT_END
 95
        2
302
GRIDFORMAT
  1
GRIDFORMAT_BEGIN
 90
        0
 91
        1
 62
     0
 92
       -2
340
14
 93
        0
 40
1.125
309
GRIDFORMAT_END
 95
        4
302
GRIDFORMAT
  1
GRIDFORMAT_BEGIN
 90
        0
 91
        1
 62
     0
 92
       -2
340
14
 93
        0
 40
1.125
309
GRIDFORMAT_END
 95
        8
302
GRIDFORMAT
  1
GRIDFORMAT_BEGIN
 90
        0
 91
        1
 62
     0
 92
       -2
340
14
 93
        0
 40
1.125
309
GRIDFORMAT_END
 95
       16
302
GRIDFORMAT
  1
GRIDFORMAT_BEGIN
 90
        0
 91
        1
 62
     0
 92
       -2
340
14
 93
        0
 40
1.125
309
GRIDFORMAT_END
 95
       32
302
GRIDFORMAT
  1
GRIDFORMAT_BEGIN
 90
        0
 91
        1
 62
     0
 92
       -2
340
14
 93
        0
 40
1.125
309
GRIDFORMAT_END
309
TABLEFORMAT_END
  1
CELLSTYLE_BEGIN
 90
        2
 91
        1
300
_HEADER
309
CELLSTYLE_END
300
CELLSTYLE
  1
TABLEFORMAT_BEGIN
 90
        5
170
     1
 91
        0
 92
        0
 62
   257
 93
        1
300
CONTENTFORMAT
  1
CONTENTFORMAT_BEGIN
 90
        0
 91
        0
 92
      512
 93
        0
300

 40
0.0
140
1.0
 94
        2
 62
     0
340
11
144
4.5
309
CONTENTFORMAT_END
171
     1
301
MARGIN
  1
CELLMARGIN_BEGIN
 40
1.5
 40
1.5
 40
1.5
 40
1.5
 40
4.5
 40
4.5
309
CELLMARGIN_END
 94
        6
 95
        1
302
GRIDFORMAT
  1
GRIDFORMAT_BEGIN
 90
        0
 91
        1
 62
     0
 92
       -2
340
14
 93
        0
 40
1.125
309
GRIDFORMAT_END
 95
        2
302
GRIDFORMAT
  1
GRIDFORMAT_BEGIN
 90
        0
 91
        1
 62
     0
 92
       -2
340
14
 93
        0
 40
1.125
309
GRIDFORMAT_END
 95
        4
302
GRIDFORMAT
  1
GRIDFORMAT_BEGIN
 90
        0
 91
        1
 62
     0
 92
       -2
340
14
 93
        0
 40
1.125
309
GRIDFORMAT_END
 95
        8
302
GRIDFORMAT
  1
GRIDFORMAT_BEGIN
 90
        0
 91
        1
 62
     0
 92
       -2
340
14
 93
        0
 40
1.125
309
GRIDFORMAT_END
 95
       16
302
GRIDFORMAT
  1
GRIDFORMAT_BEGIN
 90
        0
 91
        1
 62
     0
 92
       -2
340
14
 93
        0
 40
1.125
309
GRIDFORMAT_END
 95
       32
302
GRIDFORMAT
  1
GRIDFORMAT_BEGIN
 90
        0
 91
        1
 62
     0
 92
       -2
340
14
 93
        0
 40
1.125
309
GRIDFORMAT_END
309
TABLEFORMAT_END
  1
CELLSTYLE_BEGIN
 90
        3
 91
        2
300
_DATA
309
CELLSTYLE_END
  0
XRECORD
  5
C87
102
{ACAD_REACTORS
330
162
102
}
330
162
100
AcDbXrecord
280
     1
102
ACAD_ROUNDTRIP_PRE2007_TABLESTYLE
 90
      512
 91
        0
  1

 92
      512
 93
        0
  2

 94
      512
 95
        0
  3

  0
XRECORD
  5
C9A
102
{ACAD_REACTORS
330
C99
102
}
330
C99
100
AcDbXrecord
280
     1
102
RTVSPost2010Prop28
280
     1
102
RTVSPost2010PropOp28
 70
     1
102
RTVSPost2010Prop29
280
     1
102
RTVSPost2010PropOp29
 70
     1
102
RTVSPost2010Prop30
280
     0
102
RTVSPost2010PropOp30
 70
     1
102
RTVSPost2010Prop31
280
     0
102
RTVSPost2010PropOp31
 70
     1
102
RTVSPost2010Prop32
280
     0
102
RTVSPost2010PropOp32
 70
     1
102
RTVSPost2010Prop33
280
     0
102
RTVSPost2010PropOp33
 70
     1
102
RTVSPost2010Prop34
280
     0
102
RTVSPost2010PropOp34
 70
     1
102
RTVSPost2010Prop35
280
     0
102
RTVSPost2010PropOp35
 70
     1
102
RTVSPost2010Prop36
280
     0
102
RTVSPost2010PropOp36
 70
     1
102
RTVSPost2010Prop37
 90
       50
102
RTVSPost2010PropOp37
 70
     1
102
RTVSPost2010Prop38
140
0.0
102
RTVSPost2010PropOp38
 70
     1
102
RTVSPost2010Prop39
140
1.0
102
RTVSPost2010PropOp39
 70
     1
102
RTVSPost2010Prop40
 90
        0
102
RTVSPost2010PropOp40
 70
     1
102
RTVSPost2010Prop41ColorIndex
 90
       18
102
RTVSPost2010Prop41ColorRGB
 90
        0
102
RTVSPost2010PropOp41
 70
     1
102
RTVSPost2010Prop42
 90
       50
102
RTVSPost2010PropOp42
 70
     1
102
RTVSPost2010Prop43
 90
        3
102
RTVSPost2010PropOp43
 70
     1
102
RTVSPost2010Prop44ColorIndex
 90
        5
102
RTVSPost2010Prop44ColorRGB
 90
      255
102
RTVSPost2010PropOp44
 70
     1
102
RTVSPost2010Prop45
280
     0
102
RTVSPost2010PropOp45
 70
     1
102
RTVSPost2010Prop46
 90
       50
102
RTVSPost2010PropOp46
 70
     1
102
RTVSPost2010Prop47
 90
       50
102
RTVSPost2010PropOp47
 70
     1
102
RTVSPost2010Prop48
 90
       50
102
RTVSPost2010PropOp48
 70
     1
102
RTVSPost2010Prop49
280
     0
102
RTVSPost2010PropOp49
 70
     1
102
RTVSPost2010Prop50
 90
       50
102
RTVSPost2010PropOp50
 70
     1
102
RTVSPost2010Prop51ColorIndex
 90
      256
102
RTVSPost2010Prop51ColorRGB
 90
-16777216
102
RTVSPost2010PropOp51
 70
     0
102
RTVSPost2010Prop52
140
1.0
102
RTVSPost2010PropOp52
 70
     0
102
RTVSPost2010Prop53
 90
        2
102
RTVSPost2010PropOp53
 70
     1
102
RTVSPost2010Prop54
  1
strokes_ogs.tif
102
RTVSPost2010PropOp54
 70
     1
102
RTVSPost2010Prop55
280
     0
102
RTVSPost2010PropOp55
 70
     1
102
RTVSPost2010Prop56
140
1.0
102
RTVSPost2010PropOp56
 70
     1
102
RTVSPost2010Prop57
140
1.0
102
RTVSPost2010PropOp57
 70
     1
102
RTVSPropertyOp0
 70
     1
102
RTVSPropertyOp1
 70
     1
102
RTVSPropertyOp2
 70
     1
102
RTVSPropertyOp3
 70
     1
102
RTVSPropertyOp4
 70
     1
102
RTVSPropertyOp5
 70
     1
102
RTVSPropertyOp6
 70
     1
102
RTVSPropertyOp7
 70
     1
102
RTVSPropertyOp8
 70
     1
102
RTVSPropertyOp9
 70
     1
102
RTVSPropertyOp10
 70
     1
102
RTVSPropertyOp11
 70
     1
102
RTVSPropertyOp12
 70
     1
102
RTVSPropertyOp13
 70
     1
102
RTVSPropertyOp14
 70
     1
102
RTVSPropertyOp15
 70
     1
102
RTVSPropertyOp16
 70
     1
102
RTVSPropertyOp17
 70
     1
102
RTVSPropertyOp18
 70
     1
102
RTVSPropertyOp19
 70
     1
102
RTVSPropertyOp20
 70
     1
102
RTVSPropertyOp21
 70
     1
102
RTVSPropertyOp22
 70
     1
102
RTVSPropertyOp23
 70
     1
102
RTVSPropertyOp24
 70
     1
102
RTVSPropertyOp25
 70
     1
102
RTVSPropertyOp26
 70
     1
102
RTVSPropertyOp27
 70
     1
102
RTVSPropertyOp28
 70
     1
102
RTVSPropertyOp29
 70
     1
102
RTVSPropertyOp30
 70
     1
102
RTVSPropertyOp31
 70
     1
102
RTVSPropertyOp32
 70
     1
102
RTVSPropertyOp33
 70
     1
102
RTVSPropertyOp34
 70
     1
102
RTVSPropertyOp35
 70
     1
102
RTVSPropertyOp36
 70
     1
102
RTVSPropertyOp37
 70
     1
102
RTVSPropertyOp38
 70
     1
102
RTVSPropertyOp39
 70
     1
102
RTVSPropertyOp40
 70
     1
102
RTVSPropertyOp41
 70
     1
102
RTVSPropertyOp42
 70
     1
102
RTVSPropertyOp43
 70
     1
102
RTVSPropertyOp44
 70
     1
102
RTVSPropertyOp45
 70
     1
102
RTVSPropertyOp46
 70
     1
102
RTVSPropertyOp47
 70
     1
102
RTVSPropertyOp48
 70
     1
102
RTVSPropertyOp49
 70
     1
102
RTVSPropertyOp50
 70
     1
102
RTVSPropertyOp51
 70
     0
102
RTVSPropertyOp52
 70
     0
102
RTVSPropertyOp53
 70
     1
102
RTVSPropertyOp54
 70
     1
102
RTVSPropertyOp55
 70
     1
102
RTVSPropertyOp56
 70
     1
102
RTVSPropertyOp57
 70
     1
102
RTVSPropertyOp58
 70
     1
102
RTVSPropertyOp59
 70
     1
102
RTVSPropertyOp60
 70
     1
102
RTVSPropertyOp61
 70
     1
102
RTVSPropertyOp62
 70
     1
  0
XRECORD
  5
C98
102
{ACAD_REACTORS
330
C97
102
}
330
C97
100
AcDbXrecord
280
     1
102
RTVSPost2010Prop28
280
     0
102
RTVSPost2010PropOp28
 70
     1
102
RTVSPost2010Prop29
280
     1
102
RTVSPost2010PropOp29
 70
     1
102
RTVSPost2010Prop30
280
     1
102
RTVSPost2010PropOp30
 70
     1
102
RTVSPost2010Prop31
280
     0
102
RTVSPost2010PropOp31
 70
     1
102
RTVSPost2010Prop32
280
     0
102
RTVSPost2010PropOp32
 70
     1
102
RTVSPost2010Prop33
280
     0
102
RTVSPost2010PropOp33
 70
     1
102
RTVSPost2010Prop34
280
     0
102
RTVSPost2010PropOp34
 70
     1
102
RTVSPost2010Prop35
280
     0
102
RTVSPost2010PropOp35
 70
     1
102
RTVSPost2010Prop36
280
     0
102
RTVSPost2010PropOp36
 70
     1
102
RTVSPost2010Prop37
 90
       50
102
RTVSPost2010PropOp37
 70
     1
102
RTVSPost2010Prop38
140
0.0
102
RTVSPost2010PropOp38
 70
     1
102
RTVSPost2010Prop39
140
1.0
102
RTVSPost2010PropOp39
 70
     1
102
RTVSPost2010Prop40
 90
        0
102
RTVSPost2010PropOp40
 70
     1
102
RTVSPost2010Prop41ColorIndex
 90
       18
102
RTVSPost2010Prop41ColorRGB
 90
        0
102
RTVSPost2010PropOp41
 70
     1
102
RTVSPost2010Prop42
 90
       50
102
RTVSPost2010PropOp42
 70
     1
102
RTVSPost2010Prop43
 90
        3
102
RTVSPost2010PropOp43
 70
     1
102
RTVSPost2010Prop44ColorIndex
 90
        5
102
RTVSPost2010Prop44ColorRGB
 90
      255
102
RTVSPost2010PropOp44
 70
     1
102
RTVSPost2010Prop45
280
     0
102
RTVSPost2010PropOp45
 70
     1
102
RTVSPost2010Prop46
 90
       50
102
RTVSPost2010PropOp46
 70
     1
102
RTVSPost2010Prop47
 90
       50
102
RTVSPost2010PropOp47
 70
     1
102
RTVSPost2010Prop48
 90
       50
102
RTVSPost2010PropOp48
 70
     1
102
RTVSPost2010Prop49
280
     0
102
RTVSPost2010PropOp49
 70
     1
102
RTVSPost2010Prop50
 90
       50
102
RTVSPost2010PropOp50
 70
     1
102
RTVSPost2010Prop51ColorIndex
 90
      256
102
RTVSPost2010Prop51ColorRGB
 90
-16777216
102
RTVSPost2010PropOp51
 70
     0
102
RTVSPost2010Prop52
140
1.0
102
RTVSPost2010PropOp52
 70
     0
102
RTVSPost2010Prop53
 90
        2
102
RTVSPost2010PropOp53
 70
     1
102
RTVSPost2010Prop54
  1
strokes_ogs.tif
102
RTVSPost2010PropOp54
 70
     1
102
RTVSPost2010Prop55
280
     0
102
RTVSPost2010PropOp55
 70
     1
102
RTVSPost2010Prop56
140
1.0
102
RTVSPost2010PropOp56
 70
     1
102
RTVSPost2010Prop57
140
1.0
102
RTVSPost2010PropOp57
 70
     1
102
RTVSPropertyOp0
 70
     1
102
RTVSPropertyOp1
 70
     1
102
RTVSPropertyOp2
 70
     1
102
RTVSPropertyOp3
 70
     1
102
RTVSPropertyOp4
 70
     1
102
RTVSPropertyOp5
 70
     1
102
RTVSPropertyOp6
 70
     1
102
RTVSPropertyOp7
 70
     1
102
RTVSPropertyOp8
 70
     1
102
RTVSPropertyOp9
 70
     1
102
RTVSPropertyOp10
 70
     1
102
RTVSPropertyOp11
 70
     1
102
RTVSPropertyOp12
 70
     1
102
RTVSPropertyOp13
 70
     1
102
RTVSPropertyOp14
 70
     1
102
RTVSPropertyOp15
 70
     1
102
RTVSPropertyOp16
 70
     1
102
RTVSPropertyOp17
 70
     1
102
RTVSPropertyOp18
 70
     1
102
RTVSPropertyOp19
 70
     1
102
RTVSPropertyOp20
 70
     1
102
RTVSPropertyOp21
 70
     1
102
RTVSPropertyOp22
 70
     1
102
RTVSPropertyOp23
 70
     1
102
RTVSPropertyOp24
 70
     1
102
RTVSPropertyOp25
 70
     1
102
RTVSPropertyOp26
 70
     1
102
RTVSPropertyOp27
 70
     1
102
RTVSPropertyOp28
 70
     1
102
RTVSPropertyOp29
 70
     1
102
RTVSPropertyOp30
 70
     1
102
RTVSPropertyOp31
 70
     1
102
RTVSPropertyOp32
 70
     1
102
RTVSPropertyOp33
 70
     1
102
RTVSPropertyOp34
 70
     1
102
RTVSPropertyOp35
 70
     1
102
RTVSPropertyOp36
 70
     1
102
RTVSPropertyOp37
 70
     1
102
RTVSPropertyOp38
 70
     1
102
RTVSPropertyOp39
 70
     1
102
RTVSPropertyOp40
 70
     1
102
RTVSPropertyOp41
 70
     1
102
RTVSPropertyOp42
 70
     1
102
RTVSPropertyOp43
 70
     1
102
RTVSPropertyOp44
 70
     1
102
RTVSPropertyOp45
 70
     1
102
RTVSPropertyOp46
 70
     1
102
RTVSPropertyOp47
 70
     1
102
RTVSPropertyOp48
 70
     1
102
RTVSPropertyOp49
 70
     1
102
RTVSPropertyOp50
 70
     1
102
RTVSPropertyOp51
 70
     0
102
RTVSPropertyOp52
 70
     0
102
RTVSPropertyOp53
 70
     1
102
RTVSPropertyOp54
 70
     1
102
RTVSPropertyOp55
 70
     1
102
RTVSPropertyOp56
 70
     1
102
RTVSPropertyOp57
 70
     1
102
RTVSPropertyOp58
 70
     1
102
RTVSPropertyOp59
 70
     1
102
RTVSPropertyOp60
 70
     1
102
RTVSPropertyOp61
 70
     1
102
RTVSPropertyOp62
 70
     1
  0
XRECORD
  5
CA6
102
{ACAD_REACTORS
330
CA5
102
}
330
CA5
100
AcDbXrecord
280
     1
102
RTVSPost2010Prop28
280
     0
102
RTVSPost2010PropOp28
 70
     1
102
RTVSPost2010Prop29
280
     1
102
RTVSPost2010PropOp29
 70
     1
102
RTVSPost2010Prop30
280
     1
102
RTVSPost2010PropOp30
 70
     1
102
RTVSPost2010Prop31
280
     0
102
RTVSPost2010PropOp31
 70
     1
102
RTVSPost2010Prop32
280
     0
102
RTVSPost2010PropOp32
 70
     1
102
RTVSPost2010Prop33
280
     0
102
RTVSPost2010PropOp33
 70
     1
102
RTVSPost2010Prop34
280
     0
102
RTVSPost2010PropOp34
 70
     1
102
RTVSPost2010Prop35
280
     0
102
RTVSPost2010PropOp35
 70
     1
102
RTVSPost2010Prop36
280
     0
102
RTVSPost2010PropOp36
 70
     1
102
RTVSPost2010Prop37
 90
       50
102
RTVSPost2010PropOp37
 70
     1
102
RTVSPost2010Prop38
140
0.0
102
RTVSPost2010PropOp38
 70
     1
102
RTVSPost2010Prop39
140
1.0
102
RTVSPost2010PropOp39
 70
     1
102
RTVSPost2010Prop40
 90
        0
102
RTVSPost2010PropOp40
 70
     1
102
RTVSPost2010Prop41ColorIndex
 90
       18
102
RTVSPost2010Prop41ColorRGB
 90
        0
102
RTVSPost2010PropOp41
 70
     1
102
RTVSPost2010Prop42
 90
       50
102
RTVSPost2010PropOp42
 70
     1
102
RTVSPost2010Prop43
 90
        3
102
RTVSPost2010PropOp43
 70
     1
102
RTVSPost2010Prop44ColorIndex
 90
        5
102
RTVSPost2010Prop44ColorRGB
 90
      255
102
RTVSPost2010PropOp44
 70
     1
102
RTVSPost2010Prop45
280
     0
102
RTVSPost2010PropOp45
 70
     1
102
RTVSPost2010Prop46
 90
       50
102
RTVSPost2010PropOp46
 70
     1
102
RTVSPost2010Prop47
 90
       50
102
RTVSPost2010PropOp47
 70
     1
102
RTVSPost2010Prop48
 90
       50
102
RTVSPost2010PropOp48
 70
     1
102
RTVSPost2010Prop49
280
     0
102
RTVSPost2010PropOp49
 70
     1
102
RTVSPost2010Prop50
 90
       50
102
RTVSPost2010PropOp50
 70
     1
102
RTVSPost2010Prop51ColorIndex
 90
      256
102
RTVSPost2010Prop51ColorRGB
 90
-16777216
102
RTVSPost2010PropOp51
 70
     0
102
RTVSPost2010Prop52
140
1.0
102
RTVSPost2010PropOp52
 70
     0
102
RTVSPost2010Prop53
 90
        2
102
RTVSPost2010PropOp53
 70
     1
102
RTVSPost2010Prop54
  1
strokes_ogs.tif
102
RTVSPost2010PropOp54
 70
     1
102
RTVSPost2010Prop55
280
     0
102
RTVSPost2010PropOp55
 70
     1
102
RTVSPost2010Prop56
140
1.0
102
RTVSPost2010PropOp56
 70
     1
102
RTVSPost2010Prop57
140
1.0
102
RTVSPost2010PropOp57
 70
     1
102
RTVSPropertyOp0
 70
     1
102
RTVSPropertyOp1
 70
     1
102
RTVSPropertyOp2
 70
     1
102
RTVSPropertyOp3
 70
     1
102
RTVSPropertyOp4
 70
     1
102
RTVSPropertyOp5
 70
     1
102
RTVSPropertyOp6
 70
     1
102
RTVSPropertyOp7
 70
     1
102
RTVSPropertyOp8
 70
     1
102
RTVSPropertyOp9
 70
     1
102
RTVSPropertyOp10
 70
     1
102
RTVSPropertyOp11
 70
     1
102
RTVSPropertyOp12
 70
     1
102
RTVSPropertyOp13
 70
     1
102
RTVSPropertyOp14
 70
     1
102
RTVSPropertyOp15
 70
     1
102
RTVSPropertyOp16
 70
     1
102
RTVSPropertyOp17
 70
     1
102
RTVSPropertyOp18
 70
     1
102
RTVSPropertyOp19
 70
     1
102
RTVSPropertyOp20
 70
     1
102
RTVSPropertyOp21
 70
     1
102
RTVSPropertyOp22
 70
     1
102
RTVSPropertyOp23
 70
     1
102
RTVSPropertyOp24
 70
     1
102
RTVSPropertyOp25
 70
     1
102
RTVSPropertyOp26
 70
     1
102
RTVSPropertyOp27
 70
     1
102
RTVSPropertyOp28
 70
     1
102
RTVSPropertyOp29
 70
     1
102
RTVSPropertyOp30
 70
     1
102
RTVSPropertyOp31
 70
     1
102
RTVSPropertyOp32
 70
     1
102
RTVSPropertyOp33
 70
     1
102
RTVSPropertyOp34
 70
     1
102
RTVSPropertyOp35
 70
     1
102
RTVSPropertyOp36
 70
     1
102
RTVSPropertyOp37
 70
     1
102
RTVSPropertyOp38
 70
     1
102
RTVSPropertyOp39
 70
     1
102
RTVSPropertyOp40
 70
     1
102
RTVSPropertyOp41
 70
     1
102
RTVSPropertyOp42
 70
     1
102
RTVSPropertyOp43
 70
     1
102
RTVSPropertyOp44
 70
     1
102
RTVSPropertyOp45
 70
     1
102
RTVSPropertyOp46
 70
     1
102
RTVSPropertyOp47
 70
     1
102
RTVSPropertyOp48
 70
     1
102
RTVSPropertyOp49
 70
     1
102
RTVSPropertyOp50
 70
     1
102
RTVSPropertyOp51
 70
     0
102
RTVSPropertyOp52
 70
     0
102
RTVSPropertyOp53
 70
     1
102
RTVSPropertyOp54
 70
     1
102
RTVSPropertyOp55
 70
     1
102
RTVSPropertyOp56
 70
     1
102
RTVSPropertyOp57
 70
     1
102
RTVSPropertyOp58
 70
     1
102
RTVSPropertyOp59
 70
     1
102
RTVSPropertyOp60
 70
     1
102
RTVSPropertyOp61
 70
     1
102
RTVSPropertyOp62
 70
     1
  0
XRECORD
  5
CAE
102
{ACAD_REACTORS
330
CAD
102
}
330
CAD
100
AcDbXrecord
280
     1
102
RTVSPost2010Prop28
280
     0
102
RTVSPost2010PropOp28
 70
     1
102
RTVSPost2010Prop29
280
     1
102
RTVSPost2010PropOp29
 70
     1
102
RTVSPost2010Prop30
280
     1
102
RTVSPost2010PropOp30
 70
     1
102
RTVSPost2010Prop31
280
     0
102
RTVSPost2010PropOp31
 70
     1
102
RTVSPost2010Prop32
280
     0
102
RTVSPost2010PropOp32
 70
     1
102
RTVSPost2010Prop33
280
     0
102
RTVSPost2010PropOp33
 70
     1
102
RTVSPost2010Prop34
280
     0
102
RTVSPost2010PropOp34
 70
     1
102
RTVSPost2010Prop35
280
     0
102
RTVSPost2010PropOp35
 70
     1
102
RTVSPost2010Prop36
280
     0
102
RTVSPost2010PropOp36
 70
     1
102
RTVSPost2010Prop37
 90
       50
102
RTVSPost2010PropOp37
 70
     1
102
RTVSPost2010Prop38
140
0.0
102
RTVSPost2010PropOp38
 70
     1
102
RTVSPost2010Prop39
140
1.0
102
RTVSPost2010PropOp39
 70
     1
102
RTVSPost2010Prop40
 90
        0
102
RTVSPost2010PropOp40
 70
     1
102
RTVSPost2010Prop41ColorIndex
 90
       18
102
RTVSPost2010Prop41ColorRGB
 90
        0
102
RTVSPost2010PropOp41
 70
     1
102
RTVSPost2010Prop42
 90
       50
102
RTVSPost2010PropOp42
 70
     1
102
RTVSPost2010Prop43
 90
        3
102
RTVSPost2010PropOp43
 70
     1
102
RTVSPost2010Prop44ColorIndex
 90
        5
102
RTVSPost2010Prop44ColorRGB
 90
      255
102
RTVSPost2010PropOp44
 70
     1
102
RTVSPost2010Prop45
280
     0
102
RTVSPost2010PropOp45
 70
     1
102
RTVSPost2010Prop46
 90
       50
102
RTVSPost2010PropOp46
 70
     1
102
RTVSPost2010Prop47
 90
       50
102
RTVSPost2010PropOp47
 70
     1
102
RTVSPost2010Prop48
 90
       50
102
RTVSPost2010PropOp48
 70
     1
102
RTVSPost2010Prop49
280
     0
102
RTVSPost2010PropOp49
 70
     1
102
RTVSPost2010Prop50
 90
       50
102
RTVSPost2010PropOp50
 70
     1
102
RTVSPost2010Prop51ColorIndex
 90
      256
102
RTVSPost2010Prop51ColorRGB
 90
-16777216
102
RTVSPost2010PropOp51
 70
     0
102
RTVSPost2010Prop52
140
1.0
102
RTVSPost2010PropOp52
 70
     0
102
RTVSPost2010Prop53
 90
        2
102
RTVSPost2010PropOp53
 70
     1
102
RTVSPost2010Prop54
  1
strokes_ogs.tif
102
RTVSPost2010PropOp54
 70
     1
102
RTVSPost2010Prop55
280
     0
102
RTVSPost2010PropOp55
 70
     1
102
RTVSPost2010Prop56
140
1.0
102
RTVSPost2010PropOp56
 70
     1
102
RTVSPost2010Prop57
140
1.0
102
RTVSPost2010PropOp57
 70
     1
102
RTVSPropertyOp0
 70
     1
102
RTVSPropertyOp1
 70
     1
102
RTVSPropertyOp2
 70
     1
102
RTVSPropertyOp3
 70
     1
102
RTVSPropertyOp4
 70
     1
102
RTVSPropertyOp5
 70
     1
102
RTVSPropertyOp6
 70
     1
102
RTVSPropertyOp7
 70
     1
102
RTVSPropertyOp8
 70
     1
102
RTVSPropertyOp9
 70
     1
102
RTVSPropertyOp10
 70
     1
102
RTVSPropertyOp11
 70
     1
102
RTVSPropertyOp12
 70
     1
102
RTVSPropertyOp13
 70
     1
102
RTVSPropertyOp14
 70
     1
102
RTVSPropertyOp15
 70
     1
102
RTVSPropertyOp16
 70
     1
102
RTVSPropertyOp17
 70
     1
102
RTVSPropertyOp18
 70
     1
102
RTVSPropertyOp19
 70
     1
102
RTVSPropertyOp20
 70
     1
102
RTVSPropertyOp21
 70
     1
102
RTVSPropertyOp22
 70
     1
102
RTVSPropertyOp23
 70
     1
102
RTVSPropertyOp24
 70
     1
102
RTVSPropertyOp25
 70
     1
102
RTVSPropertyOp26
 70
     1
102
RTVSPropertyOp27
 70
     1
102
RTVSPropertyOp28
 70
     1
102
RTVSPropertyOp29
 70
     1
102
RTVSPropertyOp30
 70
     1
102
RTVSPropertyOp31
 70
     1
102
RTVSPropertyOp32
 70
     1
102
RTVSPropertyOp33
 70
     1
102
RTVSPropertyOp34
 70
     1
102
RTVSPropertyOp35
 70
     1
102
RTVSPropertyOp36
 70
     1
102
RTVSPropertyOp37
 70
     1
102
RTVSPropertyOp38
 70
     1
102
RTVSPropertyOp39
 70
     1
102
RTVSPropertyOp40
 70
     1
102
RTVSPropertyOp41
 70
     1
102
RTVSPropertyOp42
 70
     1
102
RTVSPropertyOp43
 70
     1
102
RTVSPropertyOp44
 70
     1
102
RTVSPropertyOp45
 70
     1
102
RTVSPropertyOp46
 70
     1
102
RTVSPropertyOp47
 70
     1
102
RTVSPropertyOp48
 70
     1
102
RTVSPropertyOp49
 70
     1
102
RTVSPropertyOp50
 70
     1
102
RTVSPropertyOp51
 70
     0
102
RTVSPropertyOp52
 70
     0
102
RTVSPropertyOp53
 70
     1
102
RTVSPropertyOp54
 70
     1
102
RTVSPropertyOp55
 70
     1
102
RTVSPropertyOp56
 70
     1
102
RTVSPropertyOp57
 70
     1
102
RTVSPropertyOp58
 70
     1
102
RTVSPropertyOp59
 70
     1
102
RTVSPropertyOp60
 70
     1
102
RTVSPropertyOp61
 70
     1
102
RTVSPropertyOp62
 70
     1
  0
XRECORD
  5
CA0
102
{ACAD_REACTORS
330
C9F
102
}
330
C9F
100
AcDbXrecord
280
     1
102
RTVSPost2010Prop28
280
     0
102
RTVSPost2010PropOp28
 70
     1
102
RTVSPost2010Prop29
280
     1
102
RTVSPost2010PropOp29
 70
     1
102
RTVSPost2010Prop30
280
     1
102
RTVSPost2010PropOp30
 70
     1
102
RTVSPost2010Prop31
280
     0
102
RTVSPost2010PropOp31
 70
     1
102
RTVSPost2010Prop32
280
     0
102
RTVSPost2010PropOp32
 70
     1
102
RTVSPost2010Prop33
280
     0
102
RTVSPost2010PropOp33
 70
     1
102
RTVSPost2010Prop34
280
     0
102
RTVSPost2010PropOp34
 70
     1
102
RTVSPost2010Prop35
280
     0
102
RTVSPost2010PropOp35
 70
     1
102
RTVSPost2010Prop36
280
     0
102
RTVSPost2010PropOp36
 70
     1
102
RTVSPost2010Prop37
 90
       50
102
RTVSPost2010PropOp37
 70
     1
102
RTVSPost2010Prop38
140
0.0
102
RTVSPost2010PropOp38
 70
     1
102
RTVSPost2010Prop39
140
1.0
102
RTVSPost2010PropOp39
 70
     1
102
RTVSPost2010Prop40
 90
        0
102
RTVSPost2010PropOp40
 70
     1
102
RTVSPost2010Prop41ColorIndex
 90
       18
102
RTVSPost2010Prop41ColorRGB
 90
        0
102
RTVSPost2010PropOp41
 70
     1
102
RTVSPost2010Prop42
 90
       50
102
RTVSPost2010PropOp42
 70
     1
102
RTVSPost2010Prop43
 90
        3
102
RTVSPost2010PropOp43
 70
     1
102
RTVSPost2010Prop44ColorIndex
 90
        5
102
RTVSPost2010Prop44ColorRGB
 90
      255
102
RTVSPost2010PropOp44
 70
     1
102
RTVSPost2010Prop45
280
     0
102
RTVSPost2010PropOp45
 70
     1
102
RTVSPost2010Prop46
 90
       50
102
RTVSPost2010PropOp46
 70
     1
102
RTVSPost2010Prop47
 90
       50
102
RTVSPost2010PropOp47
 70
     1
102
RTVSPost2010Prop48
 90
       50
102
RTVSPost2010PropOp48
 70
     1
102
RTVSPost2010Prop49
280
     0
102
RTVSPost2010PropOp49
 70
     1
102
RTVSPost2010Prop50
 90
       50
102
RTVSPost2010PropOp50
 70
     1
102
RTVSPost2010Prop51ColorIndex
 90
      256
102
RTVSPost2010Prop51ColorRGB
 90
-16777216
102
RTVSPost2010PropOp51
 70
     0
102
RTVSPost2010Prop52
140
1.0
102
RTVSPost2010PropOp52
 70
     0
102
RTVSPost2010Prop53
 90
        2
102
RTVSPost2010PropOp53
 70
     1
102
RTVSPost2010Prop54
  1
strokes_ogs.tif
102
RTVSPost2010PropOp54
 70
     1
102
RTVSPost2010Prop55
280
     0
102
RTVSPost2010PropOp55
 70
     1
102
RTVSPost2010Prop56
140
1.0
102
RTVSPost2010PropOp56
 70
     1
102
RTVSPost2010Prop57
140
1.0
102
RTVSPost2010PropOp57
 70
     1
102
RTVSPropertyOp0
 70
     1
102
RTVSPropertyOp1
 70
     1
102
RTVSPropertyOp2
 70
     1
102
RTVSPropertyOp3
 70
     1
102
RTVSPropertyOp4
 70
     1
102
RTVSPropertyOp5
 70
     1
102
RTVSPropertyOp6
 70
     1
102
RTVSPropertyOp7
 70
     1
102
RTVSPropertyOp8
 70
     1
102
RTVSPropertyOp9
 70
     1
102
RTVSPropertyOp10
 70
     1
102
RTVSPropertyOp11
 70
     1
102
RTVSPropertyOp12
 70
     1
102
RTVSPropertyOp13
 70
     1
102
RTVSPropertyOp14
 70
     1
102
RTVSPropertyOp15
 70
     1
102
RTVSPropertyOp16
 70
     1
102
RTVSPropertyOp17
 70
     1
102
RTVSPropertyOp18
 70
     1
102
RTVSPropertyOp19
 70
     1
102
RTVSPropertyOp20
 70
     1
102
RTVSPropertyOp21
 70
     1
102
RTVSPropertyOp22
 70
     1
102
RTVSPropertyOp23
 70
     1
102
RTVSPropertyOp24
 70
     1
102
RTVSPropertyOp25
 70
     1
102
RTVSPropertyOp26
 70
     1
102
RTVSPropertyOp27
 70
     1
102
RTVSPropertyOp28
 70
     1
102
RTVSPropertyOp29
 70
     1
102
RTVSPropertyOp30
 70
     1
102
RTVSPropertyOp31
 70
     1
102
RTVSPropertyOp32
 70
     1
102
RTVSPropertyOp33
 70
     1
102
RTVSPropertyOp34
 70
     1
102
RTVSPropertyOp35
 70
     1
102
RTVSPropertyOp36
 70
     1
102
RTVSPropertyOp37
 70
     1
102
RTVSPropertyOp38
 70
     1
102
RTVSPropertyOp39
 70
     1
102
RTVSPropertyOp40
 70
     1
102
RTVSPropertyOp41
 70
     1
102
RTVSPropertyOp42
 70
     1
102
RTVSPropertyOp43
 70
     1
102
RTVSPropertyOp44
 70
     1
102
RTVSPropertyOp45
 70
     1
102
RTVSPropertyOp46
 70
     1
102
RTVSPropertyOp47
 70
     1
102
RTVSPropertyOp48
 70
     1
102
RTVSPropertyOp49
 70
     1
102
RTVSPropertyOp50
 70
     1
102
RTVSPropertyOp51
 70
     0
102
RTVSPropertyOp52
 70
     0
102
RTVSPropertyOp53
 70
     1
102
RTVSPropertyOp54
 70
     1
102
RTVSPropertyOp55
 70
     1
102
RTVSPropertyOp56
 70
     1
102
RTVSPropertyOp57
 70
     1
102
RTVSPropertyOp58
 70
     1
102
RTVSPropertyOp59
 70
     1
102
RTVSPropertyOp60
 70
     1
102
RTVSPropertyOp61
 70
     1
102
RTVSPropertyOp62
 70
     1
  0
XRECORD
  5
CA4
102
{ACAD_REACTORS
330
CA3
102
}
330
CA3
100
AcDbXrecord
280
     1
102
RTVSPost2010Prop28
280
     0
102
RTVSPost2010PropOp28
 70
     1
102
RTVSPost2010Prop29
280
     1
102
RTVSPost2010PropOp29
 70
     1
102
RTVSPost2010Prop30
280
     1
102
RTVSPost2010PropOp30
 70
     1
102
RTVSPost2010Prop31
280
     0
102
RTVSPost2010PropOp31
 70
     1
102
RTVSPost2010Prop32
280
     0
102
RTVSPost2010PropOp32
 70
     1
102
RTVSPost2010Prop33
280
     0
102
RTVSPost2010PropOp33
 70
     1
102
RTVSPost2010Prop34
280
     0
102
RTVSPost2010PropOp34
 70
     1
102
RTVSPost2010Prop35
280
     0
102
RTVSPost2010PropOp35
 70
     1
102
RTVSPost2010Prop36
280
     0
102
RTVSPost2010PropOp36
 70
     1
102
RTVSPost2010Prop37
 90
       50
102
RTVSPost2010PropOp37
 70
     1
102
RTVSPost2010Prop38
140
0.0
102
RTVSPost2010PropOp38
 70
     1
102
RTVSPost2010Prop39
140
1.0
102
RTVSPost2010PropOp39
 70
     1
102
RTVSPost2010Prop40
 90
        0
102
RTVSPost2010PropOp40
 70
     1
102
RTVSPost2010Prop41ColorIndex
 90
       18
102
RTVSPost2010Prop41ColorRGB
 90
        0
102
RTVSPost2010PropOp41
 70
     1
102
RTVSPost2010Prop42
 90
       50
102
RTVSPost2010PropOp42
 70
     1
102
RTVSPost2010Prop43
 90
        3
102
RTVSPost2010PropOp43
 70
     1
102
RTVSPost2010Prop44ColorIndex
 90
        5
102
RTVSPost2010Prop44ColorRGB
 90
      255
102
RTVSPost2010PropOp44
 70
     1
102
RTVSPost2010Prop45
280
     0
102
RTVSPost2010PropOp45
 70
     1
102
RTVSPost2010Prop46
 90
       50
102
RTVSPost2010PropOp46
 70
     1
102
RTVSPost2010Prop47
 90
       50
102
RTVSPost2010PropOp47
 70
     1
102
RTVSPost2010Prop48
 90
       50
102
RTVSPost2010PropOp48
 70
     1
102
RTVSPost2010Prop49
280
     0
102
RTVSPost2010PropOp49
 70
     1
102
RTVSPost2010Prop50
 90
       50
102
RTVSPost2010PropOp50
 70
     1
102
RTVSPost2010Prop51ColorIndex
 90
      256
102
RTVSPost2010Prop51ColorRGB
 90
-16777216
102
RTVSPost2010PropOp51
 70
     0
102
RTVSPost2010Prop52
140
1.0
102
RTVSPost2010PropOp52
 70
     0
102
RTVSPost2010Prop53
 90
        2
102
RTVSPost2010PropOp53
 70
     1
102
RTVSPost2010Prop54
  1
strokes_ogs.tif
102
RTVSPost2010PropOp54
 70
     1
102
RTVSPost2010Prop55
280
     0
102
RTVSPost2010PropOp55
 70
     1
102
RTVSPost2010Prop56
140
1.0
102
RTVSPost2010PropOp56
 70
     1
102
RTVSPost2010Prop57
140
1.0
102
RTVSPost2010PropOp57
 70
     1
102
RTVSPropertyOp0
 70
     1
102
RTVSPropertyOp1
 70
     1
102
RTVSPropertyOp2
 70
     1
102
RTVSPropertyOp3
 70
     1
102
RTVSPropertyOp4
 70
     1
102
RTVSPropertyOp5
 70
     1
102
RTVSPropertyOp6
 70
     1
102
RTVSPropertyOp7
 70
     1
102
RTVSPropertyOp8
 70
     1
102
RTVSPropertyOp9
 70
     1
102
RTVSPropertyOp10
 70
     1
102
RTVSPropertyOp11
 70
     1
102
RTVSPropertyOp12
 70
     1
102
RTVSPropertyOp13
 70
     1
102
RTVSPropertyOp14
 70
     1
102
RTVSPropertyOp15
 70
     1
102
RTVSPropertyOp16
 70
     1
102
RTVSPropertyOp17
 70
     1
102
RTVSPropertyOp18
 70
     1
102
RTVSPropertyOp19
 70
     1
102
RTVSPropertyOp20
 70
     1
102
RTVSPropertyOp21
 70
     1
102
RTVSPropertyOp22
 70
     1
102
RTVSPropertyOp23
 70
     1
102
RTVSPropertyOp24
 70
     1
102
RTVSPropertyOp25
 70
     1
102
RTVSPropertyOp26
 70
     1
102
RTVSPropertyOp27
 70
     1
102
RTVSPropertyOp28
 70
     1
102
RTVSPropertyOp29
 70
     1
102
RTVSPropertyOp30
 70
     1
102
RTVSPropertyOp31
 70
     1
102
RTVSPropertyOp32
 70
     1
102
RTVSPropertyOp33
 70
     1
102
RTVSPropertyOp34
 70
     1
102
RTVSPropertyOp35
 70
     1
102
RTVSPropertyOp36
 70
     1
102
RTVSPropertyOp37
 70
     1
102
RTVSPropertyOp38
 70
     1
102
RTVSPropertyOp39
 70
     1
102
RTVSPropertyOp40
 70
     1
102
RTVSPropertyOp41
 70
     1
102
RTVSPropertyOp42
 70
     1
102
RTVSPropertyOp43
 70
     1
102
RTVSPropertyOp44
 70
     1
102
RTVSPropertyOp45
 70
     1
102
RTVSPropertyOp46
 70
     1
102
RTVSPropertyOp47
 70
     1
102
RTVSPropertyOp48
 70
     1
102
RTVSPropertyOp49
 70
     1
102
RTVSPropertyOp50
 70
     1
102
RTVSPropertyOp51
 70
     0
102
RTVSPropertyOp52
 70
     0
102
RTVSPropertyOp53
 70
     1
102
RTVSPropertyOp54
 70
     1
102
RTVSPropertyOp55
 70
     1
102
RTVSPropertyOp56
 70
     1
102
RTVSPropertyOp57
 70
     1
102
RTVSPropertyOp58
 70
     1
102
RTVSPropertyOp59
 70
     1
102
RTVSPropertyOp60
 70
     1
102
RTVSPropertyOp61
 70
     1
102
RTVSPropertyOp62
 70
     1
  0
XRECORD
  5
CB6
102
{ACAD_REACTORS
330
CB5
102
}
330
CB5
100
AcDbXrecord
280
     1
102
RTVSPost2010Prop28
280
     0
102
RTVSPost2010PropOp28
 70
     1
102
RTVSPost2010Prop29
280
     1
102
RTVSPost2010PropOp29
 70
     1
102
RTVSPost2010Prop30
280
     1
102
RTVSPost2010PropOp30
 70
     1
102
RTVSPost2010Prop31
280
     0
102
RTVSPost2010PropOp31
 70
     1
102
RTVSPost2010Prop32
280
     0
102
RTVSPost2010PropOp32
 70
     1
102
RTVSPost2010Prop33
280
     0
102
RTVSPost2010PropOp33
 70
     1
102
RTVSPost2010Prop34
280
     0
102
RTVSPost2010PropOp34
 70
     1
102
RTVSPost2010Prop35
280
     0
102
RTVSPost2010PropOp35
 70
     1
102
RTVSPost2010Prop36
280
     0
102
RTVSPost2010PropOp36
 70
     1
102
RTVSPost2010Prop37
 90
       50
102
RTVSPost2010PropOp37
 70
     1
102
RTVSPost2010Prop38
140
0.0
102
RTVSPost2010PropOp38
 70
     1
102
RTVSPost2010Prop39
140
1.0
102
RTVSPost2010PropOp39
 70
     1
102
RTVSPost2010Prop40
 90
        0
102
RTVSPost2010PropOp40
 70
     1
102
RTVSPost2010Prop41ColorIndex
 90
       18
102
RTVSPost2010Prop41ColorRGB
 90
        0
102
RTVSPost2010PropOp41
 70
     1
102
RTVSPost2010Prop42
 90
       50
102
RTVSPost2010PropOp42
 70
     1
102
RTVSPost2010Prop43
 90
        3
102
RTVSPost2010PropOp43
 70
     1
102
RTVSPost2010Prop44ColorIndex
 90
        5
102
RTVSPost2010Prop44ColorRGB
 90
      255
102
RTVSPost2010PropOp44
 70
     1
102
RTVSPost2010Prop45
280
     0
102
RTVSPost2010PropOp45
 70
     1
102
RTVSPost2010Prop46
 90
       50
102
RTVSPost2010PropOp46
 70
     1
102
RTVSPost2010Prop47
 90
       50
102
RTVSPost2010PropOp47
 70
     1
102
RTVSPost2010Prop48
 90
       50
102
RTVSPost2010PropOp48
 70
     1
102
RTVSPost2010Prop49
280
     0
102
RTVSPost2010PropOp49
 70
     1
102
RTVSPost2010Prop50
 90
       50
102
RTVSPost2010PropOp50
 70
     1
102
RTVSPost2010Prop51ColorIndex
 90
      256
102
RTVSPost2010Prop51ColorRGB
 90
-16777216
102
RTVSPost2010PropOp51
 70
     0
102
RTVSPost2010Prop52
140
1.0
102
RTVSPost2010PropOp52
 70
     0
102
RTVSPost2010Prop53
 90
        2
102
RTVSPost2010PropOp53
 70
     1
102
RTVSPost2010Prop54
  1
strokes_ogs.tif
102
RTVSPost2010PropOp54
 70
     1
102
RTVSPost2010Prop55
280
     0
102
RTVSPost2010PropOp55
 70
     1
102
RTVSPost2010Prop56
140
1.0
102
RTVSPost2010PropOp56
 70
     1
102
RTVSPost2010Prop57
140
1.0
102
RTVSPost2010PropOp57
 70
     1
102
RTVSPropertyOp0
 70
     0
102
RTVSPropertyOp1
 70
     0
102
RTVSPropertyOp2
 70
     0
102
RTVSPropertyOp3
 70
     0
102
RTVSPropertyOp4
 70
     0
102
RTVSPropertyOp5
 70
     0
102
RTVSPropertyOp6
 70
     0
102
RTVSPropertyOp7
 70
     0
102
RTVSPropertyOp8
 70
     0
102
RTVSPropertyOp9
 70
     0
102
RTVSPropertyOp10
 70
     0
102
RTVSPropertyOp11
 70
     0
102
RTVSPropertyOp12
 70
     0
102
RTVSPropertyOp13
 70
     0
102
RTVSPropertyOp14
 70
     2
102
RTVSPropertyOp15
 70
     0
102
RTVSPropertyOp16
 70
     0
102
RTVSPropertyOp17
 70
     0
102
RTVSPropertyOp18
 70
     0
102
RTVSPropertyOp19
 70
     0
102
RTVSPropertyOp20
 70
     0
102
RTVSPropertyOp21
 70
     0
102
RTVSPropertyOp22
 70
     0
102
RTVSPropertyOp23
 70
     0
102
RTVSPropertyOp24
 70
     0
102
RTVSPropertyOp25
 70
     0
102
RTVSPropertyOp26
 70
     0
102
RTVSPropertyOp27
 70
     0
102
RTVSPropertyOp28
 70
     1
102
RTVSPropertyOp29
 70
     1
102
RTVSPropertyOp30
 70
     1
102
RTVSPropertyOp31
 70
     1
102
RTVSPropertyOp32
 70
     1
102
RTVSPropertyOp33
 70
     1
102
RTVSPropertyOp34
 70
     1
102
RTVSPropertyOp35
 70
     1
102
RTVSPropertyOp36
 70
     1
102
RTVSPropertyOp37
 70
     1
102
RTVSPropertyOp38
 70
     1
102
RTVSPropertyOp39
 70
     1
102
RTVSPropertyOp40
 70
     1
102
RTVSPropertyOp41
 70
     1
102
RTVSPropertyOp42
 70
     1
102
RTVSPropertyOp43
 70
     1
102
RTVSPropertyOp44
 70
     1
102
RTVSPropertyOp45
 70
     1
102
RTVSPropertyOp46
 70
     1
102
RTVSPropertyOp47
 70
     1
102
RTVSPropertyOp48
 70
     1
102
RTVSPropertyOp49
 70
     1
102
RTVSPropertyOp50
 70
     1
102
RTVSPropertyOp51
 70
     0
102
RTVSPropertyOp52
 70
     0
102
RTVSPropertyOp53
 70
     1
102
RTVSPropertyOp54
 70
     1
102
RTVSPropertyOp55
 70
     1
102
RTVSPropertyOp56
 70
     1
102
RTVSPropertyOp57
 70
     1
102
RTVSPropertyOp58
 70
     1
102
RTVSPropertyOp59
 70
     1
102
RTVSPropertyOp60
 70
     1
102
RTVSPropertyOp61
 70
     1
102
RTVSPropertyOp62
 70
     1
  0
XRECORD
  5
CAC
102
{ACAD_REACTORS
330
CAB
102
}
330
CAB
100
AcDbXrecord
280
     1
102
RTVSPost2010Prop28
280
     0
102
RTVSPost2010PropOp28
 70
     1
102
RTVSPost2010Prop29
280
     1
102
RTVSPost2010PropOp29
 70
     1
102
RTVSPost2010Prop30
280
     1
102
RTVSPost2010PropOp30
 70
     1
102
RTVSPost2010Prop31
280
     0
102
RTVSPost2010PropOp31
 70
     1
102
RTVSPost2010Prop32
280
     0
102
RTVSPost2010PropOp32
 70
     1
102
RTVSPost2010Prop33
280
     0
102
RTVSPost2010PropOp33
 70
     1
102
RTVSPost2010Prop34
280
     0
102
RTVSPost2010PropOp34
 70
     1
102
RTVSPost2010Prop35
280
     0
102
RTVSPost2010PropOp35
 70
     1
102
RTVSPost2010Prop36
280
     0
102
RTVSPost2010PropOp36
 70
     1
102
RTVSPost2010Prop37
 90
       50
102
RTVSPost2010PropOp37
 70
     1
102
RTVSPost2010Prop38
140
0.0
102
RTVSPost2010PropOp38
 70
     1
102
RTVSPost2010Prop39
140
1.0
102
RTVSPost2010PropOp39
 70
     1
102
RTVSPost2010Prop40
 90
        0
102
RTVSPost2010PropOp40
 70
     1
102
RTVSPost2010Prop41ColorIndex
 90
       18
102
RTVSPost2010Prop41ColorRGB
 90
        0
102
RTVSPost2010PropOp41
 70
     1
102
RTVSPost2010Prop42
 90
       50
102
RTVSPost2010PropOp42
 70
     1
102
RTVSPost2010Prop43
 90
        3
102
RTVSPost2010PropOp43
 70
     1
102
RTVSPost2010Prop44ColorIndex
 90
        5
102
RTVSPost2010Prop44ColorRGB
 90
      255
102
RTVSPost2010PropOp44
 70
     1
102
RTVSPost2010Prop45
280
     0
102
RTVSPost2010PropOp45
 70
     1
102
RTVSPost2010Prop46
 90
       50
102
RTVSPost2010PropOp46
 70
     1
102
RTVSPost2010Prop47
 90
       50
102
RTVSPost2010PropOp47
 70
     1
102
RTVSPost2010Prop48
 90
       50
102
RTVSPost2010PropOp48
 70
     1
102
RTVSPost2010Prop49
280
     0
102
RTVSPost2010PropOp49
 70
     1
102
RTVSPost2010Prop50
 90
       50
102
RTVSPost2010PropOp50
 70
     1
102
RTVSPost2010Prop51ColorIndex
 90
      256
102
RTVSPost2010Prop51ColorRGB
 90
-16777216
102
RTVSPost2010PropOp51
 70
     0
102
RTVSPost2010Prop52
140
1.0
102
RTVSPost2010PropOp52
 70
     0
102
RTVSPost2010Prop53
 90
        2
102
RTVSPost2010PropOp53
 70
     1
102
RTVSPost2010Prop54
  1
strokes_ogs.tif
102
RTVSPost2010PropOp54
 70
     1
102
RTVSPost2010Prop55
280
     0
102
RTVSPost2010PropOp55
 70
     1
102
RTVSPost2010Prop56
140
1.0
102
RTVSPost2010PropOp56
 70
     1
102
RTVSPost2010Prop57
140
1.0
102
RTVSPost2010PropOp57
 70
     1
102
RTVSPropertyOp0
 70
     1
102
RTVSPropertyOp1
 70
     1
102
RTVSPropertyOp2
 70
     1
102
RTVSPropertyOp3
 70
     1
102
RTVSPropertyOp4
 70
     1
102
RTVSPropertyOp5
 70
     1
102
RTVSPropertyOp6
 70
     1
102
RTVSPropertyOp7
 70
     1
102
RTVSPropertyOp8
 70
     1
102
RTVSPropertyOp9
 70
     1
102
RTVSPropertyOp10
 70
     1
102
RTVSPropertyOp11
 70
     1
102
RTVSPropertyOp12
 70
     1
102
RTVSPropertyOp13
 70
     1
102
RTVSPropertyOp14
 70
     1
102
RTVSPropertyOp15
 70
     1
102
RTVSPropertyOp16
 70
     1
102
RTVSPropertyOp17
 70
     1
102
RTVSPropertyOp18
 70
     1
102
RTVSPropertyOp19
 70
     1
102
RTVSPropertyOp20
 70
     1
102
RTVSPropertyOp21
 70
     1
102
RTVSPropertyOp22
 70
     1
102
RTVSPropertyOp23
 70
     1
102
RTVSPropertyOp24
 70
     1
102
RTVSPropertyOp25
 70
     1
102
RTVSPropertyOp26
 70
     1
102
RTVSPropertyOp27
 70
     1
102
RTVSPropertyOp28
 70
     1
102
RTVSPropertyOp29
 70
     1
102
RTVSPropertyOp30
 70
     1
102
RTVSPropertyOp31
 70
     1
102
RTVSPropertyOp32
 70
     1
102
RTVSPropertyOp33
 70
     1
102
RTVSPropertyOp34
 70
     1
102
RTVSPropertyOp35
 70
     1
102
RTVSPropertyOp36
 70
     1
102
RTVSPropertyOp37
 70
     1
102
RTVSPropertyOp38
 70
     1
102
RTVSPropertyOp39
 70
     1
102
RTVSPropertyOp40
 70
     1
102
RTVSPropertyOp41
 70
     1
102
RTVSPropertyOp42
 70
     1
102
RTVSPropertyOp43
 70
     1
102
RTVSPropertyOp44
 70
     1
102
RTVSPropertyOp45
 70
     1
102
RTVSPropertyOp46
 70
     1
102
RTVSPropertyOp47
 70
     1
102
RTVSPropertyOp48
 70
     1
102
RTVSPropertyOp49
 70
     1
102
RTVSPropertyOp50
 70
     1
102
RTVSPropertyOp51
 70
     0
102
RTVSPropertyOp52
 70
     0
102
RTVSPropertyOp53
 70
     1
102
RTVSPropertyOp54
 70
     1
102
RTVSPropertyOp55
 70
     1
102
RTVSPropertyOp56
 70
     1
102
RTVSPropertyOp57
 70
     1
102
RTVSPropertyOp58
 70
     1
102
RTVSPropertyOp59
 70
     1
102
RTVSPropertyOp60
 70
     1
102
RTVSPropertyOp61
 70
     1
102
RTVSPropertyOp62
 70
     1
  0
XRECORD
  5
C90
102
{ACAD_REACTORS
330
C8F
102
}
330
C8F
100
AcDbXrecord
280
     1
102
RTVSPost2010Prop28
280
     0
102
RTVSPost2010PropOp28
 70
     1
102
RTVSPost2010Prop29
280
     1
102
RTVSPost2010PropOp29
 70
     1
102
RTVSPost2010Prop30
280
     1
102
RTVSPost2010PropOp30
 70
     1
102
RTVSPost2010Prop31
280
     0
102
RTVSPost2010PropOp31
 70
     1
102
RTVSPost2010Prop32
280
     0
102
RTVSPost2010PropOp32
 70
     1
102
RTVSPost2010Prop33
280
     0
102
RTVSPost2010PropOp33
 70
     1
102
RTVSPost2010Prop34
280
     0
102
RTVSPost2010PropOp34
 70
     1
102
RTVSPost2010Prop35
280
     0
102
RTVSPost2010PropOp35
 70
     1
102
RTVSPost2010Prop36
280
     0
102
RTVSPost2010PropOp36
 70
     1
102
RTVSPost2010Prop37
 90
       50
102
RTVSPost2010PropOp37
 70
     1
102
RTVSPost2010Prop38
140
0.0
102
RTVSPost2010PropOp38
 70
     1
102
RTVSPost2010Prop39
140
1.0
102
RTVSPost2010PropOp39
 70
     1
102
RTVSPost2010Prop40
 90
        0
102
RTVSPost2010PropOp40
 70
     1
102
RTVSPost2010Prop41ColorIndex
 90
       18
102
RTVSPost2010Prop41ColorRGB
 90
        0
102
RTVSPost2010PropOp41
 70
     1
102
RTVSPost2010Prop42
 90
       50
102
RTVSPost2010PropOp42
 70
     1
102
RTVSPost2010Prop43
 90
        3
102
RTVSPost2010PropOp43
 70
     1
102
RTVSPost2010Prop44ColorIndex
 90
        5
102
RTVSPost2010Prop44ColorRGB
 90
      255
102
RTVSPost2010PropOp44
 70
     1
102
RTVSPost2010Prop45
280
     0
102
RTVSPost2010PropOp45
 70
     1
102
RTVSPost2010Prop46
 90
       50
102
RTVSPost2010PropOp46
 70
     1
102
RTVSPost2010Prop47
 90
       50
102
RTVSPost2010PropOp47
 70
     1
102
RTVSPost2010Prop48
 90
       50
102
RTVSPost2010PropOp48
 70
     1
102
RTVSPost2010Prop49
280
     0
102
RTVSPost2010PropOp49
 70
     1
102
RTVSPost2010Prop50
 90
       50
102
RTVSPost2010PropOp50
 70
     1
102
RTVSPost2010Prop51ColorIndex
 90
      256
102
RTVSPost2010Prop51ColorRGB
 90
-16777216
102
RTVSPost2010PropOp51
 70
     0
102
RTVSPost2010Prop52
140
1.0
102
RTVSPost2010PropOp52
 70
     0
102
RTVSPost2010Prop53
 90
        2
102
RTVSPost2010PropOp53
 70
     1
102
RTVSPost2010Prop54
  1
strokes_ogs.tif
102
RTVSPost2010PropOp54
 70
     1
102
RTVSPost2010Prop55
280
     0
102
RTVSPost2010PropOp55
 70
     1
102
RTVSPost2010Prop56
140
1.0
102
RTVSPost2010PropOp56
 70
     1
102
RTVSPost2010Prop57
140
1.0
102
RTVSPost2010PropOp57
 70
     1
102
RTVSPropertyOp0
 70
     1
102
RTVSPropertyOp1
 70
     1
102
RTVSPropertyOp2
 70
     1
102
RTVSPropertyOp3
 70
     1
102
RTVSPropertyOp4
 70
     1
102
RTVSPropertyOp5
 70
     1
102
RTVSPropertyOp6
 70
     1
102
RTVSPropertyOp7
 70
     1
102
RTVSPropertyOp8
 70
     1
102
RTVSPropertyOp9
 70
     1
102
RTVSPropertyOp10
 70
     1
102
RTVSPropertyOp11
 70
     1
102
RTVSPropertyOp12
 70
     1
102
RTVSPropertyOp13
 70
     1
102
RTVSPropertyOp14
 70
     1
102
RTVSPropertyOp15
 70
     1
102
RTVSPropertyOp16
 70
     1
102
RTVSPropertyOp17
 70
     1
102
RTVSPropertyOp18
 70
     1
102
RTVSPropertyOp19
 70
     1
102
RTVSPropertyOp20
 70
     1
102
RTVSPropertyOp21
 70
     1
102
RTVSPropertyOp22
 70
     1
102
RTVSPropertyOp23
 70
     1
102
RTVSPropertyOp24
 70
     1
102
RTVSPropertyOp25
 70
     1
102
RTVSPropertyOp26
 70
     1
102
RTVSPropertyOp27
 70
     1
102
RTVSPropertyOp28
 70
     1
102
RTVSPropertyOp29
 70
     1
102
RTVSPropertyOp30
 70
     1
102
RTVSPropertyOp31
 70
     1
102
RTVSPropertyOp32
 70
     1
102
RTVSPropertyOp33
 70
     1
102
RTVSPropertyOp34
 70
     1
102
RTVSPropertyOp35
 70
     1
102
RTVSPropertyOp36
 70
     1
102
RTVSPropertyOp37
 70
     1
102
RTVSPropertyOp38
 70
     1
102
RTVSPropertyOp39
 70
     1
102
RTVSPropertyOp40
 70
     1
102
RTVSPropertyOp41
 70
     1
102
RTVSPropertyOp42
 70
     1
102
RTVSPropertyOp43
 70
     1
102
RTVSPropertyOp44
 70
     1
102
RTVSPropertyOp45
 70
     1
102
RTVSPropertyOp46
 70
     1
102
RTVSPropertyOp47
 70
     1
102
RTVSPropertyOp48
 70
     1
102
RTVSPropertyOp49
 70
     1
102
RTVSPropertyOp50
 70
     1
102
RTVSPropertyOp51
 70
     0
102
RTVSPropertyOp52
 70
     0
102
RTVSPropertyOp53
 70
     1
102
RTVSPropertyOp54
 70
     1
102
RTVSPropertyOp55
 70
     1
102
RTVSPropertyOp56
 70
     1
102
RTVSPropertyOp57
 70
     1
102
RTVSPropertyOp58
 70
     1
102
RTVSPropertyOp59
 70
     1
102
RTVSPropertyOp60
 70
     1
102
RTVSPropertyOp61
 70
     1
102
RTVSPropertyOp62
 70
     1
  0
XRECORD
  5
C92
102
{ACAD_REACTORS
330
C91
102
}
330
C91
100
AcDbXrecord
280
     1
102
RTVSPost2010Prop28
280
     0
102
RTVSPost2010PropOp28
 70
     1
102
RTVSPost2010Prop29
280
     1
102
RTVSPost2010PropOp29
 70
     1
102
RTVSPost2010Prop30
280
     1
102
RTVSPost2010PropOp30
 70
     1
102
RTVSPost2010Prop31
280
     0
102
RTVSPost2010PropOp31
 70
     1
102
RTVSPost2010Prop32
280
     0
102
RTVSPost2010PropOp32
 70
     1
102
RTVSPost2010Prop33
280
     0
102
RTVSPost2010PropOp33
 70
     1
102
RTVSPost2010Prop34
280
     0
102
RTVSPost2010PropOp34
 70
     1
102
RTVSPost2010Prop35
280
     0
102
RTVSPost2010PropOp35
 70
     1
102
RTVSPost2010Prop36
280
     0
102
RTVSPost2010PropOp36
 70
     1
102
RTVSPost2010Prop37
 90
       50
102
RTVSPost2010PropOp37
 70
     1
102
RTVSPost2010Prop38
140
0.0
102
RTVSPost2010PropOp38
 70
     1
102
RTVSPost2010Prop39
140
1.0
102
RTVSPost2010PropOp39
 70
     1
102
RTVSPost2010Prop40
 90
        0
102
RTVSPost2010PropOp40
 70
     1
102
RTVSPost2010Prop41ColorIndex
 90
       18
102
RTVSPost2010Prop41ColorRGB
 90
        0
102
RTVSPost2010PropOp41
 70
     1
102
RTVSPost2010Prop42
 90
       50
102
RTVSPost2010PropOp42
 70
     1
102
RTVSPost2010Prop43
 90
        3
102
RTVSPost2010PropOp43
 70
     1
102
RTVSPost2010Prop44ColorIndex
 90
        5
102
RTVSPost2010Prop44ColorRGB
 90
      255
102
RTVSPost2010PropOp44
 70
     1
102
RTVSPost2010Prop45
280
     0
102
RTVSPost2010PropOp45
 70
     1
102
RTVSPost2010Prop46
 90
       50
102
RTVSPost2010PropOp46
 70
     1
102
RTVSPost2010Prop47
 90
       50
102
RTVSPost2010PropOp47
 70
     1
102
RTVSPost2010Prop48
 90
       50
102
RTVSPost2010PropOp48
 70
     1
102
RTVSPost2010Prop49
280
     0
102
RTVSPost2010PropOp49
 70
     1
102
RTVSPost2010Prop50
 90
       50
102
RTVSPost2010PropOp50
 70
     1
102
RTVSPost2010Prop51ColorIndex
 90
      256
102
RTVSPost2010Prop51ColorRGB
 90
-16777216
102
RTVSPost2010PropOp51
 70
     0
102
RTVSPost2010Prop52
140
1.0
102
RTVSPost2010PropOp52
 70
     0
102
RTVSPost2010Prop53
 90
        2
102
RTVSPost2010PropOp53
 70
     1
102
RTVSPost2010Prop54
  1
strokes_ogs.tif
102
RTVSPost2010PropOp54
 70
     1
102
RTVSPost2010Prop55
280
     0
102
RTVSPost2010PropOp55
 70
     1
102
RTVSPost2010Prop56
140
1.0
102
RTVSPost2010PropOp56
 70
     1
102
RTVSPost2010Prop57
140
1.0
102
RTVSPost2010PropOp57
 70
     1
102
RTVSPropertyOp0
 70
     1
102
RTVSPropertyOp1
 70
     1
102
RTVSPropertyOp2
 70
     1
102
RTVSPropertyOp3
 70
     1
102
RTVSPropertyOp4
 70
     1
102
RTVSPropertyOp5
 70
     1
102
RTVSPropertyOp6
 70
     1
102
RTVSPropertyOp7
 70
     1
102
RTVSPropertyOp8
 70
     1
102
RTVSPropertyOp9
 70
     1
102
RTVSPropertyOp10
 70
     1
102
RTVSPropertyOp11
 70
     1
102
RTVSPropertyOp12
 70
     1
102
RTVSPropertyOp13
 70
     1
102
RTVSPropertyOp14
 70
     1
102
RTVSPropertyOp15
 70
     1
102
RTVSPropertyOp16
 70
     1
102
RTVSPropertyOp17
 70
     1
102
RTVSPropertyOp18
 70
     1
102
RTVSPropertyOp19
 70
     1
102
RTVSPropertyOp20
 70
     1
102
RTVSPropertyOp21
 70
     1
102
RTVSPropertyOp22
 70
     1
102
RTVSPropertyOp23
 70
     1
102
RTVSPropertyOp24
 70
     1
102
RTVSPropertyOp25
 70
     1
102
RTVSPropertyOp26
 70
     1
102
RTVSPropertyOp27
 70
     1
102
RTVSPropertyOp28
 70
     1
102
RTVSPropertyOp29
 70
     1
102
RTVSPropertyOp30
 70
     1
102
RTVSPropertyOp31
 70
     1
102
RTVSPropertyOp32
 70
     1
102
RTVSPropertyOp33
 70
     1
102
RTVSPropertyOp34
 70
     1
102
RTVSPropertyOp35
 70
     1
102
RTVSPropertyOp36
 70
     1
102
RTVSPropertyOp37
 70
     1
102
RTVSPropertyOp38
 70
     1
102
RTVSPropertyOp39
 70
     1
102
RTVSPropertyOp40
 70
     1
102
RTVSPropertyOp41
 70
     1
102
RTVSPropertyOp42
 70
     1
102
RTVSPropertyOp43
 70
     1
102
RTVSPropertyOp44
 70
     1
102
RTVSPropertyOp45
 70
     1
102
RTVSPropertyOp46
 70
     1
102
RTVSPropertyOp47
 70
     1
102
RTVSPropertyOp48
 70
     1
102
RTVSPropertyOp49
 70
     1
102
RTVSPropertyOp50
 70
     1
102
RTVSPropertyOp51
 70
     0
102
RTVSPropertyOp52
 70
     0
102
RTVSPropertyOp53
 70
     1
102
RTVSPropertyOp54
 70
     1
102
RTVSPropertyOp55
 70
     1
102
RTVSPropertyOp56
 70
     1
102
RTVSPropertyOp57
 70
     1
102
RTVSPropertyOp58
 70
     1
102
RTVSPropertyOp59
 70
     1
102
RTVSPropertyOp60
 70
     1
102
RTVSPropertyOp61
 70
     1
102
RTVSPropertyOp62
 70
     1
  0
XRECORD
  5
C94
102
{ACAD_REACTORS
330
C93
102
}
330
C93
100
AcDbXrecord
280
     1
102
RTVSPost2010Prop28
280
     0
102
RTVSPost2010PropOp28
 70
     1
102
RTVSPost2010Prop29
280
     1
102
RTVSPost2010PropOp29
 70
     1
102
RTVSPost2010Prop30
280
     1
102
RTVSPost2010PropOp30
 70
     1
102
RTVSPost2010Prop31
280
     0
102
RTVSPost2010PropOp31
 70
     1
102
RTVSPost2010Prop32
280
     0
102
RTVSPost2010PropOp32
 70
     1
102
RTVSPost2010Prop33
280
     0
102
RTVSPost2010PropOp33
 70
     1
102
RTVSPost2010Prop34
280
     0
102
RTVSPost2010PropOp34
 70
     1
102
RTVSPost2010Prop35
280
     0
102
RTVSPost2010PropOp35
 70
     1
102
RTVSPost2010Prop36
280
     0
102
RTVSPost2010PropOp36
 70
     1
102
RTVSPost2010Prop37
 90
       50
102
RTVSPost2010PropOp37
 70
     1
102
RTVSPost2010Prop38
140
0.0
102
RTVSPost2010PropOp38
 70
     1
102
RTVSPost2010Prop39
140
1.0
102
RTVSPost2010PropOp39
 70
     1
102
RTVSPost2010Prop40
 90
        0
102
RTVSPost2010PropOp40
 70
     1
102
RTVSPost2010Prop41ColorIndex
 90
       18
102
RTVSPost2010Prop41ColorRGB
 90
        0
102
RTVSPost2010PropOp41
 70
     1
102
RTVSPost2010Prop42
 90
       50
102
RTVSPost2010PropOp42
 70
     1
102
RTVSPost2010Prop43
 90
        3
102
RTVSPost2010PropOp43
 70
     1
102
RTVSPost2010Prop44ColorIndex
 90
        5
102
RTVSPost2010Prop44ColorRGB
 90
      255
102
RTVSPost2010PropOp44
 70
     1
102
RTVSPost2010Prop45
280
     0
102
RTVSPost2010PropOp45
 70
     1
102
RTVSPost2010Prop46
 90
       50
102
RTVSPost2010PropOp46
 70
     1
102
RTVSPost2010Prop47
 90
       50
102
RTVSPost2010PropOp47
 70
     1
102
RTVSPost2010Prop48
 90
       50
102
RTVSPost2010PropOp48
 70
     1
102
RTVSPost2010Prop49
280
     0
102
RTVSPost2010PropOp49
 70
     1
102
RTVSPost2010Prop50
 90
       50
102
RTVSPost2010PropOp50
 70
     1
102
RTVSPost2010Prop51ColorIndex
 90
      256
102
RTVSPost2010Prop51ColorRGB
 90
-16777216
102
RTVSPost2010PropOp51
 70
     0
102
RTVSPost2010Prop52
140
1.0
102
RTVSPost2010PropOp52
 70
     0
102
RTVSPost2010Prop53
 90
        2
102
RTVSPost2010PropOp53
 70
     1
102
RTVSPost2010Prop54
  1
strokes_ogs.tif
102
RTVSPost2010PropOp54
 70
     1
102
RTVSPost2010Prop55
280
     0
102
RTVSPost2010PropOp55
 70
     1
102
RTVSPost2010Prop56
140
1.0
102
RTVSPost2010PropOp56
 70
     1
102
RTVSPost2010Prop57
140
1.0
102
RTVSPost2010PropOp57
 70
     1
102
RTVSPropertyOp0
 70
     1
102
RTVSPropertyOp1
 70
     1
102
RTVSPropertyOp2
 70
     1
102
RTVSPropertyOp3
 70
     1
102
RTVSPropertyOp4
 70
     1
102
RTVSPropertyOp5
 70
     1
102
RTVSPropertyOp6
 70
     1
102
RTVSPropertyOp7
 70
     1
102
RTVSPropertyOp8
 70
     1
102
RTVSPropertyOp9
 70
     1
102
RTVSPropertyOp10
 70
     1
102
RTVSPropertyOp11
 70
     1
102
RTVSPropertyOp12
 70
     1
102
RTVSPropertyOp13
 70
     1
102
RTVSPropertyOp14
 70
     1
102
RTVSPropertyOp15
 70
     1
102
RTVSPropertyOp16
 70
     1
102
RTVSPropertyOp17
 70
     1
102
RTVSPropertyOp18
 70
     1
102
RTVSPropertyOp19
 70
     1
102
RTVSPropertyOp20
 70
     1
102
RTVSPropertyOp21
 70
     1
102
RTVSPropertyOp22
 70
     1
102
RTVSPropertyOp23
 70
     1
102
RTVSPropertyOp24
 70
     1
102
RTVSPropertyOp25
 70
     1
102
RTVSPropertyOp26
 70
     1
102
RTVSPropertyOp27
 70
     1
102
RTVSPropertyOp28
 70
     1
102
RTVSPropertyOp29
 70
     1
102
RTVSPropertyOp30
 70
     1
102
RTVSPropertyOp31
 70
     1
102
RTVSPropertyOp32
 70
     1
102
RTVSPropertyOp33
 70
     1
102
RTVSPropertyOp34
 70
     1
102
RTVSPropertyOp35
 70
     1
102
RTVSPropertyOp36
 70
     1
102
RTVSPropertyOp37
 70
     1
102
RTVSPropertyOp38
 70
     1
102
RTVSPropertyOp39
 70
     1
102
RTVSPropertyOp40
 70
     1
102
RTVSPropertyOp41
 70
     1
102
RTVSPropertyOp42
 70
     1
102
RTVSPropertyOp43
 70
     1
102
RTVSPropertyOp44
 70
     1
102
RTVSPropertyOp45
 70
     1
102
RTVSPropertyOp46
 70
     1
102
RTVSPropertyOp47
 70
     1
102
RTVSPropertyOp48
 70
     1
102
RTVSPropertyOp49
 70
     1
102
RTVSPropertyOp50
 70
     1
102
RTVSPropertyOp51
 70
     0
102
RTVSPropertyOp52
 70
     0
102
RTVSPropertyOp53
 70
     1
102
RTVSPropertyOp54
 70
     1
102
RTVSPropertyOp55
 70
     1
102
RTVSPropertyOp56
 70
     1
102
RTVSPropertyOp57
 70
     1
102
RTVSPropertyOp58
 70
     1
102
RTVSPropertyOp59
 70
     1
102
RTVSPropertyOp60
 70
     1
102
RTVSPropertyOp61
 70
     1
102
RTVSPropertyOp62
 70
     1
  0
XRECORD
  5
C96
102
{ACAD_REACTORS
330
C95
102
}
330
C95
100
AcDbXrecord
280
     1
102
RTVSPost2010Prop28
280
     0
102
RTVSPost2010PropOp28
 70
     1
102
RTVSPost2010Prop29
280
     1
102
RTVSPost2010PropOp29
 70
     1
102
RTVSPost2010Prop30
280
     1
102
RTVSPost2010PropOp30
 70
     1
102
RTVSPost2010Prop31
280
     0
102
RTVSPost2010PropOp31
 70
     1
102
RTVSPost2010Prop32
280
     0
102
RTVSPost2010PropOp32
 70
     1
102
RTVSPost2010Prop33
280
     0
102
RTVSPost2010PropOp33
 70
     1
102
RTVSPost2010Prop34
280
     0
102
RTVSPost2010PropOp34
 70
     1
102
RTVSPost2010Prop35
280
     0
102
RTVSPost2010PropOp35
 70
     1
102
RTVSPost2010Prop36
280
     0
102
RTVSPost2010PropOp36
 70
     1
102
RTVSPost2010Prop37
 90
       50
102
RTVSPost2010PropOp37
 70
     1
102
RTVSPost2010Prop38
140
0.0
102
RTVSPost2010PropOp38
 70
     1
102
RTVSPost2010Prop39
140
1.0
102
RTVSPost2010PropOp39
 70
     1
102
RTVSPost2010Prop40
 90
        0
102
RTVSPost2010PropOp40
 70
     1
102
RTVSPost2010Prop41ColorIndex
 90
       18
102
RTVSPost2010Prop41ColorRGB
 90
        0
102
RTVSPost2010PropOp41
 70
     1
102
RTVSPost2010Prop42
 90
       50
102
RTVSPost2010PropOp42
 70
     1
102
RTVSPost2010Prop43
 90
        3
102
RTVSPost2010PropOp43
 70
     1
102
RTVSPost2010Prop44ColorIndex
 90
        5
102
RTVSPost2010Prop44ColorRGB
 90
      255
102
RTVSPost2010PropOp44
 70
     1
102
RTVSPost2010Prop45
280
     0
102
RTVSPost2010PropOp45
 70
     1
102
RTVSPost2010Prop46
 90
       50
102
RTVSPost2010PropOp46
 70
     1
102
RTVSPost2010Prop47
 90
       50
102
RTVSPost2010PropOp47
 70
     1
102
RTVSPost2010Prop48
 90
       50
102
RTVSPost2010PropOp48
 70
     1
102
RTVSPost2010Prop49
280
     0
102
RTVSPost2010PropOp49
 70
     1
102
RTVSPost2010Prop50
 90
       50
102
RTVSPost2010PropOp50
 70
     1
102
RTVSPost2010Prop51ColorIndex
 90
      256
102
RTVSPost2010Prop51ColorRGB
 90
-16777216
102
RTVSPost2010PropOp51
 70
     0
102
RTVSPost2010Prop52
140
1.0
102
RTVSPost2010PropOp52
 70
     0
102
RTVSPost2010Prop53
 90
        2
102
RTVSPost2010PropOp53
 70
     1
102
RTVSPost2010Prop54
  1
strokes_ogs.tif
102
RTVSPost2010PropOp54
 70
     1
102
RTVSPost2010Prop55
280
     0
102
RTVSPost2010PropOp55
 70
     1
102
RTVSPost2010Prop56
140
1.0
102
RTVSPost2010PropOp56
 70
     1
102
RTVSPost2010Prop57
140
1.0
102
RTVSPost2010PropOp57
 70
     1
102
RTVSPropertyOp0
 70
     1
102
RTVSPropertyOp1
 70
     1
102
RTVSPropertyOp2
 70
     1
102
RTVSPropertyOp3
 70
     1
102
RTVSPropertyOp4
 70
     1
102
RTVSPropertyOp5
 70
     1
102
RTVSPropertyOp6
 70
     1
102
RTVSPropertyOp7
 70
     1
102
RTVSPropertyOp8
 70
     1
102
RTVSPropertyOp9
 70
     1
102
RTVSPropertyOp10
 70
     1
102
RTVSPropertyOp11
 70
     1
102
RTVSPropertyOp12
 70
     1
102
RTVSPropertyOp13
 70
     1
102
RTVSPropertyOp14
 70
     1
102
RTVSPropertyOp15
 70
     1
102
RTVSPropertyOp16
 70
     1
102
RTVSPropertyOp17
 70
     1
102
RTVSPropertyOp18
 70
     1
102
RTVSPropertyOp19
 70
     1
102
RTVSPropertyOp20
 70
     1
102
RTVSPropertyOp21
 70
     1
102
RTVSPropertyOp22
 70
     1
102
RTVSPropertyOp23
 70
     1
102
RTVSPropertyOp24
 70
     1
102
RTVSPropertyOp25
 70
     1
102
RTVSPropertyOp26
 70
     1
102
RTVSPropertyOp27
 70
     1
102
RTVSPropertyOp28
 70
     1
102
RTVSPropertyOp29
 70
     1
102
RTVSPropertyOp30
 70
     1
102
RTVSPropertyOp31
 70
     1
102
RTVSPropertyOp32
 70
     1
102
RTVSPropertyOp33
 70
     1
102
RTVSPropertyOp34
 70
     1
102
RTVSPropertyOp35
 70
     1
102
RTVSPropertyOp36
 70
     1
102
RTVSPropertyOp37
 70
     1
102
RTVSPropertyOp38
 70
     1
102
RTVSPropertyOp39
 70
     1
102
RTVSPropertyOp40
 70
     1
102
RTVSPropertyOp41
 70
     1
102
RTVSPropertyOp42
 70
     1
102
RTVSPropertyOp43
 70
     1
102
RTVSPropertyOp44
 70
     1
102
RTVSPropertyOp45
 70
     1
102
RTVSPropertyOp46
 70
     1
102
RTVSPropertyOp47
 70
     1
102
RTVSPropertyOp48
 70
     1
102
RTVSPropertyOp49
 70
     1
102
RTVSPropertyOp50
 70
     1
102
RTVSPropertyOp51
 70
     0
102
RTVSPropertyOp52
 70
     0
102
RTVSPropertyOp53
 70
     1
102
RTVSPropertyOp54
 70
     1
102
RTVSPropertyOp55
 70
     1
102
RTVSPropertyOp56
 70
     1
102
RTVSPropertyOp57
 70
     1
102
RTVSPropertyOp58
 70
     1
102
RTVSPropertyOp59
 70
     1
102
RTVSPropertyOp60
 70
     1
102
RTVSPropertyOp61
 70
     1
102
RTVSPropertyOp62
 70
     1
  0
XRECORD
  5
C9E
102
{ACAD_REACTORS
330
C9D
102
}
330
C9D
100
AcDbXrecord
280
     1
102
RTVSPost2010Prop28
280
     0
102
RTVSPost2010PropOp28
 70
     1
102
RTVSPost2010Prop29
280
     1
102
RTVSPost2010PropOp29
 70
     1
102
RTVSPost2010Prop30
280
     1
102
RTVSPost2010PropOp30
 70
     1
102
RTVSPost2010Prop31
280
     0
102
RTVSPost2010PropOp31
 70
     1
102
RTVSPost2010Prop32
280
     0
102
RTVSPost2010PropOp32
 70
     1
102
RTVSPost2010Prop33
280
     0
102
RTVSPost2010PropOp33
 70
     1
102
RTVSPost2010Prop34
280
     0
102
RTVSPost2010PropOp34
 70
     1
102
RTVSPost2010Prop35
280
     0
102
RTVSPost2010PropOp35
 70
     1
102
RTVSPost2010Prop36
280
     0
102
RTVSPost2010PropOp36
 70
     1
102
RTVSPost2010Prop37
 90
       50
102
RTVSPost2010PropOp37
 70
     1
102
RTVSPost2010Prop38
140
0.0
102
RTVSPost2010PropOp38
 70
     1
102
RTVSPost2010Prop39
140
1.0
102
RTVSPost2010PropOp39
 70
     1
102
RTVSPost2010Prop40
 90
        0
102
RTVSPost2010PropOp40
 70
     1
102
RTVSPost2010Prop41ColorIndex
 90
       18
102
RTVSPost2010Prop41ColorRGB
 90
        0
102
RTVSPost2010PropOp41
 70
     1
102
RTVSPost2010Prop42
 90
       50
102
RTVSPost2010PropOp42
 70
     1
102
RTVSPost2010Prop43
 90
        3
102
RTVSPost2010PropOp43
 70
     1
102
RTVSPost2010Prop44ColorIndex
 90
        5
102
RTVSPost2010Prop44ColorRGB
 90
      255
102
RTVSPost2010PropOp44
 70
     1
102
RTVSPost2010Prop45
280
     0
102
RTVSPost2010PropOp45
 70
     1
102
RTVSPost2010Prop46
 90
       50
102
RTVSPost2010PropOp46
 70
     1
102
RTVSPost2010Prop47
 90
       50
102
RTVSPost2010PropOp47
 70
     1
102
RTVSPost2010Prop48
 90
       50
102
RTVSPost2010PropOp48
 70
     1
102
RTVSPost2010Prop49
280
     0
102
RTVSPost2010PropOp49
 70
     1
102
RTVSPost2010Prop50
 90
       50
102
RTVSPost2010PropOp50
 70
     1
102
RTVSPost2010Prop51ColorIndex
 90
      256
102
RTVSPost2010Prop51ColorRGB
 90
-16777216
102
RTVSPost2010PropOp51
 70
     0
102
RTVSPost2010Prop52
140
1.0
102
RTVSPost2010PropOp52
 70
     0
102
RTVSPost2010Prop53
 90
        2
102
RTVSPost2010PropOp53
 70
     1
102
RTVSPost2010Prop54
  1
strokes_ogs.tif
102
RTVSPost2010PropOp54
 70
     1
102
RTVSPost2010Prop55
280
     0
102
RTVSPost2010PropOp55
 70
     1
102
RTVSPost2010Prop56
140
1.0
102
RTVSPost2010PropOp56
 70
     1
102
RTVSPost2010Prop57
140
1.0
102
RTVSPost2010PropOp57
 70
     1
102
RTVSPropertyOp0
 70
     1
102
RTVSPropertyOp1
 70
     1
102
RTVSPropertyOp2
 70
     1
102
RTVSPropertyOp3
 70
     1
102
RTVSPropertyOp4
 70
     1
102
RTVSPropertyOp5
 70
     1
102
RTVSPropertyOp6
 70
     1
102
RTVSPropertyOp7
 70
     1
102
RTVSPropertyOp8
 70
     1
102
RTVSPropertyOp9
 70
     1
102
RTVSPropertyOp10
 70
     1
102
RTVSPropertyOp11
 70
     1
102
RTVSPropertyOp12
 70
     1
102
RTVSPropertyOp13
 70
     1
102
RTVSPropertyOp14
 70
     1
102
RTVSPropertyOp15
 70
     1
102
RTVSPropertyOp16
 70
     1
102
RTVSPropertyOp17
 70
     1
102
RTVSPropertyOp18
 70
     1
102
RTVSPropertyOp19
 70
     1
102
RTVSPropertyOp20
 70
     1
102
RTVSPropertyOp21
 70
     1
102
RTVSPropertyOp22
 70
     1
102
RTVSPropertyOp23
 70
     1
102
RTVSPropertyOp24
 70
     1
102
RTVSPropertyOp25
 70
     1
102
RTVSPropertyOp26
 70
     1
102
RTVSPropertyOp27
 70
     1
102
RTVSPropertyOp28
 70
     1
102
RTVSPropertyOp29
 70
     1
102
RTVSPropertyOp30
 70
     1
102
RTVSPropertyOp31
 70
     1
102
RTVSPropertyOp32
 70
     1
102
RTVSPropertyOp33
 70
     1
102
RTVSPropertyOp34
 70
     1
102
RTVSPropertyOp35
 70
     1
102
RTVSPropertyOp36
 70
     1
102
RTVSPropertyOp37
 70
     1
102
RTVSPropertyOp38
 70
     1
102
RTVSPropertyOp39
 70
     1
102
RTVSPropertyOp40
 70
     1
102
RTVSPropertyOp41
 70
     1
102
RTVSPropertyOp42
 70
     1
102
RTVSPropertyOp43
 70
     1
102
RTVSPropertyOp44
 70
     1
102
RTVSPropertyOp45
 70
     1
102
RTVSPropertyOp46
 70
     1
102
RTVSPropertyOp47
 70
     1
102
RTVSPropertyOp48
 70
     1
102
RTVSPropertyOp49
 70
     1
102
RTVSPropertyOp50
 70
     1
102
RTVSPropertyOp51
 70
     0
102
RTVSPropertyOp52
 70
     0
102
RTVSPropertyOp53
 70
     1
102
RTVSPropertyOp54
 70
     1
102
RTVSPropertyOp55
 70
     1
102
RTVSPropertyOp56
 70
     1
102
RTVSPropertyOp57
 70
     1
102
RTVSPropertyOp58
 70
     1
102
RTVSPropertyOp59
 70
     1
102
RTVSPropertyOp60
 70
     1
102
RTVSPropertyOp61
 70
     1
102
RTVSPropertyOp62
 70
     1
  0
XRECORD
  5
CB2
102
{ACAD_REACTORS
330
CB1
102
}
330
CB1
100
AcDbXrecord
280
     1
102
RTVSPost2010Prop28
280
     0
102
RTVSPost2010PropOp28
 70
     1
102
RTVSPost2010Prop29
280
     1
102
RTVSPost2010PropOp29
 70
     1
102
RTVSPost2010Prop30
280
     1
102
RTVSPost2010PropOp30
 70
     1
102
RTVSPost2010Prop31
280
     0
102
RTVSPost2010PropOp31
 70
     1
102
RTVSPost2010Prop32
280
     0
102
RTVSPost2010PropOp32
 70
     1
102
RTVSPost2010Prop33
280
     0
102
RTVSPost2010PropOp33
 70
     1
102
RTVSPost2010Prop34
280
     0
102
RTVSPost2010PropOp34
 70
     1
102
RTVSPost2010Prop35
280
     0
102
RTVSPost2010PropOp35
 70
     1
102
RTVSPost2010Prop36
280
     0
102
RTVSPost2010PropOp36
 70
     1
102
RTVSPost2010Prop37
 90
       50
102
RTVSPost2010PropOp37
 70
     1
102
RTVSPost2010Prop38
140
0.0
102
RTVSPost2010PropOp38
 70
     1
102
RTVSPost2010Prop39
140
1.0
102
RTVSPost2010PropOp39
 70
     1
102
RTVSPost2010Prop40
 90
        0
102
RTVSPost2010PropOp40
 70
     1
102
RTVSPost2010Prop41ColorIndex
 90
       18
102
RTVSPost2010Prop41ColorRGB
 90
        0
102
RTVSPost2010PropOp41
 70
     1
102
RTVSPost2010Prop42
 90
       50
102
RTVSPost2010PropOp42
 70
     1
102
RTVSPost2010Prop43
 90
        3
102
RTVSPost2010PropOp43
 70
     1
102
RTVSPost2010Prop44ColorIndex
 90
        5
102
RTVSPost2010Prop44ColorRGB
 90
      255
102
RTVSPost2010PropOp44
 70
     1
102
RTVSPost2010Prop45
280
     0
102
RTVSPost2010PropOp45
 70
     1
102
RTVSPost2010Prop46
 90
       50
102
RTVSPost2010PropOp46
 70
     1
102
RTVSPost2010Prop47
 90
       50
102
RTVSPost2010PropOp47
 70
     1
102
RTVSPost2010Prop48
 90
       50
102
RTVSPost2010PropOp48
 70
     1
102
RTVSPost2010Prop49
280
     0
102
RTVSPost2010PropOp49
 70
     1
102
RTVSPost2010Prop50
 90
       50
102
RTVSPost2010PropOp50
 70
     1
102
RTVSPost2010Prop51ColorIndex
 90
      256
102
RTVSPost2010Prop51ColorRGB
 90
-16777216
102
RTVSPost2010PropOp51
 70
     0
102
RTVSPost2010Prop52
140
1.0
102
RTVSPost2010PropOp52
 70
     0
102
RTVSPost2010Prop53
 90
        2
102
RTVSPost2010PropOp53
 70
     1
102
RTVSPost2010Prop54
  1
strokes_ogs.tif
102
RTVSPost2010PropOp54
 70
     1
102
RTVSPost2010Prop55
280
     0
102
RTVSPost2010PropOp55
 70
     1
102
RTVSPost2010Prop56
140
1.0
102
RTVSPost2010PropOp56
 70
     1
102
RTVSPost2010Prop57
140
1.0
102
RTVSPost2010PropOp57
 70
     1
102
RTVSPropertyOp0
 70
     0
102
RTVSPropertyOp1
 70
     0
102
RTVSPropertyOp2
 70
     0
102
RTVSPropertyOp3
 70
     0
102
RTVSPropertyOp4
 70
     0
102
RTVSPropertyOp5
 70
     0
102
RTVSPropertyOp6
 70
     0
102
RTVSPropertyOp7
 70
     0
102
RTVSPropertyOp8
 70
     0
102
RTVSPropertyOp9
 70
     0
102
RTVSPropertyOp10
 70
     0
102
RTVSPropertyOp11
 70
     0
102
RTVSPropertyOp12
 70
     0
102
RTVSPropertyOp13
 70
     0
102
RTVSPropertyOp14
 70
     2
102
RTVSPropertyOp15
 70
     0
102
RTVSPropertyOp16
 70
     0
102
RTVSPropertyOp17
 70
     0
102
RTVSPropertyOp18
 70
     0
102
RTVSPropertyOp19
 70
     0
102
RTVSPropertyOp20
 70
     0
102
RTVSPropertyOp21
 70
     0
102
RTVSPropertyOp22
 70
     0
102
RTVSPropertyOp23
 70
     0
102
RTVSPropertyOp24
 70
     0
102
RTVSPropertyOp25
 70
     0
102
RTVSPropertyOp26
 70
     0
102
RTVSPropertyOp27
 70
     0
102
RTVSPropertyOp28
 70
     1
102
RTVSPropertyOp29
 70
     1
102
RTVSPropertyOp30
 70
     1
102
RTVSPropertyOp31
 70
     1
102
RTVSPropertyOp32
 70
     1
102
RTVSPropertyOp33
 70
     1
102
RTVSPropertyOp34
 70
     1
102
RTVSPropertyOp35
 70
     1
102
RTVSPropertyOp36
 70
     1
102
RTVSPropertyOp37
 70
     1
102
RTVSPropertyOp38
 70
     1
102
RTVSPropertyOp39
 70
     1
102
RTVSPropertyOp40
 70
     1
102
RTVSPropertyOp41
 70
     1
102
RTVSPropertyOp42
 70
     1
102
RTVSPropertyOp43
 70
     1
102
RTVSPropertyOp44
 70
     1
102
RTVSPropertyOp45
 70
     1
102
RTVSPropertyOp46
 70
     1
102
RTVSPropertyOp47
 70
     1
102
RTVSPropertyOp48
 70
     1
102
RTVSPropertyOp49
 70
     1
102
RTVSPropertyOp50
 70
     1
102
RTVSPropertyOp51
 70
     0
102
RTVSPropertyOp52
 70
     0
102
RTVSPropertyOp53
 70
     1
102
RTVSPropertyOp54
 70
     1
102
RTVSPropertyOp55
 70
     1
102
RTVSPropertyOp56
 70
     1
102
RTVSPropertyOp57
 70
     1
102
RTVSPropertyOp58
 70
     1
102
RTVSPropertyOp59
 70
     1
102
RTVSPropertyOp60
 70
     1
102
RTVSPropertyOp61
 70
     1
102
RTVSPropertyOp62
 70
     1
  0
XRECORD
  5
CAA
102
{ACAD_REACTORS
330
CA9
102
}
330
CA9
100
AcDbXrecord
280
     1
102
RTVSPost2010Prop28
280
     0
102
RTVSPost2010PropOp28
 70
     1
102
RTVSPost2010Prop29
280
     1
102
RTVSPost2010PropOp29
 70
     1
102
RTVSPost2010Prop30
280
     1
102
RTVSPost2010PropOp30
 70
     1
102
RTVSPost2010Prop31
280
     0
102
RTVSPost2010PropOp31
 70
     1
102
RTVSPost2010Prop32
280
     0
102
RTVSPost2010PropOp32
 70
     1
102
RTVSPost2010Prop33
280
     0
102
RTVSPost2010PropOp33
 70
     1
102
RTVSPost2010Prop34
280
     0
102
RTVSPost2010PropOp34
 70
     1
102
RTVSPost2010Prop35
280
     0
102
RTVSPost2010PropOp35
 70
     1
102
RTVSPost2010Prop36
280
     0
102
RTVSPost2010PropOp36
 70
     1
102
RTVSPost2010Prop37
 90
       50
102
RTVSPost2010PropOp37
 70
     1
102
RTVSPost2010Prop38
140
0.0
102
RTVSPost2010PropOp38
 70
     1
102
RTVSPost2010Prop39
140
1.0
102
RTVSPost2010PropOp39
 70
     1
102
RTVSPost2010Prop40
 90
        0
102
RTVSPost2010PropOp40
 70
     1
102
RTVSPost2010Prop41ColorIndex
 90
       18
102
RTVSPost2010Prop41ColorRGB
 90
        0
102
RTVSPost2010PropOp41
 70
     1
102
RTVSPost2010Prop42
 90
       50
102
RTVSPost2010PropOp42
 70
     1
102
RTVSPost2010Prop43
 90
        3
102
RTVSPost2010PropOp43
 70
     1
102
RTVSPost2010Prop44ColorIndex
 90
        5
102
RTVSPost2010Prop44ColorRGB
 90
      255
102
RTVSPost2010PropOp44
 70
     1
102
RTVSPost2010Prop45
280
     0
102
RTVSPost2010PropOp45
 70
     1
102
RTVSPost2010Prop46
 90
       50
102
RTVSPost2010PropOp46
 70
     1
102
RTVSPost2010Prop47
 90
       50
102
RTVSPost2010PropOp47
 70
     1
102
RTVSPost2010Prop48
 90
       50
102
RTVSPost2010PropOp48
 70
     1
102
RTVSPost2010Prop49
280
     0
102
RTVSPost2010PropOp49
 70
     1
102
RTVSPost2010Prop50
 90
       50
102
RTVSPost2010PropOp50
 70
     1
102
RTVSPost2010Prop51ColorIndex
 90
      256
102
RTVSPost2010Prop51ColorRGB
 90
-16777216
102
RTVSPost2010PropOp51
 70
     0
102
RTVSPost2010Prop52
140
1.0
102
RTVSPost2010PropOp52
 70
     0
102
RTVSPost2010Prop53
 90
        2
102
RTVSPost2010PropOp53
 70
     1
102
RTVSPost2010Prop54
  1
strokes_ogs.tif
102
RTVSPost2010PropOp54
 70
     1
102
RTVSPost2010Prop55
280
     0
102
RTVSPost2010PropOp55
 70
     1
102
RTVSPost2010Prop56
140
1.0
102
RTVSPost2010PropOp56
 70
     1
102
RTVSPost2010Prop57
140
1.0
102
RTVSPost2010PropOp57
 70
     1
102
RTVSPropertyOp0
 70
     1
102
RTVSPropertyOp1
 70
     1
102
RTVSPropertyOp2
 70
     1
102
RTVSPropertyOp3
 70
     1
102
RTVSPropertyOp4
 70
     1
102
RTVSPropertyOp5
 70
     1
102
RTVSPropertyOp6
 70
     1
102
RTVSPropertyOp7
 70
     1
102
RTVSPropertyOp8
 70
     1
102
RTVSPropertyOp9
 70
     1
102
RTVSPropertyOp10
 70
     1
102
RTVSPropertyOp11
 70
     1
102
RTVSPropertyOp12
 70
     1
102
RTVSPropertyOp13
 70
     1
102
RTVSPropertyOp14
 70
     1
102
RTVSPropertyOp15
 70
     1
102
RTVSPropertyOp16
 70
     1
102
RTVSPropertyOp17
 70
     1
102
RTVSPropertyOp18
 70
     1
102
RTVSPropertyOp19
 70
     1
102
RTVSPropertyOp20
 70
     1
102
RTVSPropertyOp21
 70
     1
102
RTVSPropertyOp22
 70
     1
102
RTVSPropertyOp23
 70
     1
102
RTVSPropertyOp24
 70
     1
102
RTVSPropertyOp25
 70
     1
102
RTVSPropertyOp26
 70
     1
102
RTVSPropertyOp27
 70
     1
102
RTVSPropertyOp28
 70
     1
102
RTVSPropertyOp29
 70
     1
102
RTVSPropertyOp30
 70
     1
102
RTVSPropertyOp31
 70
     1
102
RTVSPropertyOp32
 70
     1
102
RTVSPropertyOp33
 70
     1
102
RTVSPropertyOp34
 70
     1
102
RTVSPropertyOp35
 70
     1
102
RTVSPropertyOp36
 70
     1
102
RTVSPropertyOp37
 70
     1
102
RTVSPropertyOp38
 70
     1
102
RTVSPropertyOp39
 70
     1
102
RTVSPropertyOp40
 70
     1
102
RTVSPropertyOp41
 70
     1
102
RTVSPropertyOp42
 70
     1
102
RTVSPropertyOp43
 70
     1
102
RTVSPropertyOp44
 70
     1
102
RTVSPropertyOp45
 70
     1
102
RTVSPropertyOp46
 70
     1
102
RTVSPropertyOp47
 70
     1
102
RTVSPropertyOp48
 70
     1
102
RTVSPropertyOp49
 70
     1
102
RTVSPropertyOp50
 70
     1
102
RTVSPropertyOp51
 70
     0
102
RTVSPropertyOp52
 70
     0
102
RTVSPropertyOp53
 70
     1
102
RTVSPropertyOp54
 70
     1
102
RTVSPropertyOp55
 70
     1
102
RTVSPropertyOp56
 70
     1
102
RTVSPropertyOp57
 70
     1
102
RTVSPropertyOp58
 70
     1
102
RTVSPropertyOp59
 70
     1
102
RTVSPropertyOp60
 70
     1
102
RTVSPropertyOp61
 70
     1
102
RTVSPropertyOp62
 70
     1
  0
XRECORD
  5
CB4
102
{ACAD_REACTORS
330
CB3
102
}
330
CB3
100
AcDbXrecord
280
     1
102
RTVSPost2010Prop28
280
     0
102
RTVSPost2010PropOp28
 70
     1
102
RTVSPost2010Prop29
280
     1
102
RTVSPost2010PropOp29
 70
     1
102
RTVSPost2010Prop30
280
     1
102
RTVSPost2010PropOp30
 70
     1
102
RTVSPost2010Prop31
280
     0
102
RTVSPost2010PropOp31
 70
     1
102
RTVSPost2010Prop32
280
     0
102
RTVSPost2010PropOp32
 70
     1
102
RTVSPost2010Prop33
280
     0
102
RTVSPost2010PropOp33
 70
     1
102
RTVSPost2010Prop34
280
     0
102
RTVSPost2010PropOp34
 70
     1
102
RTVSPost2010Prop35
280
     0
102
RTVSPost2010PropOp35
 70
     1
102
RTVSPost2010Prop36
280
     0
102
RTVSPost2010PropOp36
 70
     1
102
RTVSPost2010Prop37
 90
       50
102
RTVSPost2010PropOp37
 70
     1
102
RTVSPost2010Prop38
140
0.0
102
RTVSPost2010PropOp38
 70
     1
102
RTVSPost2010Prop39
140
1.0
102
RTVSPost2010PropOp39
 70
     1
102
RTVSPost2010Prop40
 90
        0
102
RTVSPost2010PropOp40
 70
     1
102
RTVSPost2010Prop41ColorIndex
 90
       18
102
RTVSPost2010Prop41ColorRGB
 90
        0
102
RTVSPost2010PropOp41
 70
     1
102
RTVSPost2010Prop42
 90
       50
102
RTVSPost2010PropOp42
 70
     1
102
RTVSPost2010Prop43
 90
        3
102
RTVSPost2010PropOp43
 70
     1
102
RTVSPost2010Prop44ColorIndex
 90
        5
102
RTVSPost2010Prop44ColorRGB
 90
      255
102
RTVSPost2010PropOp44
 70
     1
102
RTVSPost2010Prop45
280
     0
102
RTVSPost2010PropOp45
 70
     1
102
RTVSPost2010Prop46
 90
       50
102
RTVSPost2010PropOp46
 70
     1
102
RTVSPost2010Prop47
 90
       50
102
RTVSPost2010PropOp47
 70
     1
102
RTVSPost2010Prop48
 90
       50
102
RTVSPost2010PropOp48
 70
     1
102
RTVSPost2010Prop49
280
     0
102
RTVSPost2010PropOp49
 70
     1
102
RTVSPost2010Prop50
 90
       50
102
RTVSPost2010PropOp50
 70
     1
102
RTVSPost2010Prop51ColorIndex
 90
      256
102
RTVSPost2010Prop51ColorRGB
 90
-16777216
102
RTVSPost2010PropOp51
 70
     0
102
RTVSPost2010Prop52
140
1.0
102
RTVSPost2010PropOp52
 70
     0
102
RTVSPost2010Prop53
 90
        2
102
RTVSPost2010PropOp53
 70
     1
102
RTVSPost2010Prop54
  1
strokes_ogs.tif
102
RTVSPost2010PropOp54
 70
     1
102
RTVSPost2010Prop55
280
     0
102
RTVSPost2010PropOp55
 70
     1
102
RTVSPost2010Prop56
140
1.0
102
RTVSPost2010PropOp56
 70
     1
102
RTVSPost2010Prop57
140
1.0
102
RTVSPost2010PropOp57
 70
     1
102
RTVSPropertyOp0
 70
     0
102
RTVSPropertyOp1
 70
     0
102
RTVSPropertyOp2
 70
     0
102
RTVSPropertyOp3
 70
     0
102
RTVSPropertyOp4
 70
     0
102
RTVSPropertyOp5
 70
     0
102
RTVSPropertyOp6
 70
     0
102
RTVSPropertyOp7
 70
     0
102
RTVSPropertyOp8
 70
     0
102
RTVSPropertyOp9
 70
     0
102
RTVSPropertyOp10
 70
     0
102
RTVSPropertyOp11
 70
     0
102
RTVSPropertyOp12
 70
     0
102
RTVSPropertyOp13
 70
     0
102
RTVSPropertyOp14
 70
     2
102
RTVSPropertyOp15
 70
     0
102
RTVSPropertyOp16
 70
     0
102
RTVSPropertyOp17
 70
     0
102
RTVSPropertyOp18
 70
     0
102
RTVSPropertyOp19
 70
     0
102
RTVSPropertyOp20
 70
     0
102
RTVSPropertyOp21
 70
     0
102
RTVSPropertyOp22
 70
     0
102
RTVSPropertyOp23
 70
     0
102
RTVSPropertyOp24
 70
     0
102
RTVSPropertyOp25
 70
     0
102
RTVSPropertyOp26
 70
     0
102
RTVSPropertyOp27
 70
     0
102
RTVSPropertyOp28
 70
     1
102
RTVSPropertyOp29
 70
     1
102
RTVSPropertyOp30
 70
     1
102
RTVSPropertyOp31
 70
     1
102
RTVSPropertyOp32
 70
     1
102
RTVSPropertyOp33
 70
     1
102
RTVSPropertyOp34
 70
     1
102
RTVSPropertyOp35
 70
     1
102
RTVSPropertyOp36
 70
     1
102
RTVSPropertyOp37
 70
     1
102
RTVSPropertyOp38
 70
     1
102
RTVSPropertyOp39
 70
     1
102
RTVSPropertyOp40
 70
     1
102
RTVSPropertyOp41
 70
     1
102
RTVSPropertyOp42
 70
     1
102
RTVSPropertyOp43
 70
     1
102
RTVSPropertyOp44
 70
     1
102
RTVSPropertyOp45
 70
     1
102
RTVSPropertyOp46
 70
     1
102
RTVSPropertyOp47
 70
     1
102
RTVSPropertyOp48
 70
     1
102
RTVSPropertyOp49
 70
     1
102
RTVSPropertyOp50
 70
     1
102
RTVSPropertyOp51
 70
     0
102
RTVSPropertyOp52
 70
     0
102
RTVSPropertyOp53
 70
     1
102
RTVSPropertyOp54
 70
     1
102
RTVSPropertyOp55
 70
     1
102
RTVSPropertyOp56
 70
     1
102
RTVSPropertyOp57
 70
     1
102
RTVSPropertyOp58
 70
     1
102
RTVSPropertyOp59
 70
     1
102
RTVSPropertyOp60
 70
     1
102
RTVSPropertyOp61
 70
     1
102
RTVSPropertyOp62
 70
     1
  0
XRECORD
  5
CA2
102
{ACAD_REACTORS
330
CA1
102
}
330
CA1
100
AcDbXrecord
280
     1
102
RTVSPost2010Prop28
280
     0
102
RTVSPost2010PropOp28
 70
     1
102
RTVSPost2010Prop29
280
     1
102
RTVSPost2010PropOp29
 70
     1
102
RTVSPost2010Prop30
280
     1
102
RTVSPost2010PropOp30
 70
     1
102
RTVSPost2010Prop31
280
     0
102
RTVSPost2010PropOp31
 70
     1
102
RTVSPost2010Prop32
280
     0
102
RTVSPost2010PropOp32
 70
     1
102
RTVSPost2010Prop33
280
     0
102
RTVSPost2010PropOp33
 70
     1
102
RTVSPost2010Prop34
280
     0
102
RTVSPost2010PropOp34
 70
     1
102
RTVSPost2010Prop35
280
     0
102
RTVSPost2010PropOp35
 70
     1
102
RTVSPost2010Prop36
280
     0
102
RTVSPost2010PropOp36
 70
     1
102
RTVSPost2010Prop37
 90
       50
102
RTVSPost2010PropOp37
 70
     1
102
RTVSPost2010Prop38
140
0.0
102
RTVSPost2010PropOp38
 70
     1
102
RTVSPost2010Prop39
140
1.0
102
RTVSPost2010PropOp39
 70
     1
102
RTVSPost2010Prop40
 90
        0
102
RTVSPost2010PropOp40
 70
     1
102
RTVSPost2010Prop41ColorIndex
 90
       18
102
RTVSPost2010Prop41ColorRGB
 90
        0
102
RTVSPost2010PropOp41
 70
     1
102
RTVSPost2010Prop42
 90
       50
102
RTVSPost2010PropOp42
 70
     1
102
RTVSPost2010Prop43
 90
        3
102
RTVSPost2010PropOp43
 70
     1
102
RTVSPost2010Prop44ColorIndex
 90
        5
102
RTVSPost2010Prop44ColorRGB
 90
      255
102
RTVSPost2010PropOp44
 70
     1
102
RTVSPost2010Prop45
280
     0
102
RTVSPost2010PropOp45
 70
     1
102
RTVSPost2010Prop46
 90
       50
102
RTVSPost2010PropOp46
 70
     1
102
RTVSPost2010Prop47
 90
       50
102
RTVSPost2010PropOp47
 70
     1
102
RTVSPost2010Prop48
 90
       50
102
RTVSPost2010PropOp48
 70
     1
102
RTVSPost2010Prop49
280
     0
102
RTVSPost2010PropOp49
 70
     1
102
RTVSPost2010Prop50
 90
       50
102
RTVSPost2010PropOp50
 70
     1
102
RTVSPost2010Prop51ColorIndex
 90
      256
102
RTVSPost2010Prop51ColorRGB
 90
-16777216
102
RTVSPost2010PropOp51
 70
     0
102
RTVSPost2010Prop52
140
1.0
102
RTVSPost2010PropOp52
 70
     0
102
RTVSPost2010Prop53
 90
        2
102
RTVSPost2010PropOp53
 70
     1
102
RTVSPost2010Prop54
  1
strokes_ogs.tif
102
RTVSPost2010PropOp54
 70
     1
102
RTVSPost2010Prop55
280
     0
102
RTVSPost2010PropOp55
 70
     1
102
RTVSPost2010Prop56
140
1.0
102
RTVSPost2010PropOp56
 70
     1
102
RTVSPost2010Prop57
140
1.0
102
RTVSPost2010PropOp57
 70
     1
102
RTVSPropertyOp0
 70
     1
102
RTVSPropertyOp1
 70
     1
102
RTVSPropertyOp2
 70
     1
102
RTVSPropertyOp3
 70
     1
102
RTVSPropertyOp4
 70
     1
102
RTVSPropertyOp5
 70
     1
102
RTVSPropertyOp6
 70
     1
102
RTVSPropertyOp7
 70
     1
102
RTVSPropertyOp8
 70
     1
102
RTVSPropertyOp9
 70
     1
102
RTVSPropertyOp10
 70
     1
102
RTVSPropertyOp11
 70
     1
102
RTVSPropertyOp12
 70
     1
102
RTVSPropertyOp13
 70
     1
102
RTVSPropertyOp14
 70
     1
102
RTVSPropertyOp15
 70
     1
102
RTVSPropertyOp16
 70
     1
102
RTVSPropertyOp17
 70
     1
102
RTVSPropertyOp18
 70
     1
102
RTVSPropertyOp19
 70
     1
102
RTVSPropertyOp20
 70
     1
102
RTVSPropertyOp21
 70
     1
102
RTVSPropertyOp22
 70
     1
102
RTVSPropertyOp23
 70
     1
102
RTVSPropertyOp24
 70
     1
102
RTVSPropertyOp25
 70
     1
102
RTVSPropertyOp26
 70
     1
102
RTVSPropertyOp27
 70
     1
102
RTVSPropertyOp28
 70
     1
102
RTVSPropertyOp29
 70
     1
102
RTVSPropertyOp30
 70
     1
102
RTVSPropertyOp31
 70
     1
102
RTVSPropertyOp32
 70
     1
102
RTVSPropertyOp33
 70
     1
102
RTVSPropertyOp34
 70
     1
102
RTVSPropertyOp35
 70
     1
102
RTVSPropertyOp36
 70
     1
102
RTVSPropertyOp37
 70
     1
102
RTVSPropertyOp38
 70
     1
102
RTVSPropertyOp39
 70
     1
102
RTVSPropertyOp40
 70
     1
102
RTVSPropertyOp41
 70
     1
102
RTVSPropertyOp42
 70
     1
102
RTVSPropertyOp43
 70
     1
102
RTVSPropertyOp44
 70
     1
102
RTVSPropertyOp45
 70
     1
102
RTVSPropertyOp46
 70
     1
102
RTVSPropertyOp47
 70
     1
102
RTVSPropertyOp48
 70
     1
102
RTVSPropertyOp49
 70
     1
102
RTVSPropertyOp50
 70
     1
102
RTVSPropertyOp51
 70
     0
102
RTVSPropertyOp52
 70
     0
102
RTVSPropertyOp53
 70
     1
102
RTVSPropertyOp54
 70
     1
102
RTVSPropertyOp55
 70
     1
102
RTVSPropertyOp56
 70
     1
102
RTVSPropertyOp57
 70
     1
102
RTVSPropertyOp58
 70
     1
102
RTVSPropertyOp59
 70
     1
102
RTVSPropertyOp60
 70
     1
102
RTVSPropertyOp61
 70
     1
102
RTVSPropertyOp62
 70
     1
  0
XRECORD
  5
CC0
102
{ACAD_REACTORS
330
CBF
102
}
330
CBF
100
AcDbXrecord
280
     1
102
RTVSPost2010Prop28
280
     0
102
RTVSPost2010PropOp28
 70
     1
102
RTVSPost2010Prop29
280
     1
102
RTVSPost2010PropOp29
 70
     1
102
RTVSPost2010Prop30
280
     1
102
RTVSPost2010PropOp30
 70
     1
102
RTVSPost2010Prop31
280
     0
102
RTVSPost2010PropOp31
 70
     1
102
RTVSPost2010Prop32
280
     0
102
RTVSPost2010PropOp32
 70
     1
102
RTVSPost2010Prop33
280
     0
102
RTVSPost2010PropOp33
 70
     1
102
RTVSPost2010Prop34
280
     0
102
RTVSPost2010PropOp34
 70
     1
102
RTVSPost2010Prop35
280
     0
102
RTVSPost2010PropOp35
 70
     1
102
RTVSPost2010Prop36
280
     0
102
RTVSPost2010PropOp36
 70
     1
102
RTVSPost2010Prop37
 90
       50
102
RTVSPost2010PropOp37
 70
     1
102
RTVSPost2010Prop38
140
0.0
102
RTVSPost2010PropOp38
 70
     1
102
RTVSPost2010Prop39
140
1.0
102
RTVSPost2010PropOp39
 70
     1
102
RTVSPost2010Prop40
 90
        0
102
RTVSPost2010PropOp40
 70
     1
102
RTVSPost2010Prop41ColorIndex
 90
       18
102
RTVSPost2010Prop41ColorRGB
 90
        0
102
RTVSPost2010PropOp41
 70
     1
102
RTVSPost2010Prop42
 90
       50
102
RTVSPost2010PropOp42
 70
     1
102
RTVSPost2010Prop43
 90
        3
102
RTVSPost2010PropOp43
 70
     1
102
RTVSPost2010Prop44ColorIndex
 90
        5
102
RTVSPost2010Prop44ColorRGB
 90
      255
102
RTVSPost2010PropOp44
 70
     1
102
RTVSPost2010Prop45
280
     0
102
RTVSPost2010PropOp45
 70
     1
102
RTVSPost2010Prop46
 90
       50
102
RTVSPost2010PropOp46
 70
     1
102
RTVSPost2010Prop47
 90
       50
102
RTVSPost2010PropOp47
 70
     1
102
RTVSPost2010Prop48
 90
       50
102
RTVSPost2010PropOp48
 70
     1
102
RTVSPost2010Prop49
280
     0
102
RTVSPost2010PropOp49
 70
     1
102
RTVSPost2010Prop50
 90
       50
102
RTVSPost2010PropOp50
 70
     1
102
RTVSPost2010Prop51ColorIndex
 90
      256
102
RTVSPost2010Prop51ColorRGB
 90
-16777216
102
RTVSPost2010PropOp51
 70
     0
102
RTVSPost2010Prop52
140
1.0
102
RTVSPost2010PropOp52
 70
     0
102
RTVSPost2010Prop53
 90
        2
102
RTVSPost2010PropOp53
 70
     1
102
RTVSPost2010Prop54
  1
strokes_ogs.tif
102
RTVSPost2010PropOp54
 70
     1
102
RTVSPost2010Prop55
280
     0
102
RTVSPost2010PropOp55
 70
     1
102
RTVSPost2010Prop56
140
1.0
102
RTVSPost2010PropOp56
 70
     1
102
RTVSPost2010Prop57
140
1.0
102
RTVSPost2010PropOp57
 70
     1
102
RTVSPropertyOp0
 70
     1
102
RTVSPropertyOp1
 70
     1
102
RTVSPropertyOp2
 70
     1
102
RTVSPropertyOp3
 70
     1
102
RTVSPropertyOp4
 70
     1
102
RTVSPropertyOp5
 70
     1
102
RTVSPropertyOp6
 70
     1
102
RTVSPropertyOp7
 70
     1
102
RTVSPropertyOp8
 70
     1
102
RTVSPropertyOp9
 70
     1
102
RTVSPropertyOp10
 70
     1
102
RTVSPropertyOp11
 70
     1
102
RTVSPropertyOp12
 70
     1
102
RTVSPropertyOp13
 70
     1
102
RTVSPropertyOp14
 70
     1
102
RTVSPropertyOp15
 70
     1
102
RTVSPropertyOp16
 70
     1
102
RTVSPropertyOp17
 70
     1
102
RTVSPropertyOp18
 70
     1
102
RTVSPropertyOp19
 70
     1
102
RTVSPropertyOp20
 70
     1
102
RTVSPropertyOp21
 70
     1
102
RTVSPropertyOp22
 70
     1
102
RTVSPropertyOp23
 70
     1
102
RTVSPropertyOp24
 70
     1
102
RTVSPropertyOp25
 70
     1
102
RTVSPropertyOp26
 70
     1
102
RTVSPropertyOp27
 70
     1
102
RTVSPropertyOp28
 70
     1
102
RTVSPropertyOp29
 70
     1
102
RTVSPropertyOp30
 70
     1
102
RTVSPropertyOp31
 70
     1
102
RTVSPropertyOp32
 70
     1
102
RTVSPropertyOp33
 70
     1
102
RTVSPropertyOp34
 70
     1
102
RTVSPropertyOp35
 70
     1
102
RTVSPropertyOp36
 70
     1
102
RTVSPropertyOp37
 70
     1
102
RTVSPropertyOp38
 70
     1
102
RTVSPropertyOp39
 70
     1
102
RTVSPropertyOp40
 70
     1
102
RTVSPropertyOp41
 70
     1
102
RTVSPropertyOp42
 70
     1
102
RTVSPropertyOp43
 70
     1
102
RTVSPropertyOp44
 70
     1
102
RTVSPropertyOp45
 70
     1
102
RTVSPropertyOp46
 70
     1
102
RTVSPropertyOp47
 70
     1
102
RTVSPropertyOp48
 70
     1
102
RTVSPropertyOp49
 70
     1
102
RTVSPropertyOp50
 70
     1
102
RTVSPropertyOp51
 70
     0
102
RTVSPropertyOp52
 70
     0
102
RTVSPropertyOp53
 70
     1
102
RTVSPropertyOp54
 70
     1
102
RTVSPropertyOp55
 70
     1
102
RTVSPropertyOp56
 70
     1
102
RTVSPropertyOp57
 70
     1
102
RTVSPropertyOp58
 70
     1
102
RTVSPropertyOp59
 70
     1
102
RTVSPropertyOp60
 70
     1
102
RTVSPropertyOp61
 70
     1
102
RTVSPropertyOp62
 70
     1
  0
XRECORD
  5
CBE
102
{ACAD_REACTORS
330
CBD
102
}
330
CBD
100
AcDbXrecord
280
     1
102
RTVSPost2010Prop28
280
     0
102
RTVSPost2010PropOp28
 70
     1
102
RTVSPost2010Prop29
280
     1
102
RTVSPost2010PropOp29
 70
     1
102
RTVSPost2010Prop30
280
     1
102
RTVSPost2010PropOp30
 70
     1
102
RTVSPost2010Prop31
280
     0
102
RTVSPost2010PropOp31
 70
     1
102
RTVSPost2010Prop32
280
     0
102
RTVSPost2010PropOp32
 70
     1
102
RTVSPost2010Prop33
280
     0
102
RTVSPost2010PropOp33
 70
     1
102
RTVSPost2010Prop34
280
     0
102
RTVSPost2010PropOp34
 70
     1
102
RTVSPost2010Prop35
280
     0
102
RTVSPost2010PropOp35
 70
     1
102
RTVSPost2010Prop36
280
     0
102
RTVSPost2010PropOp36
 70
     1
102
RTVSPost2010Prop37
 90
       50
102
RTVSPost2010PropOp37
 70
     1
102
RTVSPost2010Prop38
140
0.0
102
RTVSPost2010PropOp38
 70
     1
102
RTVSPost2010Prop39
140
1.0
102
RTVSPost2010PropOp39
 70
     1
102
RTVSPost2010Prop40
 90
        0
102
RTVSPost2010PropOp40
 70
     1
102
RTVSPost2010Prop41ColorIndex
 90
       18
102
RTVSPost2010Prop41ColorRGB
 90
        0
102
RTVSPost2010PropOp41
 70
     1
102
RTVSPost2010Prop42
 90
       50
102
RTVSPost2010PropOp42
 70
     1
102
RTVSPost2010Prop43
 90
        3
102
RTVSPost2010PropOp43
 70
     1
102
RTVSPost2010Prop44ColorIndex
 90
        5
102
RTVSPost2010Prop44ColorRGB
 90
      255
102
RTVSPost2010PropOp44
 70
     1
102
RTVSPost2010Prop45
280
     0
102
RTVSPost2010PropOp45
 70
     1
102
RTVSPost2010Prop46
 90
       50
102
RTVSPost2010PropOp46
 70
     1
102
RTVSPost2010Prop47
 90
       50
102
RTVSPost2010PropOp47
 70
     1
102
RTVSPost2010Prop48
 90
       50
102
RTVSPost2010PropOp48
 70
     1
102
RTVSPost2010Prop49
280
     0
102
RTVSPost2010PropOp49
 70
     1
102
RTVSPost2010Prop50
 90
       50
102
RTVSPost2010PropOp50
 70
     1
102
RTVSPost2010Prop51ColorIndex
 90
      256
102
RTVSPost2010Prop51ColorRGB
 90
-16777216
102
RTVSPost2010PropOp51
 70
     0
102
RTVSPost2010Prop52
140
1.0
102
RTVSPost2010PropOp52
 70
     0
102
RTVSPost2010Prop53
 90
        2
102
RTVSPost2010PropOp53
 70
     1
102
RTVSPost2010Prop54
  1
strokes_ogs.tif
102
RTVSPost2010PropOp54
 70
     1
102
RTVSPost2010Prop55
280
     0
102
RTVSPost2010PropOp55
 70
     1
102
RTVSPost2010Prop56
140
1.0
102
RTVSPost2010PropOp56
 70
     1
102
RTVSPost2010Prop57
140
1.0
102
RTVSPost2010PropOp57
 70
     1
102
RTVSPropertyOp0
 70
     1
102
RTVSPropertyOp1
 70
     1
102
RTVSPropertyOp2
 70
     1
102
RTVSPropertyOp3
 70
     1
102
RTVSPropertyOp4
 70
     1
102
RTVSPropertyOp5
 70
     1
102
RTVSPropertyOp6
 70
     1
102
RTVSPropertyOp7
 70
     1
102
RTVSPropertyOp8
 70
     1
102
RTVSPropertyOp9
 70
     1
102
RTVSPropertyOp10
 70
     1
102
RTVSPropertyOp11
 70
     1
102
RTVSPropertyOp12
 70
     1
102
RTVSPropertyOp13
 70
     1
102
RTVSPropertyOp14
 70
     1
102
RTVSPropertyOp15
 70
     1
102
RTVSPropertyOp16
 70
     1
102
RTVSPropertyOp17
 70
     1
102
RTVSPropertyOp18
 70
     1
102
RTVSPropertyOp19
 70
     1
102
RTVSPropertyOp20
 70
     1
102
RTVSPropertyOp21
 70
     1
102
RTVSPropertyOp22
 70
     1
102
RTVSPropertyOp23
 70
     1
102
RTVSPropertyOp24
 70
     1
102
RTVSPropertyOp25
 70
     1
102
RTVSPropertyOp26
 70
     1
102
RTVSPropertyOp27
 70
     1
102
RTVSPropertyOp28
 70
     1
102
RTVSPropertyOp29
 70
     1
102
RTVSPropertyOp30
 70
     1
102
RTVSPropertyOp31
 70
     1
102
RTVSPropertyOp32
 70
     1
102
RTVSPropertyOp33
 70
     1
102
RTVSPropertyOp34
 70
     1
102
RTVSPropertyOp35
 70
     1
102
RTVSPropertyOp36
 70
     1
102
RTVSPropertyOp37
 70
     1
102
RTVSPropertyOp38
 70
     1
102
RTVSPropertyOp39
 70
     1
102
RTVSPropertyOp40
 70
     1
102
RTVSPropertyOp41
 70
     1
102
RTVSPropertyOp42
 70
     1
102
RTVSPropertyOp43
 70
     1
102
RTVSPropertyOp44
 70
     1
102
RTVSPropertyOp45
 70
     1
102
RTVSPropertyOp46
 70
     1
102
RTVSPropertyOp47
 70
     1
102
RTVSPropertyOp48
 70
     1
102
RTVSPropertyOp49
 70
     1
102
RTVSPropertyOp50
 70
     1
102
RTVSPropertyOp51
 70
     0
102
RTVSPropertyOp52
 70
     0
102
RTVSPropertyOp53
 70
     1
102
RTVSPropertyOp54
 70
     1
102
RTVSPropertyOp55
 70
     1
102
RTVSPropertyOp56
 70
     1
102
RTVSPropertyOp57
 70
     1
102
RTVSPropertyOp58
 70
     1
102
RTVSPropertyOp59
 70
     1
102
RTVSPropertyOp60
 70
     1
102
RTVSPropertyOp61
 70
     1
102
RTVSPropertyOp62
 70
     1
  0
XRECORD
  5
CB8
102
{ACAD_REACTORS
330
CB7
102
}
330
CB7
100
AcDbXrecord
280
     1
102
RTVSPost2010Prop28
280
     0
102
RTVSPost2010PropOp28
 70
     1
102
RTVSPost2010Prop29
280
     1
102
RTVSPost2010PropOp29
 70
     1
102
RTVSPost2010Prop30
280
     1
102
RTVSPost2010PropOp30
 70
     1
102
RTVSPost2010Prop31
280
     0
102
RTVSPost2010PropOp31
 70
     1
102
RTVSPost2010Prop32
280
     0
102
RTVSPost2010PropOp32
 70
     1
102
RTVSPost2010Prop33
280
     0
102
RTVSPost2010PropOp33
 70
     1
102
RTVSPost2010Prop34
280
     0
102
RTVSPost2010PropOp34
 70
     1
102
RTVSPost2010Prop35
280
     0
102
RTVSPost2010PropOp35
 70
     1
102
RTVSPost2010Prop36
280
     0
102
RTVSPost2010PropOp36
 70
     1
102
RTVSPost2010Prop37
 90
       50
102
RTVSPost2010PropOp37
 70
     1
102
RTVSPost2010Prop38
140
0.0
102
RTVSPost2010PropOp38
 70
     1
102
RTVSPost2010Prop39
140
1.0
102
RTVSPost2010PropOp39
 70
     1
102
RTVSPost2010Prop40
 90
        0
102
RTVSPost2010PropOp40
 70
     1
102
RTVSPost2010Prop41ColorIndex
 90
       18
102
RTVSPost2010Prop41ColorRGB
 90
        0
102
RTVSPost2010PropOp41
 70
     1
102
RTVSPost2010Prop42
 90
       50
102
RTVSPost2010PropOp42
 70
     1
102
RTVSPost2010Prop43
 90
        3
102
RTVSPost2010PropOp43
 70
     1
102
RTVSPost2010Prop44ColorIndex
 90
        5
102
RTVSPost2010Prop44ColorRGB
 90
      255
102
RTVSPost2010PropOp44
 70
     1
102
RTVSPost2010Prop45
280
     0
102
RTVSPost2010PropOp45
 70
     1
102
RTVSPost2010Prop46
 90
       50
102
RTVSPost2010PropOp46
 70
     1
102
RTVSPost2010Prop47
 90
       50
102
RTVSPost2010PropOp47
 70
     1
102
RTVSPost2010Prop48
 90
       50
102
RTVSPost2010PropOp48
 70
     1
102
RTVSPost2010Prop49
280
     0
102
RTVSPost2010PropOp49
 70
     1
102
RTVSPost2010Prop50
 90
       50
102
RTVSPost2010PropOp50
 70
     1
102
RTVSPost2010Prop51ColorIndex
 90
      256
102
RTVSPost2010Prop51ColorRGB
 90
-16777216
102
RTVSPost2010PropOp51
 70
     0
102
RTVSPost2010Prop52
140
1.0
102
RTVSPost2010PropOp52
 70
     0
102
RTVSPost2010Prop53
 90
        2
102
RTVSPost2010PropOp53
 70
     1
102
RTVSPost2010Prop54
  1
strokes_ogs.tif
102
RTVSPost2010PropOp54
 70
     1
102
RTVSPost2010Prop55
280
     0
102
RTVSPost2010PropOp55
 70
     1
102
RTVSPost2010Prop56
140
1.0
102
RTVSPost2010PropOp56
 70
     1
102
RTVSPost2010Prop57
140
1.0
102
RTVSPost2010PropOp57
 70
     1
102
RTVSPropertyOp0
 70
     1
102
RTVSPropertyOp1
 70
     1
102
RTVSPropertyOp2
 70
     1
102
RTVSPropertyOp3
 70
     1
102
RTVSPropertyOp4
 70
     1
102
RTVSPropertyOp5
 70
     1
102
RTVSPropertyOp6
 70
     1
102
RTVSPropertyOp7
 70
     1
102
RTVSPropertyOp8
 70
     1
102
RTVSPropertyOp9
 70
     1
102
RTVSPropertyOp10
 70
     1
102
RTVSPropertyOp11
 70
     1
102
RTVSPropertyOp12
 70
     1
102
RTVSPropertyOp13
 70
     1
102
RTVSPropertyOp14
 70
     1
102
RTVSPropertyOp15
 70
     1
102
RTVSPropertyOp16
 70
     1
102
RTVSPropertyOp17
 70
     1
102
RTVSPropertyOp18
 70
     1
102
RTVSPropertyOp19
 70
     1
102
RTVSPropertyOp20
 70
     1
102
RTVSPropertyOp21
 70
     1
102
RTVSPropertyOp22
 70
     1
102
RTVSPropertyOp23
 70
     1
102
RTVSPropertyOp24
 70
     1
102
RTVSPropertyOp25
 70
     1
102
RTVSPropertyOp26
 70
     1
102
RTVSPropertyOp27
 70
     1
102
RTVSPropertyOp28
 70
     1
102
RTVSPropertyOp29
 70
     1
102
RTVSPropertyOp30
 70
     1
102
RTVSPropertyOp31
 70
     1
102
RTVSPropertyOp32
 70
     1
102
RTVSPropertyOp33
 70
     1
102
RTVSPropertyOp34
 70
     1
102
RTVSPropertyOp35
 70
     1
102
RTVSPropertyOp36
 70
     1
102
RTVSPropertyOp37
 70
     1
102
RTVSPropertyOp38
 70
     1
102
RTVSPropertyOp39
 70
     1
102
RTVSPropertyOp40
 70
     1
102
RTVSPropertyOp41
 70
     1
102
RTVSPropertyOp42
 70
     1
102
RTVSPropertyOp43
 70
     1
102
RTVSPropertyOp44
 70
     1
102
RTVSPropertyOp45
 70
     1
102
RTVSPropertyOp46
 70
     1
102
RTVSPropertyOp47
 70
     1
102
RTVSPropertyOp48
 70
     1
102
RTVSPropertyOp49
 70
     1
102
RTVSPropertyOp50
 70
     1
102
RTVSPropertyOp51
 70
     0
102
RTVSPropertyOp52
 70
     0
102
RTVSPropertyOp53
 70
     1
102
RTVSPropertyOp54
 70
     1
102
RTVSPropertyOp55
 70
     1
102
RTVSPropertyOp56
 70
     1
102
RTVSPropertyOp57
 70
     1
102
RTVSPropertyOp58
 70
     1
102
RTVSPropertyOp59
 70
     1
102
RTVSPropertyOp60
 70
     1
102
RTVSPropertyOp61
 70
     1
102
RTVSPropertyOp62
 70
     1
  0
XRECORD
  5
CBA
102
{ACAD_REACTORS
330
CB9
102
}
330
CB9
100
AcDbXrecord
280
     1
102
RTVSPost2010Prop28
280
     0
102
RTVSPost2010PropOp28
 70
     1
102
RTVSPost2010Prop29
280
     1
102
RTVSPost2010PropOp29
 70
     1
102
RTVSPost2010Prop30
280
     1
102
RTVSPost2010PropOp30
 70
     1
102
RTVSPost2010Prop31
280
     0
102
RTVSPost2010PropOp31
 70
     1
102
RTVSPost2010Prop32
280
     0
102
RTVSPost2010PropOp32
 70
     1
102
RTVSPost2010Prop33
280
     0
102
RTVSPost2010PropOp33
 70
     1
102
RTVSPost2010Prop34
280
     0
102
RTVSPost2010PropOp34
 70
     1
102
RTVSPost2010Prop35
280
     0
102
RTVSPost2010PropOp35
 70
     1
102
RTVSPost2010Prop36
280
     0
102
RTVSPost2010PropOp36
 70
     1
102
RTVSPost2010Prop37
 90
       50
102
RTVSPost2010PropOp37
 70
     1
102
RTVSPost2010Prop38
140
0.0
102
RTVSPost2010PropOp38
 70
     1
102
RTVSPost2010Prop39
140
1.0
102
RTVSPost2010PropOp39
 70
     1
102
RTVSPost2010Prop40
 90
        0
102
RTVSPost2010PropOp40
 70
     1
102
RTVSPost2010Prop41ColorIndex
 90
       18
102
RTVSPost2010Prop41ColorRGB
 90
        0
102
RTVSPost2010PropOp41
 70
     1
102
RTVSPost2010Prop42
 90
       50
102
RTVSPost2010PropOp42
 70
     1
102
RTVSPost2010Prop43
 90
        3
102
RTVSPost2010PropOp43
 70
     1
102
RTVSPost2010Prop44ColorIndex
 90
        5
102
RTVSPost2010Prop44ColorRGB
 90
      255
102
RTVSPost2010PropOp44
 70
     1
102
RTVSPost2010Prop45
280
     0
102
RTVSPost2010PropOp45
 70
     1
102
RTVSPost2010Prop46
 90
       50
102
RTVSPost2010PropOp46
 70
     1
102
RTVSPost2010Prop47
 90
       50
102
RTVSPost2010PropOp47
 70
     1
102
RTVSPost2010Prop48
 90
       50
102
RTVSPost2010PropOp48
 70
     1
102
RTVSPost2010Prop49
280
     0
102
RTVSPost2010PropOp49
 70
     1
102
RTVSPost2010Prop50
 90
       50
102
RTVSPost2010PropOp50
 70
     1
102
RTVSPost2010Prop51ColorIndex
 90
      256
102
RTVSPost2010Prop51ColorRGB
 90
-16777216
102
RTVSPost2010PropOp51
 70
     0
102
RTVSPost2010Prop52
140
1.0
102
RTVSPost2010PropOp52
 70
     0
102
RTVSPost2010Prop53
 90
        2
102
RTVSPost2010PropOp53
 70
     1
102
RTVSPost2010Prop54
  1
strokes_ogs.tif
102
RTVSPost2010PropOp54
 70
     1
102
RTVSPost2010Prop55
280
     0
102
RTVSPost2010PropOp55
 70
     1
102
RTVSPost2010Prop56
140
1.0
102
RTVSPost2010PropOp56
 70
     1
102
RTVSPost2010Prop57
140
1.0
102
RTVSPost2010PropOp57
 70
     1
102
RTVSPropertyOp0
 70
     1
102
RTVSPropertyOp1
 70
     1
102
RTVSPropertyOp2
 70
     1
102
RTVSPropertyOp3
 70
     1
102
RTVSPropertyOp4
 70
     1
102
RTVSPropertyOp5
 70
     1
102
RTVSPropertyOp6
 70
     1
102
RTVSPropertyOp7
 70
     1
102
RTVSPropertyOp8
 70
     1
102
RTVSPropertyOp9
 70
     1
102
RTVSPropertyOp10
 70
     1
102
RTVSPropertyOp11
 70
     1
102
RTVSPropertyOp12
 70
     1
102
RTVSPropertyOp13
 70
     1
102
RTVSPropertyOp14
 70
     1
102
RTVSPropertyOp15
 70
     1
102
RTVSPropertyOp16
 70
     1
102
RTVSPropertyOp17
 70
     1
102
RTVSPropertyOp18
 70
     1
102
RTVSPropertyOp19
 70
     1
102
RTVSPropertyOp20
 70
     1
102
RTVSPropertyOp21
 70
     1
102
RTVSPropertyOp22
 70
     1
102
RTVSPropertyOp23
 70
     1
102
RTVSPropertyOp24
 70
     1
102
RTVSPropertyOp25
 70
     1
102
RTVSPropertyOp26
 70
     1
102
RTVSPropertyOp27
 70
     1
102
RTVSPropertyOp28
 70
     1
102
RTVSPropertyOp29
 70
     1
102
RTVSPropertyOp30
 70
     1
102
RTVSPropertyOp31
 70
     1
102
RTVSPropertyOp32
 70
     1
102
RTVSPropertyOp33
 70
     1
102
RTVSPropertyOp34
 70
     1
102
RTVSPropertyOp35
 70
     1
102
RTVSPropertyOp36
 70
     1
102
RTVSPropertyOp37
 70
     1
102
RTVSPropertyOp38
 70
     1
102
RTVSPropertyOp39
 70
     1
102
RTVSPropertyOp40
 70
     1
102
RTVSPropertyOp41
 70
     1
102
RTVSPropertyOp42
 70
     1
102
RTVSPropertyOp43
 70
     1
102
RTVSPropertyOp44
 70
     1
102
RTVSPropertyOp45
 70
     1
102
RTVSPropertyOp46
 70
     1
102
RTVSPropertyOp47
 70
     1
102
RTVSPropertyOp48
 70
     1
102
RTVSPropertyOp49
 70
     1
102
RTVSPropertyOp50
 70
     1
102
RTVSPropertyOp51
 70
     0
102
RTVSPropertyOp52
 70
     0
102
RTVSPropertyOp53
 70
     1
102
RTVSPropertyOp54
 70
     1
102
RTVSPropertyOp55
 70
     1
102
RTVSPropertyOp56
 70
     1
102
RTVSPropertyOp57
 70
     1
102
RTVSPropertyOp58
 70
     1
102
RTVSPropertyOp59
 70
     1
102
RTVSPropertyOp60
 70
     1
102
RTVSPropertyOp61
 70
     1
102
RTVSPropertyOp62
 70
     1
  0
XRECORD
  5
CA8
102
{ACAD_REACTORS
330
CA7
102
}
330
CA7
100
AcDbXrecord
280
     1
102
RTVSPost2010Prop28
280
     0
102
RTVSPost2010PropOp28
 70
     1
102
RTVSPost2010Prop29
280
     1
102
RTVSPost2010PropOp29
 70
     1
102
RTVSPost2010Prop30
280
     1
102
RTVSPost2010PropOp30
 70
     1
102
RTVSPost2010Prop31
280
     0
102
RTVSPost2010PropOp31
 70
     1
102
RTVSPost2010Prop32
280
     0
102
RTVSPost2010PropOp32
 70
     1
102
RTVSPost2010Prop33
280
     0
102
RTVSPost2010PropOp33
 70
     1
102
RTVSPost2010Prop34
280
     0
102
RTVSPost2010PropOp34
 70
     1
102
RTVSPost2010Prop35
280
     0
102
RTVSPost2010PropOp35
 70
     1
102
RTVSPost2010Prop36
280
     0
102
RTVSPost2010PropOp36
 70
     1
102
RTVSPost2010Prop37
 90
       50
102
RTVSPost2010PropOp37
 70
     1
102
RTVSPost2010Prop38
140
0.0
102
RTVSPost2010PropOp38
 70
     1
102
RTVSPost2010Prop39
140
1.0
102
RTVSPost2010PropOp39
 70
     1
102
RTVSPost2010Prop40
 90
        0
102
RTVSPost2010PropOp40
 70
     1
102
RTVSPost2010Prop41ColorIndex
 90
       18
102
RTVSPost2010Prop41ColorRGB
 90
        0
102
RTVSPost2010PropOp41
 70
     1
102
RTVSPost2010Prop42
 90
       50
102
RTVSPost2010PropOp42
 70
     1
102
RTVSPost2010Prop43
 90
        3
102
RTVSPost2010PropOp43
 70
     1
102
RTVSPost2010Prop44ColorIndex
 90
        5
102
RTVSPost2010Prop44ColorRGB
 90
      255
102
RTVSPost2010PropOp44
 70
     1
102
RTVSPost2010Prop45
280
     0
102
RTVSPost2010PropOp45
 70
     1
102
RTVSPost2010Prop46
 90
       50
102
RTVSPost2010PropOp46
 70
     1
102
RTVSPost2010Prop47
 90
       50
102
RTVSPost2010PropOp47
 70
     1
102
RTVSPost2010Prop48
 90
       50
102
RTVSPost2010PropOp48
 70
     1
102
RTVSPost2010Prop49
280
     0
102
RTVSPost2010PropOp49
 70
     1
102
RTVSPost2010Prop50
 90
       50
102
RTVSPost2010PropOp50
 70
     1
102
RTVSPost2010Prop51ColorIndex
 90
      256
102
RTVSPost2010Prop51ColorRGB
 90
-16777216
102
RTVSPost2010PropOp51
 70
     0
102
RTVSPost2010Prop52
140
1.0
102
RTVSPost2010PropOp52
 70
     0
102
RTVSPost2010Prop53
 90
        2
102
RTVSPost2010PropOp53
 70
     1
102
RTVSPost2010Prop54
  1
strokes_ogs.tif
102
RTVSPost2010PropOp54
 70
     1
102
RTVSPost2010Prop55
280
     0
102
RTVSPost2010PropOp55
 70
     1
102
RTVSPost2010Prop56
140
1.0
102
RTVSPost2010PropOp56
 70
     1
102
RTVSPost2010Prop57
140
1.0
102
RTVSPost2010PropOp57
 70
     1
102
RTVSPropertyOp0
 70
     1
102
RTVSPropertyOp1
 70
     1
102
RTVSPropertyOp2
 70
     1
102
RTVSPropertyOp3
 70
     1
102
RTVSPropertyOp4
 70
     1
102
RTVSPropertyOp5
 70
     1
102
RTVSPropertyOp6
 70
     1
102
RTVSPropertyOp7
 70
     1
102
RTVSPropertyOp8
 70
     1
102
RTVSPropertyOp9
 70
     1
102
RTVSPropertyOp10
 70
     1
102
RTVSPropertyOp11
 70
     1
102
RTVSPropertyOp12
 70
     1
102
RTVSPropertyOp13
 70
     1
102
RTVSPropertyOp14
 70
     1
102
RTVSPropertyOp15
 70
     1
102
RTVSPropertyOp16
 70
     1
102
RTVSPropertyOp17
 70
     1
102
RTVSPropertyOp18
 70
     1
102
RTVSPropertyOp19
 70
     1
102
RTVSPropertyOp20
 70
     1
102
RTVSPropertyOp21
 70
     1
102
RTVSPropertyOp22
 70
     1
102
RTVSPropertyOp23
 70
     1
102
RTVSPropertyOp24
 70
     1
102
RTVSPropertyOp25
 70
     1
102
RTVSPropertyOp26
 70
     1
102
RTVSPropertyOp27
 70
     1
102
RTVSPropertyOp28
 70
     1
102
RTVSPropertyOp29
 70
     1
102
RTVSPropertyOp30
 70
     1
102
RTVSPropertyOp31
 70
     1
102
RTVSPropertyOp32
 70
     1
102
RTVSPropertyOp33
 70
     1
102
RTVSPropertyOp34
 70
     1
102
RTVSPropertyOp35
 70
     1
102
RTVSPropertyOp36
 70
     1
102
RTVSPropertyOp37
 70
     1
102
RTVSPropertyOp38
 70
     1
102
RTVSPropertyOp39
 70
     1
102
RTVSPropertyOp40
 70
     1
102
RTVSPropertyOp41
 70
     1
102
RTVSPropertyOp42
 70
     1
102
RTVSPropertyOp43
 70
     1
102
RTVSPropertyOp44
 70
     1
102
RTVSPropertyOp45
 70
     1
102
RTVSPropertyOp46
 70
     1
102
RTVSPropertyOp47
 70
     1
102
RTVSPropertyOp48
 70
     1
102
RTVSPropertyOp49
 70
     1
102
RTVSPropertyOp50
 70
     1
102
RTVSPropertyOp51
 70
     0
102
RTVSPropertyOp52
 70
     0
102
RTVSPropertyOp53
 70
     1
102
RTVSPropertyOp54
 70
     1
102
RTVSPropertyOp55
 70
     1
102
RTVSPropertyOp56
 70
     1
102
RTVSPropertyOp57
 70
     1
102
RTVSPropertyOp58
 70
     1
102
RTVSPropertyOp59
 70
     1
102
RTVSPropertyOp60
 70
     1
102
RTVSPropertyOp61
 70
     1
102
RTVSPropertyOp62
 70
     1
  0
XRECORD
  5
C9C
102
{ACAD_REACTORS
330
C9B
102
}
330
C9B
100
AcDbXrecord
280
     1
102
RTVSPost2010Prop28
280
     0
102
RTVSPost2010PropOp28
 70
     1
102
RTVSPost2010Prop29
280
     1
102
RTVSPost2010PropOp29
 70
     1
102
RTVSPost2010Prop30
280
     1
102
RTVSPost2010PropOp30
 70
     1
102
RTVSPost2010Prop31
280
     0
102
RTVSPost2010PropOp31
 70
     1
102
RTVSPost2010Prop32
280
     0
102
RTVSPost2010PropOp32
 70
     1
102
RTVSPost2010Prop33
280
     0
102
RTVSPost2010PropOp33
 70
     1
102
RTVSPost2010Prop34
280
     0
102
RTVSPost2010PropOp34
 70
     1
102
RTVSPost2010Prop35
280
     0
102
RTVSPost2010PropOp35
 70
     1
102
RTVSPost2010Prop36
280
     0
102
RTVSPost2010PropOp36
 70
     1
102
RTVSPost2010Prop37
 90
       50
102
RTVSPost2010PropOp37
 70
     1
102
RTVSPost2010Prop38
140
0.0
102
RTVSPost2010PropOp38
 70
     1
102
RTVSPost2010Prop39
140
1.0
102
RTVSPost2010PropOp39
 70
     1
102
RTVSPost2010Prop40
 90
        0
102
RTVSPost2010PropOp40
 70
     1
102
RTVSPost2010Prop41ColorIndex
 90
       18
102
RTVSPost2010Prop41ColorRGB
 90
        0
102
RTVSPost2010PropOp41
 70
     1
102
RTVSPost2010Prop42
 90
       50
102
RTVSPost2010PropOp42
 70
     1
102
RTVSPost2010Prop43
 90
        3
102
RTVSPost2010PropOp43
 70
     1
102
RTVSPost2010Prop44ColorIndex
 90
        5
102
RTVSPost2010Prop44ColorRGB
 90
      255
102
RTVSPost2010PropOp44
 70
     1
102
RTVSPost2010Prop45
280
     0
102
RTVSPost2010PropOp45
 70
     1
102
RTVSPost2010Prop46
 90
       50
102
RTVSPost2010PropOp46
 70
     1
102
RTVSPost2010Prop47
 90
       50
102
RTVSPost2010PropOp47
 70
     1
102
RTVSPost2010Prop48
 90
       50
102
RTVSPost2010PropOp48
 70
     1
102
RTVSPost2010Prop49
280
     0
102
RTVSPost2010PropOp49
 70
     1
102
RTVSPost2010Prop50
 90
       50
102
RTVSPost2010PropOp50
 70
     1
102
RTVSPost2010Prop51ColorIndex
 90
      256
102
RTVSPost2010Prop51ColorRGB
 90
-16777216
102
RTVSPost2010PropOp51
 70
     0
102
RTVSPost2010Prop52
140
1.0
102
RTVSPost2010PropOp52
 70
     0
102
RTVSPost2010Prop53
 90
        2
102
RTVSPost2010PropOp53
 70
     1
102
RTVSPost2010Prop54
  1
strokes_ogs.tif
102
RTVSPost2010PropOp54
 70
     1
102
RTVSPost2010Prop55
280
     0
102
RTVSPost2010PropOp55
 70
     1
102
RTVSPost2010Prop56
140
1.0
102
RTVSPost2010PropOp56
 70
     1
102
RTVSPost2010Prop57
140
1.0
102
RTVSPost2010PropOp57
 70
     1
102
RTVSPropertyOp0
 70
     1
102
RTVSPropertyOp1
 70
     1
102
RTVSPropertyOp2
 70
     1
102
RTVSPropertyOp3
 70
     1
102
RTVSPropertyOp4
 70
     1
102
RTVSPropertyOp5
 70
     1
102
RTVSPropertyOp6
 70
     1
102
RTVSPropertyOp7
 70
     1
102
RTVSPropertyOp8
 70
     1
102
RTVSPropertyOp9
 70
     1
102
RTVSPropertyOp10
 70
     1
102
RTVSPropertyOp11
 70
     1
102
RTVSPropertyOp12
 70
     1
102
RTVSPropertyOp13
 70
     1
102
RTVSPropertyOp14
 70
     1
102
RTVSPropertyOp15
 70
     1
102
RTVSPropertyOp16
 70
     1
102
RTVSPropertyOp17
 70
     1
102
RTVSPropertyOp18
 70
     1
102
RTVSPropertyOp19
 70
     1
102
RTVSPropertyOp20
 70
     1
102
RTVSPropertyOp21
 70
     1
102
RTVSPropertyOp22
 70
     1
102
RTVSPropertyOp23
 70
     1
102
RTVSPropertyOp24
 70
     1
102
RTVSPropertyOp25
 70
     1
102
RTVSPropertyOp26
 70
     1
102
RTVSPropertyOp27
 70
     1
102
RTVSPropertyOp28
 70
     1
102
RTVSPropertyOp29
 70
     1
102
RTVSPropertyOp30
 70
     1
102
RTVSPropertyOp31
 70
     1
102
RTVSPropertyOp32
 70
     1
102
RTVSPropertyOp33
 70
     1
102
RTVSPropertyOp34
 70
     1
102
RTVSPropertyOp35
 70
     1
102
RTVSPropertyOp36
 70
     1
102
RTVSPropertyOp37
 70
     1
102
RTVSPropertyOp38
 70
     1
102
RTVSPropertyOp39
 70
     1
102
RTVSPropertyOp40
 70
     1
102
RTVSPropertyOp41
 70
     1
102
RTVSPropertyOp42
 70
     1
102
RTVSPropertyOp43
 70
     1
102
RTVSPropertyOp44
 70
     1
102
RTVSPropertyOp45
 70
     1
102
RTVSPropertyOp46
 70
     1
102
RTVSPropertyOp47
 70
     1
102
RTVSPropertyOp48
 70
     1
102
RTVSPropertyOp49
 70
     1
102
RTVSPropertyOp50
 70
     1
102
RTVSPropertyOp51
 70
     0
102
RTVSPropertyOp52
 70
     0
102
RTVSPropertyOp53
 70
     1
102
RTVSPropertyOp54
 70
     1
102
RTVSPropertyOp55
 70
     1
102
RTVSPropertyOp56
 70
     1
102
RTVSPropertyOp57
 70
     1
102
RTVSPropertyOp58
 70
     1
102
RTVSPropertyOp59
 70
     1
102
RTVSPropertyOp60
 70
     1
102
RTVSPropertyOp61
 70
     1
102
RTVSPropertyOp62
 70
     1
  0
XRECORD
  5
CBC
102
{ACAD_REACTORS
330
CBB
102
}
330
CBB
100
AcDbXrecord
280
     1
102
RTVSPost2010Prop28
280
     0
102
RTVSPost2010PropOp28
 70
     1
102
RTVSPost2010Prop29
280
     1
102
RTVSPost2010PropOp29
 70
     1
102
RTVSPost2010Prop30
280
     1
102
RTVSPost2010PropOp30
 70
     1
102
RTVSPost2010Prop31
280
     0
102
RTVSPost2010PropOp31
 70
     1
102
RTVSPost2010Prop32
280
     0
102
RTVSPost2010PropOp32
 70
     1
102
RTVSPost2010Prop33
280
     0
102
RTVSPost2010PropOp33
 70
     1
102
RTVSPost2010Prop34
280
     0
102
RTVSPost2010PropOp34
 70
     1
102
RTVSPost2010Prop35
280
     0
102
RTVSPost2010PropOp35
 70
     1
102
RTVSPost2010Prop36
280
     0
102
RTVSPost2010PropOp36
 70
     1
102
RTVSPost2010Prop37
 90
       50
102
RTVSPost2010PropOp37
 70
     1
102
RTVSPost2010Prop38
140
0.0
102
RTVSPost2010PropOp38
 70
     1
102
RTVSPost2010Prop39
140
1.0
102
RTVSPost2010PropOp39
 70
     1
102
RTVSPost2010Prop40
 90
        0
102
RTVSPost2010PropOp40
 70
     1
102
RTVSPost2010Prop41ColorIndex
 90
       18
102
RTVSPost2010Prop41ColorRGB
 90
        0
102
RTVSPost2010PropOp41
 70
     1
102
RTVSPost2010Prop42
 90
       50
102
RTVSPost2010PropOp42
 70
     1
102
RTVSPost2010Prop43
 90
        3
102
RTVSPost2010PropOp43
 70
     1
102
RTVSPost2010Prop44ColorIndex
 90
        5
102
RTVSPost2010Prop44ColorRGB
 90
      255
102
RTVSPost2010PropOp44
 70
     1
102
RTVSPost2010Prop45
280
     0
102
RTVSPost2010PropOp45
 70
     1
102
RTVSPost2010Prop46
 90
       50
102
RTVSPost2010PropOp46
 70
     1
102
RTVSPost2010Prop47
 90
       50
102
RTVSPost2010PropOp47
 70
     1
102
RTVSPost2010Prop48
 90
       50
102
RTVSPost2010PropOp48
 70
     1
102
RTVSPost2010Prop49
280
     0
102
RTVSPost2010PropOp49
 70
     1
102
RTVSPost2010Prop50
 90
       50
102
RTVSPost2010PropOp50
 70
     1
102
RTVSPost2010Prop51ColorIndex
 90
      256
102
RTVSPost2010Prop51ColorRGB
 90
-16777216
102
RTVSPost2010PropOp51
 70
     0
102
RTVSPost2010Prop52
140
1.0
102
RTVSPost2010PropOp52
 70
     0
102
RTVSPost2010Prop53
 90
        2
102
RTVSPost2010PropOp53
 70
     1
102
RTVSPost2010Prop54
  1
strokes_ogs.tif
102
RTVSPost2010PropOp54
 70
     1
102
RTVSPost2010Prop55
280
     0
102
RTVSPost2010PropOp55
 70
     1
102
RTVSPost2010Prop56
140
1.0
102
RTVSPost2010PropOp56
 70
     1
102
RTVSPost2010Prop57
140
1.0
102
RTVSPost2010PropOp57
 70
     1
102
RTVSPropertyOp0
 70
     1
102
RTVSPropertyOp1
 70
     1
102
RTVSPropertyOp2
 70
     1
102
RTVSPropertyOp3
 70
     1
102
RTVSPropertyOp4
 70
     1
102
RTVSPropertyOp5
 70
     1
102
RTVSPropertyOp6
 70
     1
102
RTVSPropertyOp7
 70
     1
102
RTVSPropertyOp8
 70
     1
102
RTVSPropertyOp9
 70
     1
102
RTVSPropertyOp10
 70
     1
102
RTVSPropertyOp11
 70
     1
102
RTVSPropertyOp12
 70
     1
102
RTVSPropertyOp13
 70
     1
102
RTVSPropertyOp14
 70
     1
102
RTVSPropertyOp15
 70
     1
102
RTVSPropertyOp16
 70
     1
102
RTVSPropertyOp17
 70
     1
102
RTVSPropertyOp18
 70
     1
102
RTVSPropertyOp19
 70
     1
102
RTVSPropertyOp20
 70
     1
102
RTVSPropertyOp21
 70
     1
102
RTVSPropertyOp22
 70
     1
102
RTVSPropertyOp23
 70
     1
102
RTVSPropertyOp24
 70
     1
102
RTVSPropertyOp25
 70
     1
102
RTVSPropertyOp26
 70
     1
102
RTVSPropertyOp27
 70
     1
102
RTVSPropertyOp28
 70
     1
102
RTVSPropertyOp29
 70
     1
102
RTVSPropertyOp30
 70
     1
102
RTVSPropertyOp31
 70
     1
102
RTVSPropertyOp32
 70
     1
102
RTVSPropertyOp33
 70
     1
102
RTVSPropertyOp34
 70
     1
102
RTVSPropertyOp35
 70
     1
102
RTVSPropertyOp36
 70
     1
102
RTVSPropertyOp37
 70
     1
102
RTVSPropertyOp38
 70
     1
102
RTVSPropertyOp39
 70
     1
102
RTVSPropertyOp40
 70
     1
102
RTVSPropertyOp41
 70
     1
102
RTVSPropertyOp42
 70
     1
102
RTVSPropertyOp43
 70
     1
102
RTVSPropertyOp44
 70
     1
102
RTVSPropertyOp45
 70
     1
102
RTVSPropertyOp46
 70
     1
102
RTVSPropertyOp47
 70
     1
102
RTVSPropertyOp48
 70
     1
102
RTVSPropertyOp49
 70
     1
102
RTVSPropertyOp50
 70
     1
102
RTVSPropertyOp51
 70
     0
102
RTVSPropertyOp52
 70
     0
102
RTVSPropertyOp53
 70
     1
102
RTVSPropertyOp54
 70
     1
102
RTVSPropertyOp55
 70
     1
102
RTVSPropertyOp56
 70
     1
102
RTVSPropertyOp57
 70
     1
102
RTVSPropertyOp58
 70
     1
102
RTVSPropertyOp59
 70
     1
102
RTVSPropertyOp60
 70
     1
102
RTVSPropertyOp61
 70
     1
102
RTVSPropertyOp62
 70
     1
  0
ENDSEC
  0
EOF
