  0
SECTION
  2
HEADER
  9
$ACADVER
  1
AC1015
  9
$ACADMAINTVER
 70
    18
  9
$DWGCODEPAGE
  3
ANSI_1252
  9
$INSBASE
 10
0.0
 20
0.0
 30
0.0
  9
$EXTMIN
 10
-203.4246818761162
 20
-192.0466456502287
 30
-0.0015258207003583
  9
$EXTMAX
 10
263.9932258939293
 20
206.9156805182757
 30
0.0000000349246037
  9
$LIMMIN
 10
0.0
 20
0.0
  9
$LIMMAX
 10
420.0
 20
297.0
  9
$ORTHOMODE
 70
     0
  9
$REGENMODE
 70
     1
  9
$FILLMODE
 70
     1
  9
$QTEXTMODE
 70
     0
  9
$MIRRTEXT
 70
     0
  9
$LTSCALE
 40
1.0
  9
$ATTMODE
 70
     1
  9
$TEXTSIZE
 40
2.5
  9
$TRACEWID
 40
1.0
  9
$TEXTSTYLE
  7
Standard
  9
$CLAYER
  8
0
  9
$CELTYPE
  6
ByLayer
  9
$CECOLOR
 62
   256
  9
$CELTSCALE
 40
1.0
  9
$DISPSILH
 70
     0
  9
$DIMSCALE
 40
1.0
  9
$DIMASZ
 40
2.5
  9
$DIMEXO
 40
0.625
  9
$DIMDLI
 40
3.75
  9
$DIMRND
 40
0.0
  9
$DIMDLE
 40
0.0
  9
$DIMEXE
 40
1.25
  9
$DIMTP
 40
0.0
  9
$DIMTM
 40
0.0
  9
$DIMTXT
 40
2.5
  9
$DIMCEN
 40
2.5
  9
$DIMTSZ
 40
0.0
  9
$DIMTOL
 70
     0
  9
$DIMLIM
 70
     0
  9
$DIMTIH
 70
     0
  9
$DIMTOH
 70
     0
  9
$DIMSE1
 70
     0
  9
$DIMSE2
 70
     0
  9
$DIMTAD
 70
     1
  9
$DIMZIN
 70
     8
  9
$DIMBLK
  1

  9
$DIMASO
 70
     1
  9
$DIMSHO
 70
     1
  9
$DIMPOST
  1

  9
$DIMAPOST
  1

  9
$DIMALT
 70
     0
  9
$DIMALTD
 70
     3
  9
$DIMALTF
 40
0.03937007874016
  9
$DIMLFAC
 40
1.0
  9
$DIMTOFL
 70
     1
  9
$DIMTVP
 40
0.0
  9
$DIMTIX
 70
     0
  9
$DIMSOXD
 70
     0
  9
$DIMSAH
 70
     0
  9
$DIMBLK1
  1

  9
$DIMBLK2
  1

  9
$DIMSTYLE
  2
ISO-25
  9
$DIMCLRD
 70
     0
  9
$DIMCLRE
 70
     0
  9
$DIMCLRT
 70
     0
  9
$DIMTFAC
 40
1.0
  9
$DIMGAP
 40
0.625
  9
$DIMJUST
 70
     0
  9
$DIMSD1
 70
     0
  9
$DIMSD2
 70
     0
  9
$DIMTOLJ
 70
     0
  9
$DIMTZIN
 70
     8
  9
$DIMALTZ
 70
     0
  9
$DIMALTTZ
 70
     0
  9
$DIMUPT
 70
     0
  9
$DIMDEC
 70
     2
  9
$DIMTDEC
 70
     2
  9
$DIMALTU
 70
     2
  9
$DIMALTTD
 70
     3
  9
$DIMTXSTY
  7
Standard
  9
$DIMAUNIT
 70
     0
  9
$DIMADEC
 70
     0
  9
$DIMALTRND
 40
0.0
  9
$DIMAZIN
 70
     0
  9
$DIMDSEP
 70
    44
  9
$DIMATFIT
 70
     3
  9
$DIMFRAC
 70
     0
  9
$DIMLDRBLK
  1

  9
$DIMLUNIT
 70
     2
  9
$DIMLWD
 70
    -2
  9
$DIMLWE
 70
    -2
  9
$DIMTMOVE
 70
     0
  9
$LUNITS
 70
     2
  9
$LUPREC
 70
     4
  9
$SKETCHINC
 40
1.0
  9
$FILLETRAD
 40
0.0
  9
$AUNITS
 70
     0
  9
$AUPREC
 70
     0
  9
$MENU
  1
.
  9
$ELEVATION
 40
0.0
  9
$PELEVATION
 40
0.0
  9
$THICKNESS
 40
0.0
  9
$LIMCHECK
 70
     0
  9
$CHAMFERA
 40
0.0
  9
$CHAMFERB
 40
0.0
  9
$CHAMFERC
 40
0.0
  9
$CHAMFERD
 40
0.0
  9
$SKPOLY
 70
     0
  9
$TDCREATE
 40
2460398.356956019
  9
$TDUCREATE
 40
2460398.065289352
  9
$TDUPDATE
 40
2460398.373599538
  9
$TDUUPDATE
 40
2460398.081932870
  9
$TDINDWG
 40
0.0075694444
  9
$TDUSRTIMER
 40
0.0075694444
  9
$USRTIMER
 70
     1
  9
$ANGBASE
 50
0.0
  9
$ANGDIR
 70
     0
  9
$PDMODE
 70
     0
  9
$PDSIZE
 40
0.0
  9
$PLINEWID
 40
0.0
  9
$SPLFRAME
 70
     0
  9
$SPLINETYPE
 70
     6
  9
$SPLINESEGS
 70
     8
  9
$HANDSEED
  5
70CE
  9
$SURFTAB1
 70
     6
  9
$SURFTAB2
 70
     6
  9
$SURFTYPE
 70
     6
  9
$SURFU
 70
     6
  9
$SURFV
 70
     6
  9
$UCSBASE
  2

  9
$UCSNAME
  2

  9
$UCSORG
 10
0.0
 20
0.0
 30
0.0
  9
$UCSXDIR
 10
1.0
 20
0.0
 30
0.0
  9
$UCSYDIR
 10
0.0
 20
1.0
 30
0.0
  9
$UCSORTHOREF
  2

  9
$UCSORTHOVIEW
 70
     0
  9
$UCSORGTOP
 10
0.0
 20
0.0
 30
0.0
  9
$UCSORGBOTTOM
 10
0.0
 20
0.0
 30
0.0
  9
$UCSORGLEFT
 10
0.0
 20
0.0
 30
0.0
  9
$UCSORGRIGHT
 10
0.0
 20
0.0
 30
0.0
  9
$UCSORGFRONT
 10
0.0
 20
0.0
 30
0.0
  9
$UCSORGBACK
 10
0.0
 20
0.0
 30
0.0
  9
$PUCSBASE
  2

  9
$PUCSNAME
  2

  9
$PUCSORG
 10
0.0
 20
0.0
 30
0.0
  9
$PUCSXDIR
 10
1.0
 20
0.0
 30
0.0
  9
$PUCSYDIR
 10
0.0
 20
1.0
 30
0.0
  9
$PUCSORTHOREF
  2

  9
$PUCSORTHOVIEW
 70
     0
  9
$PUCSORGTOP
 10
0.0
 20
0.0
 30
0.0
  9
$PUCSORGBOTTOM
 10
0.0
 20
0.0
 30
0.0
  9
$PUCSORGLEFT
 10
0.0
 20
0.0
 30
0.0
  9
$PUCSORGRIGHT
 10
0.0
 20
0.0
 30
0.0
  9
$PUCSORGFRONT
 10
0.0
 20
0.0
 30
0.0
  9
$PUCSORGBACK
 10
0.0
 20
0.0
 30
0.0
  9
$USERI1
 70
     0
  9
$USERI2
 70
     0
  9
$USERI3
 70
     0
  9
$USERI4
 70
     0
  9
$USERI5
 70
     0
  9
$USERR1
 40
0.0
  9
$USERR2
 40
0.0
  9
$USERR3
 40
0.0
  9
$USERR4
 40
0.0
  9
$USERR5
 40
0.0
  9
$WORLDVIEW
 70
     1
  9
$SHADEDGE
 70
     3
  9
$SHADEDIF
 70
    70
  9
$TILEMODE
 70
     1
  9
$MAXACTVP
 70
    48
  9
$PINSBASE
 10
0.0
 20
0.0
 30
0.0
  9
$PLIMCHECK
 70
     0
  9
$PEXTMIN
 10
0.0
 20
0.0
 30
0.0
  9
$PEXTMAX
 10
0.0
 20
0.0
 30
0.0
  9
$PLIMMIN
 10
0.0
 20
0.0
  9
$PLIMMAX
 10
12.0
 20
9.0
  9
$UNITMODE
 70
     0
  9
$VISRETAIN
 70
     1
  9
$PLINEGEN
 70
     0
  9
$PSLTSCALE
 70
     1
  9
$TREEDEPTH
 70
  3020
  9
$CMLSTYLE
  2
Standard
  9
$CMLJUST
 70
     0
  9
$CMLSCALE
 40
20.0
  9
$PROXYGRAPHICS
 70
     1
  9
$MEASUREMENT
 70
     1
  9
$CELWEIGHT
370
    -1
  9
$ENDCAPS
280
     0
  9
$JOINSTYLE
280
     0
  9
$LWDISPLAY
290
     0
  9
$INSUNITS
 70
     4
  9
$HYPERLINKBASE
  1

  9
$STYLESHEET
  1

  9
$XEDIT
290
     1
  9
$CEPSNTYPE
380
     0
  9
$PSTYLEMODE
290
     1
  9
$FINGERPRINTGUID
  2
{6C1266EE-7BC1-BF4A-B059-A6E7702B10CE}
  9
$VERSIONGUID
  2
{D780AEFE-F8B9-2D43-BC1A-A0EA9B53DD74}
  9
$EXTNAMES
290
     1
  9
$PSVPSCALE
 40
0.0
  9
$OLESTARTUP
290
     0
  0
ENDSEC
  0
SECTION
  2
CLASSES
  0
CLASS
  1
ACDBDICTIONARYWDFLT
  2
AcDbDictionaryWithDefault
  3
ObjectDBX Classes
 90
        0
280
     0
281
     0
  0
CLASS
  1
ACDBPLACEHOLDER
  2
AcDbPlaceHolder
  3
ObjectDBX Classes
 90
        0
280
     0
281
     0
  0
CLASS
  1
LAYOUT
  2
AcDbLayout
  3
ObjectDBX Classes
 90
        0
280
     0
281
     0
  0
CLASS
  1
DICTIONARYVAR
  2
AcDbDictionaryVar
  3
ObjectDBX Classes
 90
        0
280
     0
281
     0
  0
CLASS
  1
TABLESTYLE
  2
AcDbTableStyle
  3
ObjectDBX Classes
 90
     4095
280
     0
281
     0
  0
CLASS
  1
MATERIAL
  2
AcDbMaterial
  3
ObjectDBX Classes
 90
     1153
280
     0
281
     0
  0
CLASS
  1
VISUALSTYLE
  2
AcDbVisualStyle
  3
ObjectDBX Classes
 90
     4095
280
     0
281
     0
  0
CLASS
  1
SCALE
  2
AcDbScale
  3
ObjectDBX Classes
 90
     1153
280
     0
281
     0
  0
CLASS
  1
MLEADERSTYLE
  2
AcDbMLeaderStyle
  3
ACDB_MLEADERSTYLE_CLASS
 90
     4095
280
     0
281
     0
  0
CLASS
  1
CELLSTYLEMAP
  2
AcDbCellStyleMap
  3
ObjectDBX Classes
 90
     1152
280
     0
281
     0
  0
CLASS
  1
EXACXREFPANELOBJECT
  2
ExAcXREFPanelObject
  3
EXAC_ESW
 90
    33793
280
     0
281
     0
  0
CLASS
  1
NPOCOLLECTION
  2
AcDbImpNonPersistentObjectsCollection
  3
ObjectDBX Classes
 90
    33921
280
     0
281
     0
  0
CLASS
  1
LAYER_INDEX
  2
AcDbLayerIndex
  3
ObjectDBX Classes
 90
    32768
280
     0
281
     0
  0
CLASS
  1
SPATIAL_INDEX
  2
AcDbSpatialIndex
  3
ObjectDBX Classes
 90
    32768
280
     0
281
     0
  0
CLASS
  1
IDBUFFER
  2
AcDbIdBuffer
  3
ObjectDBX Classes
 90
    32768
280
     0
281
     0
  0
CLASS
  1
ACDBSECTIONVIEWSTYLE
  2
AcDbSectionViewStyle
  3
ObjectDBX Classes
 90
     1025
280
     0
281
     0
  0
CLASS
  1
ACDBDETAILVIEWSTYLE
  2
AcDbDetailViewStyle
  3
ObjectDBX Classes
 90
     1025
280
     0
281
     0
  0
CLASS
  1
XRECORD
  2
AcDbXrecord
  3
ObjectDBX Classes
 90
        0
280
     0
281
     0
  0
ENDSEC
  0
SECTION
  2
TABLES
  0
TABLE
  2
VPORT
  5
8
102
{ACAD_XDICTIONARY
360
6FDC
102
}
330
0
100
AcDbSymbolTable
 70
     1
  0
VPORT
  5
EA
330
8
100
AcDbSymbolTableRecord
100
AcDbViewportTableRecord
  2
*Active
 70
     0
 10
0.0
 20
0.0
 11
1.0
 21
1.0
 12
30.28427200890658
 22
7.43451743402349
 13
0.0
 23
0.0
 14
10.0
 24
10.0
 15
10.0
 25
10.0
 16
0.0
 26
0.0
 36
1.0
 17
0.0
 27
0.0
 37
0.0
 40
504.9030396439629
 41
0.9846153846153846
 42
50.0
 43
0.0
 44
0.0
 50
0.0
 51
0.0
 71
     0
 72
  1000
 73
     1
 74
     3
 75
     0
 76
     1
 77
     0
 78
     0
281
     0
 65
     1
110
0.0
120
0.0
130
0.0
111
1.0
121
0.0
131
0.0
112
0.0
122
1.0
132
0.0
 79
     0
146
0.0
1001
ACAD_NAV_VCDISPLAY
1070
     3
  0
ENDTAB
  0
TABLE
  2
LTYPE
  5
5
330
0
100
AcDbSymbolTable
 70
     1
  0
LTYPE
  5
14
330
5
100
AcDbSymbolTableRecord
100
AcDbLinetypeTableRecord
  2
ByBlock
 70
     0
  3

 72
    65
 73
     0
 40
0.0
  0
LTYPE
  5
15
330
5
100
AcDbSymbolTableRecord
100
AcDbLinetypeTableRecord
  2
ByLayer
 70
     0
  3

 72
    65
 73
     0
 40
0.0
  0
LTYPE
  5
16
330
5
100
AcDbSymbolTableRecord
100
AcDbLinetypeTableRecord
  2
Continuous
 70
     0
  3
Solid line
 72
    65
 73
     0
 40
0.0
  0
ENDTAB
  0
TABLE
  2
LAYER
  5
2
102
{ACAD_XDICTIONARY
360
1FF
102
}
330
0
100
AcDbSymbolTable
 70
     1
  0
LAYER
  5
10
102
{ACAD_XDICTIONARY
360
13C
102
}
330
2
100
AcDbSymbolTableRecord
100
AcDbLayerTableRecord
  2
0
 70
     0
 62
     7
  6
Continuous
370
    -3
390
F
  0
ENDTAB
  0
TABLE
  2
STYLE
  5
3
330
0
100
AcDbSymbolTable
 70
     1
  0
STYLE
  5
11
330
3
100
AcDbSymbolTableRecord
100
AcDbTextStyleTableRecord
  2
Standard
 70
     0
 40
0.0
 41
1.0
 50
0.0
 71
     0
 42
2.5
  3
arial.ttf
  4

1001
ACAD
1000
Arial
1071
       34
  0
ENDTAB
  0
TABLE
  2
VIEW
  5
6
330
0
100
AcDbSymbolTable
 70
     0
  0
ENDTAB
  0
TABLE
  2
UCS
  5
7
330
0
100
AcDbSymbolTable
 70
     0
  0
ENDTAB
  0
TABLE
  2
APPID
  5
9
330
0
100
AcDbSymbolTable
 70
     8
  0
APPID
  5
12
330
9
100
AcDbSymbolTableRecord
100
AcDbRegAppTableRecord
  2
ACAD
 70
     0
  0
APPID
  5
9E
330
9
100
AcDbSymbolTableRecord
100
AcDbRegAppTableRecord
  2
ACAD_PSEXT
 70
     0
  0
APPID
  5
133
330
9
100
AcDbSymbolTableRecord
100
AcDbRegAppTableRecord
  2
AcadAnnoPO
 70
     0
  0
APPID
  5
134
330
9
100
AcDbSymbolTableRecord
100
AcDbRegAppTableRecord
  2
AcadAnnotative
 70
     0
  0
APPID
  5
135
330
9
100
AcDbSymbolTableRecord
100
AcDbRegAppTableRecord
  2
ACAD_DSTYLE_DIMJAG
 70
     0
  0
APPID
  5
136
330
9
100
AcDbSymbolTableRecord
100
AcDbRegAppTableRecord
  2
ACAD_DSTYLE_DIMTALN
 70
     0
  0
APPID
  5
165
330
9
100
AcDbSymbolTableRecord
100
AcDbRegAppTableRecord
  2
ACAD_MLEADERVER
 70
     0
  0
APPID
  5
217
330
9
100
AcDbSymbolTableRecord
100
AcDbRegAppTableRecord
  2
ACAD_NAV_VCDISPLAY
 70
     0
  0
ENDTAB
  0
TABLE
  2
DIMSTYLE
  5
A
330
0
100
AcDbSymbolTable
 70
     1
100
AcDbDimStyleTable
 71
     0
  0
DIMSTYLE
105
27
330
A
100
AcDbSymbolTableRecord
100
AcDbDimStyleTableRecord
  2
ISO-25
 70
     0
 41
2.5
 42
0.625
 43
3.75
 44
1.25
 73
     0
 74
     0
 77
     1
 78
     8
140
2.5
141
2.5
143
0.03937007874016
147
0.625
171
     3
172
     1
271
     2
272
     2
274
     3
278
    44
283
     0
284
     8
340
11
  0
ENDTAB
  0
TABLE
  2
BLOCK_RECORD
  5
1
330
0
100
AcDbSymbolTable
 70
     7
  0
BLOCK_RECORD
  5
1F
102
{ACAD_XDICTIONARY
360
1CE
102
}
330
1
100
AcDbSymbolTableRecord
100
AcDbBlockTableRecord
  2
*Model_Space
340
22
  0
BLOCK_RECORD
  5
D2
102
{ACAD_XDICTIONARY
360
6F8F
102
}
330
1
100
AcDbSymbolTableRecord
100
AcDbBlockTableRecord
  2
*Paper_Space
340
D3
  0
BLOCK_RECORD
  5
D6
102
{ACAD_XDICTIONARY
360
6F91
102
}
330
1
100
AcDbSymbolTableRecord
100
AcDbBlockTableRecord
  2
*Paper_Space0
340
D7
  0
BLOCK_RECORD
  5
6E16
330
1
100
AcDbSymbolTableRecord
100
AcDbBlockTableRecord
  2
SAE250_80_2-Front
340
0
102
{BLKREFS
331
6F85
102
}
  0
BLOCK_RECORD
  5
6E5E
330
1
100
AcDbSymbolTableRecord
100
AcDbBlockTableRecord
  2
SAE250_80_2-Left
340
0
102
{BLKREFS
331
6F86
102
}
  0
BLOCK_RECORD
  5
6E7B
330
1
100
AcDbSymbolTableRecord
100
AcDbBlockTableRecord
  2
SAE250_80_2-Right
340
0
102
{BLKREFS
331
6F87
102
}
  0
BLOCK_RECORD
  5
6E97
330
1
100
AcDbSymbolTableRecord
100
AcDbBlockTableRecord
  2
SAE250_80_2-Top
340
0
102
{BLKREFS
331
6F88
102
}
  0
BLOCK_RECORD
  5
6EDC
330
1
100
AcDbSymbolTableRecord
100
AcDbBlockTableRecord
  2
SAE250_80_2-Bottom
340
0
102
{BLKREFS
331
6F89
102
}
  0
BLOCK_RECORD
  5
6F0B
330
1
100
AcDbSymbolTableRecord
100
AcDbBlockTableRecord
  2
SAE250_80_2-ISO
340
0
102
{BLKREFS
331
6F8A
102
}
  0
ENDTAB
  0
ENDSEC
  0
SECTION
  2
BLOCKS
  0
BLOCK
  5
20
330
1F
100
AcDbEntity
  8
0
100
AcDbBlockBegin
  2
*Model_Space
 70
     0
 10
0.0
 20
0.0
 30
0.0
  3
*Model_Space
  1

  0
ENDBLK
  5
21
330
1F
100
AcDbEntity
  8
0
100
AcDbBlockEnd
  0
BLOCK
  5
D4
330
D2
100
AcDbEntity
 67
     1
  8
0
100
AcDbBlockBegin
  2
*Paper_Space
 70
     0
 10
0.0
 20
0.0
 30
0.0
  3
*Paper_Space
  1

  0
ENDBLK
  5
D5
330
D2
100
AcDbEntity
 67
     1
  8
0
100
AcDbBlockEnd
  0
BLOCK
  5
D8
330
D6
100
AcDbEntity
 67
     1
  8
0
100
AcDbBlockBegin
  2
*Paper_Space0
 70
     0
 10
0.0
 20
0.0
 30
0.0
  3
*Paper_Space0
  1

  0
ENDBLK
  5
D9
330
D6
100
AcDbEntity
 67
     1
  8
0
100
AcDbBlockEnd
  0
BLOCK
  5
6E17
330
6E16
100
AcDbEntity
  8
0
100
AcDbBlockBegin
  2
SAE250_80_2-Front
 70
     0
 10
0.0
 20
0.0
 30
0.0
  3
SAE250_80_2-Front
  1

  0
SPLINE
  5
6E19
330
6E16
100
AcDbEntity
  8
0
100
AcDbSpline
210
0.0
220
0.0
230
1.0
 70
     8
 71
     3
 72
    14
 73
    10
 74
     0
 42
0.000000001
 43
0.0000000001
 40
0.0
 40
0.0
 40
0.0
 40
0.0
 40
0.3423533722250978
 40
0.3423533722250978
 40
0.3423533722250978
 40
0.7827009960308155
 40
0.7827009960308155
 40
0.7827009960308155
 40
0.9840348207505243
 40
0.9840348207505243
 40
0.9840348207505243
 40
0.9840348207505243
 10
-44.00000000000003
 20
3.090361445782897
 30
0.0
 10
-43.49409523948687
 20
2.681550420663345
 30
0.0
 10
-43.09860667894163
 20
2.230524687004012
 30
0.0
 10
-42.76488920582941
 20
1.767261616822737
 30
0.0
 10
-42.3356493962364
 20
1.171395448409073
 30
0.0
 10
-41.98412299134921
 20
0.5565002307488044
 30
0.0
 10
-41.51820811650577
 20
-0.0505759903813579
 30
0.0
 10
-41.30518454450299
 20
-0.328140738977456
 30
0.0
 10
-41.07428687839629
 20
-0.5945737440113384
 30
0.0
 10
-40.79528741492659
 20
-0.8618183985128728
 30
0.0
  0
LINE
  5
6E1A
330
6E16
100
AcDbEntity
  8
0
100
AcDbLine
 10
-43.99999999999999
 20
6.090361445782987
 30
0.0
 11
-41.99999999999999
 21
6.090361445782987
 31
0.0
  0
LINE
  5
6E1B
330
6E16
100
AcDbEntity
  8
0
100
AcDbLine
 10
-43.99999999999998
 20
3.090361445782927
 30
0.0
 11
-43.99999999999998
 21
5.928289194588391
 31
0.0
  0
SPLINE
  5
6E1C
330
6E16
100
AcDbEntity
  8
0
100
AcDbSpline
210
0.0
220
0.0
230
1.0
 70
     8
 71
     3
 72
    10
 73
     6
 74
     0
 42
0.000000001
 43
0.0000000001
 40
0.0308756135985265
 40
0.0308756135985265
 40
0.0308756135985265
 40
0.0308756135985265
 40
0.0358410370491185
 40
0.0358410370491185
 40
0.0364423820759686
 40
0.0364423820759686
 40
0.0364423820759686
 40
0.0364423820759686
 10
-39.40059540292789
 20
0.5724365549951076
 30
0.0
 10
-39.39035355252347
 20
0.5627379321167744
 30
0.0
 10
-39.3792902190346
 20
0.5523276210403387
 30
0.0
 10
-39.36643101265152
 20
0.5403051945352959
 30
0.0
 10
-39.36503446775292
 20
0.539000487990236
 30
0.0
 10
-39.363631315375
 20
0.5376905747859022
 30
0.0
  0
SPLINE
  5
6E1D
330
6E16
100
AcDbEntity
  8
0
100
AcDbSpline
210
0.0
220
0.0
230
1.0
 70
     8
 71
     3
 72
    10
 73
     6
 74
     0
 42
0.000000001
 43
0.0000000001
 40
0.0337361171183302
 40
0.0337361171183302
 40
0.0337361171183302
 40
0.0337361171183302
 40
0.0356006596996238
 40
0.0356006596996238
 40
0.0398582893915854
 40
0.0398582893915854
 40
0.0398582893915854
 40
0.0398582893915854
 10
-39.40808135362743
 20
0.5796807043601755
 30
0.0
 10
-39.40361977134414
 20
0.5753510000671516
 30
0.0
 10
-39.39914049998787
 20
0.5710264411302989
 30
0.0
 10
-39.38445929336842
 20
0.5569195144040599
 30
0.0
 10
-39.37419530247904
 20
0.5471633933998288
 30
0.0
 10
-39.36386536036291
 20
0.5374320435021538
 30
0.0
  0
SPLINE
  5
6E1E
330
6E16
100
AcDbEntity
  8
0
100
AcDbSpline
210
0.0
220
0.0
230
1.0
 70
     8
 71
     3
 72
     8
 73
     4
 74
     0
 42
0.000000001
 43
0.0000000001
 40
0.0
 40
0.0
 40
0.0
 40
0.0
 40
0.0003397064715329
 40
0.0003397064715329
 40
0.0003397064715329
 40
0.0003397064715329
 10
-39.99987089111775
 20
6.090352965647358
 30
0.0
 10
-39.99991425718962
 20
6.089455256582584
 30
0.0
 10
-39.99995730564112
 20
6.088564508809264
 30
0.0
 10
-40.0
 20
6.087681378330264
 30
0.0
  0
SPLINE
  5
6E1F
330
6E16
100
AcDbEntity
  8
0
100
AcDbSpline
210
0.0
220
0.0
230
1.0
 70
     8
 71
     3
 72
     8
 73
     4
 74
     0
 42
0.000000001
 43
0.0000000001
 40
0.0
 40
0.0
 40
0.0
 40
0.0
 40
0.0009357196462206
 40
0.0009357196462206
 40
0.0009357196462206
 40
0.0009357196462206
 10
-40.72800864303148
 20
-0.9254219983175049
 30
0.0
 10
-40.72926205516941
 20
-0.9242457397241439
 30
0.0
 10
-40.73062340933811
 20
-0.9229675095554028
 30
0.0
 10
-40.73209242584387
 20
-0.9215870647041352
 30
0.0
  0
SPLINE
  5
6E20
330
6E16
100
AcDbEntity
  8
0
100
AcDbSpline
210
0.0
220
0.0
230
1.0
 70
     8
 71
     3
 72
    22
 73
    18
 74
     0
 42
0.000000001
 43
0.0000000001
 40
0.0066923803049628
 40
0.0066923803049628
 40
0.0066923803049628
 40
0.0066923803049628
 40
0.0096234045059666
 40
0.0096234045059666
 40
0.0148540141296803
 40
0.0148540141296803
 40
0.0189249305578463
 40
0.0189249305578463
 40
0.0245073332528199
 40
0.0245073332528199
 40
0.0297650016534073
 40
0.0297650016534073
 40
0.0410651143288804
 40
0.0410651143288804
 40
0.0495478181574191
 40
0.0495478181574191
 40
0.0503176179006126
 40
0.0503176179006126
 40
0.0503176179006126
 40
0.0503176179006126
 10
-40.76691047424755
 20
-0.8886340071908248
 30
0.0
 10
-40.77338639492751
 20
-0.8824559104028926
 30
0.0
 10
-40.77987519482462
 20
-0.8762349408726159
 30
0.0
 10
-40.7975633391772
 20
-0.859186738504243
 30
0.0
 10
-40.80855115894478
 20
-0.8484873752731527
 30
0.0
 10
-40.82615982640522
 20
-0.8311889384522958
 30
0.0
 10
-40.83328427555401
 20
-0.8241340101008825
 30
0.0
 10
-40.84772124696247
 20
-0.8097646859449179
 30
0.0
 10
-40.85414252234607
 20
-0.8033120212467487
 30
0.0
 10
-40.86286144126948
 20
-0.7945321772679124
 30
0.0
 10
-40.86561209662959
 20
-0.7917503355201992
 30
0.0
 10
-40.87336476834123
 20
-0.7839043780608103
 30
0.0
 10
-40.87900864381032
 20
-0.7781751354360417
 30
0.0
 10
-40.89097424869685
 20
-0.765952496166765
 30
0.0
 10
-40.89585638948403
 20
-0.7609393527700198
 30
0.0
 10
-40.89860637337436
 20
-0.7581118897684231
 30
0.0
 10
-40.8988629507779
 20
-0.7578480320255494
 30
0.0
 10
-40.89886295122405
 20
-0.7578480315667451
 30
0.0
  0
SPLINE
  5
6E21
330
6E16
100
AcDbEntity
  8
0
100
AcDbSpline
210
0.0
220
0.0
230
1.0
 70
     8
 71
     3
 72
    20
 73
    16
 74
     0
 42
0.000000001
 43
0.0000000001
 40
0.0
 40
0.0
 40
0.0
 40
0.0
 40
0.0149741552113429
 40
0.0149741552113429
 40
0.0163837759333771
 40
0.0163837759333771
 40
0.0174539842267132
 40
0.0174539842267132
 40
0.0191729167405282
 40
0.0191729167405282
 40
0.0206886487544929
 40
0.0206886487544929
 40
0.0222253055587749
 40
0.0222253055587749
 40
0.0229923452636698
 40
0.0229923452636698
 40
0.0229923452636698
 40
0.0229923452636698
 10
-40.72816865646149
 20
-0.9256001892454824
 30
0.0
 10
-40.76451986612775
 20
-0.8914274286146531
 30
0.0
 10
-40.80043164998372
 20
-0.8568332823468589
 30
0.0
 10
-40.83897206116625
 20
-0.8185924634858052
 30
0.0
 10
-40.8422738599024
 20
-0.8153071851050631
 30
0.0
 10
-40.84783119006278
 20
-0.8097639864332951
 30
0.0
 10
-40.85016779493206
 20
-0.807428666452605
 30
0.0
 10
-40.85586769390291
 20
-0.8017226684371745
 30
0.0
 10
-40.85906468411464
 20
-0.7985123502863722
 30
0.0
 10
-40.86381023326619
 20
-0.793739877551949
 30
0.0
 10
-40.86557348793715
 20
-0.7919632566332312
 30
0.0
 10
-40.8680963084824
 20
-0.7894202492231015
 30
0.0
 10
-40.86887967342453
 20
-0.7886298746166533
 30
0.0
 10
-40.86944104362765
 20
-0.7880636175521115
 30
0.0
 10
-40.86952890763973
 20
-0.7879749972742508
 30
0.0
 10
-40.86952891222569
 20
-0.7879749926491554
 30
0.0
  0
SPLINE
  5
6E22
330
6E16
100
AcDbEntity
  8
0
100
AcDbSpline
210
0.0
220
0.0
230
1.0
 70
     8
 71
     3
 72
    14
 73
    10
 74
     0
 42
0.000000001
 43
0.0000000001
 40
-0.9793495056740471
 40
-0.9793495056740471
 40
-0.9793495056740471
 40
-0.9793495056740471
 40
-0.7057745167849263
 40
-0.7057745167849263
 40
-0.7057745167849263
 40
-0.2148170005443886
 40
-0.2148170005443886
 40
-0.2148170005443886
 40
0.0
 40
0.0
 40
0.0
 40
0.0
 10
40.81130979801364
 20
-0.8462027265946769
 30
0.0
 10
41.17512970238177
 20
-0.4936201573734563
 30
0.0
 10
41.48493131710082
 20
-0.1053310448640159
 30
0.0
 10
41.75330427352794
 20
0.2711274755802402
 30
0.0
 10
42.23492622533214
 20
0.9467197178221244
 30
0.0
 10
42.6140102554697
 20
1.635114244420621
 30
0.0
 10
43.16285112900441
 20
2.27800649204312
 30
0.0
 10
43.40299482031949
 20
2.559302082270612
 30
0.0
 10
43.68151433013593
 20
2.83299942281661
 30
0.0
 10
43.99999999986675
 20
3.090361445677472
 30
0.0
  0
LINE
  5
6E23
330
6E16
100
AcDbEntity
  8
0
100
AcDbLine
 10
43.99999999999999
 20
5.927907717734802
 30
0.0
 11
43.99999999999999
 21
3.090361445782999
 31
0.0
  0
LINE
  5
6E24
330
6E16
100
AcDbEntity
  8
0
100
AcDbLine
 10
41.99999999999999
 20
6.090361445782997
 30
0.0
 11
43.99999999999999
 21
6.090361445782997
 31
0.0
  0
SPLINE
  5
6E25
330
6E16
100
AcDbEntity
  8
0
100
AcDbSpline
210
0.0
220
0.0
230
1.0
 70
     8
 71
     3
 72
    10
 73
     6
 74
     0
 42
0.000000001
 43
0.0000000001
 40
0.0
 40
0.0
 40
0.0
 40
0.0
 40
0.0043115845328332
 40
0.0043115845328332
 40
0.0062809251587288
 40
0.0062809251587288
 40
0.0062809251587288
 40
0.0062809251587288
 10
39.36386580291605
 20
0.5374315158096288
 30
0.0
 10
39.37431566403915
 20
0.5472793795429862
 30
0.0
 10
39.38466107283827
 20
0.5571185193141412
 30
0.0
 10
39.39960886502414
 20
0.5714916600389107
 30
0.0
 10
39.40430758390514
 20
0.5760324496974172
 30
0.0
 10
39.409003586463
 20
0.5805955849954647
 30
0.0
  0
SPLINE
  5
6E26
330
6E16
100
AcDbEntity
  8
0
100
AcDbSpline
210
0.0
220
0.0
230
1.0
 70
     8
 71
     3
 72
     8
 73
     4
 74
     0
 42
0.000000001
 43
0.0000000001
 40
0.0
 40
0.0
 40
0.0
 40
0.0
 40
0.0056442073864035
 40
0.0056442073864035
 40
0.0056442073864035
 40
0.0056442073864035
 10
39.36362956035786
 20
0.5376863644259258
 30
0.0
 10
39.37679010599968
 20
0.5499778943142945
 30
0.0
 10
39.38946615117827
 20
0.5619071144723781
 30
0.0
 10
39.40103917607525
 20
0.5728800319083872
 30
0.0
  0
SPLINE
  5
6E27
330
6E16
100
AcDbEntity
  8
0
100
AcDbSpline
210
0.0
220
0.0
230
1.0
 70
     8
 71
     3
 72
     8
 73
     4
 74
     0
 42
0.000000001
 43
0.0000000001
 40
0.0285016966303493
 40
0.0285016966303493
 40
0.0285016966303493
 40
0.0285016966303493
 40
0.0288412822411405
 40
0.0288412822411405
 40
0.0288412822411405
 40
0.0288412822411405
 10
39.99999999999999
 20
6.087683762163038
 30
0.0
 10
39.99995732589502
 20
6.088565727892691
 30
0.0
 10
39.99991428005272
 20
6.089455634460335
 30
0.0
 10
39.99987089135942
 20
6.090352958141136
 30
0.0
  0
SPLINE
  5
6E28
330
6E16
100
AcDbEntity
  8
0
100
AcDbSpline
210
0.0
220
0.0
230
1.0
 70
     8
 71
     3
 72
     8
 73
     4
 74
     0
 42
0.000000001
 43
0.0000000001
 40
0.0
 40
0.0
 40
0.0
 40
0.0
 40
0.0008428804316374
 40
0.0008428804316374
 40
0.0008428804316374
 40
0.0008428804316374
 10
42.00006301567025
 20
6.090360951752444
 30
0.0
 10
42.00004221954547
 20
6.087748933096547
 30
0.0
 10
42.00002109218539
 20
6.085127943027367
 30
0.0
 10
41.99999989152531
 20
6.082515519029407
 30
0.0
  0
SPLINE
  5
6E29
330
6E16
100
AcDbEntity
  8
0
100
AcDbSpline
210
0.0
220
0.0
230
1.0
 70
     8
 71
     3
 72
     8
 73
     4
 74
     0
 42
0.000000001
 43
0.0000000001
 40
0.0325703316679855
 40
0.0325703316679855
 40
0.0325703316679855
 40
0.0325703316679855
 40
0.0332671203384827
 40
0.0332671203384827
 40
0.0332671203384827
 40
0.0332671203384827
 10
40.73290660579491
 20
-0.9208254805409634
 30
0.0
 10
40.7312808076395
 20
-0.9223630473200785
 30
0.0
 10
40.72965254924974
 20
-0.9239012439374612
 30
0.0
 10
40.72802201883482
 20
-0.9254399150747364
 30
0.0
  0
SPLINE
  5
6E2A
330
6E16
100
AcDbEntity
  8
0
100
AcDbSpline
210
0.0
220
0.0
230
1.0
 70
     8
 71
     3
 72
    20
 73
    16
 74
     0
 42
0.000000001
 43
0.0000000001
 40
0.0536086414416518
 40
0.0536086414416518
 40
0.0536086414416518
 40
0.0536086414416518
 40
0.059830540776967
 40
0.059830540776967
 40
0.0668035889715332
 40
0.0668035889715332
 40
0.0763210567082069
 40
0.0763210567082069
 40
0.0844043067618944
 40
0.0844043067618944
 40
0.0965892424352582
 40
0.0965892424352582
 40
0.1025288449895695
 40
0.1025288449895695
 40
0.1091414862163339
 40
0.1091414862163339
 40
0.1091414862163339
 40
0.1091414862163339
 10
40.99049441401991
 20
-0.6598098213212289
 30
0.0
 10
40.99049441396737
 20
-0.6598098213787029
 30
0.0
 10
40.98831669733527
 20
-0.6621968718290008
 30
0.0
 10
40.9799862496542
 20
-0.6712934432750349
 30
0.0
 10
40.97337485892835
 20
-0.6784968330278862
 30
0.0
 10
40.95490200166029
 20
-0.6984528996471763
 30
0.0
 10
40.94162382476159
 20
-0.7126588144632083
 30
0.0
 10
40.91862878665756
 20
-0.7369413655592965
 30
0.0
 10
40.90883181139063
 20
-0.7471772503182417
 30
0.0
 10
40.88558501880267
 20
-0.7712734948248334
 30
0.0
 10
40.87089553099963
 20
-0.7863879127396365
 30
0.0
 10
40.8389460587428
 20
-0.8184539311023598
 30
0.0
 10
40.82712353690394
 20
-0.8302047012279274
 30
0.0
 10
40.80070590598871
 20
-0.8561236133267959
 30
0.0
 10
40.78575841018933
 20
-0.8705974583915656
 30
0.0
 10
40.77061576694148
 20
-0.8850789346324019
 30
0.0
  0
SPLINE
  5
6E2B
330
6E16
100
AcDbEntity
  8
0
100
AcDbSpline
210
0.0
220
0.0
230
1.0
 70
     8
 71
     3
 72
     8
 73
     4
 74
     0
 42
0.000000001
 43
0.0000000001
 40
0.1151274924215577
 40
0.1151274924215577
 40
0.1151274924215577
 40
0.1151274924215577
 40
0.1159588073219689
 40
0.1159588073219689
 40
0.1159588073219689
 40
0.1159588073219689
 10
40.73200825904116
 20
-0.9216657614268498
 30
0.0
 10
40.7305769759664
 20
-0.9230110677933256
 30
0.0
 10
40.72923827337585
 20
-0.9242683254286632
 30
0.0
 10
40.7280049961048
 20
-0.9254259353058078
 30
0.0
  0
LINE
  5
6E2C
330
6E16
100
AcDbEntity
  8
0
100
AcDbLine
 10
-41.99999999999997
 20
84.99999999999992
 30
0.0
 11
-44.0
 21
85.00000000000003
 31
0.0
  0
LINE
  5
6E2D
330
6E16
100
AcDbEntity
  8
0
100
AcDbLine
 10
-41.99999999999999
 20
34.22697026547448
 30
0.0
 11
-42.0
 21
1.999999999999979
 31
0.0
  0
LINE
  5
6E2E
330
6E16
100
AcDbEntity
  8
0
100
AcDbLine
 10
-41.99999999999999
 20
85.0
 30
0.0
 11
-41.99999999999999
 21
34.22697026547448
 31
0.0
  0
LINE
  5
6E2F
330
6E16
100
AcDbEntity
  8
0
100
AcDbLine
 10
-38.00000000000002
 20
0.0
 30
0.0
 11
37.99999999999999
 21
0.0
 31
0.0
  0
LINE
  5
6E30
330
6E16
100
AcDbEntity
  8
0
100
AcDbLine
 10
37.99999999999999
 20
-1.999999999999993
 30
0.0
 11
-38.00000000000002
 21
-2.000000000000001
 31
0.0
  0
LINE
  5
6E31
330
6E16
100
AcDbEntity
  8
0
100
AcDbLine
 10
-40.0
 20
1.999999999999981
 30
0.0
 11
-40.0
 21
34.22697026547448
 31
0.0
  0
LINE
  5
6E32
330
6E16
100
AcDbEntity
  8
0
100
AcDbLine
 10
-40.0
 20
34.22697026547448
 30
0.0
 11
-41.99999999999999
 21
34.22697026547448
 31
0.0
  0
LINE
  5
6E33
330
6E16
100
AcDbEntity
  8
0
100
AcDbLine
 10
-40.0
 20
34.22697026547448
 30
0.0
 11
-40.0
 21
85.0
 31
0.0
  0
LINE
  5
6E34
330
6E16
100
AcDbEntity
  8
0
100
AcDbLine
 10
-81.50000000000007
 20
85.0
 30
0.0
 11
-43.99999999999998
 21
85.0
 31
0.0
  0
LINE
  5
6E35
330
6E16
100
AcDbEntity
  8
0
100
AcDbLine
 10
-81.50000000000005
 20
32.99999999999998
 30
0.0
 11
-81.50000000000007
 21
85.0
 31
0.0
  0
LINE
  5
6E36
330
6E16
100
AcDbEntity
  8
0
100
AcDbLine
 10
-43.99999999999997
 20
3.090361445782918
 30
0.0
 11
-81.50000000000005
 21
32.99999999999998
 31
0.0
  0
LINE
  5
6E37
330
6E16
100
AcDbEntity
  8
0
100
AcDbLine
 10
-40.0
 20
85.0
 30
0.0
 11
-41.99999999999999
 21
85.0
 31
0.0
  0
ARC
  5
6E38
330
6E16
100
AcDbEntity
  8
0
100
AcDbCircle
 10
-38.00000000000002
 20
1.999999999999998
 30
0.0
 40
4.0
100
AcDbArc
 50
228.9625787878647
 51
270.0000000000001
  0
SPLINE
  5
6E39
330
6E16
100
AcDbEntity
  8
0
100
AcDbSpline
210
0.0
220
0.0
230
1.0
 70
     8
 71
     3
 72
    12
 73
     8
 74
     0
 42
0.000000001
 43
0.0000000001
 40
0.0
 40
0.0
 40
0.0
 40
0.0
 40
0.107369640463087
 40
0.107369640463087
 40
0.2686138215391986
 40
0.2686138215391986
 40
0.4298588820633779
 40
0.4298588820633779
 40
0.4298588820633779
 40
0.4298588820633779
 10
-40.62620722994451
 20
-1.017123727225518
 30
0.0
 10
-40.84126916349194
 20
-0.829926497071661
 30
0.0
 10
-41.03570194751977
 20
-0.6202690484037828
 30
0.0
 10
-41.46221644329101
 20
-0.0485128633245469
 30
0.0
 10
-41.66148200965438
 20
0.3335975413532726
 30
0.0
 10
-41.93124534639022
 20
1.146384344271838
 30
0.0
 10
-42.00000000000001
 20
1.571811178740278
 30
0.0
 10
-42.00000000000001
 20
1.999999999999992
 30
0.0
  0
LINE
  5
6E3A
330
6E16
100
AcDbEntity
  8
0
100
AcDbLine
 10
-42.0
 20
1.999999999999981
 30
0.0
 11
-40.5465457977357
 21
1.999999999999981
 31
0.0
  0
LINE
  5
6E3B
330
6E16
100
AcDbEntity
  8
0
100
AcDbLine
 10
-40.5465457977357
 20
1.999999999999981
 30
0.0
 11
-40.0
 21
1.999999999999981
 31
0.0
  0
SPLINE
  5
6E3C
330
6E16
100
AcDbEntity
  8
0
100
AcDbSpline
210
0.0
220
0.0
230
1.0
 70
     8
 71
     3
 72
    10
 73
     6
 74
     0
 42
0.000000001
 43
0.0000000001
 40
0.0
 40
0.0
 40
0.0
 40
0.0
 40
0.1558853844832507
 40
0.1558853844832507
 40
0.3117707703913502
 40
0.3117707703913502
 40
0.3117707703913502
 40
0.3117707703913502
 10
-40.0
 20
1.999999999999995
 30
0.0
 10
-40.0
 20
1.714070073219242
 30
0.0
 10
-39.93868300598423
 20
1.431434994169377
 30
0.0
 10
-39.70170357725047
 20
0.9109807622384556
 30
0.0
 10
-39.52877510854718
 20
0.6791659483454838
 30
0.0
 10
-39.31310361497227
 20
0.4914381363872371
 30
0.0
  0
ARC
  5
6E3D
330
6E16
100
AcDbEntity
  8
0
100
AcDbCircle
 10
-38.00000000000002
 20
1.999999999999998
 30
0.0
 40
2.0
100
AcDbArc
 50
228.9625787878646
 51
270.0000000000002
  0
LINE
  5
6E3E
330
6E16
100
AcDbEntity
  8
0
100
AcDbLine
 10
-39.31310361497228
 20
0.4914381363872505
 30
0.0
 11
-40.62620722994453
 21
-1.017123727225498
 31
0.0
  0
LINE
  5
6E3F
330
6E16
100
AcDbEntity
  8
0
100
AcDbLine
 10
41.99999999999995
 20
85.0
 30
0.0
 11
41.99999999999997
 21
34.22697026547449
 31
0.0
  0
LINE
  5
6E40
330
6E16
100
AcDbEntity
  8
0
100
AcDbLine
 10
41.99999999999997
 20
34.22697026547449
 30
0.0
 11
41.99999999999998
 21
1.999999999999992
 31
0.0
  0
LINE
  5
6E41
330
6E16
100
AcDbEntity
  8
0
100
AcDbLine
 10
39.99999999999999
 20
1.99999999999999
 30
0.0
 11
39.99999999999997
 21
34.22697026547449
 31
0.0
  0
LINE
  5
6E42
330
6E16
100
AcDbEntity
  8
0
100
AcDbLine
 10
39.99999999999997
 20
34.22697026547449
 30
0.0
 11
39.99999999999996
 21
85.0
 31
0.0
  0
LINE
  5
6E43
330
6E16
100
AcDbEntity
  8
0
100
AcDbLine
 10
39.99999999999997
 20
34.22697026547449
 30
0.0
 11
41.99999999999997
 21
34.22697026547449
 31
0.0
  0
LINE
  5
6E44
330
6E16
100
AcDbEntity
  8
0
100
AcDbLine
 10
81.49999999999998
 20
33.00000000000001
 30
0.0
 11
81.49999999999995
 21
85.00000000000003
 31
0.0
  0
LINE
  5
6E45
330
6E16
100
AcDbEntity
  8
0
100
AcDbLine
 10
43.99999999999998
 20
3.09036144578299
 30
0.0
 11
81.49999999999998
 21
33.00000000000001
 31
0.0
  0
LINE
  5
6E46
330
6E16
100
AcDbEntity
  8
0
100
AcDbLine
 10
81.49999999999995
 20
85.00000000000003
 30
0.0
 11
43.99999999999995
 21
85.0
 31
0.0
  0
LINE
  5
6E47
330
6E16
100
AcDbEntity
  8
0
100
AcDbLine
 10
39.99999999999996
 20
85.0
 30
0.0
 11
41.99999999999995
 21
85.0
 31
0.0
  0
LINE
  5
6E48
330
6E16
100
AcDbEntity
  8
0
100
AcDbLine
 10
43.99999999999995
 20
84.99999999999998
 30
0.0
 11
41.99999999999995
 21
85.0
 31
0.0
  0
SPLINE
  5
6E49
330
6E16
100
AcDbEntity
  8
0
100
AcDbSpline
210
0.0
220
0.0
230
1.0
 70
     8
 71
     3
 72
    12
 73
     8
 74
     0
 42
0.000000001
 43
0.0000000001
 40
0.0
 40
0.0
 40
0.0
 40
0.0
 40
0.1073696404631127
 40
0.1073696404631127
 40
0.2686138215393048
 40
0.2686138215393048
 40
0.4298588820635413
 40
0.4298588820635413
 40
0.4298588820635413
 40
0.4298588820635413
 10
41.99999999999999
 20
2.000000000000001
 30
0.0
 10
41.99999999999999
 20
1.714878204553794
 30
0.0
 10
41.96951458004662
 20
1.430570286167696
 30
0.0
 10
41.81827865511666
 20
0.733470978113447
 30
0.0
 10
41.660888230789
 20
0.3322934841894536
 30
0.0
 10
41.22493225005108
 20
-0.4048205013678805
 30
0.0
 10
40.94918189303338
 20
-0.7359955826820581
 30
0.0
 10
40.62620722994451
 20
-1.017123727225494
 30
0.0
  0
ARC
  5
6E4A
330
6E16
100
AcDbEntity
  8
0
100
AcDbCircle
 10
37.99999999999999
 20
2.000000000000006
 30
0.0
 40
4.0
100
AcDbArc
 50
270.0000000000002
 51
311.0374212121354
  0
LINE
  5
6E4B
330
6E16
100
AcDbEntity
  8
0
100
AcDbLine
 10
39.31310361497226
 20
0.4914381363872592
 30
0.0
 11
40.62620722994451
 21
-1.017123727225489
 31
0.0
  0
ARC
  5
6E4C
330
6E16
100
AcDbEntity
  8
0
100
AcDbCircle
 10
37.99999999999999
 20
2.000000000000006
 30
0.0
 40
2.0
100
AcDbArc
 50
270.0000000000002
 51
311.0374212121355
  0
LINE
  5
6E4D
330
6E16
100
AcDbEntity
  8
0
100
AcDbLine
 10
40.54654579773568
 20
1.99999999999999
 30
0.0
 11
41.99999999999998
 21
1.99999999999999
 31
0.0
  0
LINE
  5
6E4E
330
6E16
100
AcDbEntity
  8
0
100
AcDbLine
 10
39.99999999999999
 20
1.99999999999999
 30
0.0
 11
40.54654579773568
 21
1.99999999999999
 31
0.0
  0
SPLINE
  5
6E4F
330
6E16
100
AcDbEntity
  8
0
100
AcDbSpline
210
0.0
220
0.0
230
1.0
 70
     8
 71
     3
 72
    10
 73
     6
 74
     0
 42
0.000000001
 43
0.0000000001
 40
0.0
 40
0.0
 40
0.0
 40
0.0
 40
0.1558853844832315
 40
0.1558853844832315
 40
0.3117707703913624
 40
0.3117707703913624
 40
0.3117707703913624
 40
0.3117707703913624
 10
39.31310361497225
 20
0.4914381363872562
 30
0.0
 10
39.5287751065758
 20
0.6791659466295686
 30
0.0
 10
39.701703574112
 20
0.9109807580205497
 30
0.0
 10
39.93868300486325
 20
1.431434989032828
 30
0.0
 10
39.99999999999999
 20
1.71407007060569
 30
0.0
 10
39.99999999999999
 20
2.000000000000004
 30
0.0
  0
CIRCLE
  5
6E50
330
6E16
100
AcDbEntity
  8
0
100
AcDbCircle
 10
72.99999999999996
 20
75.0
 30
0.0
 40
2.5
  0
CIRCLE
  5
6E51
330
6E16
100
AcDbEntity
  8
0
100
AcDbCircle
 10
50.99999999999996
 20
65.0
 30
0.0
 40
2.5
  0
CIRCLE
  5
6E52
330
6E16
100
AcDbEntity
  8
0
100
AcDbCircle
 10
72.99999999999996
 20
55.0
 30
0.0
 40
2.5
  0
CIRCLE
  5
6E53
330
6E16
100
AcDbEntity
  8
0
100
AcDbCircle
 10
50.99999999999997
 20
45.0
 30
0.0
 40
2.5
  0
CIRCLE
  5
6E54
330
6E16
100
AcDbEntity
  8
0
100
AcDbCircle
 10
72.99999999999997
 20
35.00000000000001
 30
0.0
 40
2.5
  0
CIRCLE
  5
6E55
330
6E16
100
AcDbEntity
  8
0
100
AcDbCircle
 10
50.99999999999997
 20
25.0
 30
0.0
 40
2.5
  0
CIRCLE
  5
6E56
330
6E16
100
AcDbEntity
  8
0
100
AcDbCircle
 10
61.99999999999996
 20
60.0
 30
0.0
 40
5.5
  0
CIRCLE
  5
6E57
330
6E16
100
AcDbEntity
  8
0
100
AcDbCircle
 10
-62.00000000000006
 20
59.99999999999999
 30
0.0
 40
5.5
  0
CIRCLE
  5
6E58
330
6E16
100
AcDbEntity
  8
0
100
AcDbCircle
 10
-51.00000000000004
 20
24.99999999999999
 30
0.0
 40
2.5
  0
CIRCLE
  5
6E59
330
6E16
100
AcDbEntity
  8
0
100
AcDbCircle
 10
-73.00000000000006
 20
34.99999999999999
 30
0.0
 40
2.5
  0
CIRCLE
  5
6E5A
330
6E16
100
AcDbEntity
  8
0
100
AcDbCircle
 10
-51.00000000000005
 20
44.99999999999999
 30
0.0
 40
2.5
  0
CIRCLE
  5
6E5B
330
6E16
100
AcDbEntity
  8
0
100
AcDbCircle
 10
-73.00000000000006
 20
54.99999999999999
 30
0.0
 40
2.5
  0
CIRCLE
  5
6E5C
330
6E16
100
AcDbEntity
  8
0
100
AcDbCircle
 10
-51.00000000000005
 20
64.99999999999999
 30
0.0
 40
2.5
  0
CIRCLE
  5
6E5D
330
6E16
100
AcDbEntity
  8
0
100
AcDbCircle
 10
-73.00000000000006
 20
74.99999999999999
 30
0.0
 40
2.5
  0
ENDBLK
  5
6E18
330
6E16
100
AcDbEntity
  8
0
100
AcDbBlockEnd
  0
BLOCK
  5
6E5F
330
6E5E
100
AcDbEntity
  8
0
100
AcDbBlockBegin
  2
SAE250_80_2-Left
 70
     0
 10
0.0
 20
0.0
 30
0.0
  3
SAE250_80_2-Left
  1

  0
SPLINE
  5
6E61
330
6E5E
100
AcDbEntity
  8
0
100
AcDbSpline
210
0.0
220
0.0
230
1.0
 70
     8
 71
     3
 72
    14
 73
    10
 74
     0
 42
0.000000001
 43
0.0000000001
 40
-0.4333818652372477
 40
-0.4333818652372477
 40
-0.4333818652372477
 40
-0.4333818652372477
 40
-0.3971999733779635
 40
-0.3971999733779635
 40
-0.3971999733779635
 40
-0.1361921135530204
 40
-0.1361921135530204
 40
-0.1361921135530204
 40
0.0
 40
0.0
 40
0.0
 40
0.0
 10
1.602857447219489
 20
1.966273149117634
 30
0.0
 10
1.532075960469533
 20
1.983803235744887
 30
0.0
 10
1.462025730386254
 20
2.001638971527812
 30
0.0
 10
1.393088303683598
 20
2.019996491980982
 30
0.0
 10
0.8957895367900125
 20
2.152423429295623
 30
0.0
 10
0.4457636161003772
 20
2.309229713002606
 30
0.0
 10
0.2022132711131599
 20
2.576808751879446
 30
0.0
 10
0.0751303692318789
 20
2.716429661654211
 30
0.0
 10
0.0000007095526041
 20
2.875834126656817
 30
0.0
 10
-0.0000000000581397
 20
3.090361445650071
 30
0.0
  0
SPLINE
  5
6E62
330
6E5E
100
AcDbEntity
  8
0
100
AcDbSpline
210
0.0
220
0.0
230
1.0
 70
     8
 71
     3
 72
    14
 73
    10
 74
     0
 42
0.000000001
 43
0.0000000001
 40
0.0
 40
0.0
 40
0.0
 40
0.0
 40
0.3423533722250978
 40
0.3423533722250978
 40
0.3423533722250978
 40
0.7827009960308155
 40
0.7827009960308155
 40
0.7827009960308155
 40
1.0
 40
1.0
 40
1.0
 40
1.0
 10
2.000000000000067
 20
3.090361445782897
 30
0.0
 10
1.999941038473004
 20
2.681550420663345
 30
0.0
 10
2.232363320538251
 20
2.230524687004012
 30
0.0
 10
2.543228518245809
 20
1.767261616822737
 30
0.0
 10
2.94307488238331
 20
1.171395448409073
 30
0.0
 10
3.45708907842253
 20
0.5565002307488046
 30
0.0
 10
3.758115316116992
 20
-0.0505759903813578
 30
0.0
 10
3.906663186216224
 20
-0.3501508059438069
 30
0.0
 10
3.996395188931244
 20
-0.6367584523368959
 30
0.0
 10
4.000000000000001
 20
-0.9254148064696881
 30
0.0
  0
SPLINE
  5
6E63
330
6E5E
100
AcDbEntity
  8
0
100
AcDbSpline
210
0.0
220
0.0
230
1.0
 70
     8
 71
     3
 72
    14
 73
    10
 74
     0
 42
0.000000001
 43
0.0000000001
 40
0.0
 40
0.0
 40
0.0
 40
0.0
 40
0.0591522356661911
 40
0.0591522356661911
 40
0.1061657226592548
 40
0.1061657226592548
 40
0.1816447165277199
 40
0.1816447165277199
 40
0.2044134235607361
 40
0.2044134235607361
 40
0.2044134235607361
 40
0.2044134235607361
 10
3.218891670920982
 20
0.8171494163690011
 30
0.0
 10
3.105311108603168
 20
0.9780013241831998
 30
0.0
 10
2.98037740559795
 20
1.133147513766174
 30
0.0
 10
2.733741149069419
 20
1.385643101358203
 30
0.0
 10
2.615524810172903
 20
1.488954960471773
 30
0.0
 10
2.286811528586907
 20
1.722272151989694
 30
0.0
 10
2.059025409972647
 20
1.830427949162075
 30
0.0
 10
1.749092256367864
 20
1.928184054363836
 30
0.0
 10
1.676061464822778
 20
1.948274490224763
 30
0.0
 10
1.602497141825361
 20
1.9664320751716
 30
0.0
  0
SPLINE
  5
6E64
330
6E5E
100
AcDbEntity
  8
0
100
AcDbSpline
210
0.0
220
0.0
230
1.0
 70
     8
 71
     3
 72
     8
 73
     4
 74
     0
 42
0.000000001
 43
0.0000000001
 40
0.0
 40
0.0
 40
0.0
 40
0.0
 40
0.109120456558822
 40
0.109120456558822
 40
0.109120456558822
 40
0.109120456558822
 10
0.0000000000000224
 20
3.090361445782994
 30
0.0
 10
0.0000005718132759
 20
2.918407278808574
 30
0.0
 10
0.0475136925491965
 20
2.778967753055879
 30
0.0
 10
0.1322028478410875
 20
2.660029027456467
 30
0.0
  0
SPLINE
  5
6E65
330
6E5E
100
AcDbEntity
  8
0
100
AcDbSpline
210
0.0
220
0.0
230
1.0
 70
     8
 71
     3
 72
     8
 73
     4
 74
     0
 42
0.000000001
 43
0.0000000001
 40
0.2708617266087542
 40
0.2708617266087542
 40
0.2708617266087542
 40
0.2708617266087542
 40
0.4334203077656323
 40
0.4334203077656323
 40
0.4334203077656323
 40
0.4334203077656323
 10
0.7207825320043997
 20
2.238812086560971
 30
0.0
 10
0.9779548521673911
 20
2.12884375519428
 30
0.0
 10
1.283985841387283
 20
2.044683032514034
 30
0.0
 10
1.603843047236249
 20
1.966205150185473
 30
0.0
  0
SPLINE
  5
6E66
330
6E5E
100
AcDbEntity
  8
0
100
AcDbSpline
210
0.0
220
0.0
230
1.0
 70
     8
 71
     3
 72
    14
 73
    10
 74
     0
 42
0.000000001
 43
0.0000000001
 40
0.0
 40
0.0
 40
0.0
 40
0.0
 40
0.0592010493820231
 40
0.0592010493820231
 40
0.1062815710171808
 40
0.1062815710171808
 40
0.181917243586581
 40
0.181917243586581
 40
0.2044714639803232
 40
0.2044714639803232
 40
0.2044714639803232
 40
0.2044714639803232
 10
3.219434268200865
 20
0.8163817010898856
 30
0.0
 10
3.105769309205916
 20
0.977372622339574
 30
0.0
 10
2.980724221175008
 20
1.132636810843504
 30
0.0
 10
2.733777712909719
 20
1.385384323837055
 30
0.0
 10
2.61536115881837
 20
1.488826098067357
 30
0.0
 10
2.285936164303847
 20
1.722527353896126
 30
0.0
 10
2.057554455755995
 20
1.83085398773382
 30
0.0
 10
1.747710424680059
 20
1.928492334610951
 30
0.0
 10
1.675365690746358
 20
1.948410248041058
 30
0.0
 10
1.602497073745087
 20
1.966431799348624
 30
0.0
  0
LINE
  5
6E67
330
6E5E
100
AcDbEntity
  8
0
100
AcDbLine
 10
4.000000000000081
 20
84.99999999999992
 30
0.0
 11
2.00000000000008
 21
85.00000000000003
 31
0.0
  0
CIRCLE
  5
6E68
330
6E5E
100
AcDbEntity
  8
0
100
AcDbCircle
 10
39.50000000000001
 20
14.99999999999999
 30
0.0
 40
2.5
  0
CIRCLE
  5
6E69
330
6E5E
100
AcDbEntity
  8
0
100
AcDbCircle
 10
39.5
 20
35.0
 30
0.0
 40
2.5
  0
CIRCLE
  5
6E6A
330
6E5E
100
AcDbEntity
  8
0
100
AcDbCircle
 10
39.5
 20
55.0
 30
0.0
 40
2.5
  0
CIRCLE
  5
6E6B
330
6E5E
100
AcDbEntity
  8
0
100
AcDbCircle
 10
39.5
 20
74.99999999999999
 30
0.0
 40
2.5
  0
LINE
  5
6E6C
330
6E5E
100
AcDbEntity
  8
0
100
AcDbLine
 10
47.0
 20
34.22697026547448
 30
0.0
 11
85.40660759230604
 21
1.999999999999979
 31
0.0
  0
LINE
  5
6E6D
330
6E5E
100
AcDbEntity
  8
0
100
AcDbLine
 10
47.0
 20
85.0
 30
0.0
 11
47.0
 21
34.22697026547448
 31
0.0
  0
LINE
  5
6E6E
330
6E5E
100
AcDbEntity
  8
0
100
AcDbLine
 10
4.000000000000081
 20
85.0
 30
0.0
 11
47.0
 21
85.0
 31
0.0
  0
LINE
  5
6E6F
330
6E5E
100
AcDbEntity
  8
0
100
AcDbLine
 10
2.000000000000074
 20
32.99999999999998
 30
0.0
 11
2.000000000000081
 21
85.0
 31
0.0
  0
LINE
  5
6E70
330
6E5E
100
AcDbEntity
  8
0
100
AcDbLine
 10
2.000000000000068
 20
3.090361445782918
 30
0.0
 11
2.000000000000074
 21
32.99999999999998
 31
0.0
  0
LINE
  5
6E71
330
6E5E
100
AcDbEntity
  8
0
100
AcDbLine
 10
0.0
 20
85.0
 30
0.0
 11
2.000000000000081
 21
85.0
 31
0.0
  0
LINE
  5
6E72
330
6E5E
100
AcDbEntity
  8
0
100
AcDbLine
 10
0.0
 20
85.0
 30
0.0
 11
0.0
 21
32.99999999999998
 31
0.0
  0
LINE
  5
6E73
330
6E5E
100
AcDbEntity
  8
0
100
AcDbLine
 10
0.0
 20
32.99999999999998
 30
0.0
 11
2.000000000000074
 21
32.99999999999998
 31
0.0
  0
LINE
  5
6E74
330
6E5E
100
AcDbEntity
  8
0
100
AcDbLine
 10
0.0
 20
32.99999999999998
 30
0.0
 11
0.0
 21
3.090361445782918
 31
0.0
  0
LINE
  5
6E75
330
6E5E
100
AcDbEntity
  8
0
100
AcDbLine
 10
4.000000000000071
 20
-2.000000000000013
 30
0.0
 11
4.000000000000069
 21
-0.9254148064767051
 31
0.0
  0
LINE
  5
6E76
330
6E5E
100
AcDbEntity
  8
0
100
AcDbLine
 10
88.0
 20
-2.000000000000002
 30
0.0
 11
4.000000000000056
 21
-2.000000000000012
 31
0.0
  0
LINE
  5
6E77
330
6E5E
100
AcDbEntity
  8
0
100
AcDbLine
 10
87.99999999999986
 20
-1.017123727225502
 30
0.0
 11
88.0
 21
-2.000000000000002
 31
0.0
  0
SPLINE
  5
6E78
330
6E5E
100
AcDbEntity
  8
0
100
AcDbSpline
210
0.0
220
0.0
230
1.0
 70
     8
 71
     3
 72
    12
 73
     8
 74
     0
 42
0.000000001
 43
0.0000000001
 40
0.0
 40
0.0
 40
0.0
 40
0.0
 40
0.107369640463087
 40
0.107369640463087
 40
0.2686138215391986
 40
0.2686138215391986
 40
0.4298588820633779
 40
0.4298588820633779
 40
0.4298588820633779
 40
0.4298588820633779
 10
88.0
 20
-1.017123727225519
 30
0.0
 10
87.78367359405766
 20
-0.8299264970716617
 30
0.0
 10
87.5679743906037
 20
-0.6202690484037835
 30
0.0
 10
87.0267858405257
 20
-0.0485128633245476
 30
0.0
 10
86.70399576210545
 20
0.333597541353272
 30
0.0
 10
86.054261975158
 20
1.146384344271838
 30
0.0
 10
85.73148120858943
 20
1.571811178740277
 30
0.0
 10
85.40660759230604
 20
1.999999999999991
 30
0.0
  0
SPLINE
  5
6E79
330
6E5E
100
AcDbEntity
  8
0
100
AcDbSpline
210
0.0
220
0.0
230
1.0
 70
     8
 71
     3
 72
    10
 73
     6
 74
     0
 42
0.000000001
 43
0.0000000001
 40
0.0
 40
0.0
 40
0.0
 40
0.0
 40
0.1558853844832507
 40
0.1558853844832507
 40
0.3117707703913502
 40
0.3117707703913502
 40
0.3117707703913502
 40
0.3117707703913502
 10
85.40660759230602
 20
1.999999999999994
 30
0.0
 10
85.84048187034433
 20
1.714070073219242
 30
0.0
 10
86.26943176251501
 20
1.431434994169377
 30
0.0
 10
87.13717582199265
 20
0.9109807622384549
 30
0.0
 10
87.56612571799596
 20
0.6791659483454833
 30
0.0
 10
88.0
 20
0.4914381363872364
 30
0.0
  0
LINE
  5
6E7A
330
6E5E
100
AcDbEntity
  8
0
100
AcDbLine
 10
88.0
 20
0.4914381363872498
 30
0.0
 11
88.0
 21
-1.017123727225499
 31
0.0
  0
ENDBLK
  5
6E60
330
6E5E
100
AcDbEntity
  8
0
100
AcDbBlockEnd
  0
BLOCK
  5
6E7C
330
6E7B
100
AcDbEntity
  8
0
100
AcDbBlockBegin
  2
SAE250_80_2-Right
 70
     0
 10
0.0
 20
0.0
 30
0.0
  3
SAE250_80_2-Right
  1

  0
SPLINE
  5
6E7E
330
6E7B
100
AcDbEntity
  8
0
100
AcDbSpline
210
0.0
220
0.0
230
1.0
 70
     8
 71
     3
 72
    11
 73
     7
 74
     0
 42
0.000000001
 43
0.0000000001
 40
-0.2709288605631342
 40
-0.2709288605631342
 40
-0.2709288605631342
 40
-0.2709288605631342
 40
-0.1361921135530204
 40
-0.1361921135530204
 40
-0.1361921135530204
 40
-0.1090696012468202
 40
-0.1090696012468202
 40
-0.1090696012468202
 40
-0.1090696012468202
 10
-0.722552669267873
 20
2.239093860520135
 30
0.0
 10
-0.5086846787800932
 20
2.330069692409201
 30
0.0
 10
-0.3279381486658039
 20
2.438679849207554
 30
0.0
 10
-0.2022132711131599
 20
2.576808751879446
 30
0.0
 10
-0.1769048484720734
 20
2.604614105249594
 30
0.0
 10
-0.1536569066014824
 20
2.633204080202365
 30
0.0
 10
-0.1326524942960606
 20
2.662857797275541
 30
0.0
  0
SPLINE
  5
6E7F
330
6E7B
100
AcDbEntity
  8
0
100
AcDbSpline
210
0.0
220
0.0
230
1.0
 70
     8
 71
     3
 72
     8
 73
     4
 74
     0
 42
0.000000001
 43
0.0000000001
 40
0.5737207880077119
 40
0.5737207880077119
 40
0.5737207880077119
 40
0.5737207880077119
 40
0.6009755692120537
 40
0.6009755692120537
 40
0.6009755692120537
 40
0.6009755692120537
 10
-3.22058970966453
 20
0.8161562427986691
 30
0.0
 10
-3.247173204819237
 20
0.778496918711356
 30
0.0
 10
-3.273535559568342
 20
0.7408187371155264
 30
0.0
 10
-3.299599203563887
 20
0.703128063823173
 30
0.0
  0
SPLINE
  5
6E80
330
6E7B
100
AcDbEntity
  8
0
100
AcDbSpline
210
0.0
220
0.0
230
1.0
 70
     8
 71
     3
 72
     8
 73
     4
 74
     0
 42
0.000000001
 43
0.0000000001
 40
0.2040446813624137
 40
0.2040446813624137
 40
0.2040446813624137
 40
0.2040446813624137
 40
0.2042882599939789
 40
0.2042882599939789
 40
0.2042882599939789
 40
0.2042882599939789
 10
-3.217488005659812
 20
0.8191361481180731
 30
0.0
 10
-3.217956077497474
 20
0.8184740206290575
 30
0.0
 10
-3.218423965894615
 20
0.8178117765849567
 30
0.0
 10
-3.21889167092098
 20
0.8171494163690024
 30
0.0
  0
SPLINE
  5
6E81
330
6E7B
100
AcDbEntity
  8
0
100
AcDbSpline
210
0.0
220
0.0
230
1.0
 70
     8
 71
     3
 72
    11
 73
     7
 74
     0
 42
0.000000001
 43
0.0000000001
 40
0.0
 40
0.0
 40
0.0
 40
0.0
 40
0.1804105431476218
 40
0.1804105431476218
 40
0.1804105431476218
 40
0.4330132484567977
 40
0.4330132484567977
 40
0.4330132484567977
 40
0.4330132484567977
 10
-0.0000000000000224
 20
3.090361445782994
 30
0.0
 10
-0.0000009453877426
 20
2.806066954734662
 30
0.0
 10
-0.1298751707960962
 20
2.610649680335614
 30
0.0
 10
-0.3429092920164087
 20
2.449815964806942
 30
0.0
 10
-0.6411900598947087
 20
2.224623850539953
 30
0.0
 10
-1.104516537045497
 20
2.08878741693018
 30
0.0
 10
-1.601440466039401
 20
1.966794801534538
 30
0.0
  0
SPLINE
  5
6E82
330
6E7B
100
AcDbEntity
  8
0
100
AcDbSpline
210
0.0
220
0.0
230
1.0
 70
     8
 71
     3
 72
    14
 73
    10
 74
     0
 42
0.000000001
 43
0.0000000001
 40
-1.0
 40
-1.0
 40
-1.0
 40
-1.0
 40
-0.7057745167849263
 40
-0.7057745167849263
 40
-0.7057745167849263
 40
-0.2148170005443886
 40
-0.2148170005443886
 40
-0.2148170005443886
 40
0.0
 40
0.0
 40
0.0
 40
0.0
 10
-4.000000000000063
 20
-0.9254148064766937
 30
0.0
 10
-3.99534053584867
 20
-0.5523066826720682
 30
0.0
 10
-3.825112371102814
 20
-0.1337475845921471
 30
0.0
 10
-3.580763307034881
 20
0.2711274755802401
 30
0.0
 10
-3.173031766314457
 20
0.9467197178221242
 30
0.0
 10
-2.567211912363135
 20
1.635114244420621
 30
0.0
 10
-2.233306479265093
 20
2.27800649204312
 30
0.0
 10
-2.08720715044159
 20
2.559302082270612
 30
0.0
 10
-1.999962914069266
 20
2.83299942281661
 30
0.0
 10
-1.999999999887731
 20
3.090361445677472
 30
0.0
  0
SPLINE
  5
6E83
330
6E7B
100
AcDbEntity
  8
0
100
AcDbSpline
210
0.0
220
0.0
230
1.0
 70
     8
 71
     3
 72
    14
 73
    10
 74
     0
 42
0.000000001
 43
0.0000000001
 40
0.0
 40
0.0
 40
0.0
 40
0.0
 40
0.0441422351827009
 40
0.0441422351827009
 40
0.1212484694372739
 40
0.1212484694372739
 40
0.1924385272281038
 40
0.1924385272281038
 40
0.2045914657727898
 40
0.2045914657727898
 40
0.2045914657727898
 40
0.2045914657727898
 10
-1.600109611698368
 20
1.967021532333854
 30
0.0
 10
-1.742747452069709
 20
1.931831378325028
 30
0.0
 10
-1.883540576481434
 20
1.889177036249592
 30
0.0
 10
-2.253321057229353
 20
1.740203884494136
 30
0.0
 10
-2.473977808128519
 20
1.605061599846411
 30
0.0
 10
-2.845984866564478
 20
1.285179139719323
 30
0.0
 10
-3.005953691948595
 20
1.104520618826774
 30
0.0
 10
-3.172311187330667
 20
0.8821896461593009
 30
0.0
 10
-3.196100842936115
 20
0.8494303175016511
 30
0.0
 10
-3.219434268200859
 20
0.8163817010898966
 30
0.0
  0
CIRCLE
  5
6E84
330
6E7B
100
AcDbEntity
  8
0
100
AcDbCircle
 10
-39.50000000000002
 20
25.0
 30
0.0
 40
2.5
  0
CIRCLE
  5
6E85
330
6E7B
100
AcDbEntity
  8
0
100
AcDbCircle
 10
-39.50000000000002
 20
45.0
 30
0.0
 40
2.5
  0
CIRCLE
  5
6E86
330
6E7B
100
AcDbEntity
  8
0
100
AcDbCircle
 10
-39.50000000000001
 20
65.0
 30
0.0
 40
2.5
  0
LINE
  5
6E87
330
6E7B
100
AcDbEntity
  8
0
100
AcDbLine
 10
-4.000000000000002
 20
85.0
 30
0.0
 11
-47.00000000000001
 21
85.0
 31
0.0
  0
LINE
  5
6E88
330
6E7B
100
AcDbEntity
  8
0
100
AcDbLine
 10
-47.00000000000001
 20
85.0
 30
0.0
 11
-47.00000000000001
 21
34.22697026547449
 31
0.0
  0
LINE
  5
6E89
330
6E7B
100
AcDbEntity
  8
0
100
AcDbLine
 10
-47.00000000000001
 20
34.22697026547449
 30
0.0
 11
-85.40660759230604
 21
1.999999999999988
 31
0.0
  0
LINE
  5
6E8A
330
6E7B
100
AcDbEntity
  8
0
100
AcDbLine
 10
-2.000000000000018
 20
33.00000000000001
 30
0.0
 11
-2.000000000000017
 21
85.00000000000003
 31
0.0
  0
LINE
  5
6E8B
330
6E7B
100
AcDbEntity
  8
0
100
AcDbLine
 10
0.0
 20
33.00000000000001
 30
0.0
 11
-2.000000000000018
 21
33.00000000000001
 31
0.0
  0
LINE
  5
6E8C
330
6E7B
100
AcDbEntity
  8
0
100
AcDbLine
 10
0.0
 20
85.0
 30
0.0
 11
0.0
 21
33.00000000000001
 31
0.0
  0
LINE
  5
6E8D
330
6E7B
100
AcDbEntity
  8
0
100
AcDbLine
 10
0.0
 20
85.0
 30
0.0
 11
-2.000000000000017
 21
85.00000000000003
 31
0.0
  0
LINE
  5
6E8E
330
6E7B
100
AcDbEntity
  8
0
100
AcDbLine
 10
0.0
 20
33.00000000000001
 30
0.0
 11
0.0
 21
3.090361445782989
 31
0.0
  0
LINE
  5
6E8F
330
6E7B
100
AcDbEntity
  8
0
100
AcDbLine
 10
-2.000000000000007
 20
3.09036144578299
 30
0.0
 11
-2.000000000000018
 21
33.00000000000001
 31
0.0
  0
LINE
  5
6E90
330
6E7B
100
AcDbEntity
  8
0
100
AcDbLine
 10
-2.000000000000007
 20
84.99999999999998
 30
0.0
 11
-4.0
 21
85.0
 31
0.0
  0
LINE
  5
6E91
330
6E7B
100
AcDbEntity
  8
0
100
AcDbLine
 10
-4.000000000000044
 20
-0.9254148064766948
 30
0.0
 11
-4.000000000000044
 21
-2.000000000000004
 31
0.0
  0
SPLINE
  5
6E92
330
6E7B
100
AcDbEntity
  8
0
100
AcDbSpline
210
0.0
220
0.0
230
1.0
 70
     8
 71
     3
 72
    12
 73
     8
 74
     0
 42
0.000000001
 43
0.0000000001
 40
0.0
 40
0.0
 40
0.0
 40
0.0
 40
0.1073696404631127
 40
0.1073696404631127
 40
0.2686138215393048
 40
0.2686138215393048
 40
0.4298588820635413
 40
0.4298588820635413
 40
0.4298588820635413
 40
0.4298588820635413
 10
-85.40660759230604
 20
2.0
 30
0.0
 10
-85.62293399824842
 20
1.714878204553793
 30
0.0
 10
-85.83863320170237
 20
1.430570286167695
 30
0.0
 10
-86.37982175178031
 20
0.7334709781134463
 30
0.0
 10
-86.70261183020048
 20
0.3322934841894528
 30
0.0
 10
-87.35234561714804
 20
-0.4048205013678813
 30
0.0
 10
-87.67512638371659
 20
-0.7359955826820589
 30
0.0
 10
-88.0
 20
-1.017123727225494
 30
0.0
  0
LINE
  5
6E93
330
6E7B
100
AcDbEntity
  8
0
100
AcDbLine
 10
-88.0
 20
-1.999999999999994
 30
0.0
 11
-88.00000000000009
 21
-1.017123727225495
 31
0.0
  0
LINE
  5
6E94
330
6E7B
100
AcDbEntity
  8
0
100
AcDbLine
 10
-4.000000000000079
 20
-2.000000000000004
 30
0.0
 11
-88.0
 21
-1.999999999999994
 31
0.0
  0
LINE
  5
6E95
330
6E7B
100
AcDbEntity
  8
0
100
AcDbLine
 10
-88.00000000000004
 20
0.4914381363872584
 30
0.0
 11
-88.00000000000009
 21
-1.01712372722549
 31
0.0
  0
SPLINE
  5
6E96
330
6E7B
100
AcDbEntity
  8
0
100
AcDbSpline
210
0.0
220
0.0
230
1.0
 70
     8
 71
     3
 72
    10
 73
     6
 74
     0
 42
0.000000001
 43
0.0000000001
 40
0.0
 40
0.0
 40
0.0
 40
0.0
 40
0.1558853844832315
 40
0.1558853844832315
 40
0.3117707703913624
 40
0.3117707703913624
 40
0.3117707703913624
 40
0.3117707703913624
 10
-88.0
 20
0.4914381363872554
 30
0.0
 10
-87.56612572196178
 20
0.6791659466295677
 30
0.0
 10
-87.13717582979093
 20
0.9109807580205488
 30
0.0
 10
-86.26943177031325
 20
1.431434989032827
 30
0.0
 10
-85.84048187431021
 20
1.714070070605689
 30
0.0
 10
-85.40660759230602
 20
2.000000000000003
 30
0.0
  0
ENDBLK
  5
6E7D
330
6E7B
100
AcDbEntity
  8
0
100
AcDbBlockEnd
  0
BLOCK
  5
6E98
330
6E97
100
AcDbEntity
  8
0
100
AcDbBlockBegin
  2
SAE250_80_2-Top
 70
     0
 10
0.0
 20
0.0
 30
0.0
  3
SAE250_80_2-Top
  1

  0
LINE
  5
6E9A
330
6E97
100
AcDbEntity
  8
0
100
AcDbLine
 10
-39.363996720125
 20
-4.999999999999995
 30
0.0
 11
-40.0
 21
-4.999999999999995
 31
0.0
  0
SPLINE
  5
6E9B
330
6E97
100
AcDbEntity
  8
0
100
AcDbSpline
210
0.0
220
0.0
230
1.0
 70
     8
 71
     3
 72
     8
 73
     4
 74
     0
 42
0.000000001
 43
0.0000000001
 40
-1.0
 40
-1.0
 40
-1.0
 40
-1.0
 40
-0.8739883877944775
 40
-0.8739883877944775
 40
-0.8739883877944775
 40
-0.8739883877944775
 10
-39.36399672012498
 20
-4.000000000000073
 30
0.0
 10
-39.58227268102795
 20
-3.99648717702946
 30
0.0
 10
-39.79710838244837
 20
-3.933522385394957
 30
0.0
 10
-40.0026817759598
 20
-3.823304836578895
 30
0.0
  0
SPLINE
  5
6E9C
330
6E97
100
AcDbEntity
  8
0
100
AcDbSpline
210
0.0
220
0.0
230
1.0
 70
     8
 71
     3
 72
     8
 73
     4
 74
     0
 42
0.000000001
 43
0.0000000001
 40
0.1002644569933707
 40
0.1002644569933707
 40
0.1002644569933707
 40
0.1002644569933707
 40
0.2748809539563374
 40
0.2748809539563374
 40
0.2748809539563374
 40
0.2748809539563374
 10
-43.58269941586367
 20
-2.055899816195262
 30
0.0
 10
-43.35552305203026
 20
-2.118585510306197
 30
0.0
 10
-43.15336506195655
 20
-2.23001478551694
 30
0.0
 10
-42.96977081795567
 20
-2.369748588351995
 30
0.0
  0
SPLINE
  5
6E9D
330
6E97
100
AcDbEntity
  8
0
100
AcDbSpline
210
0.0
220
0.0
230
1.0
 70
     8
 71
     3
 72
     8
 73
     4
 74
     0
 42
0.000000001
 43
0.0000000001
 40
0.0
 40
0.0
 40
0.0
 40
0.0
 40
0.0008743288975488
 40
0.0008743288975488
 40
0.0008743288975488
 40
0.0008743288975488
 10
-43.99999931095705
 20
0.0000324304474441
 30
0.0
 10
-43.99708765013801
 20
0.0000201021708737
 30
0.0
 10
-43.99417669271397
 20
0.0000061364638699
 30
0.0
 10
-43.99126721596118
 20
-0.0000095327011642
 30
0.0
  0
SPLINE
  5
6E9E
330
6E97
100
AcDbEntity
  8
0
100
AcDbSpline
210
0.0
220
0.0
230
1.0
 70
     8
 71
     3
 72
    18
 73
    14
 74
     0
 42
0.000000001
 43
0.0000000001
 40
0.007235831032027
 40
0.007235831032027
 40
0.007235831032027
 40
0.007235831032027
 40
0.0190284340217164
 40
0.0190284340217164
 40
0.0394657535888831
 40
0.0394657535888831
 40
0.0702801077468
 40
0.0702801077468
 40
0.1052857515078943
 40
0.1052857515078943
 40
0.133422754763362
 40
0.133422754763362
 40
0.1657505755383013
 40
0.1657505755383013
 40
0.1657505755383013
 40
0.1657505755383013
 10
-43.92808108240706
 20
-0.0006465935989572
 30
0.0
 10
-43.8893596436384
 20
-0.0012356149503853
 30
0.0
 10
-43.85127947664391
 20
-0.0022194613350295
 30
0.0
 10
-43.74984316099504
 20
-0.0061555280392026
 30
0.0
 10
-43.68652986368468
 20
-0.0100739380815177
 30
0.0
 10
-43.52639332005087
 20
-0.0243478104456954
 30
0.0
 10
-43.42733860504453
 20
-0.0372036114689508
 30
0.0
 10
-43.21184887183879
 20
-0.0745713033206561
 30
0.0
 10
-43.09753945687003
 20
-0.0998466880305209
 30
0.0
 10
-42.89992880006038
 20
-0.1521413477751633
 30
0.0
 10
-42.8132807069901
 20
-0.1783326894329522
 30
0.0
 10
-42.63344278028623
 20
-0.2390895109048671
 30
0.0
 10
-42.54005979227182
 20
-0.2746102504035453
 30
0.0
 10
-42.44819047146878
 20
-0.3132800823239052
 30
0.0
  0
SPLINE
  5
6E9F
330
6E97
100
AcDbEntity
  8
0
100
AcDbSpline
210
0.0
220
0.0
230
1.0
 70
     8
 71
     3
 72
     8
 73
     4
 74
     0
 42
0.000000001
 43
0.0000000001
 40
0.0187810870196817
 40
0.0187810870196817
 40
0.0187810870196817
 40
0.0187810870196817
 40
0.0222505456642145
 40
0.0222505456642145
 40
0.0222505456642145
 40
0.0222505456642145
 10
-39.99999999999996
 20
-4.997541976903399
 30
0.0
 10
-39.99998942278914
 20
-4.998449497297078
 30
0.0
 10
-39.99997880095332
 20
-4.999292476607645
 30
0.0
 10
-39.99996935461071
 20
-4.999999556862368
 30
0.0
  0
SPLINE
  5
6EA0
330
6E97
100
AcDbEntity
  8
0
100
AcDbSpline
210
0.0
220
0.0
230
1.0
 70
     8
 71
     3
 72
    38
 73
    34
 74
     0
 42
0.000000001
 43
0.0000000001
 40
0.1154611348950296
 40
0.1154611348950296
 40
0.1154611348950296
 40
0.1154611348950296
 40
0.1379198682184419
 40
0.1379198682184419
 40
0.1495380529353337
 40
0.1495380529353337
 40
0.1699413168725686
 40
0.1699413168725686
 40
0.1870970781384724
 40
0.1870970781384724
 40
0.20509027192167
 40
0.20509027192167
 40
0.2179344657019839
 40
0.2179344657019839
 40
0.2227396753524789
 40
0.2227396753524789
 40
0.2263445514890463
 40
0.2263445514890463
 40
0.2277025106503057
 40
0.2277025106503057
 40
0.2280773007529414
 40
0.2280773007529414
 40
0.2284558249927592
 40
0.2284558249927592
 40
0.2292176376024107
 40
0.2292176376024107
 40
0.2307086097943146
 40
0.2307086097943146
 40
0.2342300902688231
 40
0.2342300902688231
 40
0.2447908176438572
 40
0.2447908176438572
 40
0.249183753336415
 40
0.249183753336415
 40
0.249183753336415
 40
0.249183753336415
 10
-43.25764980057041
 20
-2.151491212537038
 30
0.0
 10
-43.25764980025989
 20
-2.151491212668448
 30
0.0
 10
-43.26770967270131
 20
-2.147117411573713
 30
0.0
 10
-43.2997836647192
 20
-2.134612541263549
 30
0.0
 10
-43.31380161212604
 20
-2.129291127017667
 30
0.0
 10
-43.36129727944112
 20
-2.112327922144008
 30
0.0
 10
-43.40280249867348
 20
-2.098532670723397
 30
0.0
 10
-43.4947796874583
 20
-2.072831331381112
 30
0.0
 10
-43.54357602987398
 20
-2.060819017160008
 30
0.0
 10
-43.64901285996618
 20
-2.039148909400384
 30
0.0
 10
-43.70668444839759
 20
-2.029439293219755
 30
0.0
 10
-43.80666261236959
 20
-2.016128029946604
 30
0.0
 10
-43.84893634765017
 20
-2.011502820420981
 30
0.0
 10
-43.90726501977649
 20
-2.006350060603502
 30
0.0
 10
-43.92318400698797
 20
-2.005067580593803
 30
0.0
 10
-43.95109450402292
 20
-2.003024816731036
 30
0.0
 10
-43.96309411860396
 20
-2.002212770312547
 30
0.0
 10
-43.97959788525855
 20
-2.001183094164868
 30
0.0
 10
-43.98425131350328
 20
-2.000902407791627
 30
0.0
 10
-43.98970441627227
 20
-2.000583493640098
 30
0.0
 10
-43.99085854210265
 20
-2.000516635142943
 30
0.0
 10
-43.99288127222344
 20
-2.000400281973818
 30
0.0
 10
-43.9937559921465
 20
-2.000350414906295
 30
0.0
 10
-43.99576142609692
 20
-2.000236526310723
 30
0.0
 10
-43.99641979186789
 20
-2.000199676760186
 30
0.0
 10
-43.99783467659479
 20
-2.000120331165871
 30
0.0
 10
-43.99813776767955
 20
-2.000103546405269
 30
0.0
 10
-43.99905217972709
 20
-2.000052675352827
 30
0.0
 10
-43.99919984159065
 20
-2.000044557850657
 30
0.0
 10
-43.99984399711757
 20
-2.000008947894546
 30
0.0
 10
-43.99987133555104
 20
-2.000007527397684
 30
0.0
 10
-43.99996151618718
 20
-2.000002609912514
 30
0.0
 10
-43.99998008439
 20
-2.000001601514127
 30
0.0
 10
-44.00000002118402
 20
-2.000000522675041
 30
0.0
  0
SPLINE
  5
6EA1
330
6E97
100
AcDbEntity
  8
0
100
AcDbSpline
210
0.0
220
0.0
230
1.0
 70
     8
 71
     3
 72
     8
 73
     4
 74
     0
 42
0.000000001
 43
0.0000000001
 40
0.0
 40
0.0
 40
0.0
 40
0.0
 40
0.044959579100273
 40
0.044959579100273
 40
0.044959579100273
 40
0.044959579100273
 10
-42.00000006701059
 20
-5.000000001433033
 30
0.0
 10
-42.00000365162565
 20
-4.999825881613238
 30
0.0
 10
-42.00007407687323
 20
-4.997287658797842
 30
0.0
 10
-42.00007407687344
 20
-4.997287658791774
 30
0.0
  0
SPLINE
  5
6EA2
330
6E97
100
AcDbEntity
  8
0
100
AcDbSpline
210
0.0
220
0.0
230
1.0
 70
     8
 71
     3
 72
     8
 73
     4
 74
     0
 42
0.000000001
 43
0.0000000001
 40
0.0
 40
0.0
 40
0.0
 40
0.0
 40
0.0092046728490347
 40
0.0092046728490347
 40
0.0092046728490347
 40
0.0092046728490347
 10
-42.00000518814997
 20
-5.000000269245372
 30
0.0
 10
-42.00013492158021
 20
-4.997495025908864
 30
0.0
 10
-42.0002695437755
 20
-4.994996227815863
 30
0.0
 10
-42.00026954377552
 20
-4.994996227815586
 30
0.0
  0
SPLINE
  5
6EA3
330
6E97
100
AcDbEntity
  8
0
100
AcDbSpline
210
0.0
220
0.0
230
1.0
 70
     8
 71
     3
 72
    12
 73
     8
 74
     0
 42
0.000000001
 43
0.0000000001
 40
0.0001168797689591
 40
0.0001168797689591
 40
0.0001168797689591
 40
0.0001168797689591
 40
0.0043720497992407
 40
0.0043720497992407
 40
0.0099000564585471
 40
0.0099000564585471
 40
0.0103918379206262
 40
0.0103918379206262
 40
0.0103918379206262
 40
0.0103918379206262
 10
-42.00000704074778
 20
-4.99982373527731
 30
0.0
 10
-42.00013078096666
 20
-4.997656136714024
 30
0.0
 10
-42.00032557003329
 20
-4.994280309415094
 30
0.0
 10
-42.00084879426813
 20
-4.985418506751853
 30
0.0
 10
-42.00122989167915
 20
-4.979162063549962
 30
0.0
 10
-42.00129616870587
 20
-4.978084455598789
 30
0.0
 10
-42.00129901219087
 20
-4.978038304565195
 30
0.0
 10
-42.00129901221761
 20
-4.978038304130996
 30
0.0
  0
SPLINE
  5
6EA4
330
6E97
100
AcDbEntity
  8
0
100
AcDbSpline
210
0.0
220
0.0
230
1.0
 70
     8
 71
     3
 72
    26
 73
    22
 74
     0
 42
0.000000001
 43
0.0000000001
 40
0.0
 40
0.0
 40
0.0
 40
0.0
 40
0.0038896045385986
 40
0.0038896045385986
 40
0.0082032758646076
 40
0.0082032758646076
 40
0.015053440123911
 40
0.015053440123911
 40
0.0279067390527276
 40
0.0279067390527276
 40
0.0601697922119067
 40
0.0601697922119067
 40
0.1190918472157874
 40
0.1190918472157874
 40
0.170813900216925
 40
0.170813900216925
 40
0.2159568458814314
 40
0.2159568458814314
 40
0.2502908359673914
 40
0.2502908359673914
 40
0.2963521272948693
 40
0.2963521272948693
 40
0.2963521272948693
 40
0.2963521272948693
 10
-42.00008757695961
 20
-5.000006266292402
 30
0.0
 10
-42.00086537030911
 20
-4.987607240139352
 30
0.0
 10
-42.00171097719421
 20
-4.974502363186943
 30
0.0
 10
-42.00352143678907
 20
-4.947218253330057
 30
0.0
 10
-42.00450471510939
 20
-4.932833069306898
 30
0.0
 10
-42.00706486791044
 20
-4.896437226476033
 30
0.0
 10
-42.0086694995567
 20
-4.874641038718303
 30
0.0
 10
-42.01336396875603
 20
-4.813534667570708
 30
0.0
 10
-42.01655615291385
 20
-4.775077584920913
 30
0.0
 10
-42.0288138283877
 20
-4.637786310389564
 30
0.0
 10
-42.03958533861601
 20
-4.534971096221838
 30
0.0
 10
-42.07642454531732
 20
-4.242057051361122
 30
0.0
 10
-42.10787077138308
 20
-4.048841061125351
 30
0.0
 10
-42.18842496370317
 20
-3.690414458537882
 30
0.0
 10
-42.23527563351921
 20
-3.523042773203929
 30
0.0
 10
-42.34592525716068
 20
-3.219990773363075
 30
0.0
 10
-42.40746245396735
 20
-3.081620653013622
 30
0.0
 10
-42.534688296864
 20
-2.854051687281855
 30
0.0
 10
-42.59629275845475
 20
-2.760296568464366
 30
0.0
 10
-42.75387880985173
 20
-2.559175758955874
 30
0.0
 10
-42.85467917148817
 20
-2.457039875925883
 30
0.0
 10
-42.96944770832626
 20
-2.368248759502083
 30
0.0
  0
SPLINE
  5
6EA5
330
6E97
100
AcDbEntity
  8
0
100
AcDbSpline
210
0.0
220
0.0
230
1.0
 70
     8
 71
     3
 72
     8
 73
     4
 74
     0
 42
0.000000001
 43
0.0000000001
 40
0.0475259300375019
 40
0.0475259300375019
 40
0.0475259300375019
 40
0.0475259300375019
 40
0.0944829792477337
 40
0.0944829792477337
 40
0.0944829792477337
 40
0.0944829792477337
 10
-43.97804649861565
 20
-2.001178122505885
 30
0.0
 10
-43.97804649859648
 20
-2.001178122506862
 30
0.0
 10
-43.97814192126066
 20
-2.000990825183879
 30
0.0
 10
-44.00001079077644
 20
-2.000434578565329
 30
0.0
  0
SPLINE
  5
6EA6
330
6E97
100
AcDbEntity
  8
0
100
AcDbSpline
210
0.0
220
0.0
230
1.0
 70
     8
 71
     3
 72
    11
 73
     7
 74
     0
 42
0.000000001
 43
0.0000000001
 40
0.873991637475329
 40
0.873991637475329
 40
0.873991637475329
 40
0.873991637475329
 40
0.8812223277953307
 40
0.8812223277953307
 40
0.8812223277953307
 40
1.0
 40
1.0
 40
1.0
 40
1.0
 10
40.00378286837703
 20
-3.826020148762061
 30
0.0
 10
39.99226862059477
 20
-3.8323223918251
 30
0.0
 10
39.98073120569237
 20
-3.838464426420405
 30
0.0
 10
39.96917045081318
 20
-3.84444306264501
 30
0.0
 10
39.77926333369047
 20
-3.94265339420252
 30
0.0
 10
39.58255486405301
 20
-3.996483332077225
 30
0.0
 10
39.36399672212808
 20
-4.000000000062867
 30
0.0
  0
LINE
  5
6EA7
330
6E97
100
AcDbEntity
  8
0
100
AcDbLine
 10
40.0
 20
-5.000000000000004
 30
0.0
 11
39.36399672012498
 21
-5.000000000000004
 31
0.0
  0
SPLINE
  5
6EA8
330
6E97
100
AcDbEntity
  8
0
100
AcDbSpline
210
0.0
220
0.0
230
1.0
 70
     8
 71
     3
 72
    11
 73
     7
 74
     0
 42
0.000000001
 43
0.0000000001
 40
-0.2657264187657147
 40
-0.2657264187657147
 40
-0.2657264187657147
 40
-0.2657264187657147
 40
-0.2148170005443886
 40
-0.2148170005443886
 40
-0.2148170005443886
 40
-0.1108380952847378
 40
-0.1108380952847378
 40
-0.1108380952847378
 40
-0.1108380952847378
 10
42.99728869771023
 20
-2.3454258117947
 30
0.0
 10
43.05085326867966
 20
-2.305478306818127
 30
0.0
 10
43.10593954573405
 20
-2.267930516534405
 30
0.0
 10
43.16285112900441
 20
-2.233306479265093
 30
0.0
 10
43.27908903412678
 20
-2.162589318929831
 30
0.0
 10
43.40431799801366
 20
-2.105661300181193
 30
0.0
 10
43.53871837232555
 20
-2.065746081596193
 30
0.0
  0
SPLINE
  5
6EA9
330
6E97
100
AcDbEntity
  8
0
100
AcDbSpline
210
0.0
220
0.0
230
1.0
 70
     8
 71
     3
 72
     8
 73
     4
 74
     0
 42
0.000000001
 43
0.0000000001
 40
0.0
 40
0.0
 40
0.0
 40
0.0
 40
0.0034685489322465
 40
0.0034685489322465
 40
0.0034685489322465
 40
0.0034685489322465
 10
39.99996943239477
 20
-4.999999556768254
 30
0.0
 10
39.99997885158776
 20
-4.9992965209681
 30
0.0
 10
39.99998944622371
 20
-4.998458116055613
 30
0.0
 10
39.99999999999995
 20
-4.99755518287576
 30
0.0
  0
SPLINE
  5
6EAA
330
6E97
100
AcDbEntity
  8
0
100
AcDbSpline
210
0.0
220
0.0
230
1.0
 70
     8
 71
     3
 72
     8
 73
     4
 74
     0
 42
0.000000001
 43
0.0000000001
 40
0.0
 40
0.0
 40
0.0
 40
0.0
 40
0.0000422197635261
 40
0.0000422197635261
 40
0.0000422197635261
 40
0.0000422197635261
 10
39.99986805883134
 20
-4.999965153948343
 30
0.0
 10
39.99990377434723
 20
-4.999829953287829
 30
0.0
 10
39.99993950580211
 20
-4.999694726691117
 30
0.0
 10
39.99997525125425
 20
-4.999559481545935
 30
0.0
  0
SPLINE
  5
6EAB
330
6E97
100
AcDbEntity
  8
0
100
AcDbSpline
210
0.0
220
0.0
230
1.0
 70
     8
 71
     3
 72
    16
 73
    12
 74
     0
 42
0.000000001
 43
0.0000000001
 40
0.0
 40
0.0
 40
0.0
 40
0.0
 40
0.0733533230526734
 40
0.0733533230526734
 40
0.09592335627959
 40
0.09592335627959
 40
0.1192133067083933
 40
0.1192133067083933
 40
0.1498609463959348
 40
0.1498609463959348
 40
0.1581117495116152
 40
0.1581117495116152
 40
0.1581117495116152
 40
0.1581117495116152
 10
42.44885024133121
 20
-0.3130024495483751
 30
0.0
 10
42.65738925552689
 20
-0.225267687128295
 30
0.0
 10
42.87960318459262
 20
-0.1518036680856917
 30
0.0
 10
43.18390002878722
 20
-0.0815155620040529
 30
0.0
 10
43.25890535285478
 20
-0.0662975352748358
 30
0.0
 10
43.40897914773677
 20
-0.0405334977258349
 30
0.0
 10
43.4842936052691
 20
-0.0300649037443608
 30
0.0
 10
43.65404132985053
 20
-0.0117863598704704
 30
0.0
 10
43.7481775308803
 20
-0.0056407220498226
 30
0.0
 10
43.87164349008369
 20
-0.0017292611408634
 30
0.0
 10
43.89841981784214
 20
-0.0011187042346216
 30
0.0
 10
43.92552391866771
 20
-0.0006933959360765
 30
0.0
  0
SPLINE
  5
6EAC
330
6E97
100
AcDbEntity
  8
0
100
AcDbSpline
210
0.0
220
0.0
230
1.0
 70
     8
 71
     3
 72
     8
 73
     4
 74
     0
 42
0.000000001
 43
0.0000000001
 40
0.1647439205177407
 40
0.1647439205177407
 40
0.1647439205177407
 40
0.1647439205177407
 40
0.1656062598381853
 40
0.1656062598381853
 40
0.1656062598381853
 40
0.1656062598381853
 10
43.99138478154706
 20
-0.0000092777593993
 30
0.0
 10
43.99425510304939
 20
0.0000063340409531
 30
0.0
 10
43.99712672189376
 20
0.0000202195782543
 30
0.0
 10
43.99999934122251
 20
0.000032417509844
 30
0.0
  0
SPLINE
  5
6EAD
330
6E97
100
AcDbEntity
  8
0
100
AcDbSpline
210
0.0
220
0.0
230
1.0
 70
     8
 71
     3
 72
     8
 73
     4
 74
     0
 42
0.000000001
 43
0.0000000001
 40
0.1170872021847301
 40
0.1170872021847301
 40
0.1170872021847301
 40
0.1170872021847301
 40
0.1172146147126746
 40
0.1172146147126746
 40
0.1172146147126746
 40
0.1172146147126746
 10
43.99936559197148
 20
0.0000296989703482
 30
0.0
 10
43.99957828515761
 20
0.0000344469047102
 30
0.0
 10
43.99978937451628
 20
0.0000391457111338
 30
0.0
 10
43.99999883485407
 20
0.0000437954367632
 30
0.0
  0
SPLINE
  5
6EAE
330
6E97
100
AcDbEntity
  8
0
100
AcDbSpline
210
0.0
220
0.0
230
1.0
 70
     8
 71
     3
 72
    20
 73
    16
 74
     0
 42
0.000000001
 43
0.0000000001
 40
0.0226629364027512
 40
0.0226629364027512
 40
0.0226629364027512
 40
0.0226629364027512
 40
0.0246482288373738
 40
0.0246482288373738
 40
0.0262706311081478
 40
0.0262706311081478
 40
0.0300648886952076
 40
0.0300648886952076
 40
0.0349911968364237
 40
0.0349911968364237
 40
0.0415379419562339
 40
0.0415379419562339
 40
0.0548899711802545
 40
0.0548899711802545
 40
0.062853618260962
 40
0.062853618260962
 40
0.062853618260962
 40
0.062853618260962
 10
42.00035332366195
 20
-4.559123861696624
 30
0.0
 10
42.000353323662
 20
-4.559123861677893
 30
0.0
 10
42.0003511711647
 20
-4.559858863848623
 30
0.0
 10
42.00034377595165
 20
-4.562682127292464
 30
0.0
 10
42.00033914780092
 20
-4.564510594713545
 30
0.0
 10
42.00032069615194
 20
-4.572231484576377
 30
0.0
 10
42.00030271178565
 20
-4.580445128301716
 30
0.0
 10
42.00026147258756
 20
-4.601553239256358
 30
0.0
 10
42.0002375933207
 20
-4.615303653486887
 30
0.0
 10
42.00018785696986
 20
-4.647943744230964
 30
0.0
 10
42.000163598458
 20
-4.66716769298548
 30
0.0
 10
42.00010452108765
 20
-4.725995889861187
 30
0.0
 10
42.00008492544717
 20
-4.767224733989049
 30
0.0
 10
42.0000407499223
 20
-4.834725426116901
 30
0.0
 10
42.00002002565388
 20
-4.86033271090304
 30
0.0
 10
41.99999999999997
 20
-4.885748995880167
 30
0.0
  0
SPLINE
  5
6EAF
330
6E97
100
AcDbEntity
  8
0
100
AcDbSpline
210
0.0
220
0.0
230
1.0
 70
     8
 71
     3
 72
    10
 73
     6
 74
     0
 42
0.000000001
 43
0.0000000001
 40
0.0770136996484885
 40
0.0770136996484885
 40
0.0770136996484885
 40
0.0770136996484885
 40
0.0789303404552412
 40
0.0789303404552412
 40
0.083374330036451
 40
0.083374330036451
 40
0.083374330036451
 40
0.083374330036451
 10
41.99999999999997
 20
-4.996552327056563
 30
0.0
 10
42.00000415030597
 20
-4.998787866507311
 30
0.0
 10
42.00000797077622
 20
-5.000530191982626
 30
0.0
 10
42.00001828465992
 20
-5.004932401940191
 30
0.0
 10
42.00002182349886
 20
-5.005902953514888
 30
0.0
 10
42.00002182350535
 20
-5.005902955480834
 30
0.0
  0
SPLINE
  5
6EB0
330
6E97
100
AcDbEntity
  8
0
100
AcDbSpline
210
0.0
220
0.0
230
1.0
 70
     8
 71
     3
 72
    24
 73
    20
 74
     0
 42
0.000000001
 43
0.0000000001
 40
0.0
 40
0.0
 40
0.0
 40
0.0
 40
0.0466639745442805
 40
0.0466639745442805
 40
0.0958999197101649
 40
0.0958999197101649
 40
0.15186641766109
 40
0.15186641766109
 40
0.2330361092289675
 40
0.2330361092289675
 40
0.2658294139686132
 40
0.2658294139686132
 40
0.2821505729908585
 40
0.2821505729908585
 40
0.2903148593966124
 40
0.2903148593966124
 40
0.294619232593437
 40
0.294619232593437
 40
0.2991493385371658
 40
0.2991493385371658
 40
0.2991493385371658
 40
0.2991493385371658
 10
42.99655252000984
 20
-2.346526823506234
 30
0.0
 10
42.87951215159058
 20
-2.434723978797802
 30
0.0
 10
42.77626997174007
 20
-2.537317061199011
 30
0.0
 10
42.58537480255649
 20
-2.777445621107937
 30
0.0
 10
42.49903235037589
 20
-2.917755400539752
 30
0.0
 10
42.34472589367541
 20
-3.230751387858186
 30
0.0
 10
42.27901247339427
 20
-3.40777650643337
 30
0.0
 10
42.14991235141964
 20
-3.845895521823917
 30
0.0
 10
42.09911779844027
 20
-4.113336572134207
 30
0.0
 10
42.04858717640487
 20
-4.479807049083746
 30
0.0
 10
42.03641906130715
 20
-4.584791459750398
 30
0.0
 10
42.02131934701086
 20
-4.736111285973491
 30
0.0
 10
42.0168369238257
 20
-4.785048482305299
 30
0.0
 10
42.01050992306015
 20
-4.860350128265789
 30
0.0
 10
42.00844695713771
 20
-4.886047126641766
 30
0.0
 10
42.00535400959113
 20
-4.92651073472693
 30
0.0
 10
42.00429032353988
 20
-4.94078950517821
 30
0.0
 10
42.0021609362245
 20
-4.97014662273214
 30
0.0
 10
42.00108267226688
 20
-4.985452205587961
 30
0.0
 10
42.00008695857795
 20
-5.000007423524116
 30
0.0
  0
SPLINE
  5
6EB1
330
6E97
100
AcDbEntity
  8
0
100
AcDbSpline
210
0.0
220
0.0
230
1.0
 70
     8
 71
     3
 72
    10
 73
     6
 74
     0
 42
0.000000001
 43
0.0000000001
 40
0.0
 40
0.0
 40
0.0
 40
0.0
 40
0.0084317013461559
 40
0.0084317013461559
 40
0.0133200200076551
 40
0.0133200200076551
 40
0.0133200200076551
 40
0.0133200200076551
 10
44.00000430927874
 20
-2.000264305826276
 30
0.0
 10
43.98985045157328
 20
-2.000434449213789
 30
0.0
 10
43.98167778262931
 20
-2.000637254020913
 30
0.0
 10
43.9748026579796
 20
-2.000826284959908
 30
0.0
 10
43.97354909500325
 20
-2.000866348466371
 30
0.0
 10
43.97354909841559
 20
-2.000866348359133
 30
0.0
  0
SPLINE
  5
6EB2
330
6E97
100
AcDbEntity
  8
0
100
AcDbSpline
210
0.0
220
0.0
230
1.0
 70
     8
 71
     3
 72
    26
 73
    22
 74
     0
 42
0.000000001
 43
0.0000000001
 40
0.0202484911600375
 40
0.0202484911600375
 40
0.0202484911600375
 40
0.0202484911600375
 40
0.0202845026113909
 40
0.0202845026113909
 40
0.0205692855534988
 40
0.0205692855534988
 40
0.0210907500481953
 40
0.0210907500481953
 40
0.0226099483272539
 40
0.0226099483272539
 40
0.0497599767336092
 40
0.0497599767336092
 40
0.0700575152932716
 40
0.0700575152932716
 40
0.0926802298565609
 40
0.0926802298565609
 40
0.1103525681495631
 40
0.1103525681495631
 40
0.1307093266833855
 40
0.1307093266833855
 40
0.1361900453529312
 40
0.1361900453529312
 40
0.1361900453529312
 40
0.1361900453529312
 10
43.9935093089186
 20
-2.000381662675567
 30
0.0
 10
43.99344016076721
 20
-2.000385790831257
 30
0.0
 10
43.99336945310827
 20
-2.000390014183852
 30
0.0
 10
43.9927254150769
 20
-2.000428503284204
 30
0.0
 10
43.99204100244841
 20
-2.000469551012903
 30
0.0
 10
43.9898849601954
 20
-2.000599672822168
 30
0.0
 10
43.98820797343396
 20
-2.000701849692643
 30
0.0
 10
43.98163450593521
 20
-2.001107738080288
 30
0.0
 10
43.97646131451262
 20
-2.001438319777366
 30
0.0
 10
43.88111566601978
 20
-2.007754078653761
 30
0.0
 10
43.7910861541532
 20
-2.017517822505354
 30
0.0
 10
43.64150334726397
 20
-2.041626028092114
 30
0.0
 10
43.57921810690343
 20
-2.054392644521189
 30
0.0
 10
43.46198852604335
 20
-2.0833052111386
 30
0.0
 10
43.40749988527024
 20
-2.099948687222176
 30
0.0
 10
43.33354031802744
 20
-2.125152746327816
 30
0.0
 10
43.30794364907214
 20
-2.134933286957182
 30
0.0
 10
43.26788176573973
 20
-2.150896441735726
 30
0.0
 10
43.25514710059946
 20
-2.156489484302821
 30
0.0
 10
43.24952570388051
 20
-2.158948098622604
 30
0.0
 10
43.24892644500213
 20
-2.15921329226738
 30
0.0
 10
43.24892644296674
 20
-2.159213293166773
 30
0.0
  0
SPLINE
  5
6EB3
330
6E97
100
AcDbEntity
  8
0
100
AcDbSpline
210
0.0
220
0.0
230
1.0
 70
     8
 71
     3
 72
    14
 73
    10
 74
     0
 42
0.000000001
 43
0.0000000001
 40
0.0077546081287556
 40
0.0077546081287556
 40
0.0077546081287556
 40
0.0077546081287556
 40
0.0082879167271199
 40
0.0082879167271199
 40
0.0118189023712876
 40
0.0118189023712876
 40
0.0183996700920186
 40
0.0183996700920186
 40
0.0223269464385683
 40
0.0223269464385683
 40
0.0223269464385683
 40
0.0223269464385683
 10
42.00170545172302
 20
-4.973362823115419
 30
0.0
 10
42.00170545168674
 20
-4.973362823654073
 30
0.0
 10
42.00170294373883
 20
-4.973400055982419
 30
0.0
 10
42.00166675004083
 20
-4.973938468747673
 30
0.0
 10
42.00153760472331
 20
-4.975864861022975
 30
0.0
 10
42.00107439014583
 20
-4.982901697961447
 30
0.0
 10
42.00066742607687
 20
-4.989246177814171
 30
0.0
 10
42.00020607570042
 20
-4.996636032663877
 30
0.0
 10
42.00007209208492
 20
-4.998827032446961
 30
0.0
 10
42.00000669194095
 20
-4.999902784692457
 30
0.0
  0
SPLINE
  5
6EB4
330
6E97
100
AcDbEntity
  8
0
100
AcDbSpline
210
0.0
220
0.0
230
1.0
 70
     8
 71
     3
 72
     8
 73
     4
 74
     0
 42
0.000000001
 43
0.0000000001
 40
0.0268159217682295
 40
0.0268159217682295
 40
0.0268159217682295
 40
0.0268159217682295
 40
0.0643673488900185
 40
0.0643673488900185
 40
0.0643673488900185
 40
0.0643673488900185
 10
42.00008084527649
 20
-4.997395232122518
 30
0.0
 10
42.00008084527638
 20
-4.997395232125377
 30
0.0
 10
42.00002356507233
 20
-4.99910282655327
 30
0.0
 10
42.00000637113714
 20
-4.999752963417116
 30
0.0
  0
SPLINE
  5
6EB5
330
6E97
100
AcDbEntity
  8
0
100
AcDbSpline
210
0.0
220
0.0
230
1.0
 70
     8
 71
     3
 72
    28
 73
    24
 74
     0
 42
0.000000001
 43
0.0000000001
 40
0.0841361489049458
 40
0.0841361489049458
 40
0.0841361489049458
 40
0.0841361489049458
 40
0.0858448723843923
 40
0.0858448723843923
 40
0.0898698186616763
 40
0.0898698186616763
 40
0.0944155925781658
 40
0.0944155925781658
 40
0.0955981319655969
 40
0.0955981319655969
 40
0.0995569045591701
 40
0.0995569045591701
 40
0.1166187588923332
 40
0.1166187588923332
 40
0.1518116656062117
 40
0.1518116656062117
 40
0.1549444270395546
 40
0.1549444270395546
 40
0.1571420653744084
 40
0.1571420653744084
 40
0.1576914747721342
 40
0.1576914747721342
 40
0.1577601509456931
 40
0.1577601509456931
 40
0.1577601509456931
 40
0.1577601509456931
 10
42.00000835842124
 20
-5.00066525038362
 30
0.0
 10
42.0000097476521
 20
-5.000773474154654
 30
0.0
 10
42.00001142975341
 20
-5.000904046014424
 30
0.0
 10
42.00001857604589
 20
-5.001456018668052
 30
0.0
 10
42.00002512069521
 20
-5.001960384334015
 30
0.0
 10
42.00005834318077
 20
-5.004482224361337
 30
0.0
 10
42.00006929887044
 20
-5.00547054107688
 30
0.0
 10
42.00029455417162
 20
-5.021988022704052
 30
0.0
 10
42.00034914415113
 20
-5.025955877484476
 30
0.0
 10
42.00058505441027
 20
-5.042915738911919
 30
0.0
 10
42.00077737006371
 20
-5.056289476505502
 30
0.0
 10
42.00181393818291
 20
-5.126074930918747
 30
0.0
 10
42.00276517367493
 20
-5.182486499954461
 30
0.0
 10
42.00605543318779
 20
-5.355767757323219
 30
0.0
 10
42.00880838013634
 20
-5.473081757650891
 30
0.0
 10
42.01237729197926
 20
-5.600730300470208
 30
0.0
 10
42.01267311647574
 20
-5.611164713650484
 30
0.0
 10
42.01318336431113
 20
-5.628919233458481
 30
0.0
 10
42.01339572757237
 20
-5.636239245244812
 30
0.0
 10
42.01366365666785
 20
-5.645389342273063
 30
0.0
 10
42.01371736622426
 20
-5.647219365538336
 30
0.0
 10
42.0137779283993
 20
-5.649278145945723
 30
0.0
 10
42.01378465945929
 20
-5.649506899380368
 30
0.0
 10
42.01379139244825
 20
-5.649735652873256
 30
0.0
  0
ARC
  5
6EB6
330
6E97
100
AcDbEntity
  8
0
100
AcDbCircle
 10
-43.99999999999997
 20
-4.000000000000079
 30
0.0
 40
2.0
100
AcDbArc
 50
0.0
 51
90.00000000000079
  0
ARC
  5
6EB7
330
6E97
100
AcDbEntity
  8
0
100
AcDbCircle
 10
-43.99999999999997
 20
-4.000000000000079
 30
0.0
 40
4.0
100
AcDbArc
 50
0.0
 51
90.00000000000024
  0
LINE
  5
6EB8
330
6E97
100
AcDbEntity
  8
0
100
AcDbLine
 10
-41.99999999999999
 20
-46.99999999999999
 30
0.0
 11
-42.0
 21
-85.40660759230604
 31
0.0
  0
LINE
  5
6EB9
330
6E97
100
AcDbEntity
  8
0
100
AcDbLine
 10
-41.99999999999998
 20
-4.00000000000008
 30
0.0
 11
-41.99999999999999
 21
-47.0
 31
0.0
  0
LINE
  5
6EBA
330
6E97
100
AcDbEntity
  8
0
100
AcDbLine
 10
-38.00000000000002
 20
-88.0
 30
0.0
 11
37.99999999999999
 21
-88.0
 31
0.0
  0
LINE
  5
6EBB
330
6E97
100
AcDbEntity
  8
0
100
AcDbLine
 10
-40.0
 20
-85.40660759230604
 30
0.0
 11
-40.0
 21
-46.99999999999999
 31
0.0
  0
LINE
  5
6EBC
330
6E97
100
AcDbEntity
  8
0
100
AcDbLine
 10
-40.0
 20
-47.0
 30
0.0
 11
-39.99999999999999
 21
-4.000000000000083
 31
0.0
  0
LINE
  5
6EBD
330
6E97
100
AcDbEntity
  8
0
100
AcDbLine
 10
-81.50000000000007
 20
-2.00000000000008
 30
0.0
 11
-43.99999999999998
 21
-2.000000000000079
 31
0.0
  0
LINE
  5
6EBE
330
6E97
100
AcDbEntity
  8
0
100
AcDbLine
 10
-81.50000000000007
 20
0.0
 30
0.0
 11
-81.50000000000007
 21
-2.00000000000008
 31
0.0
  0
LINE
  5
6EBF
330
6E97
100
AcDbEntity
  8
0
100
AcDbLine
 10
-43.99999999999998
 20
0.0
 30
0.0
 11
-81.50000000000007
 21
0.0
 31
0.0
  0
LINE
  5
6EC0
330
6E97
100
AcDbEntity
  8
0
100
AcDbLine
 10
-40.0
 20
-47.0
 30
0.0
 11
-41.99999999999999
 21
-47.0
 31
0.0
  0
LINE
  5
6EC1
330
6E97
100
AcDbEntity
  8
0
100
AcDbLine
 10
37.99999999999999
 20
-4.000000000000079
 30
0.0
 11
-37.99999999999999
 21
-4.00000000000007
 31
0.0
  0
SPLINE
  5
6EC2
330
6E97
100
AcDbEntity
  8
0
100
AcDbSpline
210
0.0
220
0.0
230
1.0
 70
     8
 71
     3
 72
    12
 73
     8
 74
     0
 42
0.000000001
 43
0.0000000001
 40
0.0
 40
0.0
 40
0.0
 40
0.0
 40
0.107369640463087
 40
0.107369640463087
 40
0.2686138215391986
 40
0.2686138215391986
 40
0.4298588820633779
 40
0.4298588820633779
 40
0.4298588820633779
 40
0.4298588820633779
 10
-40.62620722994451
 20
-88.0
 30
0.0
 10
-40.84126916349194
 20
-87.78367359405766
 30
0.0
 10
-41.03570194751977
 20
-87.5679743906037
 30
0.0
 10
-41.46221644329101
 20
-87.0267858405257
 30
0.0
 10
-41.66148200965438
 20
-86.70399576210545
 30
0.0
 10
-41.93124534639022
 20
-86.054261975158
 30
0.0
 10
-42.00000000000001
 20
-85.73148120858943
 30
0.0
 10
-42.00000000000001
 20
-85.40660759230604
 30
0.0
  0
LINE
  5
6EC3
330
6E97
100
AcDbEntity
  8
0
100
AcDbLine
 10
-42.0
 20
-85.40660759230604
 30
0.0
 11
-40.5465457977357
 21
-85.40660759230604
 31
0.0
  0
LINE
  5
6EC4
330
6E97
100
AcDbEntity
  8
0
100
AcDbLine
 10
-40.5465457977357
 20
-85.40660759230604
 30
0.0
 11
-40.0
 21
-85.40660759230604
 31
0.0
  0
SPLINE
  5
6EC5
330
6E97
100
AcDbEntity
  8
0
100
AcDbSpline
210
0.0
220
0.0
230
1.0
 70
     8
 71
     3
 72
    10
 73
     6
 74
     0
 42
0.000000001
 43
0.0000000001
 40
0.0
 40
0.0
 40
0.0
 40
0.0
 40
0.1558853844832507
 40
0.1558853844832507
 40
0.3117707703913502
 40
0.3117707703913502
 40
0.3117707703913502
 40
0.3117707703913502
 10
-40.0
 20
-85.40660759230602
 30
0.0
 10
-40.0
 20
-85.84048187034433
 30
0.0
 10
-39.93868300598423
 20
-86.26943176251501
 30
0.0
 10
-39.70170357725047
 20
-87.13717582199265
 30
0.0
 10
-39.52877510854718
 20
-87.56612571799596
 30
0.0
 10
-39.31310361497227
 20
-88.0
 30
0.0
  0
LINE
  5
6EC6
330
6E97
100
AcDbEntity
  8
0
100
AcDbLine
 10
-39.31310361497228
 20
-87.99999999999995
 30
0.0
 11
-38.00000000000001
 21
-88.00000000000004
 31
0.0
  0
LINE
  5
6EC7
330
6E97
100
AcDbEntity
  8
0
100
AcDbLine
 10
-37.99999999999999
 20
-4.00000000000007
 30
0.0
 11
-39.36399672012499
 21
-4.000000000000069
 31
0.0
  0
LINE
  5
6EC8
330
6E97
100
AcDbEntity
  8
0
100
AcDbLine
 10
-39.31310361497228
 20
-88.0
 30
0.0
 11
-40.62620722994453
 21
-88.0
 31
0.0
  0
LINE
  5
6EC9
330
6E97
100
AcDbEntity
  8
0
100
AcDbLine
 10
41.99999999999996
 20
-4.000000000000001
 30
0.0
 11
41.99999999999995
 21
-47.00000000000001
 31
0.0
  0
LINE
  5
6ECA
330
6E97
100
AcDbEntity
  8
0
100
AcDbLine
 10
41.99999999999997
 20
-47.00000000000001
 30
0.0
 11
41.99999999999998
 21
-85.40660759230604
 31
0.0
  0
LINE
  5
6ECB
330
6E97
100
AcDbEntity
  8
0
100
AcDbLine
 10
39.99999999999999
 20
-85.40660759230604
 30
0.0
 11
39.99999999999997
 21
-47.00000000000001
 31
0.0
  0
LINE
  5
6ECC
330
6E97
100
AcDbEntity
  8
0
100
AcDbLine
 10
39.99999999999996
 20
-47.00000000000001
 30
0.0
 11
39.99999999999996
 21
-4.000000000000003
 31
0.0
  0
LINE
  5
6ECD
330
6E97
100
AcDbEntity
  8
0
100
AcDbLine
 10
81.49999999999995
 20
0.0
 30
0.0
 11
81.49999999999995
 21
-2.000000000000016
 31
0.0
  0
LINE
  5
6ECE
330
6E97
100
AcDbEntity
  8
0
100
AcDbLine
 10
81.49999999999995
 20
-2.000000000000016
 30
0.0
 11
43.99999999999995
 21
-2.000000000000005
 31
0.0
  0
LINE
  5
6ECF
330
6E97
100
AcDbEntity
  8
0
100
AcDbLine
 10
43.99999999999995
 20
0.0
 30
0.0
 11
81.49999999999995
 21
0.0
 31
0.0
  0
LINE
  5
6ED0
330
6E97
100
AcDbEntity
  8
0
100
AcDbLine
 10
39.99999999999996
 20
-47.00000000000001
 30
0.0
 11
41.99999999999995
 21
-47.00000000000001
 31
0.0
  0
ARC
  5
6ED1
330
6E97
100
AcDbEntity
  8
0
100
AcDbCircle
 10
43.99999999999995
 20
-4.000000000000007
 30
0.0
 40
2.0
100
AcDbArc
 50
90.0
 51
180.0
  0
ARC
  5
6ED2
330
6E97
100
AcDbEntity
  8
0
100
AcDbCircle
 10
43.99999999999995
 20
-4.000000000000007
 30
0.0
 40
4.0
100
AcDbArc
 50
90.00000000000012
 51
180.0
  0
LINE
  5
6ED3
330
6E97
100
AcDbEntity
  8
0
100
AcDbLine
 10
39.36399672012498
 20
-4.000000000000043
 30
0.0
 11
37.99999999999999
 21
-4.000000000000048
 31
0.0
  0
SPLINE
  5
6ED4
330
6E97
100
AcDbEntity
  8
0
100
AcDbSpline
210
0.0
220
0.0
230
1.0
 70
     8
 71
     3
 72
    12
 73
     8
 74
     0
 42
0.000000001
 43
0.0000000001
 40
0.0
 40
0.0
 40
0.0
 40
0.0
 40
0.1073696404631127
 40
0.1073696404631127
 40
0.2686138215393048
 40
0.2686138215393048
 40
0.4298588820635413
 40
0.4298588820635413
 40
0.4298588820635413
 40
0.4298588820635413
 10
41.99999999999999
 20
-85.40660759230604
 30
0.0
 10
41.99999999999999
 20
-85.62293399824842
 30
0.0
 10
41.96951458004662
 20
-85.83863320170237
 30
0.0
 10
41.81827865511666
 20
-86.37982175178031
 30
0.0
 10
41.660888230789
 20
-86.70261183020048
 30
0.0
 10
41.22493225005108
 20
-87.35234561714804
 30
0.0
 10
40.94918189303338
 20
-87.67512638371659
 30
0.0
 10
40.62620722994451
 20
-88.0
 30
0.0
  0
LINE
  5
6ED5
330
6E97
100
AcDbEntity
  8
0
100
AcDbLine
 10
39.31310361497226
 20
-88.00000000000004
 30
0.0
 11
40.62620722994451
 21
-88.00000000000009
 31
0.0
  0
LINE
  5
6ED6
330
6E97
100
AcDbEntity
  8
0
100
AcDbLine
 10
38.0
 20
-88.0
 30
0.0
 11
39.31310361497226
 21
-88.00000000000006
 31
0.0
  0
LINE
  5
6ED7
330
6E97
100
AcDbEntity
  8
0
100
AcDbLine
 10
40.54654579773568
 20
-85.40660759230604
 30
0.0
 11
41.99999999999998
 21
-85.40660759230604
 31
0.0
  0
LINE
  5
6ED8
330
6E97
100
AcDbEntity
  8
0
100
AcDbLine
 10
39.99999999999999
 20
-85.40660759230604
 30
0.0
 11
40.54654579773568
 21
-85.40660759230604
 31
0.0
  0
SPLINE
  5
6ED9
330
6E97
100
AcDbEntity
  8
0
100
AcDbSpline
210
0.0
220
0.0
230
1.0
 70
     8
 71
     3
 72
    10
 73
     6
 74
     0
 42
0.000000001
 43
0.0000000001
 40
0.0
 40
0.0
 40
0.0
 40
0.0
 40
0.1558853844832315
 40
0.1558853844832315
 40
0.3117707703913624
 40
0.3117707703913624
 40
0.3117707703913624
 40
0.3117707703913624
 10
39.31310361497225
 20
-88.0
 30
0.0
 10
39.5287751065758
 20
-87.56612572196178
 30
0.0
 10
39.701703574112
 20
-87.13717582979093
 30
0.0
 10
39.93868300486325
 20
-86.26943177031325
 30
0.0
 10
39.99999999999999
 20
-85.84048187431021
 30
0.0
 10
39.99999999999999
 20
-85.40660759230602
 30
0.0
  0
CIRCLE
  5
6EDA
330
6E97
100
AcDbEntity
  8
0
100
AcDbCircle
 10
-0.0000000000000104
 20
-50.00000000000001
 30
0.0
 40
2.5
  0
CIRCLE
  5
6EDB
330
6E97
100
AcDbEntity
  8
0
100
AcDbCircle
 10
-0.0000000000000128
 20
-70.00000000000001
 30
0.0
 40
2.5
  0
ENDBLK
  5
6E99
330
6E97
100
AcDbEntity
  8
0
100
AcDbBlockEnd
  0
BLOCK
  5
6EDD
330
6EDC
100
AcDbEntity
  8
0
100
AcDbBlockBegin
  2
SAE250_80_2-Bottom
 70
     0
 10
0.0
 20
0.0
 30
0.0
  3
SAE250_80_2-Bottom
  1

  0
SPLINE
  5
6EDF
330
6EDC
100
AcDbEntity
  8
0
100
AcDbSpline
210
0.0
220
0.0
230
1.0
 70
     8
 71
     3
 72
    17
 73
    13
 74
     0
 42
0.000000001
 43
0.0000000001
 40
-1.0
 40
-1.0
 40
-1.0
 40
-1.0
 40
-0.794399946755927
 40
-0.794399946755927
 40
-0.794399946755927
 40
-0.3971999733779635
 40
-0.3971999733779635
 40
-0.3971999733779635
 40
-0.1361921135530204
 40
-0.1361921135530204
 40
-0.1361921135530204
 40
-0.0056721603017129
 40
-0.0056721603017129
 40
-0.0056721603017129
 40
-0.0056721603017129
 10
-39.36399672012498
 20
4.000000000000073
 30
0.0
 10
-39.72013492356577
 20
3.994268491790995
 30
0.0
 10
-40.06711479232822
 20
3.830269553735012
 30
0.0
 10
-40.37964836746327
 20
3.560990233788557
 30
0.0
 10
-40.98343385177925
 20
3.040767903948029
 30
0.0
 10
-41.50491320262369
 20
2.149874161027155
 30
0.0
 10
-42.07318226230788
 20
1.393088303683598
 30
0.0
 10
-42.44660295972511
 20
0.8957895367900125
 30
0.0
 10
-42.82693352433575
 20
0.4457636161003772
 30
0.0
 10
-43.26896281544353
 20
0.2022132711131599
 30
0.0
 10
-43.49000459728793
 20
0.0804231470019871
 30
0.0
 10
-43.71070251974592
 20
0.0063488608528292
 30
0.0
 10
-43.96645488112868
 20
0.000389364731628
 30
0.0
  0
ARC
  5
6EE0
330
6EDC
100
AcDbEntity
  8
0
100
AcDbCircle
 10
-43.99999999999999
 20
4.00000000000007
 30
0.0
 40
4.0
100
AcDbArc
 50
292.8271380133846
 51
292.830285707963
  0
ARC
  5
6EE1
330
6EDC
100
AcDbEntity
  8
0
100
AcDbCircle
 10
-43.99999999999999
 20
4.00000000000007
 30
0.0
 40
4.000000000000001
100
AcDbArc
 50
292.830285707963
 51
357.5128926962515
  0
SPLINE
  5
6EE2
330
6EDC
100
AcDbEntity
  8
0
100
AcDbSpline
210
0.0
220
0.0
230
1.0
 70
     8
 71
     3
 72
    14
 73
    10
 74
     0
 42
0.000000001
 43
0.0000000001
 40
0.0
 40
0.0
 40
0.0
 40
0.0
 40
0.3423533722250978
 40
0.3423533722250978
 40
0.3423533722250978
 40
0.7827009960308155
 40
0.7827009960308155
 40
0.7827009960308155
 40
1.0
 40
1.0
 40
1.0
 40
1.0
 10
-44.00000000000003
 20
2.000000000000067
 30
0.0
 10
-43.49409523948687
 20
1.999941038473004
 30
0.0
 10
-43.09860667894163
 20
2.232363320538251
 30
0.0
 10
-42.76488920582941
 20
2.543228518245809
 30
0.0
 10
-42.3356493962364
 20
2.94307488238331
 30
0.0
 10
-41.98412299134921
 20
3.45708907842253
 30
0.0
 10
-41.51820811650577
 20
3.758115316116992
 30
0.0
 10
-41.2882924027274
 20
3.906663186216224
 30
0.0
 10
-41.03755547610854
 20
3.996395188931244
 30
0.0
 10
-40.72799344024831
 20
4.000000000000001
 30
0.0
  0
LINE
  5
6EE3
330
6EDC
100
AcDbEntity
  8
0
100
AcDbLine
 10
-40.72799344024999
 20
4.999999999999994
 30
0.0
 11
-42.0
 21
4.999999999999994
 31
0.0
  0
SPLINE
  5
6EE4
330
6EDC
100
AcDbEntity
  8
0
100
AcDbSpline
210
0.0
220
0.0
230
1.0
 70
     8
 71
     3
 72
    24
 73
    20
 74
     0
 42
0.000000001
 43
0.0000000001
 40
0.0659465423646999
 40
0.0659465423646999
 40
0.0659465423646999
 40
0.0659465423646999
 40
0.0688226644678651
 40
0.0688226644678651
 40
0.0810974413272967
 40
0.0810974413272967
 40
0.0927977463379658
 40
0.0927977463379658
 40
0.1005236231534617
 40
0.1005236231534617
 40
0.102106311083954
 40
0.102106311083954
 40
0.1029547959531813
 40
0.1029547959531813
 40
0.1041378089880554
 40
0.1041378089880554
 40
0.1054308068919112
 40
0.1054308068919112
 40
0.1056703850500494
 40
0.1056703850500494
 40
0.1056703850500494
 40
0.1056703850500494
 10
-43.72695466480212
 20
0.0174130093301296
 30
0.0
 10
-43.72695466485152
 20
0.0174130093247306
 30
0.0
 10
-43.72739940463819
 20
0.0173642864376621
 30
0.0
 10
-43.732139555377
 20
0.016844014168392
 30
0.0
 10
-43.74447705078549
 20
0.015469805943259
 30
0.0
 10
-43.77742143042635
 20
0.0121540905501562
 30
0.0
 10
-43.79776536336528
 20
0.010228272642119
 30
0.0
 10
-43.83784113711965
 20
0.0070814082943857
 30
0.0
 10
-43.855233334983
 20
0.0058343455422608
 30
0.0
 10
-43.88224831462966
 20
0.0042908546037101
 30
0.0
 10
-43.88718012065388
 20
0.0040211649386125
 30
0.0
 10
-43.89508928088176
 20
0.0036120918999954
 30
0.0
 10
-43.89793650915932
 20
0.0034690735316566
 30
0.0
 10
-43.90469915828542
 20
0.0031396153091784
 30
0.0
 10
-43.90865358134624
 20
0.0029554107907398
 30
0.0
 10
-43.91651032534737
 20
0.0026039537403363
 30
0.0
 10
-43.92045212198528
 20
0.0024360218594182
 30
0.0
 10
-43.92491639751082
 20
0.002253366432596
 30
0.0
 10
-43.92560915080323
 20
0.0022252512802531
 30
0.0
 10
-43.92629721908708
 20
0.0021975446692026
 30
0.0
  0
SPLINE
  5
6EE5
330
6EDC
100
AcDbEntity
  8
0
100
AcDbSpline
210
0.0
220
0.0
230
1.0
 70
     8
 71
     3
 72
     8
 73
     4
 74
     0
 42
0.000000001
 43
0.0000000001
 40
0.116011030822673
 40
0.116011030822673
 40
0.116011030822673
 40
0.116011030822673
 40
0.1163844562893699
 40
0.1163844562893699
 40
0.1163844562893699
 40
0.1163844562893699
 10
-43.99817501124525
 20
0.000001368777814
 30
0.0
 10
-43.99879654614402
 20
-0.0000124540668934
 30
0.0
 10
-43.99940473578737
 20
-0.0000258674494421
 30
0.0
 10
-43.99999895152229
 20
-0.0000388730306334
 30
0.0
  0
SPLINE
  5
6EE6
330
6EDC
100
AcDbEntity
  8
0
100
AcDbSpline
210
0.0
220
0.0
230
1.0
 70
     8
 71
     3
 72
    16
 73
    12
 74
     0
 42
0.000000001
 43
0.0000000001
 40
0.0
 40
0.0
 40
0.0
 40
0.0
 40
0.0733616944689142
 40
0.0733616944689142
 40
0.0959482528362365
 40
0.0959482528362365
 40
0.1192435123350789
 40
0.1192435123350789
 40
0.1498671792561075
 40
0.1498671792561075
 40
0.1657155249173798
 40
0.1657155249173798
 40
0.1657155249173798
 40
0.1657155249173798
 10
-42.44819047146879
 20
0.3132800823239017
 30
0.0
 10
-42.65667000650267
 20
0.2255264284585576
 30
0.0
 10
-42.87875214871419
 20
0.1520443170824672
 30
0.0
 10
-43.18310720362434
 20
0.0816725815206002
 30
0.0
 10
-43.25816661168715
 20
0.066428654233345
 30
0.0
 10
-43.40830652201623
 20
0.0406270729213586
 30
0.0
 10
-43.48363411188166
 20
0.0301441263374113
 30
0.0
 10
-43.65330155372531
 20
0.0118458421325486
 30
0.0
 10
-43.74735390491212
 20
0.0056858353247888
 30
0.0
 10
-43.89480263014316
 20
0.0009845856203948
 30
0.0
 10
-43.94722168089397
 20
0.000191035560648
 30
0.0
 10
-43.99999931095706
 20
-0.0000324304474441
 30
0.0
  0
SPLINE
  5
6EE7
330
6EDC
100
AcDbEntity
  8
0
100
AcDbSpline
210
0.0
220
0.0
230
1.0
 70
     8
 71
     3
 72
    24
 73
    20
 74
     0
 42
0.000000001
 43
0.0000000001
 40
0.0
 40
0.0
 40
0.0
 40
0.0
 40
0.0482498896093618
 40
0.0482498896093618
 40
0.0994566641660536
 40
0.0994566641660536
 40
0.157372970500013
 40
0.157372970500013
 40
0.2383692335751757
 40
0.2383692335751757
 40
0.2670116702096202
 40
0.2670116702096202
 40
0.2811702660623532
 40
0.2811702660623532
 40
0.2883470027385098
 40
0.2883470027385098
 40
0.292144251174768
 40
0.292144251174768
 40
0.2961282439018827
 40
0.2961282439018827
 40
0.2961282439018827
 40
0.2961282439018827
 10
-42.9694477083263
 20
2.368248759502058
 30
0.0
 10
-42.84922595436601
 20
2.461258778159177
 30
0.0
 10
-42.74419086883392
 20
2.569040282213697
 30
0.0
 10
-42.5514695660718
 20
2.820535362849931
 30
0.0
 10
-42.46501656450866
 20
2.967724665821359
 30
0.0
 10
-42.31239166607263
 20
3.29530809316546
 30
0.0
 10
-42.2485426691241
 20
3.480120543265665
 30
0.0
 10
-42.12759763482396
 20
3.92674038365068
 30
0.0
 10
-42.08158568315861
 20
4.194953926218555
 30
0.0
 10
-42.03845518309571
 20
4.546489591495937
 30
0.0
 10
-42.02894877850952
 20
4.637530773239705
 30
0.0
 10
-42.01713472082835
 20
4.768088189891798
 30
0.0
 10
-42.01360513706656
 20
4.810344162287051
 30
0.0
 10
-42.00852498292481
 20
4.876548949894548
 30
0.0
 10
-42.00684468815724
 20
4.899447660027039
 30
0.0
 10
-42.00433455194697
 20
4.935333244045672
 30
0.0
 10
-42.00347169212185
 20
4.947985207717661
 30
0.0
 10
-42.00175211594083
 20
4.97386553719433
 30
0.0
 10
-42.0008842448514
 20
4.987306355664677
 30
0.0
 10
-42.00008757695962
 20
5.000006266292402
 30
0.0
  0
SPLINE
  5
6EE8
330
6EDC
100
AcDbEntity
  8
0
100
AcDbSpline
210
0.0
220
0.0
230
1.0
 70
     8
 71
     3
 72
    18
 73
    14
 74
     0
 42
0.000000001
 43
0.0000000001
 40
0.0
 40
0.0
 40
0.0
 40
0.0
 40
0.0020593478614801
 40
0.0020593478614801
 40
0.0039413191141887
 40
0.0039413191141887
 40
0.0054014703647053
 40
0.0054014703647053
 40
0.0064099391326486
 40
0.0064099391326486
 40
0.0079087351584089
 40
0.0079087351584089
 40
0.0081926395907962
 40
0.0081926395907962
 40
0.0081926395907962
 40
0.0081926395907962
 10
-43.9999958874846
 20
2.000127998829861
 30
0.0
 10
-43.99341238530047
 20
2.000238130687164
 30
0.0
 10
-43.98695649196007
 20
2.000360697915744
 30
0.0
 10
-43.97519794751477
 20
2.000611819806954
 30
0.0
 10
-43.96978680655211
 20
2.000740353268415
 30
0.0
 10
-43.96104576162883
 20
2.000966741779536
 30
0.0
 10
-43.9574801435354
 20
2.001066105277501
 30
0.0
 10
-43.95236621305102
 20
2.001215772526966
 30
0.0
 10
-43.95051863536584
 20
2.001272149332036
 30
0.0
 10
-43.94686356048473
 20
2.001386207887727
 30
0.0
 10
-43.94551156442239
 20
2.001430866965622
 30
0.0
 10
-43.94510266978278
 20
2.001444323890333
 30
0.0
 10
-43.94507077078054
 20
2.001445378269056
 30
0.0
 10
-43.94507077077256
 20
2.001445378269319
 30
0.0
  0
SPLINE
  5
6EE9
330
6EDC
100
AcDbEntity
  8
0
100
AcDbSpline
210
0.0
220
0.0
230
1.0
 70
     8
 71
     3
 72
     8
 73
     4
 74
     0
 42
0.000000001
 43
0.0000000001
 40
0.0039795630078667
 40
0.0039795630078667
 40
0.0039795630078667
 40
0.0039795630078667
 40
0.0106832951458011
 40
0.0106832951458011
 40
0.0106832951458011
 40
0.0106832951458011
 10
-43.99590501809303
 20
2.000198291227252
 30
0.0
 10
-43.99423349270509
 20
2.000255827770395
 30
0.0
 10
-43.99364439869009
 20
2.000278783427698
 30
0.0
 10
-43.99364439868455
 20
2.000278783427906
 30
0.0
  0
SPLINE
  5
6EEA
330
6EDC
100
AcDbEntity
  8
0
100
AcDbSpline
210
0.0
220
0.0
230
1.0
 70
     8
 71
     3
 72
    20
 73
    16
 74
     0
 42
0.000000001
 43
0.0000000001
 40
0.0200704591503497
 40
0.0200704591503497
 40
0.0200704591503497
 40
0.0200704591503497
 40
0.0201422938818326
 40
0.0201422938818326
 40
0.0207279040820036
 40
0.0207279040820036
 40
0.020992420011845
 40
0.020992420011845
 40
0.0213370908272465
 40
0.0213370908272465
 40
0.022159519273212
 40
0.022159519273212
 40
0.050110856370859
 40
0.050110856370859
 40
0.0635332838456145
 40
0.0635332838456145
 40
0.0635332838456145
 40
0.0635332838456145
 10
-43.99669047321779
 20
2.000184503398241
 30
0.0
 10
-43.99663949142566
 20
2.000187365472044
 30
0.0
 10
-43.99658630485874
 20
2.00019035243676
 30
0.0
 10
-43.99607662582416
 20
2.00021898884295
 30
0.0
 10
-43.99546049624143
 20
2.000253619754039
 30
0.0
 10
-43.99397029841401
 20
2.000338242842006
 30
0.0
 10
-43.99341217469146
 20
2.000370027266964
 30
0.0
 10
-43.99193460174216
 20
2.000454637634617
 30
0.0
 10
-43.99094009733402
 20
2.00051191026028
 30
0.0
 10
-43.98740865271645
 20
2.000717045072955
 30
0.0
 10
-43.98462224531546
 20
2.000881837617248
 30
0.0
 10
-43.88942253920867
 20
2.006631859667654
 30
0.0
 10
-43.79538297314929
 20
2.016228143477911
 30
0.0
 10
-43.6634885008365
 20
2.036865632765398
 30
0.0
 10
-43.6211449163375
 20
2.044657011446548
 30
0.0
 10
-43.58111287046963
 20
2.053150239214561
 30
0.0
  0
SPLINE
  5
6EEB
330
6EDC
100
AcDbEntity
  8
0
100
AcDbSpline
210
0.0
220
0.0
230
1.0
 70
     8
 71
     3
 72
     8
 73
     4
 74
     0
 42
0.000000001
 43
0.0000000001
 40
0.0
 40
0.0
 40
0.0
 40
0.0
 40
0.0159992846588367
 40
0.0159992846588367
 40
0.0159992846588367
 40
0.0159992846588367
 10
-44.00001079077643
 20
2.000434578565329
 30
0.0
 10
-43.99255959283201
 20
2.000624103847271
 30
0.0
 10
-43.98685808359689
 20
2.000823112502186
 30
0.0
 10
-43.98348661814698
 20
2.000950794000326
 30
0.0
  0
SPLINE
  5
6EEC
330
6EDC
100
AcDbEntity
  8
0
100
AcDbSpline
210
0.0
220
0.0
230
1.0
 70
     8
 71
     3
 72
    17
 73
    13
 74
     0
 42
0.000000001
 43
0.0000000001
 40
0.0
 40
0.0
 40
0.0
 40
0.0
 40
0.1804105431476218
 40
0.1804105431476218
 40
0.1804105431476218
 40
0.5902052715738109
 40
0.5902052715738109
 40
0.5902052715738109
 40
0.8812223277953307
 40
0.8812223277953307
 40
0.8812223277953307
 40
1.0
 40
1.0
 40
1.0
 40
1.0
 10
44.00000000000003
 20
0.0000000000000224
 30
0.0
 10
43.64203521434801
 20
0.0000009453877425
 30
0.0
 10
43.34229587787692
 20
0.1298751707960961
 30
0.0
 10
43.04862484245682
 20
0.3429092920164086
 30
0.0
 10
42.3815638153851
 20
0.8268070638864035
 30
0.0
 10
41.82748154156162
 20
1.745075991374041
 30
0.0
 10
41.26289114509543
 20
2.536487282473809
 30
0.0
 10
40.86194544288608
 20
3.098510579066338
 30
0.0
 10
40.43446168909684
 20
3.603818027232989
 30
0.0
 10
39.96917045081318
 20
3.84444306264501
 30
0.0
 10
39.77926333369047
 20
3.94265339420252
 30
0.0
 10
39.58255486405301
 20
3.996483332077225
 30
0.0
 10
39.36399672212808
 20
4.000000000062867
 30
0.0
  0
ARC
  5
6EED
330
6EDC
100
AcDbEntity
  8
0
100
AcDbCircle
 10
43.99999999999999
 20
4.000000000000008
 30
0.0
 40
4.0
100
AcDbArc
 50
182.4926695368221
 51
247.1799573634666
  0
ARC
  5
6EEE
330
6EDC
100
AcDbEntity
  8
0
100
AcDbCircle
 10
43.99999999999999
 20
4.000000000000008
 30
0.0
 40
4.0
100
AcDbArc
 50
247.1799573634666
 51
247.183115127011
  0
SPLINE
  5
6EEF
330
6EDC
100
AcDbEntity
  8
0
100
AcDbSpline
210
0.0
220
0.0
230
1.0
 70
     8
 71
     3
 72
    14
 73
    10
 74
     0
 42
0.000000001
 43
0.0000000001
 40
-1.0
 40
-1.0
 40
-1.0
 40
-1.0
 40
-0.7057745167849263
 40
-0.7057745167849263
 40
-0.7057745167849263
 40
-0.2148170005443886
 40
-0.2148170005443886
 40
-0.2148170005443886
 40
0.0
 40
0.0
 40
0.0
 40
0.0
 10
40.72799344024999
 20
4.000000000000063
 30
0.0
 10
41.12812361040013
 20
3.99534053584867
 30
0.0
 10
41.46467349223005
 20
3.825112371102814
 30
0.0
 10
41.75330427352794
 20
3.580763307034881
 30
0.0
 10
42.23492622533214
 20
3.173031766314457
 30
0.0
 10
42.6140102554697
 20
2.567211912363135
 30
0.0
 10
43.16285112900441
 20
2.233306479265093
 30
0.0
 10
43.40299482031949
 20
2.08720715044159
 30
0.0
 10
43.68151433013593
 20
1.999962914069266
 30
0.0
 10
43.99999999986675
 20
1.999999999887731
 30
0.0
  0
ARC
  5
6EF0
330
6EDC
100
AcDbEntity
  8
0
100
AcDbCircle
 10
43.99999999999999
 20
4.000000000000008
 30
0.0
 40
2.0
100
AcDbArc
 50
205.0926096897049
 51
205.1495029320697
  0
LINE
  5
6EF1
330
6EDC
100
AcDbEntity
  8
0
100
AcDbLine
 10
41.99999999999999
 20
5.000000000000005
 30
0.0
 11
40.72799344024999
 21
5.000000000000005
 31
0.0
  0
SPLINE
  5
6EF2
330
6EDC
100
AcDbEntity
  8
0
100
AcDbSpline
210
0.0
220
0.0
230
1.0
 70
     8
 71
     3
 72
    20
 73
    16
 74
     0
 42
0.000000001
 43
0.0000000001
 40
0.0000634183172945
 40
0.0000634183172945
 40
0.0000634183172945
 40
0.0000634183172945
 40
0.0165487906188881
 40
0.0165487906188881
 40
0.0350695623406266
 40
0.0350695623406266
 40
0.0628987050262443
 40
0.0628987050262443
 40
0.0856434234735871
 40
0.0856434234735871
 40
0.1063184316718398
 40
0.1063184316718398
 40
0.1552277460506657
 40
0.1552277460506657
 40
0.1657233840788116
 40
0.1657233840788116
 40
0.1657233840788116
 40
0.1657233840788116
 10
43.99936557617311
 20
-0.0000297004718672
 30
0.0
 10
43.9444515451536
 20
0.0002079699022441
 30
0.0
 10
43.88996485358766
 20
0.0010659880792745
 30
0.0
 10
43.77910734898471
 20
0.0047678804664038
 30
0.0
 10
43.72165748747699
 20
0.0078473261775898
 30
0.0
 10
43.57714278288113
 20
0.019066951952302
 30
0.0
 10
43.48939763126918
 20
0.0290250081785868
 30
0.0
 10
43.32554396500468
 20
0.0541012829382791
 30
0.0
 10
43.24875327982559
 20
0.0682959437470502
 30
0.0
 10
43.10902441800767
 20
0.0982248027912333
 30
0.0
 10
43.04406100947217
 20
0.1138647151886175
 30
0.0
 10
42.82640163680695
 20
0.1719791130977337
 30
0.0
 10
42.67964575652579
 20
0.2209226376467154
 30
0.0
 10
42.50869682157253
 20
0.2882279641821887
 30
0.0
 10
42.47868869876833
 20
0.3004490672264843
 30
0.0
 10
42.44885024133167
 20
0.3130024495481692
 30
0.0
  0
SPLINE
  5
6EF3
330
6EDC
100
AcDbEntity
  8
0
100
AcDbSpline
210
0.0
220
0.0
230
1.0
 70
     8
 71
     3
 72
     8
 73
     4
 74
     0
 42
0.000000001
 43
0.0000000001
 40
0.0
 40
0.0
 40
0.0
 40
0.0
 40
0.0004023326634057
 40
0.0004023326634057
 40
0.0004023326634057
 40
0.0004023326634057
 10
43.99999883485406
 20
-0.0000437954367632
 30
0.0
 10
43.99933741845377
 20
-0.000029112920634
 30
0.0
 10
43.99866008067421
 20
-0.0000139545452493
 30
0.0
 10
43.99796741426413
 20
0.0000016872416494
 30
0.0
  0
SPLINE
  5
6EF4
330
6EDC
100
AcDbEntity
  8
0
100
AcDbSpline
210
0.0
220
0.0
230
1.0
 70
     8
 71
     3
 72
    26
 73
    22
 74
     0
 42
0.000000001
 43
0.0000000001
 40
0.0108449767155718
 40
0.0108449767155718
 40
0.0108449767155718
 40
0.0108449767155718
 40
0.0110915796028821
 40
0.0110915796028821
 40
0.0128444621057908
 40
0.0128444621057908
 40
0.0139241483873464
 40
0.0139241483873464
 40
0.0152136034857544
 40
0.0152136034857544
 40
0.0165171192202434
 40
0.0165171192202434
 40
0.0185554702222023
 40
0.0185554702222023
 40
0.0223767613863914
 40
0.0223767613863914
 40
0.030425410742063
 40
0.030425410742063
 40
0.0445545528245901
 40
0.0445545528245901
 40
0.0508684363436401
 40
0.0508684363436401
 40
0.0508684363436401
 40
0.0508684363436401
 10
43.9240061165216
 20
0.0023032569628287
 30
0.0
 10
43.92330028904788
 20
0.0023322516757993
 30
0.0
 10
43.92259013217411
 20
0.0023616548683348
 30
0.0
 10
43.91679314629685
 20
0.0026036259045925
 30
0.0
 10
43.91140727937119
 20
0.0028405117641276
 30
0.0
 10
43.90227907147479
 20
0.0032694218250046
 30
0.0
 10
43.89865264491309
 20
0.00344617758277
 30
0.0
 10
43.89076653920837
 20
0.0038459501452359
 30
0.0
 10
43.88645625589398
 20
0.0040746561666937
 30
0.0
 10
43.87828957988034
 20
0.0045260425442315
 30
0.0
 10
43.87435538571593
 20
0.0047528438550034
 30
0.0
 10
43.86478067289949
 20
0.0053241103549508
 30
0.0
 10
43.85933695639409
 20
0.0056679218858211
 30
0.0
 10
43.8444796061146
 20
0.0066475437473108
 30
0.0
 10
43.83563536057517
 20
0.0072834990475403
 30
0.0
 10
43.80977114339827
 20
0.0092569321655628
 30
0.0
 10
43.79437834655797
 20
0.0106053377156584
 30
0.0
 10
43.7570650750618
 20
0.0141069137364987
 30
0.0
 10
43.73834855678429
 20
0.0161663541571565
 30
0.0
 10
43.72485878734473
 20
0.0176577590520461
 30
0.0
 10
43.72267114308287
 20
0.0179028556424582
 30
0.0
 10
43.72267114351361
 20
0.0179028555947081
 30
0.0
  0
SPLINE
  5
6EF5
330
6EDC
100
AcDbEntity
  8
0
100
AcDbSpline
210
0.0
220
0.0
230
1.0
 70
     8
 71
     3
 72
    26
 73
    22
 74
     0
 42
0.000000001
 43
0.0000000001
 40
0.1779355590231721
 40
0.1779355590231721
 40
0.1779355590231721
 40
0.1779355590231721
 40
0.1910178088608652
 40
0.1910178088608652
 40
0.2120030783632623
 40
0.2120030783632623
 40
0.2198516347131143
 40
0.2198516347131143
 40
0.2227939720080822
 40
0.2227939720080822
 40
0.2250064905359513
 40
0.2250064905359513
 40
0.2256009095772995
 40
0.2256009095772995
 40
0.2258420860917838
 40
0.2258420860917838
 40
0.226300864250034
 40
0.226300864250034
 40
0.2267526281482063
 40
0.2267526281482063
 40
0.2268974652360477
 40
0.2268974652360477
 40
0.2268974652360477
 40
0.2268974652360477
 10
43.5388992189904
 20
2.064396520699571
 30
0.0
 10
43.57546998167641
 20
2.055665993988868
 30
0.0
 10
43.61467890389841
 20
2.047375315828162
 30
0.0
 10
43.71951007084645
 20
2.028189494519722
 30
0.0
 10
43.7877730086578
 20
2.018577166473257
 30
0.0
 10
43.882236583553
 20
2.008807320652253
 30
0.0
 10
43.90810573249111
 20
2.006477264675674
 30
0.0
 10
43.94380588285634
 20
2.00370233342878
 30
0.0
 10
43.95355887382574
 20
2.002989043383581
 30
0.0
 10
43.97068185338331
 20
2.001813066252965
 30
0.0
 10
43.97819441442719
 20
2.001322728112957
 30
0.0
 10
43.98733899435401
 20
2.000755050575559
 30
0.0
 10
43.98929845210092
 20
2.000635252088592
 30
0.0
 10
43.99159939022709
 20
2.000496153694668
 30
0.0
 10
43.99221399505152
 20
2.000459196321644
 30
0.0
 10
43.99376934322244
 20
2.000365996602113
 30
0.0
 10
43.99452126258858
 20
2.000321353170743
 30
0.0
 10
43.99562630221834
 20
2.000255888803148
 30
0.0
 10
43.99601391584554
 20
2.000233039820708
 30
0.0
 10
43.99642630567174
 20
2.000208760110733
 30
0.0
 10
43.99651830710708
 20
2.000203347824849
 30
0.0
 10
43.99660387192554
 20
2.000198317149286
 30
0.0
  0
SPLINE
  5
6EF6
330
6EDC
100
AcDbEntity
  8
0
100
AcDbSpline
210
0.0
220
0.0
230
1.0
 70
     8
 71
     3
 72
     8
 73
     4
 74
     0
 42
0.000000001
 43
0.0000000001
 40
0.0305251859177915
 40
0.0305251859177915
 40
0.0305251859177915
 40
0.0305251859177915
 40
0.0324067019161038
 40
0.0324067019161038
 40
0.0324067019161038
 40
0.0324067019161038
 10
43.99350930891618
 20
2.000381662675713
 30
0.0
 10
43.99556529442008
 20
2.000341747663863
 30
0.0
 10
43.99773849779741
 20
2.000302272956809
 30
0.0
 10
44.00000430927875
 20
2.000264305826277
 30
0.0
  0
SPLINE
  5
6EF7
330
6EDC
100
AcDbEntity
  8
0
100
AcDbSpline
210
0.0
220
0.0
230
1.0
 70
     8
 71
     3
 72
    18
 73
    14
 74
     0
 42
0.000000001
 43
0.0000000001
 40
0.0102376477331506
 40
0.0102376477331506
 40
0.0102376477331506
 40
0.0102376477331506
 40
0.0102488123665422
 40
0.0102488123665422
 40
0.0113027767777091
 40
0.0113027767777091
 40
0.0130356863133484
 40
0.0130356863133484
 40
0.0146578972430909
 40
0.0146578972430909
 40
0.0165725892631755
 40
0.0165725892631755
 40
0.0173264848043149
 40
0.0173264848043149
 40
0.0173264848043149
 40
0.0173264848043149
 10
43.96032359461502
 20
2.001050705092746
 30
0.0
 10
43.96032359460896
 20
2.001050705092929
 30
0.0
 10
43.96032363043964
 20
2.001050704009327
 30
0.0
 10
43.96033047411961
 20
2.001050497077483
 30
0.0
 10
43.96066350910763
 20
2.001040371572654
 30
0.0
 10
43.96249506910693
 20
2.000986478497608
 30
0.0
 10
43.96466455269393
 20
2.000923549785467
 30
0.0
 10
43.97039995160464
 20
2.000769698200481
 30
0.0
 10
43.97389993414588
 20
2.000680284626008
 30
0.0
 10
43.98243213522036
 20
2.000480282010064
 30
0.0
 10
43.98770323318294
 20
2.000367102207539
 30
0.0
 10
43.99546385800866
 20
2.000218717866193
 30
0.0
 10
43.99771222583073
 20
2.000177573390645
 30
0.0
 10
44.00000112253774
 20
2.000137577798081
 30
0.0
  0
SPLINE
  5
6EF8
330
6EDC
100
AcDbEntity
  8
0
100
AcDbSpline
210
0.0
220
0.0
230
1.0
 70
     8
 71
     3
 72
    24
 73
    20
 74
     0
 42
0.000000001
 43
0.0000000001
 40
0.0
 40
0.0
 40
0.0
 40
0.0
 40
0.0045997996171526
 40
0.0045997996171526
 40
0.0095511041836492
 40
0.0095511041836492
 40
0.0172222245983695
 40
0.0172222245983695
 40
0.0336075238775986
 40
0.0336075238775986
 40
0.0765992006979095
 40
0.0765992006979095
 40
0.1499001805371455
 40
0.1499001805371455
 40
0.2033378664621918
 40
0.2033378664621918
 40
0.2436169846367168
 40
0.2436169846367168
 40
0.2991613000352019
 40
0.2991613000352019
 40
0.2991613000352019
 40
0.2991613000352019
 10
42.00008695857793
 20
5.000007423524114
 30
0.0
 10
42.00109799088093
 20
4.985228280006936
 30
0.0
 10
42.00219424084687
 20
4.969674397397997
 30
0.0
 10
42.00449806738847
 20
4.937940115653208
 30
0.0
 10
42.0057261739679
 20
4.921534241453031
 30
0.0
 10
42.00886713754913
 20
4.880793513000561
 30
0.0
 10
42.0108080202559
 20
4.85674594029364
 30
0.0
 10
42.01703377701984
 20
4.782834051205328
 30
0.0
 10
42.02154837296418
 20
4.733671828932244
 30
0.0
 10
42.03986652966379
 20
4.550635885125177
 30
0.0
 10
42.05670187330674
 20
4.411512034292635
 30
0.0
 10
42.11399202237436
 20
4.035975051583819
 30
0.0
 10
42.16321199898369
 20
3.795448593444281
 30
0.0
 10
42.28517720053085
 20
3.391243286594526
 30
0.0
 10
42.34866139012021
 20
3.222681231065449
 30
0.0
 10
42.48617958104854
 20
2.943892136702698
 30
0.0
 10
42.55449823663107
 20
2.828393505052071
 30
0.0
 10
42.73649415229519
 20
2.577893912075913
 30
0.0
 10
42.85723890171417
 20
2.451508249940554
 30
0.0
 10
42.99655252000984
 20
2.346526823506236
 30
0.0
  0
LINE
  5
6EF9
330
6EDC
100
AcDbEntity
  8
0
100
AcDbLine
 10
-41.99999999999999
 20
4.999999999999998
 30
0.0
 11
-42.0
 21
85.40660759230604
 31
0.0
  0
LINE
  5
6EFA
330
6EDC
100
AcDbEntity
  8
0
100
AcDbLine
 10
-37.99999999999998
 20
4.000000000000071
 30
0.0
 11
-40.72799344024999
 21
4.000000000000069
 31
0.0
  0
LINE
  5
6EFB
330
6EDC
100
AcDbEntity
  8
0
100
AcDbLine
 10
-40.62620722994454
 20
87.99999999999986
 30
0.0
 11
-38.00000000000001
 21
88.0
 31
0.0
  0
SPLINE
  5
6EFC
330
6EDC
100
AcDbEntity
  8
0
100
AcDbSpline
210
0.0
220
0.0
230
1.0
 70
     8
 71
     3
 72
    12
 73
     8
 74
     0
 42
0.000000001
 43
0.0000000001
 40
0.0
 40
0.0
 40
0.0
 40
0.0
 40
0.107369640463087
 40
0.107369640463087
 40
0.2686138215391986
 40
0.2686138215391986
 40
0.4298588820633779
 40
0.4298588820633779
 40
0.4298588820633779
 40
0.4298588820633779
 10
-40.62620722994451
 20
88.0
 30
0.0
 10
-40.84126916349194
 20
87.78367359405766
 30
0.0
 10
-41.03570194751977
 20
87.5679743906037
 30
0.0
 10
-41.46221644329101
 20
87.0267858405257
 30
0.0
 10
-41.66148200965438
 20
86.70399576210545
 30
0.0
 10
-41.93124534639022
 20
86.054261975158
 30
0.0
 10
-42.00000000000001
 20
85.73148120858943
 30
0.0
 10
-42.00000000000001
 20
85.40660759230604
 30
0.0
  0
LINE
  5
6EFD
330
6EDC
100
AcDbEntity
  8
0
100
AcDbLine
 10
41.99999999999998
 20
85.40660759230604
 30
0.0
 11
41.99999999999998
 21
5.0
 31
0.0
  0
LINE
  5
6EFE
330
6EDC
100
AcDbEntity
  8
0
100
AcDbLine
 10
40.72799344024997
 20
4.000000000000044
 30
0.0
 11
37.99999999999999
 21
4.000000000000044
 31
0.0
  0
SPLINE
  5
6EFF
330
6EDC
100
AcDbEntity
  8
0
100
AcDbSpline
210
0.0
220
0.0
230
1.0
 70
     8
 71
     3
 72
    12
 73
     8
 74
     0
 42
0.000000001
 43
0.0000000001
 40
0.0
 40
0.0
 40
0.0
 40
0.0
 40
0.1073696404631127
 40
0.1073696404631127
 40
0.2686138215393048
 40
0.2686138215393048
 40
0.4298588820635413
 40
0.4298588820635413
 40
0.4298588820635413
 40
0.4298588820635413
 10
41.99999999999999
 20
85.40660759230604
 30
0.0
 10
41.99999999999999
 20
85.62293399824842
 30
0.0
 10
41.96951458004662
 20
85.83863320170237
 30
0.0
 10
41.81827865511666
 20
86.37982175178031
 30
0.0
 10
41.660888230789
 20
86.70261183020048
 30
0.0
 10
41.22493225005108
 20
87.35234561714804
 30
0.0
 10
40.94918189303338
 20
87.67512638371659
 30
0.0
 10
40.62620722994451
 20
88.0
 30
0.0
  0
LINE
  5
6F00
330
6EDC
100
AcDbEntity
  8
0
100
AcDbLine
 10
38.0
 20
88.0
 30
0.0
 11
40.62620722994451
 21
88.00000000000009
 31
0.0
  0
LINE
  5
6F01
330
6EDC
100
AcDbEntity
  8
0
100
AcDbLine
 10
81.49999999999998
 20
0.0
 30
0.0
 11
81.49999999999998
 21
2.000000000000017
 31
0.0
  0
LINE
  5
6F02
330
6EDC
100
AcDbEntity
  8
0
100
AcDbLine
 10
81.49999999999998
 20
0.0
 30
0.0
 11
43.99999999999998
 21
0.0
 31
0.0
  0
LINE
  5
6F03
330
6EDC
100
AcDbEntity
  8
0
100
AcDbLine
 10
43.99999999999998
 20
2.000000000000007
 30
0.0
 11
81.49999999999998
 21
2.000000000000017
 31
0.0
  0
LINE
  5
6F04
330
6EDC
100
AcDbEntity
  8
0
100
AcDbLine
 10
37.99999999999999
 20
88.0
 30
0.0
 11
-38.00000000000002
 21
88.0
 31
0.0
  0
LINE
  5
6F05
330
6EDC
100
AcDbEntity
  8
0
100
AcDbLine
 10
-38.0
 20
4.00000000000007
 30
0.0
 11
37.99999999999998
 21
4.000000000000079
 31
0.0
  0
LINE
  5
6F06
330
6EDC
100
AcDbEntity
  8
0
100
AcDbLine
 10
-43.99999999999997
 20
2.000000000000068
 30
0.0
 11
-81.50000000000005
 21
2.000000000000074
 31
0.0
  0
LINE
  5
6F07
330
6EDC
100
AcDbEntity
  8
0
100
AcDbLine
 10
-81.50000000000005
 20
0.0
 30
0.0
 11
-81.50000000000005
 21
2.000000000000074
 31
0.0
  0
LINE
  5
6F08
330
6EDC
100
AcDbEntity
  8
0
100
AcDbLine
 10
-81.50000000000005
 20
0.0
 30
0.0
 11
-43.99999999999997
 21
0.0
 31
0.0
  0
CIRCLE
  5
6F09
330
6EDC
100
AcDbEntity
  8
0
100
AcDbCircle
 10
-0.0000000000000102
 20
50.00000000000001
 30
0.0
 40
2.5
  0
CIRCLE
  5
6F0A
330
6EDC
100
AcDbEntity
  8
0
100
AcDbCircle
 10
-0.0000000000000126
 20
70.00000000000001
 30
0.0
 40
2.5
  0
ENDBLK
  5
6EDE
330
6EDC
100
AcDbEntity
  8
0
100
AcDbBlockEnd
  0
BLOCK
  5
6F0C
330
6F0B
100
AcDbEntity
  8
0
100
AcDbBlockBegin
  2
SAE250_80_2-ISO
 70
     0
 10
0.0
 20
0.0
 30
0.0
  3
SAE250_80_2-ISO
  1

  0
ELLIPSE
  5
6F0E
330
6F0B
100
AcDbEntity
  8
0
100
AcDbEllipse
 10
0.5811069969946914
 20
-0.8892425902488287
 30
0.0
 11
-1.0
 21
1.732050807568877
 31
0.0
210
0.0
220
0.0
230
1.0
 40
0.577350269189626
 41
0.7853981633974528
 42
1.605702911834788
  0
LINE
  5
6F0F
330
6F0B
100
AcDbEntity
  8
0
100
AcDbLine
 10
0.323722447864605
 20
-1.118440564237443
 30
0.0
 11
-0.3833843333218922
 21
-1.526688854701274
 31
0.0
  0
SPLINE
  5
6F10
330
6F0B
100
AcDbEntity
  8
0
100
AcDbSpline
210
0.0
220
0.0
230
1.0
 70
     8
 71
     3
 72
    14
 73
    10
 74
     0
 42
0.000000001
 43
0.0000000001
 40
-1.0
 40
-1.0
 40
-1.0
 40
-1.0
 40
-0.794399946755927
 40
-0.794399946755927
 40
-0.794399946755927
 40
-0.3971999733779635
 40
-0.3971999733779635
 40
-0.3971999733779635
 40
-0.3353967244845564
 40
-0.3353967244845564
 40
-0.3353967244845564
 40
-0.3353967244845564
 10
0.3237224478646006
 20
-1.118440564237443
 30
0.0
 10
0.0759474974930941
 20
-0.6995787338143589
 30
0.0
 10
-0.053439559437285
 20
-0.2774289033118005
 30
0.0
 10
-0.0840249365963164
 20
0.1129656403204238
 30
0.0
 10
-0.1431130097832511
 20
0.8671711956737526
 30
0.0
 10
0.1181024119219076
 20
1.556972680032449
 30
0.0
 10
0.251403917914419
 20
2.262469706294409
 30
0.0
 10
0.2721452741704544
 20
2.372243148464647
 30
0.0
 10
0.2907384972985527
 20
2.482208765878153
 30
0.0
 10
0.3051747032697882
 20
2.59273713841543
 30
0.0
  0
ELLIPSE
  5
6F11
330
6F0B
100
AcDbEntity
  8
0
100
AcDbEllipse
 10
-2.954426908938097
 20
5.308261578238591
 30
0.0
 11
4.0
 21
-0.0000000000000006
 31
0.0
210
0.0
220
0.0
230
1.0
 40
0.5773502691896259
 41
5.497787143782137
 42
6.283185307179585
  0
LINE
  5
6F12
330
6F0B
100
AcDbEntity
  8
0
100
AcDbLine
 10
-0.8331065653784053
 20
3.267020125919299
 30
0.0
 11
-0.125999784191908
 21
3.675268416383132
 31
0.0
  0
LINE
  5
6F13
330
6F0B
100
AcDbEntity
  8
0
100
AcDbLine
 10
-0.8331065653783964
 20
-0.0727460093211119
 30
0.0
 11
-0.8331065653783964
 21
3.267020125919304
 31
0.0
  0
SPLINE
  5
6F14
330
6F0B
100
AcDbEntity
  8
0
100
AcDbSpline
210
0.0
220
0.0
230
1.0
 70
     8
 71
     3
 72
    20
 73
    16
 74
     0
 42
0.000000001
 43
0.0000000001
 40
0.000688865500307
 40
0.000688865500307
 40
0.000688865500307
 40
0.000688865500307
 40
0.0901903081854501
 40
0.0901903081854501
 40
0.1670713795542819
 40
0.1670713795542819
 40
0.2431252202318119
 40
0.2431252202318119
 40
0.2893431477003165
 40
0.2893431477003165
 40
0.3397415840526682
 40
0.3397415840526682
 40
0.401983173219198
 40
0.401983173219198
 40
0.4589821320788609
 40
0.4589821320788609
 40
0.4589821320788609
 40
0.4589821320788609
 10
1.038635346406864
 20
5.172303465890917
 30
0.0
 10
1.010965500691107
 20
4.89157186954781
 30
0.0
 10
0.9586686184196935
 20
4.614504958104501
 30
0.0
 10
0.8327803717631843
 20
4.127324385310213
 30
0.0
 10
0.763235112365619
 20
3.910864362200141
 30
0.0
 10
0.6209387312750314
 20
3.506809085854332
 30
0.0
 10
0.5467004784221308
 20
3.314470451396491
 30
0.0
 10
0.4488608000780748
 20
3.058426818807749
 30
0.0
 10
0.4170554959564088
 20
2.974203451085848
 30
0.0
 10
0.3698249961709221
 20
2.844141938751483
 30
0.0
 10
0.3555358502421191
 20
2.801450608994786
 30
0.0
 10
0.3344693549978617
 20
2.734612452386704
 30
0.0
 10
0.3285771838350593
 20
2.712767190997067
 30
0.0
 10
0.3169768027416753
 20
2.663001824499262
 30
0.0
 10
0.3126505962946169
 20
2.645127434832059
 30
0.0
 10
0.3057227669481533
 20
2.593725229921346
 30
0.0
  0
SPLINE
  5
6F15
330
6F0B
100
AcDbEntity
  8
0
100
AcDbSpline
210
0.0
220
0.0
230
1.0
 70
     8
 71
     3
 72
    14
 73
    10
 74
     0
 42
0.000000001
 43
0.0000000001
 40
-0.9724852885941075
 40
-0.9724852885941075
 40
-0.9724852885941075
 40
-0.9724852885941075
 40
-0.7057745167849263
 40
-0.7057745167849263
 40
-0.7057745167849263
 40
-0.2148170005443886
 40
-0.2148170005443886
 40
-0.2148170005443886
 40
0.0
 40
0.0
 40
0.0
 40
0.0
 10
57.0394608884063
 20
-34.96662961263893
 30
0.0
 10
57.31072534371844
 20
-34.81540610445742
 30
0.0
 10
57.63713111406943
 20
-34.56388766176996
 30
0.0
 10
57.97876116054476
 20
-34.28061027014293
 30
0.0
 10
58.60762904598086
 20
-33.75915714825776
 30
0.0
 10
59.30406126123708
 20
-33.10452085850184
 30
0.0
 10
59.92825716072449
 20
-32.6673485625315
 30
0.0
 10
60.20137221945043
 20
-32.47606512509565
 30
0.0
 10
60.46000624469272
 20
-32.3306799857224
 30
0.0
 10
60.68518339783638
 20
-32.2505811444227
 30
0.0
  0
LINE
  5
6F16
330
6F0B
100
AcDbEntity
  8
0
100
AcDbLine
 10
60.68518339785121
 20
-29.93373431516391
 30
0.0
 11
60.68518339785121
 21
-32.25058114443676
 31
0.0
  0
LINE
  5
6F17
330
6F0B
100
AcDbEntity
  8
0
100
AcDbLine
 10
60.68518339785121
 20
-29.80109140165359
 30
0.0
 11
60.68518339785121
 21
-29.93373431516391
 31
0.0
  0
ELLIPSE
  5
6F18
330
6F0B
100
AcDbEntity
  8
0
100
AcDbEllipse
 10
59.27096983547812
 20
-30.61758798258132
 30
0.0
 11
2.0
 21
-0.000000000000119
 31
0.0
210
0.0
220
0.0
230
1.0
 40
0.5773502691896258
 41
0.7853981633976899
 42
2.356194490192613
  0
LINE
  5
6F19
330
6F0B
100
AcDbEntity
  8
0
100
AcDbLine
 10
57.14964949191847
 20
-30.20933969211744
 30
0.0
 11
57.85675627310498
 21
-29.8010914016536
 31
0.0
  0
LINE
  5
6F1A
330
6F0B
100
AcDbEntity
  8
0
100
AcDbLine
 10
57.14964949191848
 20
-31.48989339339379
 30
0.0
 11
57.14964949191848
 21
-30.20933969211745
 31
0.0
  0
LINE
  5
6F1B
330
6F0B
100
AcDbEntity
  8
0
100
AcDbLine
 10
57.14964949191848
 20
-33.54910582735787
 30
0.0
 11
57.14964949191848
 21
-31.48989339339379
 31
0.0
  0
ELLIPSE
  5
6F1C
330
6F0B
100
AcDbEntity
  8
0
100
AcDbEllipse
 10
54.3212223671723
 20
-31.91611266550241
 30
0.0
 11
1.999999999999996
 21
-3.464101615137757
 31
0.0
210
0.0
220
0.0
230
1.0
 40
0.5773502691896258
 41
0.000000000000003
 42
0.7853981633974522
  0
SPLINE
  5
6F1D
330
6F0B
100
AcDbEntity
  8
0
100
AcDbSpline
210
0.0
220
0.0
230
1.0
 70
     8
 71
     3
 72
    14
 73
    10
 74
     0
 42
0.000000001
 43
0.0000000001
 40
0.0
 40
0.0
 40
0.0
 40
0.0
 40
0.0127173497826343
 40
0.0127173497826343
 40
0.0329220431717911
 40
0.0329220431717911
 40
0.0936495646502554
 40
0.0936495646502554
 40
0.1007526857156724
 40
0.1007526857156724
 40
0.1007526857156724
 40
0.1007526857156724
 10
57.03900113397519
 20
-34.96638831168303
 30
0.0
 10
57.01283970777359
 20
-34.98111107727748
 30
0.0
 10
56.98268150509299
 20
-34.99836664290189
 30
0.0
 10
56.90332856779139
 20
-35.0440308653549
 30
0.0
 10
56.85496433983683
 20
-35.07196247524291
 30
0.0
 10
56.67164175226219
 20
-35.17787796230444
 30
0.0
 10
56.53700670643666
 20
-35.25650096604004
 30
0.0
 10
56.35619571023877
 20
-35.3603086933839
 30
0.0
 10
56.33690110978688
 20
-35.3713400796653
 30
0.0
 10
56.31747489361821
 20
-35.38239065435519
 30
0.0
  0
ELLIPSE
  5
6F1E
330
6F0B
100
AcDbEntity
  8
0
100
AcDbEllipse
 10
-2.954426908938088
 20
69.73771165999936
 30
0.0
 11
2.0
 21
0.0000000000000897
 31
0.0
210
0.0
220
0.0
230
1.0
 40
0.5773502691896555
 41
5.497787143782108
 42
7.068583470577017
  0
LINE
  5
6F1F
330
6F0B
100
AcDbEntity
  8
0
100
AcDbLine
 10
-1.540213346564991
 20
68.92121507907166
 30
0.0
 11
-1.540213346565004
 21
70.55420824092713
 31
0.0
  0
LINE
  5
6F20
330
6F0B
100
AcDbEntity
  8
0
100
AcDbLine
 10
-0.1259997841919036
 20
3.675268416383135
 30
0.0
 11
-0.1259997841919036
 21
68.10471849814397
 31
0.0
  0
LINE
  5
6F21
330
6F0B
100
AcDbEntity
  8
0
100
AcDbLine
 10
-0.1259997841919036
 20
68.10471849814397
 30
0.0
 11
-1.540213346565
 21
68.9212150790717
 31
0.0
  0
ELLIPSE
  5
6F22
330
6F0B
100
AcDbEntity
  8
0
100
AcDbEllipse
 10
-2.954426908938088
 20
69.73771165999936
 30
0.0
 11
4.0
 21
0.0000000000002139
 31
0.0
210
0.0
220
0.0
230
1.0
 40
0.5773502691896516
 41
5.497787143782105
 42
7.068583470577007
  0
LINE
  5
6F23
330
6F0B
100
AcDbEntity
  8
0
100
AcDbLine
 10
-1.540213346565004
 20
70.55420824092713
 30
0.0
 11
-0.125999784191908
 21
71.37070482185487
 31
0.0
  0
LINE
  5
6F24
330
6F0B
100
AcDbEntity
  8
0
100
AcDbLine
 10
1.045573091061906
 20
5.308261578238586
 30
0.0
 11
1.045573091061906
 21
69.73771165999952
 31
0.0
  0
ELLIPSE
  5
6F25
330
6F0B
100
AcDbEntity
  8
0
100
AcDbEllipse
 10
-26.64250407868739
 20
-2.726359897336216
 30
0.0
 11
1.24999999999987
 21
2.16506350946117
 31
0.0
210
0.0
220
0.0
230
1.0
 40
0.577350269189626
 41
3.742856870268578
 42
5.681921090500116
  0
ELLIPSE
  5
6F26
330
6F0B
100
AcDbEntity
  8
0
100
AcDbEllipse
 10
-26.64250407868739
 20
13.6035717212183
 30
0.0
 11
1.24999999999987
 21
2.165063509461171
 31
0.0
210
0.0
220
0.0
230
1.0
 40
0.577350269189626
 41
3.742856870268575
 42
5.681921090500117
  0
ELLIPSE
  5
6F27
330
6F0B
100
AcDbEntity
  8
0
100
AcDbEllipse
 10
-26.64250407868739
 20
29.93350333977283
 30
0.0
 11
1.24999999999987
 21
2.16506350946117
 31
0.0
210
0.0
220
0.0
230
1.0
 40
0.577350269189626
 41
3.742856870268578
 42
5.681921090500118
  0
ELLIPSE
  5
6F28
330
6F0B
100
AcDbEntity
  8
0
100
AcDbEllipse
 10
-25.2282905163143
 20
-3.542856478263942
 30
0.0
 11
-1.25
 21
-2.165063509461096
 31
0.0
210
0.0
220
0.0
230
0.9999999999999998
 40
0.5773502691896259
 41
0.0
 42
6.283185307179586
  0
ELLIPSE
  5
6F29
330
6F0B
100
AcDbEntity
  8
0
100
AcDbEllipse
 10
-25.2282905163143
 20
12.78707514029058
 30
0.0
 11
-1.25
 21
-2.165063509461096
 31
0.0
210
0.0
220
0.0
230
0.9999999999999998
 40
0.5773502691896259
 41
0.0
 42
6.283185307179586
  0
ELLIPSE
  5
6F2A
330
6F0B
100
AcDbEntity
  8
0
100
AcDbEllipse
 10
-25.2282905163143
 20
29.11700675884511
 30
0.0
 11
-1.25
 21
-2.165063509461096
 31
0.0
210
0.0
220
0.0
230
0.9999999999999998
 40
0.5773502691896259
 41
0.0
 42
6.283185307179586
  0
ELLIPSE
  5
6F2B
330
6F0B
100
AcDbEntity
  8
0
100
AcDbEllipse
 10
-26.64250407868737
 20
46.26343495832734
 30
0.0
 11
1.24999999999987
 21
2.165063509461171
 31
0.0
210
0.0
220
0.0
230
1.0
 40
0.577350269189626
 41
3.742856870268575
 42
5.681921090500117
  0
ELLIPSE
  5
6F2C
330
6F0B
100
AcDbEntity
  8
0
100
AcDbEllipse
 10
-25.22829051631428
 20
45.44693837739962
 30
0.0
 11
-1.25
 21
-2.165063509461096
 31
0.0
210
0.0
220
0.0
230
0.9999999999999998
 40
0.5773502691896259
 41
0.0
 42
6.283185307179586
  0
LINE
  5
6F2D
330
6F0B
100
AcDbEntity
  8
0
100
AcDbLine
 10
-31.9458049375865
 20
9.910533407543788
 30
0.0
 11
-59.10337760847683
 21
-32.08210951995098
 31
0.0
  0
LINE
  5
6F2E
330
6F0B
100
AcDbEntity
  8
0
100
AcDbLine
 10
-31.94580493758648
 20
51.36653858912563
 30
0.0
 11
-31.9458049375865
 21
9.910533407543784
 31
0.0
  0
LINE
  5
6F2F
330
6F0B
100
AcDbEntity
  8
0
100
AcDbLine
 10
-1.540213346565
 20
68.9212150790717
 30
0.0
 11
-31.94580493758648
 21
51.36653858912563
 31
0.0
  0
LINE
  5
6F30
330
6F0B
100
AcDbEntity
  8
0
100
AcDbLine
 10
-58.10875584148876
 20
-36.40684386060491
 30
0.0
 11
-4.368640471311158
 21
-67.43371393585848
 31
0.0
  0
LINE
  5
6F31
330
6F0B
100
AcDbEntity
  8
0
100
AcDbLine
 10
-4.368640471311158
 20
-69.06670709771393
 30
0.0
 11
-58.10875584148876
 21
-38.03983702246036
 31
0.0
  0
LINE
  5
6F32
330
6F0B
100
AcDbEntity
  8
0
100
AcDbLine
 10
-57.68916404610374
 20
-32.89860610087872
 30
0.0
 11
-30.5315913752134
 21
9.094036826616061
 31
0.0
  0
LINE
  5
6F33
330
6F0B
100
AcDbEntity
  8
0
100
AcDbLine
 10
-30.5315913752134
 20
9.094036826616061
 30
0.0
 11
-31.9458049375865
 21
9.910533407543788
 31
0.0
  0
LINE
  5
6F34
330
6F0B
100
AcDbEntity
  8
0
100
AcDbLine
 10
-30.53159137521339
 20
50.55004200819789
 30
0.0
 11
-0.125999784191908
 21
68.10471849814397
 31
0.0
  0
LINE
  5
6F35
330
6F0B
100
AcDbEntity
  8
0
100
AcDbLine
 10
-30.5315913752134
 20
9.094036826616061
 30
0.0
 11
-30.53159137521339
 21
50.55004200819789
 31
0.0
  0
LINE
  5
6F36
330
6F0B
100
AcDbEntity
  8
0
100
AcDbLine
 10
-28.05671764106059
 20
85.86351913332206
 30
0.0
 11
-1.540213346565004
 21
70.55420824092713
 31
0.0
  0
LINE
  5
6F37
330
6F0B
100
AcDbEntity
  8
0
100
AcDbLine
 10
-28.05671764106059
 20
53.61190418667681
 30
0.0
 11
-28.05671764106059
 21
85.86351913332206
 31
0.0
  0
LINE
  5
6F38
330
6F0B
100
AcDbEntity
  8
0
100
AcDbLine
 10
-26.6425040786875
 20
86.68001571424978
 30
0.0
 11
-28.05671764106059
 21
85.86351913332206
 31
0.0
  0
LINE
  5
6F39
330
6F0B
100
AcDbEntity
  8
0
100
AcDbLine
 10
-0.125999784191908
 20
71.37070482185487
 30
0.0
 11
-26.6425040786875
 21
86.68001571424978
 31
0.0
  0
LINE
  5
6F3A
330
6F0B
100
AcDbEntity
  8
0
100
AcDbLine
 10
-30.53159137521339
 20
50.55004200819789
 30
0.0
 11
-31.94580493758648
 21
51.36653858912563
 31
0.0
  0
LINE
  5
6F3B
330
6F0B
100
AcDbEntity
  8
0
100
AcDbLine
 10
26.03695111971036
 20
-16.40267762787566
 30
0.0
 11
1.288213778181188
 21
-2.113987461640449
 31
0.0
  0
ELLIPSE
  5
6F3C
330
6F0B
100
AcDbEntity
  8
0
100
AcDbEllipse
 10
-58.10875584148876
 20
-34.77385069874946
 30
0.0
 11
-1.999999999999634
 21
3.464101615137965
 31
0.0
210
0.0
220
0.0
230
1.0
 40
0.5773502691895957
 41
1.639956373512953
 42
2.356194490192613
  0
SPLINE
  5
6F3D
330
6F0B
100
AcDbEntity
  8
0
100
AcDbSpline
210
0.0
220
0.0
230
1.0
 70
     8
 71
     3
 72
    12
 73
     8
 74
     0
 42
0.000000001
 43
0.0000000001
 40
0.0
 40
0.0
 40
0.0
 40
0.0
 40
0.107369640463087
 40
0.107369640463087
 40
0.2686138215391986
 40
0.2686138215391986
 40
0.4298588820633779
 40
0.4298588820633779
 40
0.4298588820633779
 40
0.4298588820633779
 10
-59.96576478258368
 20
-36.16517729423633
 30
0.0
 10
-59.9648706655786
 20
-35.83621784373382
 30
0.0
 10
-59.94983303619081
 20
-35.49759757097647
 30
0.0
 10
-59.86874623476435
 20
-34.63569748659037
 30
0.0
 10
-59.78140121464618
 20
-34.11057732312411
 30
0.0
 10
-59.51272153265104
 20
-33.07155654868778
 30
0.0
 10
-59.33309794557942
 20
-32.56435332696552
 30
0.0
 10
-59.10337760847683
 20
-32.08210951995098
 30
0.0
  0
LINE
  5
6F3E
330
6F0B
100
AcDbEntity
  8
0
100
AcDbLine
 10
-58.10875584148876
 20
-36.40684386060491
 30
0.0
 11
-58.10875584148876
 21
-38.03983702246036
 31
0.0
  0
LINE
  5
6F3F
330
6F0B
100
AcDbEntity
  8
0
100
AcDbLine
 10
-59.10337760847683
 20
-32.08210951995099
 30
0.0
 11
-58.07563028591167
 21
-32.67547971329291
 31
0.0
  0
LINE
  5
6F40
330
6F0B
100
AcDbEntity
  8
0
100
AcDbLine
 10
-58.07563028591167
 20
-32.67547971329291
 30
0.0
 11
-57.68916404610374
 21
-32.89860610087872
 31
0.0
  0
LINE
  5
6F41
330
6F0B
100
AcDbEntity
  8
0
100
AcDbLine
 10
-57.68916404610374
 20
-32.89860610087872
 30
0.0
 11
-0.8331065653784008
 21
-0.0727460093211097
 31
0.0
  0
SPLINE
  5
6F42
330
6F0B
100
AcDbEntity
  8
0
100
AcDbSpline
210
0.0
220
0.0
230
1.0
 70
     8
 71
     3
 72
    10
 73
     6
 74
     0
 42
0.000000001
 43
0.0000000001
 40
0.0
 40
0.0
 40
0.0
 40
0.0
 40
0.1558853844832507
 40
0.1558853844832507
 40
0.3117707703913502
 40
0.3117707703913502
 40
0.3117707703913502
 40
0.3117707703913502
 10
-57.68916404610372
 20
-32.8986061008787
 30
0.0
 10
-57.99595949028705
 20
-33.30919534076548
 30
0.0
 10
-58.25591520555962
 20
-33.74011653461661
 30
0.0
 10
-58.70193315329126
 20
-34.61606711101514
 30
0.0
 10
-58.88296764066416
 20
-35.0510589274258
 30
0.0
 10
-59.03726031203621
 20
-35.4695139964929
 30
0.0
  0
ELLIPSE
  5
6F43
330
6F0B
100
AcDbEntity
  8
0
100
AcDbEllipse
 10
-58.10875584148876
 20
-34.77385069874946
 30
0.0
 11
0.999999999999858
 21
-1.73205080756896
 31
0.0
210
0.0
220
0.0
230
1.0
 40
0.577350269189593
 41
4.781549027102659
 42
5.497787143782192
  0
LINE
  5
6F44
330
6F0B
100
AcDbEntity
  8
0
100
AcDbLine
 10
1.288213778181188
 20
-2.113987461640449
 30
0.0
 11
-58.10875584148876
 21
-36.40684386060492
 31
0.0
  0
ELLIPSE
  5
6F45
330
6F0B
100
AcDbEntity
  8
0
100
AcDbEllipse
 10
1.288213778181188
 20
-0.4809942997849981
 30
0.0
 11
-0.999999999999896
 21
1.732050807568937
 31
0.0
210
0.0
220
0.0
230
1.0
 40
0.5773502691896257
 41
1.605702911834892
 42
2.356194490192592
  0
LINE
  5
6F46
330
6F0B
100
AcDbEntity
  8
0
100
AcDbLine
 10
-59.03726031203624
 20
-35.46951399649288
 30
0.0
 11
-59.96576478258368
 21
-36.1651772942363
 31
0.0
  0
ELLIPSE
  5
6F47
330
6F0B
100
AcDbEntity
  8
0
100
AcDbEllipse
 10
32.75446554098258
 20
-28.85425048702343
 30
0.0
 11
1.249999999999999
 21
2.165063509461097
 31
0.0
210
0.0
220
0.0
230
1.0
 40
0.5773502691896261
 41
0.0
 42
6.283185307179586
  0
ELLIPSE
  5
6F48
330
6F0B
100
AcDbEntity
  8
0
100
AcDbEllipse
 10
32.75446554098257
 20
-12.52431886846891
 30
0.0
 11
1.249999999999999
 21
2.165063509461097
 31
0.0
210
0.0
220
0.0
230
1.0
 40
0.5773502691896261
 41
0.0
 42
6.283185307179586
  0
ELLIPSE
  5
6F49
330
6F0B
100
AcDbEntity
  8
0
100
AcDbEllipse
 10
31.34025197860948
 20
-28.03775390609571
 30
0.0
 11
1.24999999999987
 21
2.165063509461171
 31
0.0
210
0.0
220
0.0
230
1.0
 40
0.577350269189626
 41
3.742856870268575
 42
5.681921090500117
  0
ELLIPSE
  5
6F4A
330
6F0B
100
AcDbEntity
  8
0
100
AcDbEllipse
 10
31.34025197860948
 20
-11.70782228754118
 30
0.0
 11
1.24999999999987
 21
2.165063509461171
 31
0.0
210
0.0
220
0.0
230
1.0
 40
0.5773502691896259
 41
3.742856870268575
 42
5.681921090500117
  0
ELLIPSE
  5
6F4B
330
6F0B
100
AcDbEntity
  8
0
100
AcDbEllipse
 10
32.75446554098257
 20
3.805612750085605
 30
0.0
 11
1.249999999999999
 21
2.165063509461097
 31
0.0
210
0.0
220
0.0
230
1.0
 40
0.5773502691896261
 41
0.0
 42
6.283185307179586
  0
ELLIPSE
  5
6F4C
330
6F0B
100
AcDbEntity
  8
0
100
AcDbEllipse
 10
31.34025197860948
 20
4.622109331013333
 30
0.0
 11
1.24999999999987
 21
2.165063509461171
 31
0.0
210
0.0
220
0.0
230
1.0
 40
0.577350269189626
 41
3.742856870268575
 42
5.681921090500118
  0
LINE
  5
6F4D
330
6F0B
100
AcDbEntity
  8
0
100
AcDbLine
 10
57.85675627310499
 20
-29.80109140165362
 30
0.0
 11
57.85675627310502
 21
34.62835868010727
 31
0.0
  0
LINE
  5
6F4E
330
6F0B
100
AcDbEntity
  8
0
100
AcDbLine
 10
60.68518339785121
 20
34.62835868010727
 30
0.0
 11
60.68518339785121
 21
-29.80109140165359
 31
0.0
  0
ELLIPSE
  5
6F4F
330
6F0B
100
AcDbEntity
  8
0
100
AcDbEllipse
 10
59.2709698354781
 20
33.81186209917955
 30
0.0
 11
-2.0
 21
-0.0000000000000904
 31
0.0
210
0.0
220
0.0
230
1.0
 40
0.5773502691896148
 41
3.926990816987007
 42
5.4977871437819
  0
LINE
  5
6F50
330
6F0B
100
AcDbEntity
  8
0
100
AcDbLine
 10
62.0993969602243
 20
35.444855261035
 30
0.0
 11
60.68518339785121
 21
34.62835868010727
 31
0.0
  0
ELLIPSE
  5
6F51
330
6F0B
100
AcDbEntity
  8
0
100
AcDbEllipse
 10
59.2709698354781
 20
33.81186209917955
 30
0.0
 11
4.0
 21
-0.0000000000002906
 31
0.0
210
0.0
220
0.0
230
1.0
 40
0.5773502691896169
 41
0.7853981633976988
 42
2.356194490192592
  0
LINE
  5
6F52
330
6F0B
100
AcDbEntity
  8
0
100
AcDbLine
 10
57.85675627310502
 20
34.62835868010727
 30
0.0
 11
56.44254271073193
 21
35.44485526103499
 31
0.0
  0
LINE
  5
6F53
330
6F0B
100
AcDbEntity
  8
0
100
AcDbLine
 10
57.85675627310502
 20
34.62835868010727
 30
0.0
 11
27.45116468208346
 21
17.07368219016116
 31
0.0
  0
LINE
  5
6F54
330
6F0B
100
AcDbEntity
  8
0
100
AcDbLine
 10
27.45116468208346
 20
17.07368219016116
 30
0.0
 11
27.45116468208347
 21
-24.38232299142069
 31
0.0
  0
LINE
  5
6F55
330
6F0B
100
AcDbEntity
  8
0
100
AcDbLine
 10
27.45116468208347
 20
-24.38232299142069
 30
0.0
 11
0.2935920111931445
 21
-66.37496591891547
 31
0.0
  0
LINE
  5
6F56
330
6F0B
100
AcDbEntity
  8
0
100
AcDbLine
 10
-1.120621551179947
 20
-65.55846933798775
 30
0.0
 11
26.03695111971037
 21
-23.56582641049297
 31
0.0
  0
LINE
  5
6F57
330
6F0B
100
AcDbEntity
  8
0
100
AcDbLine
 10
26.03695111971037
 20
-23.56582641049296
 30
0.0
 11
26.03695111971037
 21
17.89017877108888
 31
0.0
  0
LINE
  5
6F58
330
6F0B
100
AcDbEntity
  8
0
100
AcDbLine
 10
26.03695111971037
 20
17.89017877108888
 30
0.0
 11
56.44254271073193
 21
35.44485526103499
 31
0.0
  0
LINE
  5
6F59
330
6F0B
100
AcDbEntity
  8
0
100
AcDbLine
 10
26.03695111971037
 20
-23.56582641049296
 30
0.0
 11
27.45116468208347
 21
-24.38232299142069
 31
0.0
  0
LINE
  5
6F5A
330
6F0B
100
AcDbEntity
  8
0
100
AcDbLine
 10
87.20168769234673
 20
-23.13877442052935
 30
0.0
 11
87.20168769234673
 21
19.31904778771242
 31
0.0
  0
LINE
  5
6F5B
330
6F0B
100
AcDbEntity
  8
0
100
AcDbLine
 10
88.61590125471982
 20
-22.32227783960162
 30
0.0
 11
87.20168769234673
 21
-23.13877442052935
 31
0.0
  0
LINE
  5
6F5C
330
6F0B
100
AcDbEntity
  8
0
100
AcDbLine
 10
88.61590125471982
 20
20.13554436864015
 30
0.0
 11
88.61590125471982
 21
-22.32227783960162
 31
0.0
  0
LINE
  5
6F5D
330
6F0B
100
AcDbEntity
  8
0
100
AcDbLine
 10
88.61590125471982
 20
20.13554436864015
 30
0.0
 11
87.20168769234673
 21
19.31904778771242
 31
0.0
  0
LINE
  5
6F5E
330
6F0B
100
AcDbEntity
  8
0
100
AcDbLine
 10
60.68518339785121
 20
-32.25058114443677
 30
0.0
 11
87.20168769234673
 21
-23.13877442052935
 31
0.0
  0
LINE
  5
6F5F
330
6F0B
100
AcDbEntity
  8
0
100
AcDbLine
 10
87.20168769234673
 20
19.31904778771242
 30
0.0
 11
60.68518339785121
 21
34.62835868010727
 31
0.0
  0
LINE
  5
6F60
330
6F0B
100
AcDbEntity
  8
0
100
AcDbLine
 10
62.0993969602243
 20
35.444855261035
 30
0.0
 11
88.61590125471982
 21
20.13554436864015
 31
0.0
  0
LINE
  5
6F61
330
6F0B
100
AcDbEntity
  8
0
100
AcDbLine
 10
26.03695111971037
 20
17.89017877108888
 30
0.0
 11
27.45116468208346
 21
17.07368219016116
 31
0.0
  0
LINE
  5
6F62
330
6F0B
100
AcDbEntity
  8
0
100
AcDbLine
 10
0.2935920111931445
 20
-66.37496591891547
 30
0.0
 11
57.14964949191847
 21
-33.54910582735787
 31
0.0
  0
SPLINE
  5
6F63
330
6F0B
100
AcDbEntity
  8
0
100
AcDbSpline
210
0.0
220
0.0
230
1.0
 70
     8
 71
     3
 72
    12
 73
     8
 74
     0
 42
0.000000001
 43
0.0000000001
 40
0.0
 40
0.0
 40
0.0
 40
0.0
 40
0.1073696404631127
 40
0.1073696404631127
 40
0.2686138215393048
 40
0.2686138215393048
 40
0.4298588820635413
 40
0.4298588820635413
 40
0.4298588820635413
 40
0.4298588820635413
 10
0.2935920111931534
 20
-66.37496591891546
 30
0.0
 10
0.1406261426015742
 20
-66.69608177545343
 30
0.0
 10
-0.0334526740335894
 20
-67.00383142923081
 30
0.0
 10
-0.5230707157712189
 20
-67.73220812340277
 30
0.0
 10
-0.862609605457778
 20
-68.12729230156344
 30
0.0
 10
-1.630308202453014
 20
-68.81641777444921
 30
0.0
 10
-2.053533618692071
 20
-69.10602118032966
 30
0.0
 10
-2.511631530216225
 20
-69.33633659354725
 30
0.0
  0
ELLIPSE
  5
6F64
330
6F0B
100
AcDbEntity
  8
0
100
AcDbEllipse
 10
-4.368640471311158
 20
-65.80072077400304
 30
0.0
 11
1.999999999999897
 21
-3.464101615137813
 31
0.0
210
0.0
220
0.0
230
1.0
 40
0.5773502691896049
 41
5.497787143782154
 42
6.214025260461676
  0
LINE
  5
6F65
330
6F0B
100
AcDbEntity
  8
0
100
AcDbLine
 10
-3.440136000763724
 20
-67.56852868377515
 30
0.0
 11
-2.511631530216287
 21
-69.33633659354729
 31
0.0
  0
ELLIPSE
  5
6F66
330
6F0B
100
AcDbEntity
  8
0
100
AcDbEllipse
 10
-4.368640471311158
 20
-65.80072077400304
 30
0.0
 11
0.9999999999999463
 21
-1.732050807568908
 31
0.0
210
0.0
220
0.0
230
1.0
 40
0.5773502691896053
 41
5.49778714378216
 42
6.214025260461681
  0
LINE
  5
6F67
330
6F0B
100
AcDbEntity
  8
0
100
AcDbLine
 10
-4.368640471311158
 20
-69.06670709771393
 30
0.0
 11
-4.368640471311158
 21
-67.43371393585848
 31
0.0
  0
LINE
  5
6F68
330
6F0B
100
AcDbEntity
  8
0
100
AcDbLine
 10
-0.7341553113720201
 20
-65.78159572557355
 30
0.0
 11
0.2935920111931445
 21
-66.37496591891547
 31
0.0
  0
LINE
  5
6F69
330
6F0B
100
AcDbEntity
  8
0
100
AcDbLine
 10
-1.120621551179947
 20
-65.55846933798775
 30
0.0
 11
-0.7341553113720201
 21
-65.78159572557355
 31
0.0
  0
SPLINE
  5
6F6A
330
6F0B
100
AcDbEntity
  8
0
100
AcDbSpline
210
0.0
220
0.0
230
1.0
 70
     8
 71
     3
 72
    10
 73
     6
 74
     0
 42
0.000000001
 43
0.0000000001
 40
0.0
 40
0.0
 40
0.0
 40
0.0
 40
0.1558853844832315
 40
0.1558853844832315
 40
0.3117707703913624
 40
0.3117707703913624
 40
0.3117707703913624
 40
0.3117707703913624
 10
-3.440136000763684
 20
-67.56852868377514
 30
0.0
 10
-2.980837782358953
 20
-67.32616865403085
 30
0.0
 10
-2.555245512760677
 20
-67.03237234419248
 30
0.0
 10
-1.774088041483725
 20
-66.34991466267894
 30
0.0
 10
-1.427416998167525
 20
-65.96905858162755
 30
0.0
 10
-1.120621551179925
 20
-65.55846933798773
 30
0.0
  0
LINE
  5
6F6B
330
6F0B
100
AcDbEntity
  8
0
100
AcDbLine
 10
-4.368640471311158
 20
-67.43371393585848
 30
0.0
 11
-1.120621551179921
 21
-65.55846933798773
 31
0.0
  0
LINE
  5
6F6C
330
6F0B
100
AcDbEntity
  8
0
100
AcDbLine
 10
56.32122236717229
 20
-35.38021428064016
 30
0.0
 11
-2.22022932450284
 21
-69.17913717358027
 31
0.0
  0
ELLIPSE
  5
6F6D
330
6F0B
100
AcDbEntity
  8
0
100
AcDbEllipse
 10
82.60549361463416
 20
15.4406890283057
 30
0.0
 11
1.250000000000128
 21
-2.165063509461021
 31
0.0
210
0.0
220
0.0
230
0.9999999999999998
 40
0.5773502691896258
 41
3.742856870268575
 42
5.681921090500111
  0
ELLIPSE
  5
6F6E
330
6F0B
100
AcDbEntity
  8
0
100
AcDbEllipse
 10
81.19128005226107
 20
14.62419244737798
 30
0.0
 11
1.24999999999987
 21
-2.165063509461171
 31
0.0
210
0.0
220
0.0
230
0.9999999999999998
 40
0.5773502691896258
 41
0.0
 42
6.283185307179586
  0
ELLIPSE
  5
6F6F
330
6F0B
100
AcDbEntity
  8
0
100
AcDbEllipse
 10
67.04914442853013
 20
16.25718560923343
 30
0.0
 11
1.250000000000128
 21
-2.165063509461021
 31
0.0
210
0.0
220
0.0
230
0.9999999999999998
 40
0.5773502691896258
 41
3.742856870268578
 42
5.681921090500121
  0
ELLIPSE
  5
6F70
330
6F0B
100
AcDbEntity
  8
0
100
AcDbEllipse
 10
65.63493086615705
 20
15.4406890283057
 30
0.0
 11
1.24999999999987
 21
-2.165063509461171
 31
0.0
210
0.0
220
0.0
230
0.9999999999999998
 40
0.5773502691896258
 41
0.0
 42
6.283185307179586
  0
ELLIPSE
  5
6F71
330
6F0B
100
AcDbEntity
  8
0
100
AcDbEllipse
 10
82.60549361463416
 20
-0.889242590248811
 30
0.0
 11
1.250000000000128
 21
-2.165063509461021
 31
0.0
210
0.0
220
0.0
230
0.9999999999999998
 40
0.5773502691896258
 41
3.742856870268575
 42
5.681921090500111
  0
ELLIPSE
  5
6F72
330
6F0B
100
AcDbEntity
  8
0
100
AcDbEllipse
 10
81.19128005226107
 20
-1.705739171176534
 30
0.0
 11
1.24999999999987
 21
-2.165063509461171
 31
0.0
210
0.0
220
0.0
230
0.9999999999999998
 40
0.5773502691896258
 41
0.0
 42
6.283185307179586
  0
ELLIPSE
  5
6F73
330
6F0B
100
AcDbEntity
  8
0
100
AcDbEllipse
 10
67.04914442853013
 20
-0.0727460093210874
 30
0.0
 11
1.250000000000128
 21
-2.165063509461021
 31
0.0
210
0.0
220
0.0
230
0.9999999999999998
 40
0.5773502691896258
 41
3.742856870268578
 42
5.681921090500121
  0
ELLIPSE
  5
6F74
330
6F0B
100
AcDbEntity
  8
0
100
AcDbEllipse
 10
65.63493086615705
 20
-0.889242590248811
 30
0.0
 11
1.24999999999987
 21
-2.165063509461171
 31
0.0
210
0.0
220
0.0
230
0.9999999999999998
 40
0.5773502691896258
 41
0.0
 42
6.283185307179586
  0
ELLIPSE
  5
6F75
330
6F0B
100
AcDbEntity
  8
0
100
AcDbEllipse
 10
82.60549361463416
 20
-17.21917420880332
 30
0.0
 11
1.250000000000128
 21
-2.165063509461021
 31
0.0
210
0.0
220
0.0
230
0.9999999999999998
 40
0.5773502691896258
 41
3.742856870268575
 42
5.681921090500111
  0
ELLIPSE
  5
6F76
330
6F0B
100
AcDbEntity
  8
0
100
AcDbEllipse
 10
81.19128005226107
 20
-18.03567078973105
 30
0.0
 11
1.24999999999987
 21
-2.165063509461171
 31
0.0
210
0.0
220
0.0
230
0.9999999999999998
 40
0.5773502691896258
 41
0.0
 42
6.283185307179586
  0
ELLIPSE
  5
6F77
330
6F0B
100
AcDbEntity
  8
0
100
AcDbEllipse
 10
67.04914442853013
 20
-16.4026776278756
 30
0.0
 11
1.250000000000128
 21
-2.165063509461021
 31
0.0
210
0.0
220
0.0
230
0.9999999999999998
 40
0.5773502691896258
 41
3.742856870268578
 42
5.681921090500121
  0
ELLIPSE
  5
6F78
330
6F0B
100
AcDbEntity
  8
0
100
AcDbEllipse
 10
65.63493086615705
 20
-17.21917420880333
 30
0.0
 11
1.24999999999987
 21
-2.165063509461171
 31
0.0
210
0.0
220
0.0
230
0.9999999999999998
 40
0.5773502691896258
 41
0.0
 42
6.283185307179586
  0
ELLIPSE
  5
6F79
330
6F0B
100
AcDbEntity
  8
0
100
AcDbEllipse
 10
73.41310545920904
 20
6.867474928564578
 30
0.0
 11
-2.749999999999714
 21
4.763139720814578
 31
0.0
210
0.0
220
0.0
230
1.0
 40
0.5773502691896257
 41
0.0
 42
6.283185307179586
  0
ELLIPSE
  5
6F7A
330
6F0B
100
AcDbEntity
  8
0
100
AcDbEllipse
 10
74.82731902158214
 20
7.683971509492302
 30
0.0
 11
-2.75
 21
4.763139720814413
 31
0.0
210
0.0
220
0.0
230
1.0
 40
0.5773502691896259
 41
0.2600508977278952
 42
2.881541755861895
  0
ELLIPSE
  5
6F7B
330
6F0B
100
AcDbEntity
  8
0
100
AcDbEllipse
 10
-14.2681354079229
 20
57.49026294608356
 30
0.0
 11
-2.750000000000003
 21
4.763139720814412
 31
0.0
210
0.0
220
0.0
230
1.0
 40
0.5773502691896257
 41
5.410568638694813
 42
7.155801975664355
  0
ELLIPSE
  5
6F7C
330
6F0B
100
AcDbEntity
  8
0
100
AcDbEllipse
 10
-12.85392184554981
 20
58.30675952701128
 30
0.0
 11
-2.750000000000001
 21
4.763139720814412
 31
0.0
210
0.0
220
0.0
230
0.9999999999999998
 40
0.5773502691896258
 41
0.2600508977278961
 42
0.872616668484772
  0
ELLIPSE
  5
6F7D
330
6F0B
100
AcDbEntity
  8
0
100
AcDbEllipse
 10
-4.368640471311158
 20
-38.03983702246036
 30
0.0
 11
-2.5
 21
-0.0000000000001488
 31
0.0
210
0.0
220
0.0
230
1.0
 40
0.5773502691896257
 41
3.742856870268582
 42
5.681921090500122
  0
ELLIPSE
  5
6F7E
330
6F0B
100
AcDbEntity
  8
0
100
AcDbEllipse
 10
-4.368640471311158
 20
-36.40684386060491
 30
0.0
 11
2.5
 21
-0.0000000000001495
 31
0.0
210
0.0
220
0.0
230
1.0
 40
0.5773502691896257
 41
0.0
 42
6.283185307179586
  0
ELLIPSE
  5
6F7F
330
6F0B
100
AcDbEntity
  8
0
100
AcDbEllipse
 10
-18.51077609504211
 20
-46.20480283173761
 30
0.0
 11
-2.5
 21
-0.0000000000001488
 31
0.0
210
0.0
220
0.0
230
1.0
 40
0.5773502691896257
 41
3.742856870268575
 42
5.681921090500122
  0
ELLIPSE
  5
6F80
330
6F0B
100
AcDbEntity
  8
0
100
AcDbEllipse
 10
-18.51077609504211
 20
-44.57180966988217
 30
0.0
 11
2.5
 21
-0.0000000000001495
 31
0.0
210
0.0
220
0.0
230
1.0
 40
0.5773502691896257
 41
0.0
 42
6.283185307179586
  0
ELLIPSE
  5
6F81
330
6F0B
100
AcDbEntity
  8
0
100
AcDbEllipse
 10
-22.04631000097492
 20
57.89851123654742
 30
0.0
 11
-1.25
 21
2.165063509461096
 31
0.0
210
0.0
220
0.0
230
0.9999999999999998
 40
0.5773502691896258
 41
4.425632428173125
 42
8.140738186186045
  0
ELLIPSE
  5
6F82
330
6F0B
100
AcDbEntity
  8
0
100
AcDbEllipse
 10
-20.63209643860183
 20
58.71500781747515
 30
0.0
 11
1.25000000000013
 21
-2.165063509461021
 31
0.0
210
0.0
220
0.0
230
1.0
 40
0.5773502691896259
 41
3.742856870268571
 42
4.999145532596076
  0
ELLIPSE
  5
6F83
330
6F0B
100
AcDbEntity
  8
0
100
AcDbEllipse
 10
-22.04631000097492
 20
74.22844285510194
 30
0.0
 11
-1.249999999999871
 21
2.16506350946117
 31
0.0
210
0.0
220
0.0
230
1.0
 40
0.5773502691896258
 41
0.0
 42
6.283185307179586
  0
ELLIPSE
  5
6F84
330
6F0B
100
AcDbEntity
  8
0
100
AcDbEllipse
 10
-20.63209643860183
 20
75.04493943602966
 30
0.0
 11
1.25000000000013
 21
-2.165063509461021
 31
0.0
210
0.0
220
0.0
230
1.0
 40
0.5773502691896259
 41
3.742856870268571
 42
5.681921090500118
  0
ENDBLK
  5
6F0D
330
6F0B
100
AcDbEntity
  8
0
100
AcDbBlockEnd
  0
ENDSEC
  0
SECTION
  2
ENTITIES
  0
INSERT
  5
6F85
330
1F
100
AcDbEntity
  8
0
100
AcDbBlockReference
  2
SAE250_80_2-Front
 10
0.0
 20
0.0
 30
0.0
  0
INSERT
  5
6F86
330
1F
100
AcDbEntity
  8
0
100
AcDbBlockReference
  2
SAE250_80_2-Left
 10
115.4000000000639
 20
0.0
 30
0.0
  0
INSERT
  5
6F87
330
1F
100
AcDbEntity
  8
0
100
AcDbBlockReference
  2
SAE250_80_2-Right
 10
-115.4000000000059
 20
0.0
 30
0.0
  0
INSERT
  5
6F88
330
1F
100
AcDbEntity
  8
0
100
AcDbBlockReference
  2
SAE250_80_2-Top
 10
0.0
 20
-35.9000437954426
 30
0.0
  0
INSERT
  5
6F89
330
1F
100
AcDbEntity
  8
0
100
AcDbBlockReference
  2
SAE250_80_2-Bottom
 10
0.0
 20
118.9000437954426
 30
0.0
  0
INSERT
  5
6F8A
330
1F
100
AcDbEntity
  8
0
100
AcDbBlockReference
  2
SAE250_80_2-ISO
 10
175.3657647825895
 20
-122.5800157142556
 30
0.0
  0
MTEXT
  5
6F8B
330
1F
100
AcDbEntity
  8
0
100
AcDbMText
 10
0.0
 20
-157.8000437954485
 30
0.0
 40
11.30000000000194
 41
0.0
 71
     5
 72
     5
  1
SAE250/80/2
 73
     1
 44
1.0
1001
ACAD
1000
MTEXTBEGIN
1070
    73
1070
     1
1070
    44
1040
1.0
1070
    74
1070
     0
1000
MTEXTEND
  0
ENDSEC
  0
SECTION
  2
OBJECTS
  0
DICTIONARY
  5
C
330
0
100
AcDbDictionary
281
     1
  3
ACAD_CIP_PREVIOUS_PRODUCT_INFO
350
216
  3
ACAD_COLOR
350
6B
  3
ACAD_DETAILVIEWSTYLE
350
21B
  3
ACAD_GROUP
350
D
  3
ACAD_LAYOUT
350
1A
  3
ACAD_MATERIAL
350
6A
  3
ACAD_MLEADERSTYLE
350
12D
  3
ACAD_MLINESTYLE
350
17
  3
ACAD_PLOTSETTINGS
350
19
  3
ACAD_PLOTSTYLENAME
350
E
  3
ACAD_SCALELIST
350
10C
  3
ACAD_SECTIONVIEWSTYLE
350
219
  3
ACAD_TABLESTYLE
350
7E
  3
ACAD_VISUALSTYLE
350
EF
  3
ACDB_RECOMPOSE_DATA
350
708C
  3
AcDbVariableDictionary
350
5E
  3
DWGPROPS
350
708D
  0
DICTIONARY
  5
6FDC
330
8
100
AcDbDictionary
280
     1
281
     1
  0
DICTIONARY
  5
1FF
330
2
100
AcDbDictionary
280
     1
281
     1
  3
ACAD_LAYERSTATES
360
200
  0
DICTIONARY
  5
13C
330
10
100
AcDbDictionary
280
     1
281
     1
  0
DICTIONARY
  5
1CE
330
1F
100
AcDbDictionary
280
     1
281
     1
  3
ACAD_LAYOUTSELFREF
360
6FE4
  0
DICTIONARY
  5
6F8F
330
D2
100
AcDbDictionary
280
     1
281
     1
  3
ACAD_LAYOUTSELFREF
360
6FED
  0
DICTIONARY
  5
6F91
330
D6
100
AcDbDictionary
280
     1
281
     1
  3
ACAD_LAYOUTSELFREF
360
6FF0
  0
XRECORD
  5
216
102
{ACAD_REACTORS
330
C
102
}
330
C
100
AcDbXrecord
280
     1
300
ACD
300
2021
300
87393ACD_2021_0F
  0
DICTIONARY
  5
6B
102
{ACAD_REACTORS
330
C
102
}
330
C
100
AcDbDictionary
281
     1
  0
DICTIONARY
  5
21B
102
{ACAD_REACTORS
330
C
102
}
330
C
100
AcDbDictionary
281
     1
  3
Metric50
350
21C
  0
DICTIONARY
  5
D
102
{ACAD_REACTORS
330
C
102
}
330
C
100
AcDbDictionary
281
     1
  0
DICTIONARY
  5
1A
102
{ACAD_REACTORS
330
C
102
}
330
C
100
AcDbDictionary
281
     1
  3
Layout1
350
D3
  3
Layout2
350
D7
  3
Model
350
22
  0
DICTIONARY
  5
6A
102
{ACAD_REACTORS
330
C
102
}
330
C
100
AcDbDictionary
281
     1
  3
ByBlock
350
ED
  3
ByLayer
350
EC
  3
Global
350
EE
  0
DICTIONARY
  5
12D
102
{ACAD_REACTORS
330
C
102
}
330
C
100
AcDbDictionary
281
     1
  3
Standard
350
12E
  0
DICTIONARY
  5
17
102
{ACAD_REACTORS
330
C
102
}
330
C
100
AcDbDictionary
281
     1
  3
Standard
350
18
  0
DICTIONARY
  5
19
102
{ACAD_REACTORS
330
C
102
}
330
C
100
AcDbDictionary
281
     1
  0
ACDBDICTIONARYWDFLT
  5
E
102
{ACAD_REACTORS
330
C
102
}
330
C
100
AcDbDictionary
281
     1
  3
Normal
350
F
100
AcDbDictionaryWithDefault
340
F
  0
DICTIONARY
  5
10C
102
{ACAD_REACTORS
330
C
102
}
330
C
100
AcDbDictionary
281
     1
  3
A0
350
10D
  3
A1
350
1BE
  3
A2
350
1BF
  3
A3
350
1C0
  3
A4
350
1C1
  3
A5
350
1C2
  3
A6
350
1C3
  3
A7
350
1C4
  3
A8
350
1C5
  3
A9
350
1C6
  3
B0
350
1C7
  3
B1
350
1C8
  3
B2
350
1C9
  3
B3
350
1CA
  3
B4
350
1CB
  3
B5
350
1CC
  3
B6
350
1CD
  0
DICTIONARY
  5
219
102
{ACAD_REACTORS
330
C
102
}
330
C
100
AcDbDictionary
281
     1
  3
Metric50
350
21A
  0
DICTIONARY
  5
7E
102
{ACAD_REACTORS
330
C
102
}
330
C
100
AcDbDictionary
281
     1
  3
Standard
350
7F
  0
DICTIONARY
  5
EF
102
{ACAD_REACTORS
330
C
102
}
330
C
100
AcDbDictionary
281
     1
  3
2dWireframe
350
F5
  3
Basic
350
F4
  3
Brighten
350
FB
  3
ColorChange
350
FF
  3
Conceptual
350
F8
  3
Dim
350
FA
  3
EdgeColorOff
350
1E6
  3
Facepattern
350
FE
  3
Flat
350
F0
  3
FlatWithEdges
350
F1
  3
Gouraud
350
F2
  3
GouraudWithEdges
350
F3
  3
Hidden
350
F7
  3
JitterOff
350
1E4
  3
Linepattern
350
FD
  3
OverhangOff
350
1E5
  3
Realistic
350
F9
  3
Shaded
350
1F3
  3
Shaded with edges
350
1F2
  3
Shades of Gray
350
1EF
  3
Sketchy
350
1F0
  3
Thicken
350
FC
  3
Wireframe
350
F6
  3
X-Ray
350
1F1
  0
XRECORD
  5
708C
102
{ACAD_REACTORS
330
C
102
}
330
C
100
AcDbXrecord
280
     1
 90
        1
330
7F
  0
DICTIONARY
  5
5E
102
{ACAD_REACTORS
330
C
102
}
330
C
100
AcDbDictionary
281
     1
  3
CANNOSCALE
350
146
  3
CENTEREXE
350
259
  3
CENTERLTYPEFILE
350
25A
  3
CMLEADERSTYLE
350
145
  3
CTABLESTYLE
350
84
  3
CVIEWDETAILSTYLE
350
227
  3
CVIEWSECTIONSTYLE
350
228
  3
DIMASSOC
350
5F
  3
HIDETEXT
350
63
  3
INDEXCTL
350
7039
  3
LAYEREVAL
350
1AE
  3
LAYERNOTIFY
350
1AF
  3
LIGHTINGUNITS
350
7037
  3
MSLTSCALE
350
7036
  3
PSOLHEIGHT
350
7089
  3
PSOLWIDTH
350
7088
  3
SORTENTS
350
7038
  3
XCLIPFRAME
350
708A
  0
XRECORD
  5
708D
102
{ACAD_REACTORS
330
C
102
}
330
C
100
AcDbXrecord
280
     1
  1
DWGPROPS COOKIE
  2

  3

  4

  6

  7

  8
truole
  9

300
=
301
=
302
=
303
=
304
=
305
=
306
=
307
=
308
=
309
=
 40
0.0075694444444444
 41
2460398.356956019
 42
2460398.373599538
  1

 90
        0
  0
DICTIONARY
  5
200
102
{ACAD_REACTORS
330
1FF
102
}
330
1FF
100
AcDbDictionary
281
     1
  0
XRECORD
  5
6FE4
102
{ACAD_REACTORS
330
1CE
102
}
330
1CE
100
AcDbXrecord
280
     1
340
1F
  0
XRECORD
  5
6FED
102
{ACAD_REACTORS
330
6F8F
102
}
330
6F8F
100
AcDbXrecord
280
     1
340
D2
  0
XRECORD
  5
6FF0
102
{ACAD_REACTORS
330
6F91
102
}
330
6F91
100
AcDbXrecord
280
     1
340
D6
  0
ACDBDETAILVIEWSTYLE
  5
21C
102
{ACAD_XDICTIONARY
360
70CC
102
}
102
{ACAD_REACTORS
330
21B
102
}
330
21B
100
AcDbModelDocViewStyle
 70
     0
  3
Metric50
290
     0
100
AcDbDetailViewStyle
 70
     0
 71
     0
 90
        3
 71
     1
340
11
 40
5.0
340
0
 40
5.0
300

 40
0.0
280
     1
 71
     2
340
16
 90
       25
 71
     3
340
11
 40
5.0
 90
        0
 40
15.0
 90
        1
300
%<\AcVar ViewDetailId>% (%<\AcVar ViewScale \f "%sn">%)
 71
     4
340
16
 90
       25
340
16
 90
       25
280
     0
  0
LAYOUT
  5
D3
102
{ACAD_XDICTIONARY
360
7091
102
}
102
{ACAD_REACTORS
330
1A
102
}
330
1A
100
AcDbPlotSettings
  1

  2
C:\Documents and Settings\basas\Application Data\Autodesk\AutoCAD 2005\R16.1\enu\plotters\Default Windows System Printer.pc3
  4

  6

 40
0.0
 41
0.0
 42
0.0
 43
0.0
 44
0.0
 45
0.0
 46
0.0
 47
0.0
 48
0.0
 49
0.0
140
0.0
141
0.0
142
1.0
143
1.0
 70
   688
 72
     0
 73
     0
 74
     5
  7

 75
    16
147
1.0
148
0.0
149
0.0
100
AcDbLayout
  1
Layout1
 70
     1
 71
     1
 10
0.0
 20
0.0
 11
12.0
 21
9.0
 12
0.0
 22
0.0
 32
0.0
 14
0.0
 24
0.0
 34
0.0
 15
0.0
 25
0.0
 35
0.0
146
0.0
 13
0.0
 23
0.0
 33
0.0
 16
1.0
 26
0.0
 36
0.0
 17
0.0
 27
1.0
 37
0.0
 76
     0
330
D2
  0
LAYOUT
  5
D7
102
{ACAD_XDICTIONARY
360
7093
102
}
102
{ACAD_REACTORS
330
1A
102
}
330
1A
100
AcDbPlotSettings
  1

  2
C:\Documents and Settings\basas\Application Data\Autodesk\AutoCAD 2005\R16.1\enu\plotters\Default Windows System Printer.pc3
  4

  6

 40
0.0
 41
0.0
 42
0.0
 43
0.0
 44
0.0
 45
0.0
 46
0.0
 47
0.0
 48
0.0
 49
0.0
140
0.0
141
0.0
142
1.0
143
1.0
 70
   688
 72
     0
 73
     0
 74
     5
  7

 75
    16
147
1.0
148
0.0
149
0.0
100
AcDbLayout
  1
Layout2
 70
     1
 71
     2
 10
0.0
 20
0.0
 11
12.0
 21
9.0
 12
0.0
 22
0.0
 32
0.0
 14
0.0
 24
0.0
 34
0.0
 15
0.0
 25
0.0
 35
0.0
146
0.0
 13
0.0
 23
0.0
 33
0.0
 16
1.0
 26
0.0
 36
0.0
 17
0.0
 27
1.0
 37
0.0
 76
     0
330
D6
  0
LAYOUT
  5
22
102
{ACAD_XDICTIONARY
360
708E
102
}
102
{ACAD_REACTORS
330
1A
102
}
330
1A
100
AcDbPlotSettings
  1

  2
none_device
  4
ISO_A4_(210.00_x_297.00_MM)
  6

 40
7.5
 41
20.0
 42
7.5
 43
20.0
 44
210.0
 45
297.0
 46
11.54999923706054
 47
-13.65000009536743
 48
0.0
 49
0.0
140
0.0
141
0.0
142
1.0
143
8.704084754739808
 70
 11952
 72
     1
 73
     0
 74
     0
  7

 75
     0
147
0.1148885871608098
148
0.0
149
0.0
100
AcDbLayout
  1
Model
 70
     1
 71
     0
 10
0.0
 20
0.0
 11
12.0
 21
9.0
 12
0.0
 22
0.0
 32
0.0
 14
0.0
 24
0.0
 34
0.0
 15
0.0
 25
0.0
 35
0.0
146
0.0
 13
0.0
 23
0.0
 33
0.0
 16
1.0
 26
0.0
 36
0.0
 17
0.0
 27
1.0
 37
0.0
 76
     0
330
1F
331
EA
1001
ACAD_PSEXT
1000
None
1000
None
1000
Not applicable
1000
The layout will not be plotted unless a new plotter configuration name is selected.
1070
     0
  0
MATERIAL
  5
ED
102
{ACAD_XDICTIONARY
360
1F9
102
}
102
{ACAD_REACTORS
330
6A
102
}
330
6A
100
AcDbMaterial
  1
ByBlock
  0
MATERIAL
  5
EC
102
{ACAD_XDICTIONARY
360
1F7
102
}
102
{ACAD_REACTORS
330
6A
102
}
330
6A
100
AcDbMaterial
  1
ByLayer
  0
MATERIAL
  5
EE
102
{ACAD_XDICTIONARY
360
173
102
}
102
{ACAD_REACTORS
330
6A
102
}
330
6A
100
AcDbMaterial
  1
Global
 43
0.0007999999797903
 43
0.0
 43
0.0
 43
0.0
 43
0.0
 43
0.0007999999797903
 43
0.0
 43
0.0
 43
0.0
 43
0.0
 43
1.0
 43
0.0
 43
0.0
 43
0.0
 43
0.0
 43
1.0
 49
0.0007999999797903
 49
0.0
 49
0.0
 49
0.0
 49
0.0
 49
0.0007999999797903
 49
0.0
 49
0.0
 49
0.0
 49
0.0
 49
1.0
 49
0.0
 49
0.0
 49
0.0
 49
0.0
 49
1.0
142
0.0007999999797903
142
0.0
142
0.0
142
0.0
142
0.0
142
0.0007999999797903
142
0.0
142
0.0
142
0.0
142
0.0
142
1.0
142
0.0
142
0.0
142
0.0
142
0.0
142
1.0
144
0.0007999999797903
144
0.0
144
0.0
144
0.0
144
0.0
144
0.0007999999797903
144
0.0
144
0.0
144
0.0
144
0.0
144
1.0
144
0.0
144
0.0
144
0.0
144
0.0
144
1.0
1001
ACAD
1070
    -1
1070
     3
1070
     0
1000

1071
        0
1070
     0
  0
MLEADERSTYLE
  5
12E
102
{ACAD_XDICTIONARY
360
70B8
102
}
102
{ACAD_REACTORS
330
12D
102
}
330
12D
100
AcDbMLeaderStyle
170
     2
171
     1
172
     0
 90
        2
 40
0.0
 41
0.0
173
     1
 91
-1056964608
340
14
 92
       -2
290
     1
 42
2.0
291
     1
 43
8.0
  3
Standard
 44
4.0
300

342
11
174
     1
178
     1
175
     1
176
     0
 93
-1056964608
 45
4.0
292
     0
297
     0
 46
4.0
 94
-1056964608
 47
1.0
 49
1.0
140
1.0
293
     1
141
0.0
294
     1
177
     0
142
1.0
295
     0
296
     0
143
3.75
1001
ACAD_MLEADERVER
1070
     2
  0
MLINESTYLE
  5
18
102
{ACAD_REACTORS
330
17
102
}
330
17
100
AcDbMlineStyle
  2
STANDARD
 70
     0
  3

 62
   256
 51
90.0
 52
90.0
 71
     2
 49
0.5
 62
   256
  6
BYLAYER
 49
-0.5
 62
   256
  6
BYLAYER
  0
ACDBPLACEHOLDER
  5
F
102
{ACAD_REACTORS
330
E
102
}
330
E
  0
SCALE
  5
10D
102
{ACAD_REACTORS
330
10C
102
}
330
10C
100
AcDbScale
 70
     0
300
1:1
140
1.0
141
1.0
290
     1
  0
SCALE
  5
1BE
102
{ACAD_REACTORS
330
10C
102
}
330
10C
100
AcDbScale
 70
     0
300
1:2
140
1.0
141
2.0
290
     0
  0
SCALE
  5
1BF
102
{ACAD_REACTORS
330
10C
102
}
330
10C
100
AcDbScale
 70
     0
300
1:4
140
1.0
141
4.0
290
     0
  0
SCALE
  5
1C0
102
{ACAD_REACTORS
330
10C
102
}
330
10C
100
AcDbScale
 70
     0
300
1:5
140
1.0
141
5.0
290
     0
  0
SCALE
  5
1C1
102
{ACAD_REACTORS
330
10C
102
}
330
10C
100
AcDbScale
 70
     0
300
1:8
140
1.0
141
8.0
290
     0
  0
SCALE
  5
1C2
102
{ACAD_REACTORS
330
10C
102
}
330
10C
100
AcDbScale
 70
     0
300
1:10
140
1.0
141
10.0
290
     0
  0
SCALE
  5
1C3
102
{ACAD_REACTORS
330
10C
102
}
330
10C
100
AcDbScale
 70
     0
300
1:16
140
1.0
141
16.0
290
     0
  0
SCALE
  5
1C4
102
{ACAD_REACTORS
330
10C
102
}
330
10C
100
AcDbScale
 70
     0
300
1:20
140
1.0
141
20.0
290
     0
  0
SCALE
  5
1C5
102
{ACAD_REACTORS
330
10C
102
}
330
10C
100
AcDbScale
 70
     0
300
1:30
140
1.0
141
30.0
290
     0
  0
SCALE
  5
1C6
102
{ACAD_REACTORS
330
10C
102
}
330
10C
100
AcDbScale
 70
     0
300
1:40
140
1.0
141
40.0
290
     0
  0
SCALE
  5
1C7
102
{ACAD_REACTORS
330
10C
102
}
330
10C
100
AcDbScale
 70
     0
300
1:50
140
1.0
141
50.0
290
     0
  0
SCALE
  5
1C8
102
{ACAD_REACTORS
330
10C
102
}
330
10C
100
AcDbScale
 70
     0
300
1:100
140
1.0
141
100.0
290
     0
  0
SCALE
  5
1C9
102
{ACAD_REACTORS
330
10C
102
}
330
10C
100
AcDbScale
 70
     0
300
2:1
140
2.0
141
1.0
290
     0
  0
SCALE
  5
1CA
102
{ACAD_REACTORS
330
10C
102
}
330
10C
100
AcDbScale
 70
     0
300
4:1
140
4.0
141
1.0
290
     0
  0
SCALE
  5
1CB
102
{ACAD_REACTORS
330
10C
102
}
330
10C
100
AcDbScale
 70
     0
300
8:1
140
8.0
141
1.0
290
     0
  0
SCALE
  5
1CC
102
{ACAD_REACTORS
330
10C
102
}
330
10C
100
AcDbScale
 70
     0
300
10:1
140
10.0
141
1.0
290
     0
  0
SCALE
  5
1CD
102
{ACAD_REACTORS
330
10C
102
}
330
10C
100
AcDbScale
 70
     0
300
100:1
140
100.0
141
1.0
290
     0
  0
ACDBSECTIONVIEWSTYLE
  5
21A
102
{ACAD_XDICTIONARY
360
70CA
102
}
102
{ACAD_REACTORS
330
219
102
}
330
219
100
AcDbModelDocViewStyle
 70
     0
  3
Metric50
290
     0
100
AcDbSectionViewStyle
 70
     0
 71
     0
 90
      102
 71
     1
340
11
 40
5.0
340
0
340
0
 40
5.0
300
I, O, Q, S, X, Z
 40
10.0
 90
        0
 40
2.5
 90
        0
 71
     2
340
16
 90
       25
340
16
 90
       50
 40
5.0
 40
2.5
 40
5.0
 71
     3
340
11
 40
5.0
 90
        0
 40
15.0
 90
        1
300
%<\AcVar ViewSectionStartId>%-%<\AcVar ViewSectionEndId>% (%<\AcVar ViewScale \f "%sn">%)
 71
     4
300
ANSI31
 40
1.0
 90
        0
290
     0
290
     0
 90
        6
 40
0.0
 40
1.570796326794896
 40
0.2617993877991494
 40
1.308996938995747
 40
-0.2617993877991494
 40
1.832595714594046
  0
TABLESTYLE
  5
7F
102
{ACAD_XDICTIONARY
360
162
102
}
102
{ACAD_REACTORS
330
7E
102
}
330
7E
100
AcDbTableStyle
  3
Standard
 70
     0
 71
     0
 40
1.5
 41
1.5
280
     0
281
     0
  7
Standard
140
4.5
170
     2
 62
     0
 63
     7
283
     0
274
    -2
284
     1
 64
     0
275
    -2
285
     1
 65
     0
276
    -2
286
     1
 66
     0
277
    -2
287
     1
 67
     0
278
    -2
288
     1
 68
     0
279
    -2
289
     1
 69
     0
  7
Standard
140
6.0
170
     5
 62
     0
 63
     7
283
     0
274
    -2
284
     1
 64
     0
275
    -2
285
     1
 65
     0
276
    -2
286
     1
 66
     0
277
    -2
287
     1
 67
     0
278
    -2
288
     1
 68
     0
279
    -2
289
     1
 69
     0
  7
Standard
140
4.5
170
     5
 62
     0
 63
     7
283
     0
274
    -2
284
     1
 64
     0
275
    -2
285
     1
 65
     0
276
    -2
286
     1
 66
     0
277
    -2
287
     1
 67
     0
278
    -2
288
     1
 68
     0
279
    -2
289
     1
 69
     0
  0
VISUALSTYLE
  5
F5
102
{ACAD_XDICTIONARY
360
70A2
102
}
102
{ACAD_REACTORS
330
EF
102
}
330
EF
100
AcDbVisualStyle
  2
2dWireframe
 70
     4
 71
     0
 72
     2
 73
     1
 90
        0
 40
-0.6
 41
-30.0
 62
     5
 63
     7
 74
     1
 91
        4
 64
     7
 65
   257
 75
     1
175
     1
 42
1.0
 92
        0
 66
   257
 43
1.0
 76
     1
 77
     6
 78
     2
 67
     7
 79
     5
170
     0
171
     0
290
     0
174
     0
 93
        1
 44
0.0
173
     0
291
     0
 45
0.0
1001
ACAD
1000
AcDbSavedByObjectVersion
1070
     0
  0
VISUALSTYLE
  5
F4
102
{ACAD_XDICTIONARY
360
70A0
102
}
102
{ACAD_REACTORS
330
EF
102
}
330
EF
100
AcDbVisualStyle
  2
Basic
 70
     7
 71
     1
 72
     0
 73
     1
 90
        0
 40
-0.6
 41
-30.0
 62
     5
 63
     7
 74
     0
 91
        4
 64
     7
 65
   257
 75
     1
175
     1
 42
1.0
 92
        8
 66
     7
 43
1.0
 76
     1
 77
     6
 78
     2
 67
     7
 79
     5
170
     0
171
     0
290
     0
174
     0
 93
        1
 44
0.0
173
     0
291
     1
 45
0.0
1001
ACAD
1000
AcDbSavedByObjectVersion
1070
     0
  0
VISUALSTYLE
  5
FB
102
{ACAD_XDICTIONARY
360
70AE
102
}
102
{ACAD_REACTORS
330
EF
102
}
330
EF
100
AcDbVisualStyle
  2
Brighten
 70
    12
 71
     2
 72
     2
 73
     1
 90
        0
 40
-0.6
 41
-30.0
 62
     5
 63
     7
 74
     1
 91
        4
 64
     7
 65
   257
 75
     1
175
     1
 42
1.0
 92
        8
 66
     7
 43
1.0
 76
     1
 77
     6
 78
     2
 67
     7
 79
     5
170
     0
171
     0
290
     0
174
     0
 93
        1
 44
50.0
173
     0
291
     1
 45
0.0
1001
ACAD
1000
AcDbSavedByObjectVersion
1070
     0
  0
VISUALSTYLE
  5
FF
102
{ACAD_XDICTIONARY
360
70B6
102
}
102
{ACAD_REACTORS
330
EF
102
}
330
EF
100
AcDbVisualStyle
  2
ColorChange
 70
    16
 71
     2
 72
     2
 73
     3
 90
        0
 40
-0.6
 41
-30.0
 62
     5
 63
     8
 74
     1
 91
        4
 64
     7
 65
   257
 75
     1
175
     1
 42
1.0
 92
        8
 66
     8
 43
1.0
 76
     1
 77
     6
 78
     2
 67
     7
 79
     5
170
     0
171
     0
290
     0
174
     0
 93
        1
 44
0.0
173
     0
291
     1
 45
0.0
1001
ACAD
1000
AcDbSavedByObjectVersion
1070
     0
  0
VISUALSTYLE
  5
F8
102
{ACAD_XDICTIONARY
360
70A8
102
}
102
{ACAD_REACTORS
330
EF
102
}
330
EF
100
AcDbVisualStyle
  2
Conceptual
 70
     9
 71
     3
 72
     2
 73
     1
 90
        0
 40
-0.6
 41
-30.0
 62
     5
 63
     7
 74
     2
 91
        2
 64
     7
 65
   257
 75
     1
175
     1
 42
40.0
 92
        8
 66
     7
 43
1.0
 76
     1
 77
     6
 78
     2
 67
     7
 79
     3
170
     0
171
     0
290
     0
174
     0
 93
        1
 44
0.0
173
     0
291
     0
 45
0.0
1001
ACAD
1000
AcDbSavedByObjectVersion
1070
     0
  0
VISUALSTYLE
  5
FA
102
{ACAD_XDICTIONARY
360
70AC
102
}
102
{ACAD_REACTORS
330
EF
102
}
330
EF
100
AcDbVisualStyle
  2
Dim
 70
    11
 71
     2
 72
     2
 73
     1
 90
        0
 40
-0.6
 41
-30.0
 62
     5
 63
     7
 74
     1
 91
        4
 64
     7
 65
   257
 75
     1
175
     1
 42
1.0
 92
        8
 66
     7
 43
1.0
 76
     1
 77
     6
 78
     2
 67
     7
 79
     5
170
     0
171
     0
290
     0
174
     0
 93
        1
 44
-50.0
173
     0
291
     1
 45
0.0
1001
ACAD
1000
AcDbSavedByObjectVersion
1070
     0
  0
VISUALSTYLE
  5
1E6
102
{ACAD_XDICTIONARY
360
70BE
102
}
102
{ACAD_REACTORS
330
EF
102
}
330
EF
100
AcDbVisualStyle
  2
EdgeColorOff
 70
    22
 71
     2
 72
     2
 73
     0
 90
        0
 40
-0.6
 41
-30.0
 62
     5
 63
     7
 74
     1
 91
        4
 64
     7
 65
   257
 75
     1
175
     1
 42
1.0
 92
        8
 66
     7
 43
1.0
 76
     1
 77
     6
 78
     2
 67
     7
 79
     5
170
     0
171
     0
290
     0
174
     0
 93
        1
 44
0.0
173
     0
291
     1
 45
0.0
1001
ACAD
1000
AcDbSavedByObjectVersion
1070
     0
  0
VISUALSTYLE
  5
FE
102
{ACAD_XDICTIONARY
360
70B4
102
}
102
{ACAD_REACTORS
330
EF
102
}
330
EF
100
AcDbVisualStyle
  2
Facepattern
 70
    15
 71
     2
 72
     2
 73
     1
 90
        0
 40
-0.6
 41
-30.0
 62
     5
 63
     7
 74
     1
 91
        4
 64
     7
 65
   257
 75
     1
175
     1
 42
1.0
 92
        8
 66
     7
 43
1.0
 76
     1
 77
     6
 78
     2
 67
     7
 79
     5
170
     0
171
     0
290
     0
174
     0
 93
        1
 44
0.0
173
     0
291
     1
 45
0.0
1001
ACAD
1000
AcDbSavedByObjectVersion
1070
     0
  0
VISUALSTYLE
  5
F0
102
{ACAD_XDICTIONARY
360
7098
102
}
102
{ACAD_REACTORS
330
EF
102
}
330
EF
100
AcDbVisualStyle
  2
Flat
 70
     0
 71
     2
 72
     1
 73
     1
 90
        2
 40
-0.6
 41
30.0
 62
     5
 63
     7
 74
     0
 91
        0
 64
     7
 65
   257
 75
     1
175
     1
 42
1.0
 92
        8
 66
     7
 43
1.0
 76
     1
 77
     6
 78
     2
 67
     7
 79
     5
170
     0
171
     0
290
     0
174
     0
 93
       13
 44
0.0
173
     0
291
     1
 45
0.0
1001
ACAD
1000
AcDbSavedByObjectVersion
1070
     0
  0
VISUALSTYLE
  5
F1
102
{ACAD_XDICTIONARY
360
709A
102
}
102
{ACAD_REACTORS
330
EF
102
}
330
EF
100
AcDbVisualStyle
  2
FlatWithEdges
 70
     1
 71
     2
 72
     1
 73
     1
 90
        2
 40
-0.6
 41
30.0
 62
     5
 63
     7
 74
     1
 91
        0
 64
     7
 65
   257
 75
     1
175
     1
 42
1.0
 92
        0
 66
   257
 43
1.0
 76
     1
 77
     6
 78
     2
 67
     7
 79
     5
170
     0
171
     0
290
     0
174
     0
 93
       13
 44
0.0
173
     0
291
     1
 45
0.0
1001
ACAD
1000
AcDbSavedByObjectVersion
1070
     0
  0
VISUALSTYLE
  5
F2
102
{ACAD_XDICTIONARY
360
709C
102
}
102
{ACAD_REACTORS
330
EF
102
}
330
EF
100
AcDbVisualStyle
  2
Gouraud
 70
     2
 71
     2
 72
     2
 73
     1
 90
        2
 40
-0.6
 41
30.0
 62
     5
 63
     7
 74
     0
 91
        0
 64
     7
 65
   257
 75
     1
175
     1
 42
1.0
 92
        0
 66
     7
 43
1.0
 76
     1
 77
     6
 78
     2
 67
     7
 79
     5
170
     0
171
     0
290
     0
174
     0
 93
       13
 44
0.0
173
     0
291
     1
 45
0.0
1001
ACAD
1000
AcDbSavedByObjectVersion
1070
     0
  0
VISUALSTYLE
  5
F3
102
{ACAD_XDICTIONARY
360
709E
102
}
102
{ACAD_REACTORS
330
EF
102
}
330
EF
100
AcDbVisualStyle
  2
GouraudWithEdges
 70
     3
 71
     2
 72
     2
 73
     1
 90
        2
 40
-0.6
 41
30.0
 62
     5
 63
     7
 74
     1
 91
        0
 64
     7
 65
   257
 75
     1
175
     1
 42
1.0
 92
        0
 66
   257
 43
1.0
 76
     1
 77
     6
 78
     2
 67
     7
 79
     5
170
     0
171
     0
290
     0
174
     0
 93
       13
 44
0.0
173
     0
291
     1
 45
0.0
1001
ACAD
1000
AcDbSavedByObjectVersion
1070
     0
  0
VISUALSTYLE
  5
F7
102
{ACAD_XDICTIONARY
360
70A6
102
}
102
{ACAD_REACTORS
330
EF
102
}
330
EF
100
AcDbVisualStyle
  2
Hidden
 70
     6
 71
     1
 72
     2
 73
     2
 90
        0
 40
-0.6
 41
-30.0
 62
     5
 63
     7
 74
     2
 91
        2
 64
     7
 65
   257
 75
     2
175
     1
 42
40.0
 92
        0
 66
   257
 43
1.0
 76
     1
 77
     6
 78
     2
 67
     7
 79
     3
170
     0
171
     0
290
     0
174
     0
 93
        1
 44
0.0
173
     0
291
     0
 45
0.0
1001
ACAD
1000
AcDbSavedByObjectVersion
1070
     0
  0
VISUALSTYLE
  5
1E4
102
{ACAD_XDICTIONARY
360
70BA
102
}
102
{ACAD_REACTORS
330
EF
102
}
330
EF
100
AcDbVisualStyle
  2
JitterOff
 70
    20
 71
     2
 72
     2
 73
     0
 90
        0
 40
-0.6
 41
-30.0
 62
     5
 63
     7
 74
     1
 91
        4
 64
     7
 65
   257
 75
     1
175
     1
 42
1.0
 92
       10
 66
     7
 43
1.0
 76
     1
 77
     6
 78
     2
 67
     7
 79
     5
170
     0
171
     0
290
     0
174
     0
 93
        1
 44
0.0
173
     0
291
     1
 45
0.0
1001
ACAD
1000
AcDbSavedByObjectVersion
1070
     0
  0
VISUALSTYLE
  5
FD
102
{ACAD_XDICTIONARY
360
70B2
102
}
102
{ACAD_REACTORS
330
EF
102
}
330
EF
100
AcDbVisualStyle
  2
Linepattern
 70
    14
 71
     2
 72
     2
 73
     1
 90
        0
 40
-0.6
 41
-30.0
 62
     5
 63
     7
 74
     1
 91
        4
 64
     7
 65
   257
 75
     7
175
     7
 42
1.0
 92
        8
 66
     7
 43
1.0
 76
     1
 77
     6
 78
     2
 67
     7
 79
     5
170
     0
171
     0
290
     0
174
     0
 93
        1
 44
0.0
173
     0
291
     1
 45
0.0
1001
ACAD
1000
AcDbSavedByObjectVersion
1070
     0
  0
VISUALSTYLE
  5
1E5
102
{ACAD_XDICTIONARY
360
70BC
102
}
102
{ACAD_REACTORS
330
EF
102
}
330
EF
100
AcDbVisualStyle
  2
OverhangOff
 70
    21
 71
     2
 72
     2
 73
     0
 90
        0
 40
-0.6
 41
-30.0
 62
     5
 63
     7
 74
     1
 91
        4
 64
     7
 65
   257
 75
     1
175
     1
 42
1.0
 92
        9
 66
     7
 43
1.0
 76
     1
 77
     6
 78
     2
 67
     7
 79
     5
170
     0
171
     0
290
     0
174
     0
 93
        1
 44
0.0
173
     0
291
     1
 45
0.0
1001
ACAD
1000
AcDbSavedByObjectVersion
1070
     0
  0
VISUALSTYLE
  5
F9
102
{ACAD_XDICTIONARY
360
70AA
102
}
102
{ACAD_REACTORS
330
EF
102
}
330
EF
100
AcDbVisualStyle
  2
Realistic
 70
     8
 71
     2
 72
     2
 73
     0
 90
        2
 40
-0.6
 41
30.0
 62
     5
 63
     7
 74
     0
 91
        0
 64
     7
 65
   257
 75
     1
175
     1
 42
1.0
 92
        8
 66
   257
 43
1.0
 76
     1
 77
     6
 78
     2
 67
     7
 79
     3
170
     0
171
     0
290
     0
174
     0
 93
       13
 44
0.0
173
     0
291
     0
 45
0.0
1001
ACAD
1000
AcDbSavedByObjectVersion
1070
     0
  0
VISUALSTYLE
  5
1F3
102
{ACAD_XDICTIONARY
360
70C8
102
}
102
{ACAD_REACTORS
330
EF
102
}
330
EF
100
AcDbVisualStyle
  2
Shaded
 70
    27
 71
     2
 72
     2
 73
     1
 90
        2
 40
-0.6
 41
30.0
 62
     5
 63
     7
 74
     0
 91
        4
 64
     7
 65
   257
 75
     1
175
     1
 42
1.0
 92
        8
 66
   257
 43
1.0
 76
     1
 77
     6
 78
     2
 67
     8
 79
     3
170
     0
171
     0
290
     0
174
     0
 93
        5
 44
0.0
173
     0
291
     0
 45
0.0
1001
ACAD
1000
AcDbSavedByObjectVersion
1070
     0
  0
VISUALSTYLE
  5
1F2
102
{ACAD_XDICTIONARY
360
70C6
102
}
102
{ACAD_REACTORS
330
EF
102
}
330
EF
100
AcDbVisualStyle
  2
Shaded with edges
 70
    26
 71
     2
 72
     2
 73
     1
 90
        2
 40
-0.6
 41
30.0
 62
     5
 63
     7
 74
     1
 91
        2
 64
     7
 65
   257
 75
     2
175
     1
 42
1.0
 92
        8
 66
   257
 43
1.0
 76
     1
 77
     6
 78
     2
 67
     7
 79
     3
170
     0
171
     0
290
     0
174
     0
 93
        5
 44
0.0
173
     0
291
     0
 45
0.0
1001
ACAD
1000
AcDbSavedByObjectVersion
1070
     0
  0
VISUALSTYLE
  5
1EF
102
{ACAD_XDICTIONARY
360
70C0
102
}
102
{ACAD_REACTORS
330
EF
102
}
330
EF
100
AcDbVisualStyle
  2
Shades of Gray
 70
    23
 71
     2
 72
     2
 73
     3
 90
        0
 40
-0.6
 41
-30.0
 62
     5
 63
     7
 74
     2
 91
        2
 64
     7
 65
     7
 75
     1
175
     1
 42
40.0
 92
        8
 66
     7
 43
1.0
 76
     1
 77
     6
 78
     2
 67
     7
 79
     3
170
     0
171
     0
290
     0
174
     0
 93
        1
 44
0.0
173
     0
291
     0
 45
0.0
1001
ACAD
1000
AcDbSavedByObjectVersion
1070
     0
  0
VISUALSTYLE
  5
1F0
102
{ACAD_XDICTIONARY
360
70C2
102
}
102
{ACAD_REACTORS
330
EF
102
}
330
EF
100
AcDbVisualStyle
  2
Sketchy
 70
    24
 71
     1
 72
     2
 73
     2
 90
        0
 40
-0.6
 41
-30.0
 62
     5
 63
     7
 74
     2
 91
        2
 64
     7
 65
     7
 75
     1
175
     1
 42
40.0
 92
       11
 66
     7
 43
1.0
 76
     1
 77
     6
 78
     2
 67
     7
 79
     6
170
     0
171
     0
290
     0
174
     0
 93
        1
 44
0.0
173
     0
291
     0
 45
0.0
1001
ACAD
1000
AcDbSavedByObjectVersion
1070
     0
  0
VISUALSTYLE
  5
FC
102
{ACAD_XDICTIONARY
360
70B0
102
}
102
{ACAD_REACTORS
330
EF
102
}
330
EF
100
AcDbVisualStyle
  2
Thicken
 70
    13
 71
     2
 72
     2
 73
     1
 90
        0
 40
-0.6
 41
-30.0
 62
     5
 63
     7
 74
     1
 91
        4
 64
     7
 65
   257
 75
     1
175
     1
 42
1.0
 92
       12
 66
     7
 43
1.0
 76
     1
 77
     6
 78
     2
 67
     7
 79
     5
170
     0
171
     0
290
     0
174
     0
 93
        1
 44
0.0
173
     0
291
     1
 45
0.0
1001
ACAD
1000
AcDbSavedByObjectVersion
1070
     0
  0
VISUALSTYLE
  5
F6
102
{ACAD_XDICTIONARY
360
70A4
102
}
102
{ACAD_REACTORS
330
EF
102
}
330
EF
100
AcDbVisualStyle
  2
Wireframe
 70
     5
 71
     0
 72
     2
 73
     0
 90
        0
 40
-0.6
 41
-30.0
 62
     5
 63
     7
 74
     1
 91
        4
 64
     7
 65
   257
 75
     1
175
     1
 42
1.0
 92
        0
 66
   257
 43
1.0
 76
     1
 77
     6
 78
     2
 67
     7
 79
     3
170
     0
171
     0
290
     0
174
     0
 93
        1
 44
0.0
173
     0
291
     0
 45
0.0
1001
ACAD
1000
AcDbSavedByObjectVersion
1070
     0
  0
VISUALSTYLE
  5
1F1
102
{ACAD_XDICTIONARY
360
70C4
102
}
102
{ACAD_REACTORS
330
EF
102
}
330
EF
100
AcDbVisualStyle
  2
X-Ray
 70
    25
 71
     2
 72
     2
 73
     1
 90
        1
 40
0.5
 41
-30.0
 62
     5
 63
     7
 74
     1
 91
        0
 64
     7
 65
   257
 75
     1
175
     1
 42
1.0
 92
        8
 66
     7
 43
1.0
 76
     1
 77
     6
 78
     2
 67
     7
 79
     3
170
     0
171
     0
290
     0
174
     0
 93
       13
 44
0.0
173
     0
291
     0
 45
0.0
1001
ACAD
1000
AcDbSavedByObjectVersion
1070
     0
  0
DICTIONARYVAR
  5
146
102
{ACAD_REACTORS
330
5E
102
}
330
5E
100
DictionaryVariables
280
     0
  1
1:1
  0
DICTIONARYVAR
  5
259
102
{ACAD_REACTORS
330
5E
102
}
330
5E
100
DictionaryVariables
280
     0
  1
3.500000
  0
DICTIONARYVAR
  5
25A
102
{ACAD_REACTORS
330
5E
102
}
330
5E
100
DictionaryVariables
280
     0
  1
acadiso.lin
  0
DICTIONARYVAR
  5
145
102
{ACAD_REACTORS
330
5E
102
}
330
5E
100
DictionaryVariables
280
     0
  1
STANDARD
  0
DICTIONARYVAR
  5
84
102
{ACAD_REACTORS
330
5E
102
}
330
5E
100
DictionaryVariables
280
     0
  1
STANDARD
  0
DICTIONARYVAR
  5
227
102
{ACAD_REACTORS
330
5E
102
}
330
5E
100
DictionaryVariables
280
     0
  1
Metric50
  0
DICTIONARYVAR
  5
228
102
{ACAD_REACTORS
330
5E
102
}
330
5E
100
DictionaryVariables
280
     0
  1
Metric50
  0
DICTIONARYVAR
  5
5F
102
{ACAD_REACTORS
330
5E
102
}
330
5E
100
DictionaryVariables
280
     0
  1
2
  0
DICTIONARYVAR
  5
63
102
{ACAD_REACTORS
330
5E
102
}
330
5E
100
DictionaryVariables
280
     0
  1
1
  0
DICTIONARYVAR
  5
7039
102
{ACAD_REACTORS
330
5E
102
}
330
5E
100
DictionaryVariables
280
     0
  1
0
  0
DICTIONARYVAR
  5
1AE
102
{ACAD_REACTORS
330
5E
102
}
330
5E
100
DictionaryVariables
280
     0
  1
0
  0
DICTIONARYVAR
  5
1AF
102
{ACAD_REACTORS
330
5E
102
}
330
5E
100
DictionaryVariables
280
     0
  1
0
  0
DICTIONARYVAR
  5
7037
102
{ACAD_REACTORS
330
5E
102
}
330
5E
100
DictionaryVariables
280
     0
  1
2
  0
DICTIONARYVAR
  5
7036
102
{ACAD_REACTORS
330
5E
102
}
330
5E
100
DictionaryVariables
280
     0
  1
1
  0
DICTIONARYVAR
  5
7089
102
{ACAD_REACTORS
330
5E
102
}
330
5E
100
DictionaryVariables
280
     0
  1
80.000000
  0
DICTIONARYVAR
  5
7088
102
{ACAD_REACTORS
330
5E
102
}
330
5E
100
DictionaryVariables
280
     0
  1
5.000000
  0
DICTIONARYVAR
  5
7038
102
{ACAD_REACTORS
330
5E
102
}
330
5E
100
DictionaryVariables
280
     0
  1
127
  0
DICTIONARYVAR
  5
708A
102
{ACAD_REACTORS
330
5E
102
}
330
5E
100
DictionaryVariables
280
     0
  1
2
  0
DICTIONARY
  5
70CC
330
21C
100
AcDbDictionary
280
     1
281
     1
  3
ACAD_XREC_ROUNDTRIP
360
70CD
  0
DICTIONARY
  5
7091
330
D3
100
AcDbDictionary
280
     1
281
     1
  3
ACAD_XREC_ROUNDTRIP
360
7092
  0
DICTIONARY
  5
7093
330
D7
100
AcDbDictionary
280
     1
281
     1
  3
ACAD_XREC_ROUNDTRIP
360
7094
  0
DICTIONARY
  5
708E
330
22
100
AcDbDictionary
280
     1
281
     1
  3
ACAD_XREC_ROUNDTRIP
360
708F
  0
DICTIONARY
  5
1F9
330
ED
100
AcDbDictionary
280
     1
281
     1
  3
ACAD_XREC_ROUNDTRIP
360
7096
  3
FBXASSET
360
1FA
  0
DICTIONARY
  5
1F7
330
EC
100
AcDbDictionary
280
     1
281
     1
  3
ACAD_XREC_ROUNDTRIP
360
7095
  3
FBXASSET
360
1F8
  0
DICTIONARY
  5
173
330
EE
100
AcDbDictionary
280
     1
281
     1
  3
ACAD_XREC_ROUNDTRIP
360
7097
  3
BUMPTILE
360
175
  3
DIFFUSETILE
360
174
  3
FBXASSET
360
1FB
  3
OPACITYTILE
360
176
  3
REFLECTIONTILE
360
177
  0
DICTIONARY
  5
70B8
330
12E
100
AcDbDictionary
280
     1
281
     1
  3
ACAD_XREC_ROUNDTRIP
360
70B9
  0
DICTIONARY
  5
70CA
330
21A
100
AcDbDictionary
280
     1
281
     1
  3
ACAD_XREC_ROUNDTRIP
360
70CB
  0
DICTIONARY
  5
162
330
7F
100
AcDbDictionary
280
     1
281
     1
  3
ACAD_ROUNDTRIP_2008_TABLESTYLE_CELLSTYLEMAP
360
708B
  3
ACAD_XREC_ROUNDTRIP
360
7090
  0
DICTIONARY
  5
70A2
330
F5
100
AcDbDictionary
280
     1
281
     1
  3
ACAD_XREC_ROUNDTRIP
360
70A3
  0
DICTIONARY
  5
70A0
330
F4
100
AcDbDictionary
280
     1
281
     1
  3
ACAD_XREC_ROUNDTRIP
360
70A1
  0
DICTIONARY
  5
70AE
330
FB
100
AcDbDictionary
280
     1
281
     1
  3
ACAD_XREC_ROUNDTRIP
360
70AF
  0
DICTIONARY
  5
70B6
330
FF
100
AcDbDictionary
280
     1
281
     1
  3
ACAD_XREC_ROUNDTRIP
360
70B7
  0
DICTIONARY
  5
70A8
330
F8
100
AcDbDictionary
280
     1
281
     1
  3
ACAD_XREC_ROUNDTRIP
360
70A9
  0
DICTIONARY
  5
70AC
330
FA
100
AcDbDictionary
280
     1
281
     1
  3
ACAD_XREC_ROUNDTRIP
360
70AD
  0
DICTIONARY
  5
70BE
330
1E6
100
AcDbDictionary
280
     1
281
     1
  3
ACAD_XREC_ROUNDTRIP
360
70BF
  0
DICTIONARY
  5
70B4
330
FE
100
AcDbDictionary
280
     1
281
     1
  3
ACAD_XREC_ROUNDTRIP
360
70B5
  0
DICTIONARY
  5
7098
330
F0
100
AcDbDictionary
280
     1
281
     1
  3
ACAD_XREC_ROUNDTRIP
360
7099
  0
DICTIONARY
  5
709A
330
F1
100
AcDbDictionary
280
     1
281
     1
  3
ACAD_XREC_ROUNDTRIP
360
709B
  0
DICTIONARY
  5
709C
330
F2
100
AcDbDictionary
280
     1
281
     1
  3
ACAD_XREC_ROUNDTRIP
360
709D
  0
DICTIONARY
  5
709E
330
F3
100
AcDbDictionary
280
     1
281
     1
  3
ACAD_XREC_ROUNDTRIP
360
709F
  0
DICTIONARY
  5
70A6
330
F7
100
AcDbDictionary
280
     1
281
     1
  3
ACAD_XREC_ROUNDTRIP
360
70A7
  0
DICTIONARY
  5
70BA
330
1E4
100
AcDbDictionary
280
     1
281
     1
  3
ACAD_XREC_ROUNDTRIP
360
70BB
  0
DICTIONARY
  5
70B2
330
FD
100
AcDbDictionary
280
     1
281
     1
  3
ACAD_XREC_ROUNDTRIP
360
70B3
  0
DICTIONARY
  5
70BC
330
1E5
100
AcDbDictionary
280
     1
281
     1
  3
ACAD_XREC_ROUNDTRIP
360
70BD
  0
DICTIONARY
  5
70AA
330
F9
100
AcDbDictionary
280
     1
281
     1
  3
ACAD_XREC_ROUNDTRIP
360
70AB
  0
DICTIONARY
  5
70C8
330
1F3
100
AcDbDictionary
280
     1
281
     1
  3
ACAD_XREC_ROUNDTRIP
360
70C9
  0
DICTIONARY
  5
70C6
330
1F2
100
AcDbDictionary
280
     1
281
     1
  3
ACAD_XREC_ROUNDTRIP
360
70C7
  0
DICTIONARY
  5
70C0
330
1EF
100
AcDbDictionary
280
     1
281
     1
  3
ACAD_XREC_ROUNDTRIP
360
70C1
  0
DICTIONARY
  5
70C2
330
1F0
100
AcDbDictionary
280
     1
281
     1
  3
ACAD_XREC_ROUNDTRIP
360
70C3
  0
DICTIONARY
  5
70B0
330
FC
100
AcDbDictionary
280
     1
281
     1
  3
ACAD_XREC_ROUNDTRIP
360
70B1
  0
DICTIONARY
  5
70A4
330
F6
100
AcDbDictionary
280
     1
281
     1
  3
ACAD_XREC_ROUNDTRIP
360
70A5
  0
DICTIONARY
  5
70C4
330
1F1
100
AcDbDictionary
280
     1
281
     1
  3
ACAD_XREC_ROUNDTRIP
360
70C5
  0
XRECORD
  5
70CD
102
{ACAD_REACTORS
330
70CC
102
}
330
70CC
100
AcDbXrecord
280
     1
102
DISPLAYNAME
  1
Metric50
102
FLAGS
 90
        0
  0
XRECORD
  5
7092
102
{ACAD_REACTORS
330
7091
102
}
330
7091
100
AcDbXrecord
280
     1
102
SHADEPLOT
 70
     0
102
SHADEPLOTRESLEVEL
 70
     2
102
SHADEPLOTCUSTOMDPI
 70
   300
  0
XRECORD
  5
7094
102
{ACAD_REACTORS
330
7093
102
}
330
7093
100
AcDbXrecord
280
     1
102
SHADEPLOT
 70
     0
102
SHADEPLOTRESLEVEL
 70
     2
102
SHADEPLOTCUSTOMDPI
 70
   300
  0
XRECORD
  5
708F
102
{ACAD_REACTORS
330
708E
102
}
330
708E
100
AcDbXrecord
280
     1
102
SHADEPLOT
 70
     0
102
SHADEPLOTRESLEVEL
 70
     2
102
SHADEPLOTCUSTOMDPI
 70
   300
  0
XRECORD
  5
7096
102
{ACAD_REACTORS
330
1F9
102
}
330
1F9
100
AcDbXrecord
280
     1
102
MATERIAL
148
0.0
149
0.0
149
0.0
 93
        0
 94
       63
282
     0
 72
     1
 77
     1
171
     1
175
     1
179
     1
273
     0
  0
XRECORD
  5
1FA
102
{ACAD_REACTORS
330
1F9
102
}
330
1F9
100
AcDbXrecord
280
     1
 70
     1
 90
429727718
  1
D62C5603-E3A1-4AEA-B7FB-FE5D8D0755AF
310
504B03040A0000080000CC70623B3DEE336E79000000790000001B0000006175746F6465736B2D64657369676E2D7061636B6167652E786D6C3C3F786D6C2076657273696F6E3D22312E302220656E636F64696E673D227574662D3822203F3E3C666F726D6174733E3C666F726D61743E687474703A2F2F736368656D612E
310
6175746F6465736B2E636F6D2F64657369676E2D7061636B6167652F323030393C2F666F726D61743E3C2F666F726D6174733E504B0304140006080800CC70623BD486FD9CA0000000F4000000130000005B436F6E74656E745F54797065735D2E786D6C7D8EC10E82300C865F65E91D8A1E8C310C0EEA1BF002731658846E
310
D98AC1B77784ABF1D8FE5FBFBF75BBCE937A534CCEB38643598122B6FEE978D0B0485F9C41B54DDD7D022595594E1A469170414C76A4D9A4D207E29CF43ECE46F218070CC6BECC4078ACAA135ACF422C856C0E68EA1BF5669944DDD7BCDE7B1F8E415D77AECB980613C2E4AC91FC167A2B244592486606FC29C8FD7F045B9A
310
EF7053A7E60B504B0304140006080800CC70623B853B8169EB0000007C01000008000000636F72652E786D6C8D90416EC3201045AF62CDB6C206821CC7C244919D9CA01740401C94182C03558F5F9C3852BBEB6A467FFE9B197D7EFC9E1EC5975982F5AE035262288C535E5B377690E21535501C055FBC8FBF6C503839990E
310
5619041F179FE64D52DE45E362569DD7661365082642A11EB9E920A89B99642953CC8E702F67A9EE7234257977194EC9EAE275C4EABCCF5EAD5940D4AC6F0E35A568B8F43562CD7046CD199FD07E60174276A7BE677B5EADB0E0D14EEFFB6A31321A0D82627C4084204C3F096B71DD52F6819B16635EADF63F509AF53FA164
310
5DDCD1EDDD17164090FCC8732078B56691CB33A85CD7DCC40F504B0304140006080800CC70623B55019EA25F0000007C00000007000000636E782E786D6C4DCB3B0E80201045D1AD90E915ED2CF8AC45050C11660C8261F98AB1B07AC9C97D42D718D865D3E909258CFD00CCE24AC6E326A164D74DC0B4128928FF32603847
310
2BA13128B1252AC747C6BAB984FC68F0B87FE8960A5C09FE86CFB69FBA01504B0304140006080800CC70623BDBABAAF470010000D40300000C0000006662782F636F72652E786D6CC553D16E823014FD95A6AF4B694182CC941A83FA05FB810A9511A125A5257EFE2E82712ECEB8A7F100CD39F7F69E734AF9FADC366850B6
310
AF8DCE7018308C942E4C59EB2AC3DE1D498AD15A706B8CFB56869196ADCAF00863C12B6B7C374385D14E6907A836A59A41D9F7CA615434B0C8705F7CAA5606D23BA8E84F41278B93AC54100640439DE0BDB320004D43C63716C7C399D30917DCFBBA9CD9BA8469F5B156168B24CED3F7248AC8769F27244EB73B92EED8862C
310
B7F13E0C179B3C8F979C8ECD82BBBABDAA2BAC924E9558448CBD9330242CFA08E3154B5651FCC6D215639C8EE5774DBE2B5F6CF2B5768B68963BB5F5588420E442FC700B1139D4CB01F450C1E918227C2E09DF070D8140C84E1E9AAB8F1340832A9CB13130A5F1376A908D57309505ECF2A0DF179C4E9D30F5B239B87E3823
310
7A79C6F31DE1A8A5AEC08474B03C7837EAE4938639B44E5932B833D2C6B6B279CDC613877FA26EE21F4A2A4C63EC7F29A2F301D1F9F7A0E37D145F504B0304140006080800CC70623B9C113CC27E0000009D0000000B0000006662782F636E782E786D6C4DCCDF0A83201C86E15B91DFB94BFB330DD428C8FB886521330DA7
310
6397BF1A1DECE883878F57749FCDA1B7892F1BBC047A23808C7F84D9FA55424E0BE6803A256208E9EF06C84F9B91703228B1C690F78B66B34CD9A5439DF5CF0BFBF65E35BCA1B8D6A5C6F540381E886698B5741C695F9503EBA150A2F8958E3DC3EA0B504B0304140006080800CC70623B7DF2F77C2A010000120200003100
310
00006662782F41393633353835312D344632462D344230382D423046372D3739314545314133324237412F636F72652E786D6C8D51DB8EC22014FC15C2939B0D2DB4B45643319AE817EC0F6041255A68B86CFCFC856D4D76DF7CE190393373060EDB3DC707F856CE6B6B7A480A0C81328395DA5C7B18C3057510EC3873D686
310
3F34088C18550F330C39BB3A1BA7051AAC09CA84841A2BD5020AEF55806078A44B0FFD7053A328440C89E1EFC52486BBB8AA8214A99D789CF9E05200300FC927E4FB4D5B375D43103D5527440FB843077C5AA3F5861C8F645F5787F59E95B390B318B55CE45AA638FAA2957BD7248B390B7A7CC51F9C124149C82B8C378810
310
84AB2F42B7B8DD56F413775B8C5999E9FF4471926F8AA236A1AE96B8B3CC434E5839373893369E1FAF30EA395917409EB7F26AF8801C171837A4A6AC9C89E9F9C9B1A58BA30FD6A5EF5DDDCF894B9AD9B6A59C957943A9FCAE2FD5BC4DFE03504B0304140006080800CC70623BAD7543B64E01000033030000300000006662
310
782F41393633353835312D344632462D344230382D423046372D3739314545314133324237412F636E782E786D6CD593CD6EC32010845F0571AD6CE3D48AD20813A9873E410FBD12D82434182C7EAAE6EDBB2424CD25871E7B41D6EC30B3FA84F9E67BB2E40B4234DE8DB46F1925E094D7C6ED479AD3AE5951B2113C789FEE
310
6C943839C1488B4C05DF079FE72A69D8C96C13AAD6B8631503449F83828872B949AC57D26200B826A308D316B4064D6E46FCDA41C05550DC9E483A00797BFD207EFB092A45DE9514C1BBD22178396BD39D891265658C238DEA00936C654E5E433CB65A26D9F6EDB5EBC14EBF49A45CB856E66048291F6939A9A81BB5C89177
310
38143CA680F4AA299D66A042CEB3354A2684DC9D8D178FE0D9B8B41CAAD720F880EE7EF93C0C18769E099ECC04D5A102C8049A8A05632F4DDF376CF1DE0F6BB65C2F8627B65A33C6BB62177CEBBDAD973006829F89F22E814B54F4BC2BE347F8AA8F681390B50FA73F804400B5F542E796F19FF974E7F78DB802FE05E20750
310
4B0304140006080800CC70623BE75B7789680500003C100000340000006662782F41393633353835312D344632462D344230382D423046372D3739314545314133324237412F6F626A656374732E786D6CAD575B8F9B3818FD2B887D06C22499CB8AA1CA655245D5B455A356FB305264C061D8018C6C3393D95FBFC7600890
310
A4CD5EF210B0B1BFEBF98E3F7B1FF6596ABC522E1296DF9BAE3D320D9A872C4AF2F8DE2CE5CEBA358D0FBEC719939D65A691938CDE9B6ADAF4BD98B3B2D05311DD91329583D9D5FC0F438434A7A611A644887B5384CF34233629258BA878B12322891DEFF6B66BD70BFB62634E8AE781D082709A4B588AF91C528CDA28B73F
310
1C998EEF39EABBEFA97FBD6A7C7E9553F9D3D79FE442923C3C523610337627CB87ABE99D359D4CC6D6E4FACAB5E6ABF9D2726FC6A3C5F56271377BB88362213924694B38DD99FE47C48627A1E7D49F5A8BB5E1A74C0A599ED3B0F21F1E56366B89112D681E218F0915D0D6F17AD41FBA2A369DCF6335D62ABBD39779D5DDD1
310
11D4D8DE3CBB96B2E04FB8202E41051754A1AA8E8F76B4C6DFE810B580B1547F4B84911149794252234D024EF8BBE963A95AE27B3D310A9D5C215C7960FAEE415ED75694C6AFB17BCACA5D99A60A9AA65F217B0BFC53292ACB92BF283FAD0D3621576592CB5BED907C2FA8E9DF794E35E97BEA31BED21FEB401ABB94C44839
310
DCACBF0E1C5DA8DA5B2F4DFFD32AD86F543D9E565E7056502E157C00AD2671CD534549AB752FCA9CDA00677A313F04E51B22FF19E57B300579E3C97EB29F682D92935CEC18CF901B7B54FD8C51F362B56FC72FE0B3C1EAE335EDCCBF5AEC39ADB17DC238973F804BA5E6F6BFE7AF1FB32E523BE9F3BD571418E3631DCA4D48
310
5250CF639223210A9446CA30052EDF057BD35F8329C1ECD84552BF0DC8D18BE7BCE23BFE6BD960AB4A7DE79923A103BEBD80F911CBAA2C60DB19B01CF164A5583B772EE6D3FFA56666CBCDA74DC97724A48F9A58967497E489C4D979006FD7A05E227A1EBDD0F737C623387A9C844D3709995625106D157315F8B8392CD4E0
310
A0B9A720C4BE9829CEF37EA1E13111214D53925356365ADA634861B52519DD27A00AEB808EAF0628E6F435519D446F45CF2C9CF5214F0A15B2F6D06B79DA3EE3CBF7F56780D2F4E7EF73A0F5E5B02A38D07DC852C6B7C1FBB6664213E0C39E3EBA7FF4E1AD23EA2829407C85E586727488B751B2DB9502BC7B228A3FD68B6E
310
A65A22397E690AA8D158D7E404EC8CDA235CC3B7D1898680131CEC2CDF2638C65196279577750F15884AEE19F94199155B92B13297978469D4F8D358DF0AEF7631E28DC8F0D9F437D5D39A83B2231A1D52D543813A824EF8D44BCFF2FA6A31BD1E8DAD87F1CCB526B3879935BF59CDADD5C37479BB1CDD4CA7B3556B516589
310
EF352754B706114D9C885EC9131DE6EFEB43D99AFE2391C2F958179413D7CFEF6B1B6DB1E7600F00DE6E5C67454A339A4BA2E0FBA85ED26F045D454F463DBFCE484C2F90F2E5E3666003662ED8F755951A7D1BECD5B30B550B2785C8E7320B7292A4838DDA71BBC863ED7613CAF659337A3354231D4FF4A182A54904C2898C
310
98B28C4AD0CE056CCF332A80986E571EE9DBC305BB5FEB7E509220A58D25CF042D712A806AC0AD0C657FDEF80D2D9CEAA2EE4D1C76F60BFE74219A06527D6F82DF6412526107381E55E353090704D085B52408A8913C4ED159D79BDA71BB4BC506F4831350EB6F975CD22D69BF7AC49B91A2C0A9DDA3D5CA36AD20FC478E37
310
E61844E2352865EBCB61A275A65283CAAA9DD27703B4102F5AF51EF5F573B75CBB5AD38BC845F7A49F82A0966A49C2E3EA5EA0ECD326CD965F1DB402C6FA8B51A4658C5C5E2EC9E214602E55810345408596591009A82E7E7FFACA19EEA299B14A0081A705CB3296EBC14CDF658DCD336EA6D1136881AAEB87B81AB9EE53D5
310
F5EB8BC8362082DA24122F98680A4E7930C01A0079749CEA14382A0783E5EBA5A10F8C098456A03D6A4AEB6BB881E2513747552A5DB22C7EDAF83BD5528081A365F7FF06504B0304140006080000CC70623B000000000000000000000000350000006662782F41393633353835312D344632462D344230382D423046372D37
310
39314545314133324237412F76657274696365732E62696E504B0304140006080800CC70623BF270F1330600000004000000360000006662782F41393633353835312D344632462D344230382D423046372D3739314545314133324237412F747269616E676C65732E62696E636660600000504B0304140006080000CC7062
310
3B000000000000000000000000370000006662782F41393633353835312D344632462D344230382D423046372D3739314545314133324237412F617474726962757465732E62696E504B0304140006080800CC70623B08DA0BD19000000041010000360000006662782F41393633353835312D344632462D344230382D4230
310
46372D3739314545314133324237412F6469726563746F72792E786D6C858F410AC3201045AF22B36F53E9A60B35CBEEBAE80D244E44489C6234F4F835464A48035D0DF398FF9F8AF63D0E6CC63039F212F8F9020C7D47C6792B21C5FE7403D62A1188E2E60C98D7234A5830286103A55745067B9D86B8A3CF9C7F90C11DE6
310
07FB144396D7B6A82D282E9A152AD114D5EF2CB866EEE831B8EEA07A7BB5A8D7D61A2BAAEB7FD5F70921FF497D00504B0304140006080800CC70623BEDD1DC58FD000000A00100003B0000006662782F41393633353835312D344632462D344230382D423046372D3739314545314133324237412F7265736F75726365732F
310
636F72652E786D6C8D504B6E833010BD0A9A6D65B00922041947112427E8052C33A156828DFCA97AFC9A40A576D7CDCCE87D344F8F9FBFE667F689CE6B6B3A6039850C8DB2A336530731DC4903D95970676DF82583CCC8193B5861107C72362E3BA4AC096842428D1D7107A5F7182053CF7474E0D507CE32973124857FE48B
310
540F3961CEF244279DE03EB81420DB9EAC1384436FA353E879B1B182C7A8C75DA3C7F453DF353A1075D537A7BA6464B8F535A99AE14A9A2BBD90E350DD183B5CFABE3AF262350B1EF4FC9351399401471025A527C218A1E53BAB5A5AB765F5469B96525EACF23FA6B88CFF34456DC2A1DCE36E360F82A5202F42F062ED2BAD
310
579969AFDD8A6F504B010214000A0000080000CC70623B3DEE336E79000000790000001B00000000000000000000000000000000006175746F6465736B2D64657369676E2D7061636B6167652E786D6C504B01021400140006080800CC70623BD486FD9CA0000000F40000001300000000000000000000000000B20000005B
310
436F6E74656E745F54797065735D2E786D6C504B01021400140006080800CC70623B853B8169EB0000007C010000080000000000000000000000000083010000636F72652E786D6C504B01021400140006080800CC70623B55019EA25F0000007C000000070000000000000000000000000094020000636E782E786D6C504B
310
01021400140006080800CC70623BDBABAAF470010000D40300000C00000000000000000000000000180300006662782F636F72652E786D6C504B01021400140006080800CC70623B9C113CC27E0000009D0000000B00000000000000000000000000B20400006662782F636E782E786D6C504B01021400140006080800CC70
310
623B7DF2F77C2A010000120200003100000000000000000000000000590500006662782F41393633353835312D344632462D344230382D423046372D3739314545314133324237412F636F72652E786D6C504B01021400140006080800CC70623BAD7543B64E010000330300003000000000000000000000000000D2060000
310
6662782F41393633353835312D344632462D344230382D423046372D3739314545314133324237412F636E782E786D6C504B01021400140006080800CC70623BE75B7789680500003C10000034000000000000000000000000006E0800006662782F41393633353835312D344632462D344230382D423046372D3739314545
310
314133324237412F6F626A656374732E786D6C504B01021400140006080000CC70623B0000000000000000000000003500000000000000000000000000280E00006662782F41393633353835312D344632462D344230382D423046372D3739314545314133324237412F76657274696365732E62696E504B01021400140006
310
080800CC70623BF270F133060000000400000036000000000000000000000000007B0E00006662782F41393633353835312D344632462D344230382D423046372D3739314545314133324237412F747269616E676C65732E62696E504B01021400140006080000CC70623B0000000000000000000000003700000000000000
310
000000000000D50E00006662782F41393633353835312D344632462D344230382D423046372D3739314545314133324237412F617474726962757465732E62696E504B01021400140006080800CC70623B08DA0BD1900000004101000036000000000000000000000000002A0F00006662782F41393633353835312D344632
310
462D344230382D423046372D3739314545314133324237412F6469726563746F72792E786D6C504B01021400140006080800CC70623BEDD1DC58FD000000A00100003B000000000000000000000000000E1000006662782F41393633353835312D344632462D344230382D423046372D3739314545314133324237412F7265
310
736F75726365732F636F72652E786D6C504B0506000000000E000E0080040000641100000000
  0
XRECORD
  5
7095
102
{ACAD_REACTORS
330
1F7
102
}
330
1F7
100
AcDbXrecord
280
     1
102
MATERIAL
148
0.0
149
0.0
149
0.0
 93
        0
 94
       63
282
     0
 72
     1
 77
     1
171
     1
175
     1
179
     1
273
     0
  0
XRECORD
  5
1F8
102
{ACAD_REACTORS
330
1F7
102
}
330
1F7
100
AcDbXrecord
280
     1
 70
     1
 90
429727718
  1
30362254-06B7-45E0-A893-8CFA70E3D6BC
310
504B03040A0000080000CC70623B3DEE336E79000000790000001B0000006175746F6465736B2D64657369676E2D7061636B6167652E786D6C3C3F786D6C2076657273696F6E3D22312E302220656E636F64696E673D227574662D3822203F3E3C666F726D6174733E3C666F726D61743E687474703A2F2F736368656D612E
310
6175746F6465736B2E636F6D2F64657369676E2D7061636B6167652F323030393C2F666F726D61743E3C2F666F726D6174733E504B0304140006080800CC70623BD486FD9CA0000000F4000000130000005B436F6E74656E745F54797065735D2E786D6C7D8EC10E82300C865F65E91D8A1E8C310C0EEA1BF002731658846E
310
D98AC1B77784ABF1D8FE5FBFBF75BBCE937A534CCEB38643598122B6FEE978D0B0485F9C41B54DDD7D022595594E1A469170414C76A4D9A4D207E29CF43ECE46F218070CC6BECC4078ACAA135ACF422C856C0E68EA1BF5669944DDD7BCDE7B1F8E415D77AECB980613C2E4AC91FC167A2B244592486606FC29C8FD7F045B9A
310
EF7053A7E60B504B0304140006080800CC70623B1EC5D7A3EB0000007C01000008000000636F72652E786D6C8D90416EC3201045AF82665B6103C6756C6122AB4D4ED00B204C5C94182C03558F5F9C3852BBEB6A467FFE9B197D71FC9E6FE8CBACC17AD7032D0820E3B41FAD9B7A48F1820F808E52ACDEC75F36404ECDA687
310
4D0629A6D5A76597B477D1B89855E747B38B2A041301E95B6E7A08FAD3CCAA50296647B8168BD2573599823EBB0CA76447F43862C7BCCF5EAC59410E4DDD9C7973C2755553CCCFA4C603E3040F1565ED3B1FDE4E432BCA0D9622DAF9795FAF464533826484B498524CD807E51D79ED187F21878E10516EF63F505AC67F42C9
310
BA58B1FDDD071640D2FCC87D2045B96591CB3DA85CB7DCE40F504B0304140006080800CC70623B55019EA25F0000007C00000007000000636E782E786D6C4DCB3B0E80201045D1AD90E915ED2CF8AC45050C11660C8261F98AB1B07AC9C97D42D718D865D3E909258CFD00CCE24AC6E326A164D74DC0B4128928FF32603847
310
2BA13128B1252AC747C6BAB984FC68F0B87FE8960A5C09FE86CFB69FBA01504B0304140006080800CC70623B8C9102E971010000D40300000C0000006662782F636F72652E786D6CC5535B6E833010BC8AE5DF0A6C08340F1947A84D4ED00B38C6A128602363A31CBFCB234A53A551FA553EC09AD9F5CE8C31DB9E9B1AF5CA
310
7695D1198E428A91D2D214952E33ECDD315861B4E5CC1AE3BE9561A445A3323CC098B3D21ADFCE9034DA29ED00D5A6503328BA4E398C640D8B0C77F253352214DE4145770A5B214FA2546114020D759C75CE8200340D19DE981F0F6746269C33EFAB6266AB02A655C74A59CCF365BADC27CB5D902ED22848F6340DF238A141
310
BE88E2F57B92BFEDF23523433367AE6A2EEAA455C2A902F398D2751045018D3FA264435F3771F242571B4A1919CA6F9A7C5B3CD9E42BED16F12C776AEB308F40C848FC700B1139D4891EF410CEC810227CC6846F8386402064270EF5C5C709A05E49676C024C61FC95EA45ED154CA5211D1FF4FB8291A913A68E9B83EBBB33
310
E2A7673CDE118E5AE8124C0807CB8377834E366998436B950D7A7746DAD846D4CFD978E0F04FD455FC5D49D2D4C6FE9722321F10997F0F32DC47FE05504B0304140006080800CC70623BFFEA85907E0000009D0000000B0000006662782F636E782E786D6C4DCCD10A83201886E15B91FFDC95D95A811AB6F23E625948A6C3
310
E9D8E5AF46073BFAE0E1E365ED67B3E8ADC3CB78C7815C7240DA3DFC64DCC221C519D7805AC182F7F1EF06C88D9BE6703008B6049F9E274D7A1E938DBB5AE3D6131B2589BA0D3D965551E0B2EA732C9B9A624AAEB41E3A557677029960D9AFB4EF11165F504B0304140006080800CC70623B4FEEA4082C0100001202000031
310
0000006662782F39464131463745442D413632322D343644302D413938332D3331353338454246344243312F636F72652E786D6C8D515B6EC32010BC0AE2AB55850DD871ED0813254D72825EC00192A2C460F1A872FC42ED48ED5F7E00CDCECCCEB26C731F6FE05B39AFADE921293004CA082BB5B9F43086336A21D870E6AC
310
0D7F68109861543DCC30E4ECE26C9C164858139409093556AA051CBC570102714B8F1E7AF1A5C6A11862480C7F2DA6415C878B2A4891CA89C7990F2E050073937C42DE1DB7E4F87ED8A36D4329AA9B3D46DBAEAD504556557BD81DEBDD0761E52CE42C462D17B996298E3E6BE59E35C962CE821E1FF18553435012728A7187
310
0841987E927A8D9B35ADDF70BBC6989599FE4F1427F9A4286A132ABAC49D651EF234CD5CE04CDA78BA3DC2A8FB645D00B9DF8B57E215725C60BCA2A463E54C4CE327C7A65E1C7DB02E7DEFCBF594B864C5CA6CDBD49C957943E9FA5D5FBAF336F90F504B0304140006080800CC70623BAD7543B64E01000033030000300000
310
006662782F39464131463745442D413632322D343644302D413938332D3331353338454246344243312F636E782E786D6CD593CD6EC32010845F0571AD6CE3D48AD20813A9873E410FBD12D82434182C7EAAE6EDBB2424CD25871E7B41D6EC30B3FA84F9E67BB2E40B4234DE8DB46F1925E094D7C6ED479AD3AE5951B2113C
310
789FEE6C943839C1488B4C05DF079FE72A69D8C96C13AAD6B8631503449F83828872B949AC57D26200B826A308D316B4064D6E46FCDA41C05550DC9E483A00797BFD207EFB092A45DE9514C1BBD22178396BD39D891265658C238DEA00936C654E5E433CB65A26D9F6EDB5EBC14EBF49A45CB856E66048291F6939A9A81BB5
310
C8917738143CA680F4AA299D66A042CEB3354A2684DC9D8D178FE0D9B8B41CAAD720F880EE7EF93C0C18769E099ECC04D5A102C8049A8A05632F4DDF376CF1DE0F6BB65C2F8627B65A33C6BB62177CEBBDAD973006829F89F22E814B54F4BC2BE347F8AA8F681390B50FA73F804400B5F542E796F19FF974E7F78DB802FE05
310
E207504B0304140006080800CC70623B16AB87BA640500003C100000340000006662782F39464131463745442D413632322D343644302D413938332D3331353338454246344243312F6F626A656374732E786D6CAD575B6FA33818FD2B887DE6924B3BED8A326A92B68A663B534DD4D13E548A0C38942D60649B369D5FBFC7
310
600890A493BDE42160637FD7F31D7FF63E6FB3D478A55C242CBF3247B66B1A340F5994E4F19559CA8D75611A9F7D8F33263BCB4C232719BD32D5B4E97B316765A1A722BA21652A07B3B7B33F0D11D29C9A46981221AE4C113ED38CD8A4942CA2E2C58E882476BCD9DA23BB5ED8171B73523C0F841684D35CC252CCE79062D4
310
468DFA43D7747CCF51DF7D4FFDEB5593E3AB9CCA9FBEFE241792E4E19EB28198C968BAB8199F5D5A67D3E9C49A9E8F47D6EC76B6B0469F26EEFC7C3EBFBCBEB98462213924694B38DD98FE1D62C393D073EA4FADC5DAF04326852CCF6958F90F0F2B9BB5C48816348F90C7840A68EB78EDF68723159BCEE7891A6B95DDE9D3
310
BCEAEEE8086A6C6F9E5D4B59F0175C10A7A0820BAA5055C7473B5AE3CFDD452D602CD5DF12616444529E90D448938013FE6EFA58AA96F85E4F8C42275708571E98FE6827AF6B2B4AE3D7D83D64E5A64C53054DD3AF90BD06FEA9149565C94FCA0F6B834DC85599E4F2423B24DF0B6AFA979E534DFA9E7A4CC6FA631D486393
310
921829879BF5D781A373557BCB85E97FB90DB62B558F8795179C15944B051F40AB495CF35451D26A4727654E6D8033BD98EF82F21D91FF8AF2DD9982BCF1643BDD4EB516C9492E368C67C88DED563FC36D5EACF66DFF057C3658BDBFA69DF9578B3DA735B64F18C7F20770A9D45CFCF7FCF563D6456A277DBEF78A02637CA2
310
43B90A490AEAB94F72244481D24819A6C0E59B606BFA4B3025981DBB48EAB701D97BF19C577CC77F2D1B6C55A9EF3C732474C0B727303F625995056C3B02963D9EAC146BE78EC5FCEC7FA999EBC5EACBAAE41B12D27B4D2C0BBA49F244E2ECDC81B76B502F113D8F5EE8FB1BE3111CDD4FC2AA9B844CAB1288B68AB90A7CDC
310
1C166AB0D3DC5310625FCC14E779BFD0709F8890A629C9292B1B2DED31A4B0DA928CEE135085754027E3018A397D4D5427D15BD1330B677DC8934285AC3DF45A9EB68FF8F2B8FC0A509AFEECFD0FF2DE25CC6047F7214B195F07EFEB9A094D800F7BFAE8FED187B78EA8A3A400F115961BCAD1215E47C966530AF0EE8128FE
310
58CEBB996A8964FFA529A046635D9353B0336A8F700DDF46271A024E70B0B37C9DE01847591E54DED53D54202AB947E4076556AC49C6CA5C9E1226B7F1A7B1BE15DEED62C41B91E1B3E9AFAAA735036547343A925075041DF0A9979E893B391F8FCFA6967B3EFB644DCF6E5CEBFAE272625DCC6FAF3FB93793C5F90CE1EF57
310
407342756B10D1C489E8953CD1617E5CEECAD6F4EF8914CE5D5D504E5C3F1F9736DA62CFC11E00BCDDB8CC8A9466349744C1F75EBDA4DF09BA8A9E8C7A7E9991989E20E5DBDD6A6003664ED8F7A04A8DBE0DF6EAD9B9AA858342E47399053949D2C146EDB85DE4B176BB0965FBAC19BD19AA918E27FA50C1D22402E144464C
310
59462568E704B6E71915404CB72B8FF4EDE184DDAF753F284990D2C6926782963815403548A70C657FDEF80D2D9CEAA2AE4C1C76F60BFE74219A06527D6582DF6412526107381E55E353090704D085B52408D0933C4ED159D79BDA71BB4BC506F4831350EB6F979CD22D69BF7AC49B91A2C0A9DDA3D5CA36AD20FC478E37E6
310
1844E2352865EBCB6EA275A652E3836BE04EFB400BF1A2556F515F1FBB35B2AB35BD889C744FFA1004B5544B121E57F70215746DD2F5E2C1412B602CBF19455AC6C8E5E9922C4E01E65215385004546899059180EAFCF7A707CE7017CD8CDB0410789AB32C63B91E5CEBBBACB17AC6CD347A022D5075FD106377347AAABA7E
310
7D11590744509B44E205134DC1290F06580320F78E537D3D73540E06CB970B431F185308AD40BBD794D6D77003C5A36E8EAA54BA64597CD8F83BD552A080A365F7FF06504B0304140006080000CC70623B000000000000000000000000350000006662782F39464131463745442D413632322D343644302D413938332D3331
310
353338454246344243312F76657274696365732E62696E504B0304140006080800CC70623BF270F1330600000004000000360000006662782F39464131463745442D413632322D343644302D413938332D3331353338454246344243312F747269616E676C65732E62696E636660600000504B0304140006080000CC70623B
310
000000000000000000000000370000006662782F39464131463745442D413632322D343644302D413938332D3331353338454246344243312F617474726962757465732E62696E504B0304140006080800CC70623B08DA0BD19000000041010000360000006662782F39464131463745442D413632322D343644302D413938
310
332D3331353338454246344243312F6469726563746F72792E786D6C858F410AC3201045AF22B36F53E9A60B35CBEEBAE80D244E44489C6234F4F835464A48035D0DF398FF9F8AF63D0E6CC63039F212F8F9020C7D47C6792B21C5FE7403D62A1188E2E60C98D7234A5830286103A55745067B9D86B8A3CF9C7F90C11DE607
310
FB144396D7B6A82D282E9A152AD114D5EF2CB866EEE831B8EEA07A7BB5A8D7D61A2BAAEB7FD5F70921FF497D00504B0304140006080800CC70623B0D6EF93BFE000000A00100003B0000006662782F39464131463745442D413632322D343644302D413938332D3331353338454246344243312F7265736F75726365732F63
310
6F72652E786D6C8D50596E833010BD0A9ADFCA60B334011947A8694ED00B586642AC041B79A97AFC9A40A5F6AF3F33A3B7689E1E3F7DCD8FEC139DD7D6F4C0720A191A65476DA61E62B892236427C19DB5E1970C322367EC618541F0C9D9B8EC90B226A009093576C41D94DE63804C3DD2D18357379C652E63480A7FCF17A9
310
EE72C29CE5894E3AC17D702940B63D59270887DE46A7D0F36263058F518FBB468FE9A7BE6A7420864373B8D4873369AA8691FA421B3294352543C5CAF65C0F6FEF43CB8BD52C78D0F34F46E550061C419494B6843142CB0F5677F4B52BEB177AEC28E5C52AFF638ACBF84F53D42654E51E77B379102C05791282176B5F693D
310
CB4C7BED567C03504B010214000A0000080000CC70623B3DEE336E79000000790000001B00000000000000000000000000000000006175746F6465736B2D64657369676E2D7061636B6167652E786D6C504B01021400140006080800CC70623BD486FD9CA0000000F40000001300000000000000000000000000B20000005B
310
436F6E74656E745F54797065735D2E786D6C504B01021400140006080800CC70623B1EC5D7A3EB0000007C010000080000000000000000000000000083010000636F72652E786D6C504B01021400140006080800CC70623B55019EA25F0000007C000000070000000000000000000000000094020000636E782E786D6C504B
310
01021400140006080800CC70623B8C9102E971010000D40300000C00000000000000000000000000180300006662782F636F72652E786D6C504B01021400140006080800CC70623BFFEA85907E0000009D0000000B00000000000000000000000000B30400006662782F636E782E786D6C504B01021400140006080800CC70
310
623B4FEEA4082C0100001202000031000000000000000000000000005A0500006662782F39464131463745442D413632322D343644302D413938332D3331353338454246344243312F636F72652E786D6C504B01021400140006080800CC70623BAD7543B64E010000330300003000000000000000000000000000D5060000
310
6662782F39464131463745442D413632322D343644302D413938332D3331353338454246344243312F636E782E786D6C504B01021400140006080800CC70623B16AB87BA640500003C1000003400000000000000000000000000710800006662782F39464131463745442D413632322D343644302D413938332D3331353338
310
454246344243312F6F626A656374732E786D6C504B01021400140006080000CC70623B0000000000000000000000003500000000000000000000000000270E00006662782F39464131463745442D413632322D343644302D413938332D3331353338454246344243312F76657274696365732E62696E504B01021400140006
310
080800CC70623BF270F133060000000400000036000000000000000000000000007A0E00006662782F39464131463745442D413632322D343644302D413938332D3331353338454246344243312F747269616E676C65732E62696E504B01021400140006080000CC70623B0000000000000000000000003700000000000000
310
000000000000D40E00006662782F39464131463745442D413632322D343644302D413938332D3331353338454246344243312F617474726962757465732E62696E504B01021400140006080800CC70623B08DA0BD190000000410100003600000000000000000000000000290F00006662782F39464131463745442D413632
310
322D343644302D413938332D3331353338454246344243312F6469726563746F72792E786D6C504B01021400140006080800CC70623B0D6EF93BFE000000A00100003B000000000000000000000000000D1000006662782F39464131463745442D413632322D343644302D413938332D3331353338454246344243312F7265
310
736F75726365732F636F72652E786D6C504B0506000000000E000E0080040000641100000000
  0
XRECORD
  5
7097
102
{ACAD_REACTORS
330
173
102
}
330
173
100
AcDbXrecord
280
     1
102
MATERIAL
148
0.0
149
0.0
149
0.0
 93
        0
 94
       63
282
     0
 72
     1
 77
     1
171
     1
175
     1
179
     1
273
     0
  0
XRECORD
  5
175
102
{ACAD_REACTORS
330
173
102
}
330
173
100
AcDbXrecord
280
     1
270
     1
271
     1
  0
XRECORD
  5
174
102
{ACAD_REACTORS
330
173
102
}
330
173
100
AcDbXrecord
280
     1
270
     1
271
     1
  0
XRECORD
  5
1FB
102
{ACAD_REACTORS
330
173
102
}
330
173
100
AcDbXrecord
280
     1
 70
     0
 90
1673772943
  1
ECE7A1D2-D628-4531-984C-D00F80459256
310
504B03040A0000080000CC70623B3DEE336E79000000790000001B0000006175746F6465736B2D64657369676E2D7061636B6167652E786D6C3C3F786D6C2076657273696F6E3D22312E302220656E636F64696E673D227574662D3822203F3E3C666F726D6174733E3C666F726D61743E687474703A2F2F736368656D612E
310
6175746F6465736B2E636F6D2F64657369676E2D7061636B6167652F323030393C2F666F726D61743E3C2F666F726D6174733E504B0304140006080800CC70623BD486FD9CA0000000F4000000130000005B436F6E74656E745F54797065735D2E786D6C7D8EC10E82300C865F65E91D8A1E8C310C0EEA1BF002731658846E
310
D98AC1B77784ABF1D8FE5FBFBF75BBCE937A534CCEB38643598122B6FEE978D0B0485F9C41B54DDD7D022595594E1A469170414C76A4D9A4D207E29CF43ECE46F218070CC6BECC4078ACAA135ACF422C856C0E68EA1BF5669944DDD7BCDE7B1F8E415D77AECB980613C2E4AC91FC167A2B244592486606FC29C8FD7F045B9A
310
EF7053A7E60B504B0304140006080800CC70623BD9DDAED0EC0000007C01000008000000636F72652E786D6C8D90416EC3201045AF82665B61836D9CD8C2444DD39CA01740405C94182C03558F5F9C3852BBEB6A467FFE9B197D7EF89E6EE8CB2CC17A37002D0820E394D7D68D03A478C17B4007C117EFE32F1B20272733C0
310
2A83E0E3E2D3BC49CABB685CCCAAF3DA6CA20CC14440EA969B0182FA34932C648AD911AEC52CD5558EA6A0CF2EC329598D1E47ACCEFBECC59A050463A7EA5833865FEBDD0E37353BE3EE8DBDE3F6786A48D375FBF6CC78B9C282473B3DEFABC5C86834888A900E538A49F5419B9EB47DD5BC907D4F082F57FB1F28CDFA9F50
310
B22ED6D5F6EE030B20687EE43E10BC5CB3C8E51E54AE6B6EE207504B0304140006080800CC70623B55019EA25F0000007C00000007000000636E782E786D6C4DCB3B0E80201045D1AD90E915ED2CF8AC45050C11660C8261F98AB1B07AC9C97D42D718D865D3E909258CFD00CCE24AC6E326A164D74DC0B4128928FF326038
310
472BA13128B1252AC747C6BAB984FC68F0B87FE8960A5C09FE86CFB69FBA01504B0304140006080800CC70623BA24EB22D72010000D40300000C0000006662782F636F72652E786D6CC5535B6E833010BC8AE5DF0A6C5E49888CA3A6694ED00B38E05014B091B1518EDFE511A5A9D228FD2A1F60CDEC7A67C6986DCE4D8D7A
310
69BA4AAB0C073EC548AA5C17952A33ECECD15B61B4E1CC686DBF9561A44423333CC098B3D268D7CE50AE9595CA02AA74216750749DB418E5352C32DCE59FB211BE70162ABA93DF8AFC244AE9073ED050C759670D0840D390E18DF9F1706664C23973AE2A66B62A605A75ACA4C13C4976E1364A12EF355A2EBD384AF65EFA96
310
BC7B8BED2EA6719AAE16FB8491A199335B351775B991C2CA02F390D2D40B028F861F41BCA68B7518BFD0D59A524686F29B26D7164F36B94AD9289CE54E6D1DE6010819891F6E21228B3AD1831EC219194284CF98F06DD01008846CC5A1BEF83801D4CBDC6A1303536877A57A513B0953A94FC707FDBE6064EA84A9E3E6E0FA
310
EE8CF0E9198F7784A316AA0413C2C2F2E0ECA0934D1AE6D05A69BCDE9E91D2A611F573361E38FC1375157F5752AE6B6DFE4B11990F88CCBF0719EE23FF02504B0304140006080800CC70623B408A7D3B7C0000009D0000000B0000006662782F636E782E786D6C4DCCD10A83201886E15B91FFDC552A92A0064DBC8F581632
310
D3703A76F9ABD1C18E3E78F878E5F0D9027ABBFCF2292AE86E2D20171F69F6715550CB827B40839639A5F2770314A7CD293819B45C73AAFB45B35BA61ACAA1C1C7E7855C58C15BC331339661262CC762340413D68D77DA5B42298546CBE6573AF60CEB2F504B0304140006080800CC70623B449FB9BD290100001202000031
310
0000006662782F36394639363044362D344446342D343946362D394244322D3234314243333846323333332F636F72652E786D6C8D515B6EC32010BC0AE22B55850D98B871848994463E412FE002495162B07854397EA176A4F62F3F2C9A9D991D587EB84F37F0AD7D30CEF6905418026DA553C65E7A98E219ED203808EE9D
310
8B7F6810D871D23D2C3014FCE25D9A57483A1BB58D19B54EE9151C43D0110279CB971E06F9A5A7B11A53CC8C70ADE6515EC78BAE4895DB992778883E0700CB907242D17643D7E2538BD869608875438BBAE38922CAC8F1BDD90DB4691A5E2F42C153326A951B95E398B3D1FE599322163C9AE9115F7A3D46ADA0A018778810
310
84E907617BDCEE297BC5BB3DC6BC2EF47FA234AB2745C9D8D8D035EE220B50105E2F0DC1954B9FB747187D9F9D8FA0CCDB042D5FA0C015C65B42DF78BD10F3F3B363CB56C7109DCFDFBBB97E662ED92EB62D13BC2E1BCAE5777DB9966D8A1F504B0304140006080800CC70623BAD7543B64E01000033030000300000006662
310
782F36394639363044362D344446342D343946362D394244322D3234314243333846323333332F636E782E786D6CD593CD6EC32010845F0571AD6CE3D48AD20813A9873E410FBD12D82434182C7EAAE6EDBB2424CD25871E7B41D6EC30B3FA84F9E67BB2E40B4234DE8DB46F1925E094D7C6ED479AD3AE5951B2113C789FEE
310
6C943839C1488B4C05DF079FE72A69D8C96C13AAD6B8631503449F83828872B949AC57D26200B826A308D316B4064D6E46FCDA41C05550DC9E483A00797BFD207EFB092A45DE9514C1BBD22178396BD39D891265658C238DEA00936C654E5E433CB65A26D9F6EDB5EBC14EBF49A45CB856E66048291F6939A9A81BB5C89177
310
38143CA680F4AA299D66A042CEB3354A2684DC9D8D178FE0D9B8B41CAAD720F880EE7EF93C0C18769E099ECC04D5A102C8049A8A05632F4DDF376CF1DE0F6BB65C2F8627B65A33C6BB62177CEBBDAD973006829F89F22E814B54F4BC2BE347F8AA8F681390B50FA73F804400B5F542E796F19FF974E7F78DB802FE05E20750
310
4B0304140006080800CC70623B8D05915C650500003B100000340000006662782F36394639363044362D344446342D343946362D394244322D3234314243333846323333332F6F626A656374732E786D6CAD575B6FA33814FE2B887D06429276DA1565D4266D158D3A339A6846FB502932E050B66023DB74D2FDF5FB190C01
310
9276B2973C046C8ECFF53B17071F77456EBD502133CEAE6CDF9DD81665314F32965ED995DA3A17B6F5310C04E7AA47665B8C14F4CAD6DB7618A48257A5D94AE89654B91AEDDEDDFC61C998326A5B714EA4BCB265FC440BE2924AF184CA6737218AB8E976E7FA6E4338649B0A523E8D98964450A6A029F619B8588D52FE7039
310
B1BD30F0F4F730D0FF866AF6369557DB33949F31A9088B0F848DD8CCFCF9F2767A76E99CCDE733677E3EF59D9BBB9BA5E37F984D16E78BC5E5F5ED25044B25C0C96822E8D60EEFE11B91C581D77CEA34368A1F5329E68CD1B8B61F16D63A1B8E092D294B10C78C4A48EB593D192E7DED9BDEE7995E1B91FDEDD3ACEA9FE831
310
6A756F9F7D4D79F4274C90A7A04248AA51D5F8C718DAE06FB2F75AC4796EBE65D22A88A22223B995679120E2D50E41AA49C260C046A35368846B0BECD0DFF3EBEB8AD4F835768F69B9ADF25C43D30E6B646F807FAA64AD59F61715C7A54127C4AACA98BA3006A9D792DAE165E0D59B61A01FB3A9F9D838D2DAE62445C86166
310
F37564E842E7DE6A69879FEEA2DD5AE7E371E1A5E025154AC307D06A03D73EB5978C58FFA4C8E9033066E0F3BD53BEC1F39F91BE7B55103791EDE6BBB991A2046172CB4581D8B893FA674DDA17A77B3B7C413D1B511FD2743BFF8A38F03A658705E3ADF8015C3A3417FF3D7E439FF591DA0B5F18BC20C1B8981957AE6392A3
310
F43C640C01D1A0B4728E2DD4F26DB4B3C3152A252A3B4E913CEC1C72F012782FF88EFF8637AA552DBEF76408E8A8DE9E50F9E1CB3A2DA0DB1B6039A893B56063DC5B3E3FFB5F72E67AB9FEB4AEC496C4F4C1149625DD662C53E89D7BF0F6151A046260D1337DFDC94502430F83B0EE07A130A224BCAD7DAE1D9FB6CD422FF6
310
920702629C4BB9AE79C12F243C6432A6794E18E5552BA56B431AAB5D91317302B2B071E86C3A42B1A02F999E24061403B5D0EB639195DA655DD3EBEAB4FB862DDF579F014AD0E73C22F99E28DA57FB98E75C6CA2D74D53086D600F4786E0FE3144B771A8A7B900F03594DB8A633CBC49B2EDB69228BB479CF863B5E807AAAB
310
23872F6DFEB4129B949CA33823F58830E86D65621E10047D9DB34D862E8EAC3C2ABC2F7B2C40D67CDFE01F5545B92105AF983AC54D93D69E56FB8E797F88913F898A9FEC705D3F9D1B54EC8426FB500D40A03BD0119B06E1B95DDC7EB8F6975367793EBD70E66733DFB9BC982F9CE564727731999F5D4ECFCE3B8D6A4DC2A0
310
6D50FD148437D110834A64C6CDDF57FBACB5C307A2A477DFE4939736CFEF2B175371E0E10CF0DD1D5C15654E0BCA14D1E87DD02FF93782A162C0A3D95F1524A52770F972BF1EE9809D13CE7DD599467F8ECE9ADD85CE85A34CD45355448C64F9E8A031DC2D596ACC6E5DD93D9B82DE2EF5CAF81363A8E47996A0DE24564A79
310
4115AACE09C55E14540231FDA13C319787134EBF34E3A022514E5B4D9E0826E25C02D5805B15ABE1BEF51B26383D445DD9E875EE33FE4C22DA16427D65A3BCA92CA6D28DD01DF5DC53330704308475351050232CCD31583787BA75774AFB06E5070DD0C8EF484E19968C5D83BA5B90B244D31E54D55A372320FE4786B7EA58
310
44E135AA5467CB7EA333A61683CC6A8C3257034C10CF46F40EF9F5BE59BE5BD30C3C72D235E95D10345C1D45445A5F0BB47E46A5EBE5570F9380B5FA629579952296A773720405982B9DE04011506178964401AA8BDF1FBF0A8EAB6861DD6580C0E38217056766716DAEB2D6FA0917D3E4116581EADB879C4E7CFFB11EFACD
310
3D641311495D92C8676CB409A72D18610D803CE8A626049E8EC1887CB5B44CC39883690DDA8399B4B9855B481E7D71D4A9D22F96E5BB73BF5793020C02137BF837504B0304140006080000CC70623B000000000000000000000000350000006662782F36394639363044362D344446342D343946362D394244322D32343142
310
43333846323333332F76657274696365732E62696E504B0304140006080800CC70623BF270F1330600000004000000360000006662782F36394639363044362D344446342D343946362D394244322D3234314243333846323333332F747269616E676C65732E62696E636660600000504B0304140006080000CC70623B0000
310
00000000000000000000370000006662782F36394639363044362D344446342D343946362D394244322D3234314243333846323333332F617474726962757465732E62696E504B0304140006080800CC70623B08DA0BD19000000041010000360000006662782F36394639363044362D344446342D343946362D394244322D
310
3234314243333846323333332F6469726563746F72792E786D6C858F410AC3201045AF22B36F53E9A60B35CBEEBAE80D244E44489C6234F4F835464A48035D0DF398FF9F8AF63D0E6CC63039F212F8F9020C7D47C6792B21C5FE7403D62A1188E2E60C98D7234A5830286103A55745067B9D86B8A3CF9C7F90C11DE607FB14
310
4396D7B6A82D282E9A152AD114D5EF2CB866EEE831B8EEA07A7BB5A8D7D61A2BAAEB7FD5F70921FF497D00504B0304140006080800CC70623BCA768048FE000000A00100003B0000006662782F36394639363044362D344446342D343946362D394244322D3234314243333846323333332F7265736F75726365732F636F72
310
652E786D6C8D50596E833010BD0A9ADFCA60D600328E9AA639412F609909B1126CE4A5EAF16B0295DABFFECC8CDEA2797AECF8353F924FB44E193D409E5248504B332A3D0D10FC95B4901C39B3C6F85F3248B49871801506CE266BC2B243D2688FDA47549B11775038871E12F988C7004EDE7016A9083E2ADC3D5D84BC8B09
310
D33C8D74D471E6BC8D0192EDC93A815B742658898E651BCB59086ADC356A8C3FD555A1055ED7E7E254D615792D0F075295F585746FF53B694EE78A565DD736979A65AB9933AFE69F8CD2A2F038022F28ED489E135A7CE4554F9BBEA85E68DB53CAB255FEC71496F19FA6A0B42F8B3DEE6673C0F318E4497096AD7DC5F52C33
310
EEB55BFE0D504B010214000A0000080000CC70623B3DEE336E79000000790000001B00000000000000000000000000000000006175746F6465736B2D64657369676E2D7061636B6167652E786D6C504B01021400140006080800CC70623BD486FD9CA0000000F40000001300000000000000000000000000B20000005B436F
310
6E74656E745F54797065735D2E786D6C504B01021400140006080800CC70623BD9DDAED0EC0000007C010000080000000000000000000000000083010000636F72652E786D6C504B01021400140006080800CC70623B55019EA25F0000007C000000070000000000000000000000000095020000636E782E786D6C504B0102
310
1400140006080800CC70623BA24EB22D72010000D40300000C00000000000000000000000000190300006662782F636F72652E786D6C504B01021400140006080800CC70623B408A7D3B7C0000009D0000000B00000000000000000000000000B50400006662782F636E782E786D6C504B01021400140006080800CC70623B
310
449FB9BD290100001202000031000000000000000000000000005A0500006662782F36394639363044362D344446342D343946362D394244322D3234314243333846323333332F636F72652E786D6C504B01021400140006080800CC70623BAD7543B64E010000330300003000000000000000000000000000D20600006662
310
782F36394639363044362D344446342D343946362D394244322D3234314243333846323333332F636E782E786D6C504B01021400140006080800CC70623B8D05915C650500003B10000034000000000000000000000000006E0800006662782F36394639363044362D344446342D343946362D394244322D32343142433338
310
46323333332F6F626A656374732E786D6C504B01021400140006080000CC70623B0000000000000000000000003500000000000000000000000000250E00006662782F36394639363044362D344446342D343946362D394244322D3234314243333846323333332F76657274696365732E62696E504B010214001400060808
310
00CC70623BF270F13306000000040000003600000000000000000000000000780E00006662782F36394639363044362D344446342D343946362D394244322D3234314243333846323333332F747269616E676C65732E62696E504B01021400140006080000CC70623B00000000000000000000000037000000000000000000
310
00000000D20E00006662782F36394639363044362D344446342D343946362D394244322D3234314243333846323333332F617474726962757465732E62696E504B01021400140006080800CC70623B08DA0BD190000000410100003600000000000000000000000000270F00006662782F36394639363044362D344446342D
310
343946362D394244322D3234314243333846323333332F6469726563746F72792E786D6C504B01021400140006080800CC70623BCA768048FE000000A00100003B000000000000000000000000000B1000006662782F36394639363044362D344446342D343946362D394244322D3234314243333846323333332F7265736F
310
75726365732F636F72652E786D6C504B0506000000000E000E0080040000621100000000
  0
XRECORD
  5
176
102
{ACAD_REACTORS
330
173
102
}
330
173
100
AcDbXrecord
280
     1
270
     1
271
     1
  0
XRECORD
  5
177
102
{ACAD_REACTORS
330
173
102
}
330
173
100
AcDbXrecord
280
     1
270
     1
271
     1
  0
XRECORD
  5
70B9
102
{ACAD_REACTORS
330
70B8
102
}
330
70B8
100
AcDbXrecord
280
     1
102
ACAD_ROUNDTRIP_2012_MLEADER_STYLE
298
     1
  0
XRECORD
  5
70CB
102
{ACAD_REACTORS
330
70CA
102
}
330
70CA
100
AcDbXrecord
280
     1
102
DISPLAYNAME
  1
Metric50
102
FLAGS
 90
        0
  0
CELLSTYLEMAP
  5
708B
102
{ACAD_REACTORS
330
162
102
}
330
162
100
AcDbCellStyleMap
 90
        3
300
CELLSTYLE
  1
TABLEFORMAT_BEGIN
 90
        5
170
     1
 91
        0
 92
    32768
 62
   257
 93
        1
300
CONTENTFORMAT
  1
CONTENTFORMAT_BEGIN
 90
        0
 91
        0
 92
      512
 93
        0
300

 40
0.0
140
1.0
 94
        5
 62
     0
340
11
144
6.0
309
CONTENTFORMAT_END
171
     1
301
MARGIN
  1
CELLMARGIN_BEGIN
 40
1.5
 40
1.5
 40
1.5
 40
1.5
 40
4.5
 40
4.5
309
CELLMARGIN_END
 94
        6
 95
        1
302
GRIDFORMAT
  1
GRIDFORMAT_BEGIN
 90
        0
 91
        1
 62
     0
 92
       -2
340
14
 93
        0
 40
1.125
309
GRIDFORMAT_END
 95
        2
302
GRIDFORMAT
  1
GRIDFORMAT_BEGIN
 90
        0
 91
        1
 62
     0
 92
       -2
340
14
 93
        0
 40
1.125
309
GRIDFORMAT_END
 95
        4
302
GRIDFORMAT
  1
GRIDFORMAT_BEGIN
 90
        0
 91
        1
 62
     0
 92
       -2
340
14
 93
        0
 40
1.125
309
GRIDFORMAT_END
 95
        8
302
GRIDFORMAT
  1
GRIDFORMAT_BEGIN
 90
        0
 91
        1
 62
     0
 92
       -2
340
14
 93
        0
 40
1.125
309
GRIDFORMAT_END
 95
       16
302
GRIDFORMAT
  1
GRIDFORMAT_BEGIN
 90
        0
 91
        1
 62
     0
 92
       -2
340
14
 93
        0
 40
1.125
309
GRIDFORMAT_END
 95
       32
302
GRIDFORMAT
  1
GRIDFORMAT_BEGIN
 90
        0
 91
        1
 62
     0
 92
       -2
340
14
 93
        0
 40
1.125
309
GRIDFORMAT_END
309
TABLEFORMAT_END
  1
CELLSTYLE_BEGIN
 90
        1
 91
        1
300
_TITLE
309
CELLSTYLE_END
300
CELLSTYLE
  1
TABLEFORMAT_BEGIN
 90
        5
170
     1
 91
        0
 92
        0
 62
   257
 93
        1
300
CONTENTFORMAT
  1
CONTENTFORMAT_BEGIN
 90
        0
 91
        0
 92
      512
 93
        0
300

 40
0.0
140
1.0
 94
        5
 62
     0
340
11
144
4.5
309
CONTENTFORMAT_END
171
     1
301
MARGIN
  1
CELLMARGIN_BEGIN
 40
1.5
 40
1.5
 40
1.5
 40
1.5
 40
4.5
 40
4.5
309
CELLMARGIN_END
 94
        6
 95
        1
302
GRIDFORMAT
  1
GRIDFORMAT_BEGIN
 90
        0
 91
        1
 62
     0
 92
       -2
340
14
 93
        0
 40
1.125
309
GRIDFORMAT_END
 95
        2
302
GRIDFORMAT
  1
GRIDFORMAT_BEGIN
 90
        0
 91
        1
 62
     0
 92
       -2
340
14
 93
        0
 40
1.125
309
GRIDFORMAT_END
 95
        4
302
GRIDFORMAT
  1
GRIDFORMAT_BEGIN
 90
        0
 91
        1
 62
     0
 92
       -2
340
14
 93
        0
 40
1.125
309
GRIDFORMAT_END
 95
        8
302
GRIDFORMAT
  1
GRIDFORMAT_BEGIN
 90
        0
 91
        1
 62
     0
 92
       -2
340
14
 93
        0
 40
1.125
309
GRIDFORMAT_END
 95
       16
302
GRIDFORMAT
  1
GRIDFORMAT_BEGIN
 90
        0
 91
        1
 62
     0
 92
       -2
340
14
 93
        0
 40
1.125
309
GRIDFORMAT_END
 95
       32
302
GRIDFORMAT
  1
GRIDFORMAT_BEGIN
 90
        0
 91
        1
 62
     0
 92
       -2
340
14
 93
        0
 40
1.125
309
GRIDFORMAT_END
309
TABLEFORMAT_END
  1
CELLSTYLE_BEGIN
 90
        2
 91
        1
300
_HEADER
309
CELLSTYLE_END
300
CELLSTYLE
  1
TABLEFORMAT_BEGIN
 90
        5
170
     1
 91
        0
 92
        0
 62
   257
 93
        1
300
CONTENTFORMAT
  1
CONTENTFORMAT_BEGIN
 90
        0
 91
        0
 92
      512
 93
        0
300

 40
0.0
140
1.0
 94
        2
 62
     0
340
11
144
4.5
309
CONTENTFORMAT_END
171
     1
301
MARGIN
  1
CELLMARGIN_BEGIN
 40
1.5
 40
1.5
 40
1.5
 40
1.5
 40
4.5
 40
4.5
309
CELLMARGIN_END
 94
        6
 95
        1
302
GRIDFORMAT
  1
GRIDFORMAT_BEGIN
 90
        0
 91
        1
 62
     0
 92
       -2
340
14
 93
        0
 40
1.125
309
GRIDFORMAT_END
 95
        2
302
GRIDFORMAT
  1
GRIDFORMAT_BEGIN
 90
        0
 91
        1
 62
     0
 92
       -2
340
14
 93
        0
 40
1.125
309
GRIDFORMAT_END
 95
        4
302
GRIDFORMAT
  1
GRIDFORMAT_BEGIN
 90
        0
 91
        1
 62
     0
 92
       -2
340
14
 93
        0
 40
1.125
309
GRIDFORMAT_END
 95
        8
302
GRIDFORMAT
  1
GRIDFORMAT_BEGIN
 90
        0
 91
        1
 62
     0
 92
       -2
340
14
 93
        0
 40
1.125
309
GRIDFORMAT_END
 95
       16
302
GRIDFORMAT
  1
GRIDFORMAT_BEGIN
 90
        0
 91
        1
 62
     0
 92
       -2
340
14
 93
        0
 40
1.125
309
GRIDFORMAT_END
 95
       32
302
GRIDFORMAT
  1
GRIDFORMAT_BEGIN
 90
        0
 91
        1
 62
     0
 92
       -2
340
14
 93
        0
 40
1.125
309
GRIDFORMAT_END
309
TABLEFORMAT_END
  1
CELLSTYLE_BEGIN
 90
        3
 91
        2
300
_DATA
309
CELLSTYLE_END
  0
XRECORD
  5
7090
102
{ACAD_REACTORS
330
162
102
}
330
162
100
AcDbXrecord
280
     1
102
ACAD_ROUNDTRIP_PRE2007_TABLESTYLE
 90
      512
 91
        0
  1

 92
      512
 93
        0
  2

 94
      512
 95
        0
  3

  0
XRECORD
  5
70A3
102
{ACAD_REACTORS
330
70A2
102
}
330
70A2
100
AcDbXrecord
280
     1
102
RTVSPost2010Prop28
280
     1
102
RTVSPost2010PropOp28
 70
     1
102
RTVSPost2010Prop29
280
     1
102
RTVSPost2010PropOp29
 70
     1
102
RTVSPost2010Prop30
280
     0
102
RTVSPost2010PropOp30
 70
     1
102
RTVSPost2010Prop31
280
     0
102
RTVSPost2010PropOp31
 70
     1
102
RTVSPost2010Prop32
280
     0
102
RTVSPost2010PropOp32
 70
     1
102
RTVSPost2010Prop33
280
     0
102
RTVSPost2010PropOp33
 70
     1
102
RTVSPost2010Prop34
280
     0
102
RTVSPost2010PropOp34
 70
     1
102
RTVSPost2010Prop35
280
     0
102
RTVSPost2010PropOp35
 70
     1
102
RTVSPost2010Prop36
280
     0
102
RTVSPost2010PropOp36
 70
     1
102
RTVSPost2010Prop37
 90
       50
102
RTVSPost2010PropOp37
 70
     1
102
RTVSPost2010Prop38
140
0.0
102
RTVSPost2010PropOp38
 70
     1
102
RTVSPost2010Prop39
140
1.0
102
RTVSPost2010PropOp39
 70
     1
102
RTVSPost2010Prop40
 90
        0
102
RTVSPost2010PropOp40
 70
     1
102
RTVSPost2010Prop41ColorIndex
 90
       18
102
RTVSPost2010Prop41ColorRGB
 90
        0
102
RTVSPost2010PropOp41
 70
     1
102
RTVSPost2010Prop42
 90
       50
102
RTVSPost2010PropOp42
 70
     1
102
RTVSPost2010Prop43
 90
        3
102
RTVSPost2010PropOp43
 70
     1
102
RTVSPost2010Prop44ColorIndex
 90
        5
102
RTVSPost2010Prop44ColorRGB
 90
      255
102
RTVSPost2010PropOp44
 70
     1
102
RTVSPost2010Prop45
280
     0
102
RTVSPost2010PropOp45
 70
     1
102
RTVSPost2010Prop46
 90
       50
102
RTVSPost2010PropOp46
 70
     1
102
RTVSPost2010Prop47
 90
       50
102
RTVSPost2010PropOp47
 70
     1
102
RTVSPost2010Prop48
 90
       50
102
RTVSPost2010PropOp48
 70
     1
102
RTVSPost2010Prop49
280
     0
102
RTVSPost2010PropOp49
 70
     1
102
RTVSPost2010Prop50
 90
       50
102
RTVSPost2010PropOp50
 70
     1
102
RTVSPost2010Prop51ColorIndex
 90
      256
102
RTVSPost2010Prop51ColorRGB
 90
-16777216
102
RTVSPost2010PropOp51
 70
     0
102
RTVSPost2010Prop52
140
1.0
102
RTVSPost2010PropOp52
 70
     0
102
RTVSPost2010Prop53
 90
        2
102
RTVSPost2010PropOp53
 70
     1
102
RTVSPost2010Prop54
  1
strokes_ogs.tif
102
RTVSPost2010PropOp54
 70
     1
102
RTVSPost2010Prop55
280
     0
102
RTVSPost2010PropOp55
 70
     1
102
RTVSPost2010Prop56
140
1.0
102
RTVSPost2010PropOp56
 70
     1
102
RTVSPost2010Prop57
140
1.0
102
RTVSPost2010PropOp57
 70
     1
102
RTVSPropertyOp0
 70
     1
102
RTVSPropertyOp1
 70
     1
102
RTVSPropertyOp2
 70
     1
102
RTVSPropertyOp3
 70
     1
102
RTVSPropertyOp4
 70
     1
102
RTVSPropertyOp5
 70
     1
102
RTVSPropertyOp6
 70
     1
102
RTVSPropertyOp7
 70
     1
102
RTVSPropertyOp8
 70
     1
102
RTVSPropertyOp9
 70
     1
102
RTVSPropertyOp10
 70
     1
102
RTVSPropertyOp11
 70
     1
102
RTVSPropertyOp12
 70
     1
102
RTVSPropertyOp13
 70
     1
102
RTVSPropertyOp14
 70
     1
102
RTVSPropertyOp15
 70
     1
102
RTVSPropertyOp16
 70
     1
102
RTVSPropertyOp17
 70
     1
102
RTVSPropertyOp18
 70
     1
102
RTVSPropertyOp19
 70
     1
102
RTVSPropertyOp20
 70
     1
102
RTVSPropertyOp21
 70
     1
102
RTVSPropertyOp22
 70
     1
102
RTVSPropertyOp23
 70
     1
102
RTVSPropertyOp24
 70
     1
102
RTVSPropertyOp25
 70
     1
102
RTVSPropertyOp26
 70
     1
102
RTVSPropertyOp27
 70
     1
102
RTVSPropertyOp28
 70
     1
102
RTVSPropertyOp29
 70
     1
102
RTVSPropertyOp30
 70
     1
102
RTVSPropertyOp31
 70
     1
102
RTVSPropertyOp32
 70
     1
102
RTVSPropertyOp33
 70
     1
102
RTVSPropertyOp34
 70
     1
102
RTVSPropertyOp35
 70
     1
102
RTVSPropertyOp36
 70
     1
102
RTVSPropertyOp37
 70
     1
102
RTVSPropertyOp38
 70
     1
102
RTVSPropertyOp39
 70
     1
102
RTVSPropertyOp40
 70
     1
102
RTVSPropertyOp41
 70
     1
102
RTVSPropertyOp42
 70
     1
102
RTVSPropertyOp43
 70
     1
102
RTVSPropertyOp44
 70
     1
102
RTVSPropertyOp45
 70
     1
102
RTVSPropertyOp46
 70
     1
102
RTVSPropertyOp47
 70
     1
102
RTVSPropertyOp48
 70
     1
102
RTVSPropertyOp49
 70
     1
102
RTVSPropertyOp50
 70
     1
102
RTVSPropertyOp51
 70
     0
102
RTVSPropertyOp52
 70
     0
102
RTVSPropertyOp53
 70
     1
102
RTVSPropertyOp54
 70
     1
102
RTVSPropertyOp55
 70
     1
102
RTVSPropertyOp56
 70
     1
102
RTVSPropertyOp57
 70
     1
102
RTVSPropertyOp58
 70
     1
102
RTVSPropertyOp59
 70
     1
102
RTVSPropertyOp60
 70
     1
102
RTVSPropertyOp61
 70
     1
102
RTVSPropertyOp62
 70
     1
  0
XRECORD
  5
70A1
102
{ACAD_REACTORS
330
70A0
102
}
330
70A0
100
AcDbXrecord
280
     1
102
RTVSPost2010Prop28
280
     0
102
RTVSPost2010PropOp28
 70
     1
102
RTVSPost2010Prop29
280
     1
102
RTVSPost2010PropOp29
 70
     1
102
RTVSPost2010Prop30
280
     1
102
RTVSPost2010PropOp30
 70
     1
102
RTVSPost2010Prop31
280
     0
102
RTVSPost2010PropOp31
 70
     1
102
RTVSPost2010Prop32
280
     0
102
RTVSPost2010PropOp32
 70
     1
102
RTVSPost2010Prop33
280
     0
102
RTVSPost2010PropOp33
 70
     1
102
RTVSPost2010Prop34
280
     0
102
RTVSPost2010PropOp34
 70
     1
102
RTVSPost2010Prop35
280
     0
102
RTVSPost2010PropOp35
 70
     1
102
RTVSPost2010Prop36
280
     0
102
RTVSPost2010PropOp36
 70
     1
102
RTVSPost2010Prop37
 90
       50
102
RTVSPost2010PropOp37
 70
     1
102
RTVSPost2010Prop38
140
0.0
102
RTVSPost2010PropOp38
 70
     1
102
RTVSPost2010Prop39
140
1.0
102
RTVSPost2010PropOp39
 70
     1
102
RTVSPost2010Prop40
 90
        0
102
RTVSPost2010PropOp40
 70
     1
102
RTVSPost2010Prop41ColorIndex
 90
       18
102
RTVSPost2010Prop41ColorRGB
 90
        0
102
RTVSPost2010PropOp41
 70
     1
102
RTVSPost2010Prop42
 90
       50
102
RTVSPost2010PropOp42
 70
     1
102
RTVSPost2010Prop43
 90
        3
102
RTVSPost2010PropOp43
 70
     1
102
RTVSPost2010Prop44ColorIndex
 90
        5
102
RTVSPost2010Prop44ColorRGB
 90
      255
102
RTVSPost2010PropOp44
 70
     1
102
RTVSPost2010Prop45
280
     0
102
RTVSPost2010PropOp45
 70
     1
102
RTVSPost2010Prop46
 90
       50
102
RTVSPost2010PropOp46
 70
     1
102
RTVSPost2010Prop47
 90
       50
102
RTVSPost2010PropOp47
 70
     1
102
RTVSPost2010Prop48
 90
       50
102
RTVSPost2010PropOp48
 70
     1
102
RTVSPost2010Prop49
280
     0
102
RTVSPost2010PropOp49
 70
     1
102
RTVSPost2010Prop50
 90
       50
102
RTVSPost2010PropOp50
 70
     1
102
RTVSPost2010Prop51ColorIndex
 90
      256
102
RTVSPost2010Prop51ColorRGB
 90
-16777216
102
RTVSPost2010PropOp51
 70
     0
102
RTVSPost2010Prop52
140
1.0
102
RTVSPost2010PropOp52
 70
     0
102
RTVSPost2010Prop53
 90
        2
102
RTVSPost2010PropOp53
 70
     1
102
RTVSPost2010Prop54
  1
strokes_ogs.tif
102
RTVSPost2010PropOp54
 70
     1
102
RTVSPost2010Prop55
280
     0
102
RTVSPost2010PropOp55
 70
     1
102
RTVSPost2010Prop56
140
1.0
102
RTVSPost2010PropOp56
 70
     1
102
RTVSPost2010Prop57
140
1.0
102
RTVSPost2010PropOp57
 70
     1
102
RTVSPropertyOp0
 70
     1
102
RTVSPropertyOp1
 70
     1
102
RTVSPropertyOp2
 70
     1
102
RTVSPropertyOp3
 70
     1
102
RTVSPropertyOp4
 70
     1
102
RTVSPropertyOp5
 70
     1
102
RTVSPropertyOp6
 70
     1
102
RTVSPropertyOp7
 70
     1
102
RTVSPropertyOp8
 70
     1
102
RTVSPropertyOp9
 70
     1
102
RTVSPropertyOp10
 70
     1
102
RTVSPropertyOp11
 70
     1
102
RTVSPropertyOp12
 70
     1
102
RTVSPropertyOp13
 70
     1
102
RTVSPropertyOp14
 70
     1
102
RTVSPropertyOp15
 70
     1
102
RTVSPropertyOp16
 70
     1
102
RTVSPropertyOp17
 70
     1
102
RTVSPropertyOp18
 70
     1
102
RTVSPropertyOp19
 70
     1
102
RTVSPropertyOp20
 70
     1
102
RTVSPropertyOp21
 70
     1
102
RTVSPropertyOp22
 70
     1
102
RTVSPropertyOp23
 70
     1
102
RTVSPropertyOp24
 70
     1
102
RTVSPropertyOp25
 70
     1
102
RTVSPropertyOp26
 70
     1
102
RTVSPropertyOp27
 70
     1
102
RTVSPropertyOp28
 70
     1
102
RTVSPropertyOp29
 70
     1
102
RTVSPropertyOp30
 70
     1
102
RTVSPropertyOp31
 70
     1
102
RTVSPropertyOp32
 70
     1
102
RTVSPropertyOp33
 70
     1
102
RTVSPropertyOp34
 70
     1
102
RTVSPropertyOp35
 70
     1
102
RTVSPropertyOp36
 70
     1
102
RTVSPropertyOp37
 70
     1
102
RTVSPropertyOp38
 70
     1
102
RTVSPropertyOp39
 70
     1
102
RTVSPropertyOp40
 70
     1
102
RTVSPropertyOp41
 70
     1
102
RTVSPropertyOp42
 70
     1
102
RTVSPropertyOp43
 70
     1
102
RTVSPropertyOp44
 70
     1
102
RTVSPropertyOp45
 70
     1
102
RTVSPropertyOp46
 70
     1
102
RTVSPropertyOp47
 70
     1
102
RTVSPropertyOp48
 70
     1
102
RTVSPropertyOp49
 70
     1
102
RTVSPropertyOp50
 70
     1
102
RTVSPropertyOp51
 70
     0
102
RTVSPropertyOp52
 70
     0
102
RTVSPropertyOp53
 70
     1
102
RTVSPropertyOp54
 70
     1
102
RTVSPropertyOp55
 70
     1
102
RTVSPropertyOp56
 70
     1
102
RTVSPropertyOp57
 70
     1
102
RTVSPropertyOp58
 70
     1
102
RTVSPropertyOp59
 70
     1
102
RTVSPropertyOp60
 70
     1
102
RTVSPropertyOp61
 70
     1
102
RTVSPropertyOp62
 70
     1
  0
XRECORD
  5
70AF
102
{ACAD_REACTORS
330
70AE
102
}
330
70AE
100
AcDbXrecord
280
     1
102
RTVSPost2010Prop28
280
     0
102
RTVSPost2010PropOp28
 70
     1
102
RTVSPost2010Prop29
280
     1
102
RTVSPost2010PropOp29
 70
     1
102
RTVSPost2010Prop30
280
     1
102
RTVSPost2010PropOp30
 70
     1
102
RTVSPost2010Prop31
280
     0
102
RTVSPost2010PropOp31
 70
     1
102
RTVSPost2010Prop32
280
     0
102
RTVSPost2010PropOp32
 70
     1
102
RTVSPost2010Prop33
280
     0
102
RTVSPost2010PropOp33
 70
     1
102
RTVSPost2010Prop34
280
     0
102
RTVSPost2010PropOp34
 70
     1
102
RTVSPost2010Prop35
280
     0
102
RTVSPost2010PropOp35
 70
     1
102
RTVSPost2010Prop36
280
     0
102
RTVSPost2010PropOp36
 70
     1
102
RTVSPost2010Prop37
 90
       50
102
RTVSPost2010PropOp37
 70
     1
102
RTVSPost2010Prop38
140
0.0
102
RTVSPost2010PropOp38
 70
     1
102
RTVSPost2010Prop39
140
1.0
102
RTVSPost2010PropOp39
 70
     1
102
RTVSPost2010Prop40
 90
        0
102
RTVSPost2010PropOp40
 70
     1
102
RTVSPost2010Prop41ColorIndex
 90
       18
102
RTVSPost2010Prop41ColorRGB
 90
        0
102
RTVSPost2010PropOp41
 70
     1
102
RTVSPost2010Prop42
 90
       50
102
RTVSPost2010PropOp42
 70
     1
102
RTVSPost2010Prop43
 90
        3
102
RTVSPost2010PropOp43
 70
     1
102
RTVSPost2010Prop44ColorIndex
 90
        5
102
RTVSPost2010Prop44ColorRGB
 90
      255
102
RTVSPost2010PropOp44
 70
     1
102
RTVSPost2010Prop45
280
     0
102
RTVSPost2010PropOp45
 70
     1
102
RTVSPost2010Prop46
 90
       50
102
RTVSPost2010PropOp46
 70
     1
102
RTVSPost2010Prop47
 90
       50
102
RTVSPost2010PropOp47
 70
     1
102
RTVSPost2010Prop48
 90
       50
102
RTVSPost2010PropOp48
 70
     1
102
RTVSPost2010Prop49
280
     0
102
RTVSPost2010PropOp49
 70
     1
102
RTVSPost2010Prop50
 90
       50
102
RTVSPost2010PropOp50
 70
     1
102
RTVSPost2010Prop51ColorIndex
 90
      256
102
RTVSPost2010Prop51ColorRGB
 90
-16777216
102
RTVSPost2010PropOp51
 70
     0
102
RTVSPost2010Prop52
140
1.0
102
RTVSPost2010PropOp52
 70
     0
102
RTVSPost2010Prop53
 90
        2
102
RTVSPost2010PropOp53
 70
     1
102
RTVSPost2010Prop54
  1
strokes_ogs.tif
102
RTVSPost2010PropOp54
 70
     1
102
RTVSPost2010Prop55
280
     0
102
RTVSPost2010PropOp55
 70
     1
102
RTVSPost2010Prop56
140
1.0
102
RTVSPost2010PropOp56
 70
     1
102
RTVSPost2010Prop57
140
1.0
102
RTVSPost2010PropOp57
 70
     1
102
RTVSPropertyOp0
 70
     1
102
RTVSPropertyOp1
 70
     1
102
RTVSPropertyOp2
 70
     1
102
RTVSPropertyOp3
 70
     1
102
RTVSPropertyOp4
 70
     1
102
RTVSPropertyOp5
 70
     1
102
RTVSPropertyOp6
 70
     1
102
RTVSPropertyOp7
 70
     1
102
RTVSPropertyOp8
 70
     1
102
RTVSPropertyOp9
 70
     1
102
RTVSPropertyOp10
 70
     1
102
RTVSPropertyOp11
 70
     1
102
RTVSPropertyOp12
 70
     1
102
RTVSPropertyOp13
 70
     1
102
RTVSPropertyOp14
 70
     1
102
RTVSPropertyOp15
 70
     1
102
RTVSPropertyOp16
 70
     1
102
RTVSPropertyOp17
 70
     1
102
RTVSPropertyOp18
 70
     1
102
RTVSPropertyOp19
 70
     1
102
RTVSPropertyOp20
 70
     1
102
RTVSPropertyOp21
 70
     1
102
RTVSPropertyOp22
 70
     1
102
RTVSPropertyOp23
 70
     1
102
RTVSPropertyOp24
 70
     1
102
RTVSPropertyOp25
 70
     1
102
RTVSPropertyOp26
 70
     1
102
RTVSPropertyOp27
 70
     1
102
RTVSPropertyOp28
 70
     1
102
RTVSPropertyOp29
 70
     1
102
RTVSPropertyOp30
 70
     1
102
RTVSPropertyOp31
 70
     1
102
RTVSPropertyOp32
 70
     1
102
RTVSPropertyOp33
 70
     1
102
RTVSPropertyOp34
 70
     1
102
RTVSPropertyOp35
 70
     1
102
RTVSPropertyOp36
 70
     1
102
RTVSPropertyOp37
 70
     1
102
RTVSPropertyOp38
 70
     1
102
RTVSPropertyOp39
 70
     1
102
RTVSPropertyOp40
 70
     1
102
RTVSPropertyOp41
 70
     1
102
RTVSPropertyOp42
 70
     1
102
RTVSPropertyOp43
 70
     1
102
RTVSPropertyOp44
 70
     1
102
RTVSPropertyOp45
 70
     1
102
RTVSPropertyOp46
 70
     1
102
RTVSPropertyOp47
 70
     1
102
RTVSPropertyOp48
 70
     1
102
RTVSPropertyOp49
 70
     1
102
RTVSPropertyOp50
 70
     1
102
RTVSPropertyOp51
 70
     0
102
RTVSPropertyOp52
 70
     0
102
RTVSPropertyOp53
 70
     1
102
RTVSPropertyOp54
 70
     1
102
RTVSPropertyOp55
 70
     1
102
RTVSPropertyOp56
 70
     1
102
RTVSPropertyOp57
 70
     1
102
RTVSPropertyOp58
 70
     1
102
RTVSPropertyOp59
 70
     1
102
RTVSPropertyOp60
 70
     1
102
RTVSPropertyOp61
 70
     1
102
RTVSPropertyOp62
 70
     1
  0
XRECORD
  5
70B7
102
{ACAD_REACTORS
330
70B6
102
}
330
70B6
100
AcDbXrecord
280
     1
102
RTVSPost2010Prop28
280
     0
102
RTVSPost2010PropOp28
 70
     1
102
RTVSPost2010Prop29
280
     1
102
RTVSPost2010PropOp29
 70
     1
102
RTVSPost2010Prop30
280
     1
102
RTVSPost2010PropOp30
 70
     1
102
RTVSPost2010Prop31
280
     0
102
RTVSPost2010PropOp31
 70
     1
102
RTVSPost2010Prop32
280
     0
102
RTVSPost2010PropOp32
 70
     1
102
RTVSPost2010Prop33
280
     0
102
RTVSPost2010PropOp33
 70
     1
102
RTVSPost2010Prop34
280
     0
102
RTVSPost2010PropOp34
 70
     1
102
RTVSPost2010Prop35
280
     0
102
RTVSPost2010PropOp35
 70
     1
102
RTVSPost2010Prop36
280
     0
102
RTVSPost2010PropOp36
 70
     1
102
RTVSPost2010Prop37
 90
       50
102
RTVSPost2010PropOp37
 70
     1
102
RTVSPost2010Prop38
140
0.0
102
RTVSPost2010PropOp38
 70
     1
102
RTVSPost2010Prop39
140
1.0
102
RTVSPost2010PropOp39
 70
     1
102
RTVSPost2010Prop40
 90
        0
102
RTVSPost2010PropOp40
 70
     1
102
RTVSPost2010Prop41ColorIndex
 90
       18
102
RTVSPost2010Prop41ColorRGB
 90
        0
102
RTVSPost2010PropOp41
 70
     1
102
RTVSPost2010Prop42
 90
       50
102
RTVSPost2010PropOp42
 70
     1
102
RTVSPost2010Prop43
 90
        3
102
RTVSPost2010PropOp43
 70
     1
102
RTVSPost2010Prop44ColorIndex
 90
        5
102
RTVSPost2010Prop44ColorRGB
 90
      255
102
RTVSPost2010PropOp44
 70
     1
102
RTVSPost2010Prop45
280
     0
102
RTVSPost2010PropOp45
 70
     1
102
RTVSPost2010Prop46
 90
       50
102
RTVSPost2010PropOp46
 70
     1
102
RTVSPost2010Prop47
 90
       50
102
RTVSPost2010PropOp47
 70
     1
102
RTVSPost2010Prop48
 90
       50
102
RTVSPost2010PropOp48
 70
     1
102
RTVSPost2010Prop49
280
     0
102
RTVSPost2010PropOp49
 70
     1
102
RTVSPost2010Prop50
 90
       50
102
RTVSPost2010PropOp50
 70
     1
102
RTVSPost2010Prop51ColorIndex
 90
      256
102
RTVSPost2010Prop51ColorRGB
 90
-16777216
102
RTVSPost2010PropOp51
 70
     0
102
RTVSPost2010Prop52
140
1.0
102
RTVSPost2010PropOp52
 70
     0
102
RTVSPost2010Prop53
 90
        2
102
RTVSPost2010PropOp53
 70
     1
102
RTVSPost2010Prop54
  1
strokes_ogs.tif
102
RTVSPost2010PropOp54
 70
     1
102
RTVSPost2010Prop55
280
     0
102
RTVSPost2010PropOp55
 70
     1
102
RTVSPost2010Prop56
140
1.0
102
RTVSPost2010PropOp56
 70
     1
102
RTVSPost2010Prop57
140
1.0
102
RTVSPost2010PropOp57
 70
     1
102
RTVSPropertyOp0
 70
     1
102
RTVSPropertyOp1
 70
     1
102
RTVSPropertyOp2
 70
     1
102
RTVSPropertyOp3
 70
     1
102
RTVSPropertyOp4
 70
     1
102
RTVSPropertyOp5
 70
     1
102
RTVSPropertyOp6
 70
     1
102
RTVSPropertyOp7
 70
     1
102
RTVSPropertyOp8
 70
     1
102
RTVSPropertyOp9
 70
     1
102
RTVSPropertyOp10
 70
     1
102
RTVSPropertyOp11
 70
     1
102
RTVSPropertyOp12
 70
     1
102
RTVSPropertyOp13
 70
     1
102
RTVSPropertyOp14
 70
     1
102
RTVSPropertyOp15
 70
     1
102
RTVSPropertyOp16
 70
     1
102
RTVSPropertyOp17
 70
     1
102
RTVSPropertyOp18
 70
     1
102
RTVSPropertyOp19
 70
     1
102
RTVSPropertyOp20
 70
     1
102
RTVSPropertyOp21
 70
     1
102
RTVSPropertyOp22
 70
     1
102
RTVSPropertyOp23
 70
     1
102
RTVSPropertyOp24
 70
     1
102
RTVSPropertyOp25
 70
     1
102
RTVSPropertyOp26
 70
     1
102
RTVSPropertyOp27
 70
     1
102
RTVSPropertyOp28
 70
     1
102
RTVSPropertyOp29
 70
     1
102
RTVSPropertyOp30
 70
     1
102
RTVSPropertyOp31
 70
     1
102
RTVSPropertyOp32
 70
     1
102
RTVSPropertyOp33
 70
     1
102
RTVSPropertyOp34
 70
     1
102
RTVSPropertyOp35
 70
     1
102
RTVSPropertyOp36
 70
     1
102
RTVSPropertyOp37
 70
     1
102
RTVSPropertyOp38
 70
     1
102
RTVSPropertyOp39
 70
     1
102
RTVSPropertyOp40
 70
     1
102
RTVSPropertyOp41
 70
     1
102
RTVSPropertyOp42
 70
     1
102
RTVSPropertyOp43
 70
     1
102
RTVSPropertyOp44
 70
     1
102
RTVSPropertyOp45
 70
     1
102
RTVSPropertyOp46
 70
     1
102
RTVSPropertyOp47
 70
     1
102
RTVSPropertyOp48
 70
     1
102
RTVSPropertyOp49
 70
     1
102
RTVSPropertyOp50
 70
     1
102
RTVSPropertyOp51
 70
     0
102
RTVSPropertyOp52
 70
     0
102
RTVSPropertyOp53
 70
     1
102
RTVSPropertyOp54
 70
     1
102
RTVSPropertyOp55
 70
     1
102
RTVSPropertyOp56
 70
     1
102
RTVSPropertyOp57
 70
     1
102
RTVSPropertyOp58
 70
     1
102
RTVSPropertyOp59
 70
     1
102
RTVSPropertyOp60
 70
     1
102
RTVSPropertyOp61
 70
     1
102
RTVSPropertyOp62
 70
     1
  0
XRECORD
  5
70A9
102
{ACAD_REACTORS
330
70A8
102
}
330
70A8
100
AcDbXrecord
280
     1
102
RTVSPost2010Prop28
280
     0
102
RTVSPost2010PropOp28
 70
     1
102
RTVSPost2010Prop29
280
     1
102
RTVSPost2010PropOp29
 70
     1
102
RTVSPost2010Prop30
280
     1
102
RTVSPost2010PropOp30
 70
     1
102
RTVSPost2010Prop31
280
     0
102
RTVSPost2010PropOp31
 70
     1
102
RTVSPost2010Prop32
280
     0
102
RTVSPost2010PropOp32
 70
     1
102
RTVSPost2010Prop33
280
     0
102
RTVSPost2010PropOp33
 70
     1
102
RTVSPost2010Prop34
280
     0
102
RTVSPost2010PropOp34
 70
     1
102
RTVSPost2010Prop35
280
     0
102
RTVSPost2010PropOp35
 70
     1
102
RTVSPost2010Prop36
280
     0
102
RTVSPost2010PropOp36
 70
     1
102
RTVSPost2010Prop37
 90
       50
102
RTVSPost2010PropOp37
 70
     1
102
RTVSPost2010Prop38
140
0.0
102
RTVSPost2010PropOp38
 70
     1
102
RTVSPost2010Prop39
140
1.0
102
RTVSPost2010PropOp39
 70
     1
102
RTVSPost2010Prop40
 90
        0
102
RTVSPost2010PropOp40
 70
     1
102
RTVSPost2010Prop41ColorIndex
 90
       18
102
RTVSPost2010Prop41ColorRGB
 90
        0
102
RTVSPost2010PropOp41
 70
     1
102
RTVSPost2010Prop42
 90
       50
102
RTVSPost2010PropOp42
 70
     1
102
RTVSPost2010Prop43
 90
        3
102
RTVSPost2010PropOp43
 70
     1
102
RTVSPost2010Prop44ColorIndex
 90
        5
102
RTVSPost2010Prop44ColorRGB
 90
      255
102
RTVSPost2010PropOp44
 70
     1
102
RTVSPost2010Prop45
280
     0
102
RTVSPost2010PropOp45
 70
     1
102
RTVSPost2010Prop46
 90
       50
102
RTVSPost2010PropOp46
 70
     1
102
RTVSPost2010Prop47
 90
       50
102
RTVSPost2010PropOp47
 70
     1
102
RTVSPost2010Prop48
 90
       50
102
RTVSPost2010PropOp48
 70
     1
102
RTVSPost2010Prop49
280
     0
102
RTVSPost2010PropOp49
 70
     1
102
RTVSPost2010Prop50
 90
       50
102
RTVSPost2010PropOp50
 70
     1
102
RTVSPost2010Prop51ColorIndex
 90
      256
102
RTVSPost2010Prop51ColorRGB
 90
-16777216
102
RTVSPost2010PropOp51
 70
     0
102
RTVSPost2010Prop52
140
1.0
102
RTVSPost2010PropOp52
 70
     0
102
RTVSPost2010Prop53
 90
        2
102
RTVSPost2010PropOp53
 70
     1
102
RTVSPost2010Prop54
  1
strokes_ogs.tif
102
RTVSPost2010PropOp54
 70
     1
102
RTVSPost2010Prop55
280
     0
102
RTVSPost2010PropOp55
 70
     1
102
RTVSPost2010Prop56
140
1.0
102
RTVSPost2010PropOp56
 70
     1
102
RTVSPost2010Prop57
140
1.0
102
RTVSPost2010PropOp57
 70
     1
102
RTVSPropertyOp0
 70
     1
102
RTVSPropertyOp1
 70
     1
102
RTVSPropertyOp2
 70
     1
102
RTVSPropertyOp3
 70
     1
102
RTVSPropertyOp4
 70
     1
102
RTVSPropertyOp5
 70
     1
102
RTVSPropertyOp6
 70
     1
102
RTVSPropertyOp7
 70
     1
102
RTVSPropertyOp8
 70
     1
102
RTVSPropertyOp9
 70
     1
102
RTVSPropertyOp10
 70
     1
102
RTVSPropertyOp11
 70
     1
102
RTVSPropertyOp12
 70
     1
102
RTVSPropertyOp13
 70
     1
102
RTVSPropertyOp14
 70
     1
102
RTVSPropertyOp15
 70
     1
102
RTVSPropertyOp16
 70
     1
102
RTVSPropertyOp17
 70
     1
102
RTVSPropertyOp18
 70
     1
102
RTVSPropertyOp19
 70
     1
102
RTVSPropertyOp20
 70
     1
102
RTVSPropertyOp21
 70
     1
102
RTVSPropertyOp22
 70
     1
102
RTVSPropertyOp23
 70
     1
102
RTVSPropertyOp24
 70
     1
102
RTVSPropertyOp25
 70
     1
102
RTVSPropertyOp26
 70
     1
102
RTVSPropertyOp27
 70
     1
102
RTVSPropertyOp28
 70
     1
102
RTVSPropertyOp29
 70
     1
102
RTVSPropertyOp30
 70
     1
102
RTVSPropertyOp31
 70
     1
102
RTVSPropertyOp32
 70
     1
102
RTVSPropertyOp33
 70
     1
102
RTVSPropertyOp34
 70
     1
102
RTVSPropertyOp35
 70
     1
102
RTVSPropertyOp36
 70
     1
102
RTVSPropertyOp37
 70
     1
102
RTVSPropertyOp38
 70
     1
102
RTVSPropertyOp39
 70
     1
102
RTVSPropertyOp40
 70
     1
102
RTVSPropertyOp41
 70
     1
102
RTVSPropertyOp42
 70
     1
102
RTVSPropertyOp43
 70
     1
102
RTVSPropertyOp44
 70
     1
102
RTVSPropertyOp45
 70
     1
102
RTVSPropertyOp46
 70
     1
102
RTVSPropertyOp47
 70
     1
102
RTVSPropertyOp48
 70
     1
102
RTVSPropertyOp49
 70
     1
102
RTVSPropertyOp50
 70
     1
102
RTVSPropertyOp51
 70
     0
102
RTVSPropertyOp52
 70
     0
102
RTVSPropertyOp53
 70
     1
102
RTVSPropertyOp54
 70
     1
102
RTVSPropertyOp55
 70
     1
102
RTVSPropertyOp56
 70
     1
102
RTVSPropertyOp57
 70
     1
102
RTVSPropertyOp58
 70
     1
102
RTVSPropertyOp59
 70
     1
102
RTVSPropertyOp60
 70
     1
102
RTVSPropertyOp61
 70
     1
102
RTVSPropertyOp62
 70
     1
  0
XRECORD
  5
70AD
102
{ACAD_REACTORS
330
70AC
102
}
330
70AC
100
AcDbXrecord
280
     1
102
RTVSPost2010Prop28
280
     0
102
RTVSPost2010PropOp28
 70
     1
102
RTVSPost2010Prop29
280
     1
102
RTVSPost2010PropOp29
 70
     1
102
RTVSPost2010Prop30
280
     1
102
RTVSPost2010PropOp30
 70
     1
102
RTVSPost2010Prop31
280
     0
102
RTVSPost2010PropOp31
 70
     1
102
RTVSPost2010Prop32
280
     0
102
RTVSPost2010PropOp32
 70
     1
102
RTVSPost2010Prop33
280
     0
102
RTVSPost2010PropOp33
 70
     1
102
RTVSPost2010Prop34
280
     0
102
RTVSPost2010PropOp34
 70
     1
102
RTVSPost2010Prop35
280
     0
102
RTVSPost2010PropOp35
 70
     1
102
RTVSPost2010Prop36
280
     0
102
RTVSPost2010PropOp36
 70
     1
102
RTVSPost2010Prop37
 90
       50
102
RTVSPost2010PropOp37
 70
     1
102
RTVSPost2010Prop38
140
0.0
102
RTVSPost2010PropOp38
 70
     1
102
RTVSPost2010Prop39
140
1.0
102
RTVSPost2010PropOp39
 70
     1
102
RTVSPost2010Prop40
 90
        0
102
RTVSPost2010PropOp40
 70
     1
102
RTVSPost2010Prop41ColorIndex
 90
       18
102
RTVSPost2010Prop41ColorRGB
 90
        0
102
RTVSPost2010PropOp41
 70
     1
102
RTVSPost2010Prop42
 90
       50
102
RTVSPost2010PropOp42
 70
     1
102
RTVSPost2010Prop43
 90
        3
102
RTVSPost2010PropOp43
 70
     1
102
RTVSPost2010Prop44ColorIndex
 90
        5
102
RTVSPost2010Prop44ColorRGB
 90
      255
102
RTVSPost2010PropOp44
 70
     1
102
RTVSPost2010Prop45
280
     0
102
RTVSPost2010PropOp45
 70
     1
102
RTVSPost2010Prop46
 90
       50
102
RTVSPost2010PropOp46
 70
     1
102
RTVSPost2010Prop47
 90
       50
102
RTVSPost2010PropOp47
 70
     1
102
RTVSPost2010Prop48
 90
       50
102
RTVSPost2010PropOp48
 70
     1
102
RTVSPost2010Prop49
280
     0
102
RTVSPost2010PropOp49
 70
     1
102
RTVSPost2010Prop50
 90
       50
102
RTVSPost2010PropOp50
 70
     1
102
RTVSPost2010Prop51ColorIndex
 90
      256
102
RTVSPost2010Prop51ColorRGB
 90
-16777216
102
RTVSPost2010PropOp51
 70
     0
102
RTVSPost2010Prop52
140
1.0
102
RTVSPost2010PropOp52
 70
     0
102
RTVSPost2010Prop53
 90
        2
102
RTVSPost2010PropOp53
 70
     1
102
RTVSPost2010Prop54
  1
strokes_ogs.tif
102
RTVSPost2010PropOp54
 70
     1
102
RTVSPost2010Prop55
280
     0
102
RTVSPost2010PropOp55
 70
     1
102
RTVSPost2010Prop56
140
1.0
102
RTVSPost2010PropOp56
 70
     1
102
RTVSPost2010Prop57
140
1.0
102
RTVSPost2010PropOp57
 70
     1
102
RTVSPropertyOp0
 70
     1
102
RTVSPropertyOp1
 70
     1
102
RTVSPropertyOp2
 70
     1
102
RTVSPropertyOp3
 70
     1
102
RTVSPropertyOp4
 70
     1
102
RTVSPropertyOp5
 70
     1
102
RTVSPropertyOp6
 70
     1
102
RTVSPropertyOp7
 70
     1
102
RTVSPropertyOp8
 70
     1
102
RTVSPropertyOp9
 70
     1
102
RTVSPropertyOp10
 70
     1
102
RTVSPropertyOp11
 70
     1
102
RTVSPropertyOp12
 70
     1
102
RTVSPropertyOp13
 70
     1
102
RTVSPropertyOp14
 70
     1
102
RTVSPropertyOp15
 70
     1
102
RTVSPropertyOp16
 70
     1
102
RTVSPropertyOp17
 70
     1
102
RTVSPropertyOp18
 70
     1
102
RTVSPropertyOp19
 70
     1
102
RTVSPropertyOp20
 70
     1
102
RTVSPropertyOp21
 70
     1
102
RTVSPropertyOp22
 70
     1
102
RTVSPropertyOp23
 70
     1
102
RTVSPropertyOp24
 70
     1
102
RTVSPropertyOp25
 70
     1
102
RTVSPropertyOp26
 70
     1
102
RTVSPropertyOp27
 70
     1
102
RTVSPropertyOp28
 70
     1
102
RTVSPropertyOp29
 70
     1
102
RTVSPropertyOp30
 70
     1
102
RTVSPropertyOp31
 70
     1
102
RTVSPropertyOp32
 70
     1
102
RTVSPropertyOp33
 70
     1
102
RTVSPropertyOp34
 70
     1
102
RTVSPropertyOp35
 70
     1
102
RTVSPropertyOp36
 70
     1
102
RTVSPropertyOp37
 70
     1
102
RTVSPropertyOp38
 70
     1
102
RTVSPropertyOp39
 70
     1
102
RTVSPropertyOp40
 70
     1
102
RTVSPropertyOp41
 70
     1
102
RTVSPropertyOp42
 70
     1
102
RTVSPropertyOp43
 70
     1
102
RTVSPropertyOp44
 70
     1
102
RTVSPropertyOp45
 70
     1
102
RTVSPropertyOp46
 70
     1
102
RTVSPropertyOp47
 70
     1
102
RTVSPropertyOp48
 70
     1
102
RTVSPropertyOp49
 70
     1
102
RTVSPropertyOp50
 70
     1
102
RTVSPropertyOp51
 70
     0
102
RTVSPropertyOp52
 70
     0
102
RTVSPropertyOp53
 70
     1
102
RTVSPropertyOp54
 70
     1
102
RTVSPropertyOp55
 70
     1
102
RTVSPropertyOp56
 70
     1
102
RTVSPropertyOp57
 70
     1
102
RTVSPropertyOp58
 70
     1
102
RTVSPropertyOp59
 70
     1
102
RTVSPropertyOp60
 70
     1
102
RTVSPropertyOp61
 70
     1
102
RTVSPropertyOp62
 70
     1
  0
XRECORD
  5
70BF
102
{ACAD_REACTORS
330
70BE
102
}
330
70BE
100
AcDbXrecord
280
     1
102
RTVSPost2010Prop28
280
     0
102
RTVSPost2010PropOp28
 70
     1
102
RTVSPost2010Prop29
280
     1
102
RTVSPost2010PropOp29
 70
     1
102
RTVSPost2010Prop30
280
     1
102
RTVSPost2010PropOp30
 70
     1
102
RTVSPost2010Prop31
280
     0
102
RTVSPost2010PropOp31
 70
     1
102
RTVSPost2010Prop32
280
     0
102
RTVSPost2010PropOp32
 70
     1
102
RTVSPost2010Prop33
280
     0
102
RTVSPost2010PropOp33
 70
     1
102
RTVSPost2010Prop34
280
     0
102
RTVSPost2010PropOp34
 70
     1
102
RTVSPost2010Prop35
280
     0
102
RTVSPost2010PropOp35
 70
     1
102
RTVSPost2010Prop36
280
     0
102
RTVSPost2010PropOp36
 70
     1
102
RTVSPost2010Prop37
 90
       50
102
RTVSPost2010PropOp37
 70
     1
102
RTVSPost2010Prop38
140
0.0
102
RTVSPost2010PropOp38
 70
     1
102
RTVSPost2010Prop39
140
1.0
102
RTVSPost2010PropOp39
 70
     1
102
RTVSPost2010Prop40
 90
        0
102
RTVSPost2010PropOp40
 70
     1
102
RTVSPost2010Prop41ColorIndex
 90
       18
102
RTVSPost2010Prop41ColorRGB
 90
        0
102
RTVSPost2010PropOp41
 70
     1
102
RTVSPost2010Prop42
 90
       50
102
RTVSPost2010PropOp42
 70
     1
102
RTVSPost2010Prop43
 90
        3
102
RTVSPost2010PropOp43
 70
     1
102
RTVSPost2010Prop44ColorIndex
 90
        5
102
RTVSPost2010Prop44ColorRGB
 90
      255
102
RTVSPost2010PropOp44
 70
     1
102
RTVSPost2010Prop45
280
     0
102
RTVSPost2010PropOp45
 70
     1
102
RTVSPost2010Prop46
 90
       50
102
RTVSPost2010PropOp46
 70
     1
102
RTVSPost2010Prop47
 90
       50
102
RTVSPost2010PropOp47
 70
     1
102
RTVSPost2010Prop48
 90
       50
102
RTVSPost2010PropOp48
 70
     1
102
RTVSPost2010Prop49
280
     0
102
RTVSPost2010PropOp49
 70
     1
102
RTVSPost2010Prop50
 90
       50
102
RTVSPost2010PropOp50
 70
     1
102
RTVSPost2010Prop51ColorIndex
 90
      256
102
RTVSPost2010Prop51ColorRGB
 90
-16777216
102
RTVSPost2010PropOp51
 70
     0
102
RTVSPost2010Prop52
140
1.0
102
RTVSPost2010PropOp52
 70
     0
102
RTVSPost2010Prop53
 90
        2
102
RTVSPost2010PropOp53
 70
     1
102
RTVSPost2010Prop54
  1
strokes_ogs.tif
102
RTVSPost2010PropOp54
 70
     1
102
RTVSPost2010Prop55
280
     0
102
RTVSPost2010PropOp55
 70
     1
102
RTVSPost2010Prop56
140
1.0
102
RTVSPost2010PropOp56
 70
     1
102
RTVSPost2010Prop57
140
1.0
102
RTVSPost2010PropOp57
 70
     1
102
RTVSPropertyOp0
 70
     0
102
RTVSPropertyOp1
 70
     0
102
RTVSPropertyOp2
 70
     0
102
RTVSPropertyOp3
 70
     0
102
RTVSPropertyOp4
 70
     0
102
RTVSPropertyOp5
 70
     0
102
RTVSPropertyOp6
 70
     0
102
RTVSPropertyOp7
 70
     0
102
RTVSPropertyOp8
 70
     0
102
RTVSPropertyOp9
 70
     0
102
RTVSPropertyOp10
 70
     0
102
RTVSPropertyOp11
 70
     0
102
RTVSPropertyOp12
 70
     0
102
RTVSPropertyOp13
 70
     0
102
RTVSPropertyOp14
 70
     2
102
RTVSPropertyOp15
 70
     0
102
RTVSPropertyOp16
 70
     0
102
RTVSPropertyOp17
 70
     0
102
RTVSPropertyOp18
 70
     0
102
RTVSPropertyOp19
 70
     0
102
RTVSPropertyOp20
 70
     0
102
RTVSPropertyOp21
 70
     0
102
RTVSPropertyOp22
 70
     0
102
RTVSPropertyOp23
 70
     0
102
RTVSPropertyOp24
 70
     0
102
RTVSPropertyOp25
 70
     0
102
RTVSPropertyOp26
 70
     0
102
RTVSPropertyOp27
 70
     0
102
RTVSPropertyOp28
 70
     1
102
RTVSPropertyOp29
 70
     1
102
RTVSPropertyOp30
 70
     1
102
RTVSPropertyOp31
 70
     1
102
RTVSPropertyOp32
 70
     1
102
RTVSPropertyOp33
 70
     1
102
RTVSPropertyOp34
 70
     1
102
RTVSPropertyOp35
 70
     1
102
RTVSPropertyOp36
 70
     1
102
RTVSPropertyOp37
 70
     1
102
RTVSPropertyOp38
 70
     1
102
RTVSPropertyOp39
 70
     1
102
RTVSPropertyOp40
 70
     1
102
RTVSPropertyOp41
 70
     1
102
RTVSPropertyOp42
 70
     1
102
RTVSPropertyOp43
 70
     1
102
RTVSPropertyOp44
 70
     1
102
RTVSPropertyOp45
 70
     1
102
RTVSPropertyOp46
 70
     1
102
RTVSPropertyOp47
 70
     1
102
RTVSPropertyOp48
 70
     1
102
RTVSPropertyOp49
 70
     1
102
RTVSPropertyOp50
 70
     1
102
RTVSPropertyOp51
 70
     0
102
RTVSPropertyOp52
 70
     0
102
RTVSPropertyOp53
 70
     1
102
RTVSPropertyOp54
 70
     1
102
RTVSPropertyOp55
 70
     1
102
RTVSPropertyOp56
 70
     1
102
RTVSPropertyOp57
 70
     1
102
RTVSPropertyOp58
 70
     1
102
RTVSPropertyOp59
 70
     1
102
RTVSPropertyOp60
 70
     1
102
RTVSPropertyOp61
 70
     1
102
RTVSPropertyOp62
 70
     1
  0
XRECORD
  5
70B5
102
{ACAD_REACTORS
330
70B4
102
}
330
70B4
100
AcDbXrecord
280
     1
102
RTVSPost2010Prop28
280
     0
102
RTVSPost2010PropOp28
 70
     1
102
RTVSPost2010Prop29
280
     1
102
RTVSPost2010PropOp29
 70
     1
102
RTVSPost2010Prop30
280
     1
102
RTVSPost2010PropOp30
 70
     1
102
RTVSPost2010Prop31
280
     0
102
RTVSPost2010PropOp31
 70
     1
102
RTVSPost2010Prop32
280
     0
102
RTVSPost2010PropOp32
 70
     1
102
RTVSPost2010Prop33
280
     0
102
RTVSPost2010PropOp33
 70
     1
102
RTVSPost2010Prop34
280
     0
102
RTVSPost2010PropOp34
 70
     1
102
RTVSPost2010Prop35
280
     0
102
RTVSPost2010PropOp35
 70
     1
102
RTVSPost2010Prop36
280
     0
102
RTVSPost2010PropOp36
 70
     1
102
RTVSPost2010Prop37
 90
       50
102
RTVSPost2010PropOp37
 70
     1
102
RTVSPost2010Prop38
140
0.0
102
RTVSPost2010PropOp38
 70
     1
102
RTVSPost2010Prop39
140
1.0
102
RTVSPost2010PropOp39
 70
     1
102
RTVSPost2010Prop40
 90
        0
102
RTVSPost2010PropOp40
 70
     1
102
RTVSPost2010Prop41ColorIndex
 90
       18
102
RTVSPost2010Prop41ColorRGB
 90
        0
102
RTVSPost2010PropOp41
 70
     1
102
RTVSPost2010Prop42
 90
       50
102
RTVSPost2010PropOp42
 70
     1
102
RTVSPost2010Prop43
 90
        3
102
RTVSPost2010PropOp43
 70
     1
102
RTVSPost2010Prop44ColorIndex
 90
        5
102
RTVSPost2010Prop44ColorRGB
 90
      255
102
RTVSPost2010PropOp44
 70
     1
102
RTVSPost2010Prop45
280
     0
102
RTVSPost2010PropOp45
 70
     1
102
RTVSPost2010Prop46
 90
       50
102
RTVSPost2010PropOp46
 70
     1
102
RTVSPost2010Prop47
 90
       50
102
RTVSPost2010PropOp47
 70
     1
102
RTVSPost2010Prop48
 90
       50
102
RTVSPost2010PropOp48
 70
     1
102
RTVSPost2010Prop49
280
     0
102
RTVSPost2010PropOp49
 70
     1
102
RTVSPost2010Prop50
 90
       50
102
RTVSPost2010PropOp50
 70
     1
102
RTVSPost2010Prop51ColorIndex
 90
      256
102
RTVSPost2010Prop51ColorRGB
 90
-16777216
102
RTVSPost2010PropOp51
 70
     0
102
RTVSPost2010Prop52
140
1.0
102
RTVSPost2010PropOp52
 70
     0
102
RTVSPost2010Prop53
 90
        2
102
RTVSPost2010PropOp53
 70
     1
102
RTVSPost2010Prop54
  1
strokes_ogs.tif
102
RTVSPost2010PropOp54
 70
     1
102
RTVSPost2010Prop55
280
     0
102
RTVSPost2010PropOp55
 70
     1
102
RTVSPost2010Prop56
140
1.0
102
RTVSPost2010PropOp56
 70
     1
102
RTVSPost2010Prop57
140
1.0
102
RTVSPost2010PropOp57
 70
     1
102
RTVSPropertyOp0
 70
     1
102
RTVSPropertyOp1
 70
     1
102
RTVSPropertyOp2
 70
     1
102
RTVSPropertyOp3
 70
     1
102
RTVSPropertyOp4
 70
     1
102
RTVSPropertyOp5
 70
     1
102
RTVSPropertyOp6
 70
     1
102
RTVSPropertyOp7
 70
     1
102
RTVSPropertyOp8
 70
     1
102
RTVSPropertyOp9
 70
     1
102
RTVSPropertyOp10
 70
     1
102
RTVSPropertyOp11
 70
     1
102
RTVSPropertyOp12
 70
     1
102
RTVSPropertyOp13
 70
     1
102
RTVSPropertyOp14
 70
     1
102
RTVSPropertyOp15
 70
     1
102
RTVSPropertyOp16
 70
     1
102
RTVSPropertyOp17
 70
     1
102
RTVSPropertyOp18
 70
     1
102
RTVSPropertyOp19
 70
     1
102
RTVSPropertyOp20
 70
     1
102
RTVSPropertyOp21
 70
     1
102
RTVSPropertyOp22
 70
     1
102
RTVSPropertyOp23
 70
     1
102
RTVSPropertyOp24
 70
     1
102
RTVSPropertyOp25
 70
     1
102
RTVSPropertyOp26
 70
     1
102
RTVSPropertyOp27
 70
     1
102
RTVSPropertyOp28
 70
     1
102
RTVSPropertyOp29
 70
     1
102
RTVSPropertyOp30
 70
     1
102
RTVSPropertyOp31
 70
     1
102
RTVSPropertyOp32
 70
     1
102
RTVSPropertyOp33
 70
     1
102
RTVSPropertyOp34
 70
     1
102
RTVSPropertyOp35
 70
     1
102
RTVSPropertyOp36
 70
     1
102
RTVSPropertyOp37
 70
     1
102
RTVSPropertyOp38
 70
     1
102
RTVSPropertyOp39
 70
     1
102
RTVSPropertyOp40
 70
     1
102
RTVSPropertyOp41
 70
     1
102
RTVSPropertyOp42
 70
     1
102
RTVSPropertyOp43
 70
     1
102
RTVSPropertyOp44
 70
     1
102
RTVSPropertyOp45
 70
     1
102
RTVSPropertyOp46
 70
     1
102
RTVSPropertyOp47
 70
     1
102
RTVSPropertyOp48
 70
     1
102
RTVSPropertyOp49
 70
     1
102
RTVSPropertyOp50
 70
     1
102
RTVSPropertyOp51
 70
     0
102
RTVSPropertyOp52
 70
     0
102
RTVSPropertyOp53
 70
     1
102
RTVSPropertyOp54
 70
     1
102
RTVSPropertyOp55
 70
     1
102
RTVSPropertyOp56
 70
     1
102
RTVSPropertyOp57
 70
     1
102
RTVSPropertyOp58
 70
     1
102
RTVSPropertyOp59
 70
     1
102
RTVSPropertyOp60
 70
     1
102
RTVSPropertyOp61
 70
     1
102
RTVSPropertyOp62
 70
     1
  0
XRECORD
  5
7099
102
{ACAD_REACTORS
330
7098
102
}
330
7098
100
AcDbXrecord
280
     1
102
RTVSPost2010Prop28
280
     0
102
RTVSPost2010PropOp28
 70
     1
102
RTVSPost2010Prop29
280
     1
102
RTVSPost2010PropOp29
 70
     1
102
RTVSPost2010Prop30
280
     1
102
RTVSPost2010PropOp30
 70
     1
102
RTVSPost2010Prop31
280
     0
102
RTVSPost2010PropOp31
 70
     1
102
RTVSPost2010Prop32
280
     0
102
RTVSPost2010PropOp32
 70
     1
102
RTVSPost2010Prop33
280
     0
102
RTVSPost2010PropOp33
 70
     1
102
RTVSPost2010Prop34
280
     0
102
RTVSPost2010PropOp34
 70
     1
102
RTVSPost2010Prop35
280
     0
102
RTVSPost2010PropOp35
 70
     1
102
RTVSPost2010Prop36
280
     0
102
RTVSPost2010PropOp36
 70
     1
102
RTVSPost2010Prop37
 90
       50
102
RTVSPost2010PropOp37
 70
     1
102
RTVSPost2010Prop38
140
0.0
102
RTVSPost2010PropOp38
 70
     1
102
RTVSPost2010Prop39
140
1.0
102
RTVSPost2010PropOp39
 70
     1
102
RTVSPost2010Prop40
 90
        0
102
RTVSPost2010PropOp40
 70
     1
102
RTVSPost2010Prop41ColorIndex
 90
       18
102
RTVSPost2010Prop41ColorRGB
 90
        0
102
RTVSPost2010PropOp41
 70
     1
102
RTVSPost2010Prop42
 90
       50
102
RTVSPost2010PropOp42
 70
     1
102
RTVSPost2010Prop43
 90
        3
102
RTVSPost2010PropOp43
 70
     1
102
RTVSPost2010Prop44ColorIndex
 90
        5
102
RTVSPost2010Prop44ColorRGB
 90
      255
102
RTVSPost2010PropOp44
 70
     1
102
RTVSPost2010Prop45
280
     0
102
RTVSPost2010PropOp45
 70
     1
102
RTVSPost2010Prop46
 90
       50
102
RTVSPost2010PropOp46
 70
     1
102
RTVSPost2010Prop47
 90
       50
102
RTVSPost2010PropOp47
 70
     1
102
RTVSPost2010Prop48
 90
       50
102
RTVSPost2010PropOp48
 70
     1
102
RTVSPost2010Prop49
280
     0
102
RTVSPost2010PropOp49
 70
     1
102
RTVSPost2010Prop50
 90
       50
102
RTVSPost2010PropOp50
 70
     1
102
RTVSPost2010Prop51ColorIndex
 90
      256
102
RTVSPost2010Prop51ColorRGB
 90
-16777216
102
RTVSPost2010PropOp51
 70
     0
102
RTVSPost2010Prop52
140
1.0
102
RTVSPost2010PropOp52
 70
     0
102
RTVSPost2010Prop53
 90
        2
102
RTVSPost2010PropOp53
 70
     1
102
RTVSPost2010Prop54
  1
strokes_ogs.tif
102
RTVSPost2010PropOp54
 70
     1
102
RTVSPost2010Prop55
280
     0
102
RTVSPost2010PropOp55
 70
     1
102
RTVSPost2010Prop56
140
1.0
102
RTVSPost2010PropOp56
 70
     1
102
RTVSPost2010Prop57
140
1.0
102
RTVSPost2010PropOp57
 70
     1
102
RTVSPropertyOp0
 70
     1
102
RTVSPropertyOp1
 70
     1
102
RTVSPropertyOp2
 70
     1
102
RTVSPropertyOp3
 70
     1
102
RTVSPropertyOp4
 70
     1
102
RTVSPropertyOp5
 70
     1
102
RTVSPropertyOp6
 70
     1
102
RTVSPropertyOp7
 70
     1
102
RTVSPropertyOp8
 70
     1
102
RTVSPropertyOp9
 70
     1
102
RTVSPropertyOp10
 70
     1
102
RTVSPropertyOp11
 70
     1
102
RTVSPropertyOp12
 70
     1
102
RTVSPropertyOp13
 70
     1
102
RTVSPropertyOp14
 70
     1
102
RTVSPropertyOp15
 70
     1
102
RTVSPropertyOp16
 70
     1
102
RTVSPropertyOp17
 70
     1
102
RTVSPropertyOp18
 70
     1
102
RTVSPropertyOp19
 70
     1
102
RTVSPropertyOp20
 70
     1
102
RTVSPropertyOp21
 70
     1
102
RTVSPropertyOp22
 70
     1
102
RTVSPropertyOp23
 70
     1
102
RTVSPropertyOp24
 70
     1
102
RTVSPropertyOp25
 70
     1
102
RTVSPropertyOp26
 70
     1
102
RTVSPropertyOp27
 70
     1
102
RTVSPropertyOp28
 70
     1
102
RTVSPropertyOp29
 70
     1
102
RTVSPropertyOp30
 70
     1
102
RTVSPropertyOp31
 70
     1
102
RTVSPropertyOp32
 70
     1
102
RTVSPropertyOp33
 70
     1
102
RTVSPropertyOp34
 70
     1
102
RTVSPropertyOp35
 70
     1
102
RTVSPropertyOp36
 70
     1
102
RTVSPropertyOp37
 70
     1
102
RTVSPropertyOp38
 70
     1
102
RTVSPropertyOp39
 70
     1
102
RTVSPropertyOp40
 70
     1
102
RTVSPropertyOp41
 70
     1
102
RTVSPropertyOp42
 70
     1
102
RTVSPropertyOp43
 70
     1
102
RTVSPropertyOp44
 70
     1
102
RTVSPropertyOp45
 70
     1
102
RTVSPropertyOp46
 70
     1
102
RTVSPropertyOp47
 70
     1
102
RTVSPropertyOp48
 70
     1
102
RTVSPropertyOp49
 70
     1
102
RTVSPropertyOp50
 70
     1
102
RTVSPropertyOp51
 70
     0
102
RTVSPropertyOp52
 70
     0
102
RTVSPropertyOp53
 70
     1
102
RTVSPropertyOp54
 70
     1
102
RTVSPropertyOp55
 70
     1
102
RTVSPropertyOp56
 70
     1
102
RTVSPropertyOp57
 70
     1
102
RTVSPropertyOp58
 70
     1
102
RTVSPropertyOp59
 70
     1
102
RTVSPropertyOp60
 70
     1
102
RTVSPropertyOp61
 70
     1
102
RTVSPropertyOp62
 70
     1
  0
XRECORD
  5
709B
102
{ACAD_REACTORS
330
709A
102
}
330
709A
100
AcDbXrecord
280
     1
102
RTVSPost2010Prop28
280
     0
102
RTVSPost2010PropOp28
 70
     1
102
RTVSPost2010Prop29
280
     1
102
RTVSPost2010PropOp29
 70
     1
102
RTVSPost2010Prop30
280
     1
102
RTVSPost2010PropOp30
 70
     1
102
RTVSPost2010Prop31
280
     0
102
RTVSPost2010PropOp31
 70
     1
102
RTVSPost2010Prop32
280
     0
102
RTVSPost2010PropOp32
 70
     1
102
RTVSPost2010Prop33
280
     0
102
RTVSPost2010PropOp33
 70
     1
102
RTVSPost2010Prop34
280
     0
102
RTVSPost2010PropOp34
 70
     1
102
RTVSPost2010Prop35
280
     0
102
RTVSPost2010PropOp35
 70
     1
102
RTVSPost2010Prop36
280
     0
102
RTVSPost2010PropOp36
 70
     1
102
RTVSPost2010Prop37
 90
       50
102
RTVSPost2010PropOp37
 70
     1
102
RTVSPost2010Prop38
140
0.0
102
RTVSPost2010PropOp38
 70
     1
102
RTVSPost2010Prop39
140
1.0
102
RTVSPost2010PropOp39
 70
     1
102
RTVSPost2010Prop40
 90
        0
102
RTVSPost2010PropOp40
 70
     1
102
RTVSPost2010Prop41ColorIndex
 90
       18
102
RTVSPost2010Prop41ColorRGB
 90
        0
102
RTVSPost2010PropOp41
 70
     1
102
RTVSPost2010Prop42
 90
       50
102
RTVSPost2010PropOp42
 70
     1
102
RTVSPost2010Prop43
 90
        3
102
RTVSPost2010PropOp43
 70
     1
102
RTVSPost2010Prop44ColorIndex
 90
        5
102
RTVSPost2010Prop44ColorRGB
 90
      255
102
RTVSPost2010PropOp44
 70
     1
102
RTVSPost2010Prop45
280
     0
102
RTVSPost2010PropOp45
 70
     1
102
RTVSPost2010Prop46
 90
       50
102
RTVSPost2010PropOp46
 70
     1
102
RTVSPost2010Prop47
 90
       50
102
RTVSPost2010PropOp47
 70
     1
102
RTVSPost2010Prop48
 90
       50
102
RTVSPost2010PropOp48
 70
     1
102
RTVSPost2010Prop49
280
     0
102
RTVSPost2010PropOp49
 70
     1
102
RTVSPost2010Prop50
 90
       50
102
RTVSPost2010PropOp50
 70
     1
102
RTVSPost2010Prop51ColorIndex
 90
      256
102
RTVSPost2010Prop51ColorRGB
 90
-16777216
102
RTVSPost2010PropOp51
 70
     0
102
RTVSPost2010Prop52
140
1.0
102
RTVSPost2010PropOp52
 70
     0
102
RTVSPost2010Prop53
 90
        2
102
RTVSPost2010PropOp53
 70
     1
102
RTVSPost2010Prop54
  1
strokes_ogs.tif
102
RTVSPost2010PropOp54
 70
     1
102
RTVSPost2010Prop55
280
     0
102
RTVSPost2010PropOp55
 70
     1
102
RTVSPost2010Prop56
140
1.0
102
RTVSPost2010PropOp56
 70
     1
102
RTVSPost2010Prop57
140
1.0
102
RTVSPost2010PropOp57
 70
     1
102
RTVSPropertyOp0
 70
     1
102
RTVSPropertyOp1
 70
     1
102
RTVSPropertyOp2
 70
     1
102
RTVSPropertyOp3
 70
     1
102
RTVSPropertyOp4
 70
     1
102
RTVSPropertyOp5
 70
     1
102
RTVSPropertyOp6
 70
     1
102
RTVSPropertyOp7
 70
     1
102
RTVSPropertyOp8
 70
     1
102
RTVSPropertyOp9
 70
     1
102
RTVSPropertyOp10
 70
     1
102
RTVSPropertyOp11
 70
     1
102
RTVSPropertyOp12
 70
     1
102
RTVSPropertyOp13
 70
     1
102
RTVSPropertyOp14
 70
     1
102
RTVSPropertyOp15
 70
     1
102
RTVSPropertyOp16
 70
     1
102
RTVSPropertyOp17
 70
     1
102
RTVSPropertyOp18
 70
     1
102
RTVSPropertyOp19
 70
     1
102
RTVSPropertyOp20
 70
     1
102
RTVSPropertyOp21
 70
     1
102
RTVSPropertyOp22
 70
     1
102
RTVSPropertyOp23
 70
     1
102
RTVSPropertyOp24
 70
     1
102
RTVSPropertyOp25
 70
     1
102
RTVSPropertyOp26
 70
     1
102
RTVSPropertyOp27
 70
     1
102
RTVSPropertyOp28
 70
     1
102
RTVSPropertyOp29
 70
     1
102
RTVSPropertyOp30
 70
     1
102
RTVSPropertyOp31
 70
     1
102
RTVSPropertyOp32
 70
     1
102
RTVSPropertyOp33
 70
     1
102
RTVSPropertyOp34
 70
     1
102
RTVSPropertyOp35
 70
     1
102
RTVSPropertyOp36
 70
     1
102
RTVSPropertyOp37
 70
     1
102
RTVSPropertyOp38
 70
     1
102
RTVSPropertyOp39
 70
     1
102
RTVSPropertyOp40
 70
     1
102
RTVSPropertyOp41
 70
     1
102
RTVSPropertyOp42
 70
     1
102
RTVSPropertyOp43
 70
     1
102
RTVSPropertyOp44
 70
     1
102
RTVSPropertyOp45
 70
     1
102
RTVSPropertyOp46
 70
     1
102
RTVSPropertyOp47
 70
     1
102
RTVSPropertyOp48
 70
     1
102
RTVSPropertyOp49
 70
     1
102
RTVSPropertyOp50
 70
     1
102
RTVSPropertyOp51
 70
     0
102
RTVSPropertyOp52
 70
     0
102
RTVSPropertyOp53
 70
     1
102
RTVSPropertyOp54
 70
     1
102
RTVSPropertyOp55
 70
     1
102
RTVSPropertyOp56
 70
     1
102
RTVSPropertyOp57
 70
     1
102
RTVSPropertyOp58
 70
     1
102
RTVSPropertyOp59
 70
     1
102
RTVSPropertyOp60
 70
     1
102
RTVSPropertyOp61
 70
     1
102
RTVSPropertyOp62
 70
     1
  0
XRECORD
  5
709D
102
{ACAD_REACTORS
330
709C
102
}
330
709C
100
AcDbXrecord
280
     1
102
RTVSPost2010Prop28
280
     0
102
RTVSPost2010PropOp28
 70
     1
102
RTVSPost2010Prop29
280
     1
102
RTVSPost2010PropOp29
 70
     1
102
RTVSPost2010Prop30
280
     1
102
RTVSPost2010PropOp30
 70
     1
102
RTVSPost2010Prop31
280
     0
102
RTVSPost2010PropOp31
 70
     1
102
RTVSPost2010Prop32
280
     0
102
RTVSPost2010PropOp32
 70
     1
102
RTVSPost2010Prop33
280
     0
102
RTVSPost2010PropOp33
 70
     1
102
RTVSPost2010Prop34
280
     0
102
RTVSPost2010PropOp34
 70
     1
102
RTVSPost2010Prop35
280
     0
102
RTVSPost2010PropOp35
 70
     1
102
RTVSPost2010Prop36
280
     0
102
RTVSPost2010PropOp36
 70
     1
102
RTVSPost2010Prop37
 90
       50
102
RTVSPost2010PropOp37
 70
     1
102
RTVSPost2010Prop38
140
0.0
102
RTVSPost2010PropOp38
 70
     1
102
RTVSPost2010Prop39
140
1.0
102
RTVSPost2010PropOp39
 70
     1
102
RTVSPost2010Prop40
 90
        0
102
RTVSPost2010PropOp40
 70
     1
102
RTVSPost2010Prop41ColorIndex
 90
       18
102
RTVSPost2010Prop41ColorRGB
 90
        0
102
RTVSPost2010PropOp41
 70
     1
102
RTVSPost2010Prop42
 90
       50
102
RTVSPost2010PropOp42
 70
     1
102
RTVSPost2010Prop43
 90
        3
102
RTVSPost2010PropOp43
 70
     1
102
RTVSPost2010Prop44ColorIndex
 90
        5
102
RTVSPost2010Prop44ColorRGB
 90
      255
102
RTVSPost2010PropOp44
 70
     1
102
RTVSPost2010Prop45
280
     0
102
RTVSPost2010PropOp45
 70
     1
102
RTVSPost2010Prop46
 90
       50
102
RTVSPost2010PropOp46
 70
     1
102
RTVSPost2010Prop47
 90
       50
102
RTVSPost2010PropOp47
 70
     1
102
RTVSPost2010Prop48
 90
       50
102
RTVSPost2010PropOp48
 70
     1
102
RTVSPost2010Prop49
280
     0
102
RTVSPost2010PropOp49
 70
     1
102
RTVSPost2010Prop50
 90
       50
102
RTVSPost2010PropOp50
 70
     1
102
RTVSPost2010Prop51ColorIndex
 90
      256
102
RTVSPost2010Prop51ColorRGB
 90
-16777216
102
RTVSPost2010PropOp51
 70
     0
102
RTVSPost2010Prop52
140
1.0
102
RTVSPost2010PropOp52
 70
     0
102
RTVSPost2010Prop53
 90
        2
102
RTVSPost2010PropOp53
 70
     1
102
RTVSPost2010Prop54
  1
strokes_ogs.tif
102
RTVSPost2010PropOp54
 70
     1
102
RTVSPost2010Prop55
280
     0
102
RTVSPost2010PropOp55
 70
     1
102
RTVSPost2010Prop56
140
1.0
102
RTVSPost2010PropOp56
 70
     1
102
RTVSPost2010Prop57
140
1.0
102
RTVSPost2010PropOp57
 70
     1
102
RTVSPropertyOp0
 70
     1
102
RTVSPropertyOp1
 70
     1
102
RTVSPropertyOp2
 70
     1
102
RTVSPropertyOp3
 70
     1
102
RTVSPropertyOp4
 70
     1
102
RTVSPropertyOp5
 70
     1
102
RTVSPropertyOp6
 70
     1
102
RTVSPropertyOp7
 70
     1
102
RTVSPropertyOp8
 70
     1
102
RTVSPropertyOp9
 70
     1
102
RTVSPropertyOp10
 70
     1
102
RTVSPropertyOp11
 70
     1
102
RTVSPropertyOp12
 70
     1
102
RTVSPropertyOp13
 70
     1
102
RTVSPropertyOp14
 70
     1
102
RTVSPropertyOp15
 70
     1
102
RTVSPropertyOp16
 70
     1
102
RTVSPropertyOp17
 70
     1
102
RTVSPropertyOp18
 70
     1
102
RTVSPropertyOp19
 70
     1
102
RTVSPropertyOp20
 70
     1
102
RTVSPropertyOp21
 70
     1
102
RTVSPropertyOp22
 70
     1
102
RTVSPropertyOp23
 70
     1
102
RTVSPropertyOp24
 70
     1
102
RTVSPropertyOp25
 70
     1
102
RTVSPropertyOp26
 70
     1
102
RTVSPropertyOp27
 70
     1
102
RTVSPropertyOp28
 70
     1
102
RTVSPropertyOp29
 70
     1
102
RTVSPropertyOp30
 70
     1
102
RTVSPropertyOp31
 70
     1
102
RTVSPropertyOp32
 70
     1
102
RTVSPropertyOp33
 70
     1
102
RTVSPropertyOp34
 70
     1
102
RTVSPropertyOp35
 70
     1
102
RTVSPropertyOp36
 70
     1
102
RTVSPropertyOp37
 70
     1
102
RTVSPropertyOp38
 70
     1
102
RTVSPropertyOp39
 70
     1
102
RTVSPropertyOp40
 70
     1
102
RTVSPropertyOp41
 70
     1
102
RTVSPropertyOp42
 70
     1
102
RTVSPropertyOp43
 70
     1
102
RTVSPropertyOp44
 70
     1
102
RTVSPropertyOp45
 70
     1
102
RTVSPropertyOp46
 70
     1
102
RTVSPropertyOp47
 70
     1
102
RTVSPropertyOp48
 70
     1
102
RTVSPropertyOp49
 70
     1
102
RTVSPropertyOp50
 70
     1
102
RTVSPropertyOp51
 70
     0
102
RTVSPropertyOp52
 70
     0
102
RTVSPropertyOp53
 70
     1
102
RTVSPropertyOp54
 70
     1
102
RTVSPropertyOp55
 70
     1
102
RTVSPropertyOp56
 70
     1
102
RTVSPropertyOp57
 70
     1
102
RTVSPropertyOp58
 70
     1
102
RTVSPropertyOp59
 70
     1
102
RTVSPropertyOp60
 70
     1
102
RTVSPropertyOp61
 70
     1
102
RTVSPropertyOp62
 70
     1
  0
XRECORD
  5
709F
102
{ACAD_REACTORS
330
709E
102
}
330
709E
100
AcDbXrecord
280
     1
102
RTVSPost2010Prop28
280
     0
102
RTVSPost2010PropOp28
 70
     1
102
RTVSPost2010Prop29
280
     1
102
RTVSPost2010PropOp29
 70
     1
102
RTVSPost2010Prop30
280
     1
102
RTVSPost2010PropOp30
 70
     1
102
RTVSPost2010Prop31
280
     0
102
RTVSPost2010PropOp31
 70
     1
102
RTVSPost2010Prop32
280
     0
102
RTVSPost2010PropOp32
 70
     1
102
RTVSPost2010Prop33
280
     0
102
RTVSPost2010PropOp33
 70
     1
102
RTVSPost2010Prop34
280
     0
102
RTVSPost2010PropOp34
 70
     1
102
RTVSPost2010Prop35
280
     0
102
RTVSPost2010PropOp35
 70
     1
102
RTVSPost2010Prop36
280
     0
102
RTVSPost2010PropOp36
 70
     1
102
RTVSPost2010Prop37
 90
       50
102
RTVSPost2010PropOp37
 70
     1
102
RTVSPost2010Prop38
140
0.0
102
RTVSPost2010PropOp38
 70
     1
102
RTVSPost2010Prop39
140
1.0
102
RTVSPost2010PropOp39
 70
     1
102
RTVSPost2010Prop40
 90
        0
102
RTVSPost2010PropOp40
 70
     1
102
RTVSPost2010Prop41ColorIndex
 90
       18
102
RTVSPost2010Prop41ColorRGB
 90
        0
102
RTVSPost2010PropOp41
 70
     1
102
RTVSPost2010Prop42
 90
       50
102
RTVSPost2010PropOp42
 70
     1
102
RTVSPost2010Prop43
 90
        3
102
RTVSPost2010PropOp43
 70
     1
102
RTVSPost2010Prop44ColorIndex
 90
        5
102
RTVSPost2010Prop44ColorRGB
 90
      255
102
RTVSPost2010PropOp44
 70
     1
102
RTVSPost2010Prop45
280
     0
102
RTVSPost2010PropOp45
 70
     1
102
RTVSPost2010Prop46
 90
       50
102
RTVSPost2010PropOp46
 70
     1
102
RTVSPost2010Prop47
 90
       50
102
RTVSPost2010PropOp47
 70
     1
102
RTVSPost2010Prop48
 90
       50
102
RTVSPost2010PropOp48
 70
     1
102
RTVSPost2010Prop49
280
     0
102
RTVSPost2010PropOp49
 70
     1
102
RTVSPost2010Prop50
 90
       50
102
RTVSPost2010PropOp50
 70
     1
102
RTVSPost2010Prop51ColorIndex
 90
      256
102
RTVSPost2010Prop51ColorRGB
 90
-16777216
102
RTVSPost2010PropOp51
 70
     0
102
RTVSPost2010Prop52
140
1.0
102
RTVSPost2010PropOp52
 70
     0
102
RTVSPost2010Prop53
 90
        2
102
RTVSPost2010PropOp53
 70
     1
102
RTVSPost2010Prop54
  1
strokes_ogs.tif
102
RTVSPost2010PropOp54
 70
     1
102
RTVSPost2010Prop55
280
     0
102
RTVSPost2010PropOp55
 70
     1
102
RTVSPost2010Prop56
140
1.0
102
RTVSPost2010PropOp56
 70
     1
102
RTVSPost2010Prop57
140
1.0
102
RTVSPost2010PropOp57
 70
     1
102
RTVSPropertyOp0
 70
     1
102
RTVSPropertyOp1
 70
     1
102
RTVSPropertyOp2
 70
     1
102
RTVSPropertyOp3
 70
     1
102
RTVSPropertyOp4
 70
     1
102
RTVSPropertyOp5
 70
     1
102
RTVSPropertyOp6
 70
     1
102
RTVSPropertyOp7
 70
     1
102
RTVSPropertyOp8
 70
     1
102
RTVSPropertyOp9
 70
     1
102
RTVSPropertyOp10
 70
     1
102
RTVSPropertyOp11
 70
     1
102
RTVSPropertyOp12
 70
     1
102
RTVSPropertyOp13
 70
     1
102
RTVSPropertyOp14
 70
     1
102
RTVSPropertyOp15
 70
     1
102
RTVSPropertyOp16
 70
     1
102
RTVSPropertyOp17
 70
     1
102
RTVSPropertyOp18
 70
     1
102
RTVSPropertyOp19
 70
     1
102
RTVSPropertyOp20
 70
     1
102
RTVSPropertyOp21
 70
     1
102
RTVSPropertyOp22
 70
     1
102
RTVSPropertyOp23
 70
     1
102
RTVSPropertyOp24
 70
     1
102
RTVSPropertyOp25
 70
     1
102
RTVSPropertyOp26
 70
     1
102
RTVSPropertyOp27
 70
     1
102
RTVSPropertyOp28
 70
     1
102
RTVSPropertyOp29
 70
     1
102
RTVSPropertyOp30
 70
     1
102
RTVSPropertyOp31
 70
     1
102
RTVSPropertyOp32
 70
     1
102
RTVSPropertyOp33
 70
     1
102
RTVSPropertyOp34
 70
     1
102
RTVSPropertyOp35
 70
     1
102
RTVSPropertyOp36
 70
     1
102
RTVSPropertyOp37
 70
     1
102
RTVSPropertyOp38
 70
     1
102
RTVSPropertyOp39
 70
     1
102
RTVSPropertyOp40
 70
     1
102
RTVSPropertyOp41
 70
     1
102
RTVSPropertyOp42
 70
     1
102
RTVSPropertyOp43
 70
     1
102
RTVSPropertyOp44
 70
     1
102
RTVSPropertyOp45
 70
     1
102
RTVSPropertyOp46
 70
     1
102
RTVSPropertyOp47
 70
     1
102
RTVSPropertyOp48
 70
     1
102
RTVSPropertyOp49
 70
     1
102
RTVSPropertyOp50
 70
     1
102
RTVSPropertyOp51
 70
     0
102
RTVSPropertyOp52
 70
     0
102
RTVSPropertyOp53
 70
     1
102
RTVSPropertyOp54
 70
     1
102
RTVSPropertyOp55
 70
     1
102
RTVSPropertyOp56
 70
     1
102
RTVSPropertyOp57
 70
     1
102
RTVSPropertyOp58
 70
     1
102
RTVSPropertyOp59
 70
     1
102
RTVSPropertyOp60
 70
     1
102
RTVSPropertyOp61
 70
     1
102
RTVSPropertyOp62
 70
     1
  0
XRECORD
  5
70A7
102
{ACAD_REACTORS
330
70A6
102
}
330
70A6
100
AcDbXrecord
280
     1
102
RTVSPost2010Prop28
280
     0
102
RTVSPost2010PropOp28
 70
     1
102
RTVSPost2010Prop29
280
     1
102
RTVSPost2010PropOp29
 70
     1
102
RTVSPost2010Prop30
280
     1
102
RTVSPost2010PropOp30
 70
     1
102
RTVSPost2010Prop31
280
     0
102
RTVSPost2010PropOp31
 70
     1
102
RTVSPost2010Prop32
280
     0
102
RTVSPost2010PropOp32
 70
     1
102
RTVSPost2010Prop33
280
     0
102
RTVSPost2010PropOp33
 70
     1
102
RTVSPost2010Prop34
280
     0
102
RTVSPost2010PropOp34
 70
     1
102
RTVSPost2010Prop35
280
     0
102
RTVSPost2010PropOp35
 70
     1
102
RTVSPost2010Prop36
280
     0
102
RTVSPost2010PropOp36
 70
     1
102
RTVSPost2010Prop37
 90
       50
102
RTVSPost2010PropOp37
 70
     1
102
RTVSPost2010Prop38
140
0.0
102
RTVSPost2010PropOp38
 70
     1
102
RTVSPost2010Prop39
140
1.0
102
RTVSPost2010PropOp39
 70
     1
102
RTVSPost2010Prop40
 90
        0
102
RTVSPost2010PropOp40
 70
     1
102
RTVSPost2010Prop41ColorIndex
 90
       18
102
RTVSPost2010Prop41ColorRGB
 90
        0
102
RTVSPost2010PropOp41
 70
     1
102
RTVSPost2010Prop42
 90
       50
102
RTVSPost2010PropOp42
 70
     1
102
RTVSPost2010Prop43
 90
        3
102
RTVSPost2010PropOp43
 70
     1
102
RTVSPost2010Prop44ColorIndex
 90
        5
102
RTVSPost2010Prop44ColorRGB
 90
      255
102
RTVSPost2010PropOp44
 70
     1
102
RTVSPost2010Prop45
280
     0
102
RTVSPost2010PropOp45
 70
     1
102
RTVSPost2010Prop46
 90
       50
102
RTVSPost2010PropOp46
 70
     1
102
RTVSPost2010Prop47
 90
       50
102
RTVSPost2010PropOp47
 70
     1
102
RTVSPost2010Prop48
 90
       50
102
RTVSPost2010PropOp48
 70
     1
102
RTVSPost2010Prop49
280
     0
102
RTVSPost2010PropOp49
 70
     1
102
RTVSPost2010Prop50
 90
       50
102
RTVSPost2010PropOp50
 70
     1
102
RTVSPost2010Prop51ColorIndex
 90
      256
102
RTVSPost2010Prop51ColorRGB
 90
-16777216
102
RTVSPost2010PropOp51
 70
     0
102
RTVSPost2010Prop52
140
1.0
102
RTVSPost2010PropOp52
 70
     0
102
RTVSPost2010Prop53
 90
        2
102
RTVSPost2010PropOp53
 70
     1
102
RTVSPost2010Prop54
  1
strokes_ogs.tif
102
RTVSPost2010PropOp54
 70
     1
102
RTVSPost2010Prop55
280
     0
102
RTVSPost2010PropOp55
 70
     1
102
RTVSPost2010Prop56
140
1.0
102
RTVSPost2010PropOp56
 70
     1
102
RTVSPost2010Prop57
140
1.0
102
RTVSPost2010PropOp57
 70
     1
102
RTVSPropertyOp0
 70
     1
102
RTVSPropertyOp1
 70
     1
102
RTVSPropertyOp2
 70
     1
102
RTVSPropertyOp3
 70
     1
102
RTVSPropertyOp4
 70
     1
102
RTVSPropertyOp5
 70
     1
102
RTVSPropertyOp6
 70
     1
102
RTVSPropertyOp7
 70
     1
102
RTVSPropertyOp8
 70
     1
102
RTVSPropertyOp9
 70
     1
102
RTVSPropertyOp10
 70
     1
102
RTVSPropertyOp11
 70
     1
102
RTVSPropertyOp12
 70
     1
102
RTVSPropertyOp13
 70
     1
102
RTVSPropertyOp14
 70
     1
102
RTVSPropertyOp15
 70
     1
102
RTVSPropertyOp16
 70
     1
102
RTVSPropertyOp17
 70
     1
102
RTVSPropertyOp18
 70
     1
102
RTVSPropertyOp19
 70
     1
102
RTVSPropertyOp20
 70
     1
102
RTVSPropertyOp21
 70
     1
102
RTVSPropertyOp22
 70
     1
102
RTVSPropertyOp23
 70
     1
102
RTVSPropertyOp24
 70
     1
102
RTVSPropertyOp25
 70
     1
102
RTVSPropertyOp26
 70
     1
102
RTVSPropertyOp27
 70
     1
102
RTVSPropertyOp28
 70
     1
102
RTVSPropertyOp29
 70
     1
102
RTVSPropertyOp30
 70
     1
102
RTVSPropertyOp31
 70
     1
102
RTVSPropertyOp32
 70
     1
102
RTVSPropertyOp33
 70
     1
102
RTVSPropertyOp34
 70
     1
102
RTVSPropertyOp35
 70
     1
102
RTVSPropertyOp36
 70
     1
102
RTVSPropertyOp37
 70
     1
102
RTVSPropertyOp38
 70
     1
102
RTVSPropertyOp39
 70
     1
102
RTVSPropertyOp40
 70
     1
102
RTVSPropertyOp41
 70
     1
102
RTVSPropertyOp42
 70
     1
102
RTVSPropertyOp43
 70
     1
102
RTVSPropertyOp44
 70
     1
102
RTVSPropertyOp45
 70
     1
102
RTVSPropertyOp46
 70
     1
102
RTVSPropertyOp47
 70
     1
102
RTVSPropertyOp48
 70
     1
102
RTVSPropertyOp49
 70
     1
102
RTVSPropertyOp50
 70
     1
102
RTVSPropertyOp51
 70
     0
102
RTVSPropertyOp52
 70
     0
102
RTVSPropertyOp53
 70
     1
102
RTVSPropertyOp54
 70
     1
102
RTVSPropertyOp55
 70
     1
102
RTVSPropertyOp56
 70
     1
102
RTVSPropertyOp57
 70
     1
102
RTVSPropertyOp58
 70
     1
102
RTVSPropertyOp59
 70
     1
102
RTVSPropertyOp60
 70
     1
102
RTVSPropertyOp61
 70
     1
102
RTVSPropertyOp62
 70
     1
  0
XRECORD
  5
70BB
102
{ACAD_REACTORS
330
70BA
102
}
330
70BA
100
AcDbXrecord
280
     1
102
RTVSPost2010Prop28
280
     0
102
RTVSPost2010PropOp28
 70
     1
102
RTVSPost2010Prop29
280
     1
102
RTVSPost2010PropOp29
 70
     1
102
RTVSPost2010Prop30
280
     1
102
RTVSPost2010PropOp30
 70
     1
102
RTVSPost2010Prop31
280
     0
102
RTVSPost2010PropOp31
 70
     1
102
RTVSPost2010Prop32
280
     0
102
RTVSPost2010PropOp32
 70
     1
102
RTVSPost2010Prop33
280
     0
102
RTVSPost2010PropOp33
 70
     1
102
RTVSPost2010Prop34
280
     0
102
RTVSPost2010PropOp34
 70
     1
102
RTVSPost2010Prop35
280
     0
102
RTVSPost2010PropOp35
 70
     1
102
RTVSPost2010Prop36
280
     0
102
RTVSPost2010PropOp36
 70
     1
102
RTVSPost2010Prop37
 90
       50
102
RTVSPost2010PropOp37
 70
     1
102
RTVSPost2010Prop38
140
0.0
102
RTVSPost2010PropOp38
 70
     1
102
RTVSPost2010Prop39
140
1.0
102
RTVSPost2010PropOp39
 70
     1
102
RTVSPost2010Prop40
 90
        0
102
RTVSPost2010PropOp40
 70
     1
102
RTVSPost2010Prop41ColorIndex
 90
       18
102
RTVSPost2010Prop41ColorRGB
 90
        0
102
RTVSPost2010PropOp41
 70
     1
102
RTVSPost2010Prop42
 90
       50
102
RTVSPost2010PropOp42
 70
     1
102
RTVSPost2010Prop43
 90
        3
102
RTVSPost2010PropOp43
 70
     1
102
RTVSPost2010Prop44ColorIndex
 90
        5
102
RTVSPost2010Prop44ColorRGB
 90
      255
102
RTVSPost2010PropOp44
 70
     1
102
RTVSPost2010Prop45
280
     0
102
RTVSPost2010PropOp45
 70
     1
102
RTVSPost2010Prop46
 90
       50
102
RTVSPost2010PropOp46
 70
     1
102
RTVSPost2010Prop47
 90
       50
102
RTVSPost2010PropOp47
 70
     1
102
RTVSPost2010Prop48
 90
       50
102
RTVSPost2010PropOp48
 70
     1
102
RTVSPost2010Prop49
280
     0
102
RTVSPost2010PropOp49
 70
     1
102
RTVSPost2010Prop50
 90
       50
102
RTVSPost2010PropOp50
 70
     1
102
RTVSPost2010Prop51ColorIndex
 90
      256
102
RTVSPost2010Prop51ColorRGB
 90
-16777216
102
RTVSPost2010PropOp51
 70
     0
102
RTVSPost2010Prop52
140
1.0
102
RTVSPost2010PropOp52
 70
     0
102
RTVSPost2010Prop53
 90
        2
102
RTVSPost2010PropOp53
 70
     1
102
RTVSPost2010Prop54
  1
strokes_ogs.tif
102
RTVSPost2010PropOp54
 70
     1
102
RTVSPost2010Prop55
280
     0
102
RTVSPost2010PropOp55
 70
     1
102
RTVSPost2010Prop56
140
1.0
102
RTVSPost2010PropOp56
 70
     1
102
RTVSPost2010Prop57
140
1.0
102
RTVSPost2010PropOp57
 70
     1
102
RTVSPropertyOp0
 70
     0
102
RTVSPropertyOp1
 70
     0
102
RTVSPropertyOp2
 70
     0
102
RTVSPropertyOp3
 70
     0
102
RTVSPropertyOp4
 70
     0
102
RTVSPropertyOp5
 70
     0
102
RTVSPropertyOp6
 70
     0
102
RTVSPropertyOp7
 70
     0
102
RTVSPropertyOp8
 70
     0
102
RTVSPropertyOp9
 70
     0
102
RTVSPropertyOp10
 70
     0
102
RTVSPropertyOp11
 70
     0
102
RTVSPropertyOp12
 70
     0
102
RTVSPropertyOp13
 70
     0
102
RTVSPropertyOp14
 70
     2
102
RTVSPropertyOp15
 70
     0
102
RTVSPropertyOp16
 70
     0
102
RTVSPropertyOp17
 70
     0
102
RTVSPropertyOp18
 70
     0
102
RTVSPropertyOp19
 70
     0
102
RTVSPropertyOp20
 70
     0
102
RTVSPropertyOp21
 70
     0
102
RTVSPropertyOp22
 70
     0
102
RTVSPropertyOp23
 70
     0
102
RTVSPropertyOp24
 70
     0
102
RTVSPropertyOp25
 70
     0
102
RTVSPropertyOp26
 70
     0
102
RTVSPropertyOp27
 70
     0
102
RTVSPropertyOp28
 70
     1
102
RTVSPropertyOp29
 70
     1
102
RTVSPropertyOp30
 70
     1
102
RTVSPropertyOp31
 70
     1
102
RTVSPropertyOp32
 70
     1
102
RTVSPropertyOp33
 70
     1
102
RTVSPropertyOp34
 70
     1
102
RTVSPropertyOp35
 70
     1
102
RTVSPropertyOp36
 70
     1
102
RTVSPropertyOp37
 70
     1
102
RTVSPropertyOp38
 70
     1
102
RTVSPropertyOp39
 70
     1
102
RTVSPropertyOp40
 70
     1
102
RTVSPropertyOp41
 70
     1
102
RTVSPropertyOp42
 70
     1
102
RTVSPropertyOp43
 70
     1
102
RTVSPropertyOp44
 70
     1
102
RTVSPropertyOp45
 70
     1
102
RTVSPropertyOp46
 70
     1
102
RTVSPropertyOp47
 70
     1
102
RTVSPropertyOp48
 70
     1
102
RTVSPropertyOp49
 70
     1
102
RTVSPropertyOp50
 70
     1
102
RTVSPropertyOp51
 70
     0
102
RTVSPropertyOp52
 70
     0
102
RTVSPropertyOp53
 70
     1
102
RTVSPropertyOp54
 70
     1
102
RTVSPropertyOp55
 70
     1
102
RTVSPropertyOp56
 70
     1
102
RTVSPropertyOp57
 70
     1
102
RTVSPropertyOp58
 70
     1
102
RTVSPropertyOp59
 70
     1
102
RTVSPropertyOp60
 70
     1
102
RTVSPropertyOp61
 70
     1
102
RTVSPropertyOp62
 70
     1
  0
XRECORD
  5
70B3
102
{ACAD_REACTORS
330
70B2
102
}
330
70B2
100
AcDbXrecord
280
     1
102
RTVSPost2010Prop28
280
     0
102
RTVSPost2010PropOp28
 70
     1
102
RTVSPost2010Prop29
280
     1
102
RTVSPost2010PropOp29
 70
     1
102
RTVSPost2010Prop30
280
     1
102
RTVSPost2010PropOp30
 70
     1
102
RTVSPost2010Prop31
280
     0
102
RTVSPost2010PropOp31
 70
     1
102
RTVSPost2010Prop32
280
     0
102
RTVSPost2010PropOp32
 70
     1
102
RTVSPost2010Prop33
280
     0
102
RTVSPost2010PropOp33
 70
     1
102
RTVSPost2010Prop34
280
     0
102
RTVSPost2010PropOp34
 70
     1
102
RTVSPost2010Prop35
280
     0
102
RTVSPost2010PropOp35
 70
     1
102
RTVSPost2010Prop36
280
     0
102
RTVSPost2010PropOp36
 70
     1
102
RTVSPost2010Prop37
 90
       50
102
RTVSPost2010PropOp37
 70
     1
102
RTVSPost2010Prop38
140
0.0
102
RTVSPost2010PropOp38
 70
     1
102
RTVSPost2010Prop39
140
1.0
102
RTVSPost2010PropOp39
 70
     1
102
RTVSPost2010Prop40
 90
        0
102
RTVSPost2010PropOp40
 70
     1
102
RTVSPost2010Prop41ColorIndex
 90
       18
102
RTVSPost2010Prop41ColorRGB
 90
        0
102
RTVSPost2010PropOp41
 70
     1
102
RTVSPost2010Prop42
 90
       50
102
RTVSPost2010PropOp42
 70
     1
102
RTVSPost2010Prop43
 90
        3
102
RTVSPost2010PropOp43
 70
     1
102
RTVSPost2010Prop44ColorIndex
 90
        5
102
RTVSPost2010Prop44ColorRGB
 90
      255
102
RTVSPost2010PropOp44
 70
     1
102
RTVSPost2010Prop45
280
     0
102
RTVSPost2010PropOp45
 70
     1
102
RTVSPost2010Prop46
 90
       50
102
RTVSPost2010PropOp46
 70
     1
102
RTVSPost2010Prop47
 90
       50
102
RTVSPost2010PropOp47
 70
     1
102
RTVSPost2010Prop48
 90
       50
102
RTVSPost2010PropOp48
 70
     1
102
RTVSPost2010Prop49
280
     0
102
RTVSPost2010PropOp49
 70
     1
102
RTVSPost2010Prop50
 90
       50
102
RTVSPost2010PropOp50
 70
     1
102
RTVSPost2010Prop51ColorIndex
 90
      256
102
RTVSPost2010Prop51ColorRGB
 90
-16777216
102
RTVSPost2010PropOp51
 70
     0
102
RTVSPost2010Prop52
140
1.0
102
RTVSPost2010PropOp52
 70
     0
102
RTVSPost2010Prop53
 90
        2
102
RTVSPost2010PropOp53
 70
     1
102
RTVSPost2010Prop54
  1
strokes_ogs.tif
102
RTVSPost2010PropOp54
 70
     1
102
RTVSPost2010Prop55
280
     0
102
RTVSPost2010PropOp55
 70
     1
102
RTVSPost2010Prop56
140
1.0
102
RTVSPost2010PropOp56
 70
     1
102
RTVSPost2010Prop57
140
1.0
102
RTVSPost2010PropOp57
 70
     1
102
RTVSPropertyOp0
 70
     1
102
RTVSPropertyOp1
 70
     1
102
RTVSPropertyOp2
 70
     1
102
RTVSPropertyOp3
 70
     1
102
RTVSPropertyOp4
 70
     1
102
RTVSPropertyOp5
 70
     1
102
RTVSPropertyOp6
 70
     1
102
RTVSPropertyOp7
 70
     1
102
RTVSPropertyOp8
 70
     1
102
RTVSPropertyOp9
 70
     1
102
RTVSPropertyOp10
 70
     1
102
RTVSPropertyOp11
 70
     1
102
RTVSPropertyOp12
 70
     1
102
RTVSPropertyOp13
 70
     1
102
RTVSPropertyOp14
 70
     1
102
RTVSPropertyOp15
 70
     1
102
RTVSPropertyOp16
 70
     1
102
RTVSPropertyOp17
 70
     1
102
RTVSPropertyOp18
 70
     1
102
RTVSPropertyOp19
 70
     1
102
RTVSPropertyOp20
 70
     1
102
RTVSPropertyOp21
 70
     1
102
RTVSPropertyOp22
 70
     1
102
RTVSPropertyOp23
 70
     1
102
RTVSPropertyOp24
 70
     1
102
RTVSPropertyOp25
 70
     1
102
RTVSPropertyOp26
 70
     1
102
RTVSPropertyOp27
 70
     1
102
RTVSPropertyOp28
 70
     1
102
RTVSPropertyOp29
 70
     1
102
RTVSPropertyOp30
 70
     1
102
RTVSPropertyOp31
 70
     1
102
RTVSPropertyOp32
 70
     1
102
RTVSPropertyOp33
 70
     1
102
RTVSPropertyOp34
 70
     1
102
RTVSPropertyOp35
 70
     1
102
RTVSPropertyOp36
 70
     1
102
RTVSPropertyOp37
 70
     1
102
RTVSPropertyOp38
 70
     1
102
RTVSPropertyOp39
 70
     1
102
RTVSPropertyOp40
 70
     1
102
RTVSPropertyOp41
 70
     1
102
RTVSPropertyOp42
 70
     1
102
RTVSPropertyOp43
 70
     1
102
RTVSPropertyOp44
 70
     1
102
RTVSPropertyOp45
 70
     1
102
RTVSPropertyOp46
 70
     1
102
RTVSPropertyOp47
 70
     1
102
RTVSPropertyOp48
 70
     1
102
RTVSPropertyOp49
 70
     1
102
RTVSPropertyOp50
 70
     1
102
RTVSPropertyOp51
 70
     0
102
RTVSPropertyOp52
 70
     0
102
RTVSPropertyOp53
 70
     1
102
RTVSPropertyOp54
 70
     1
102
RTVSPropertyOp55
 70
     1
102
RTVSPropertyOp56
 70
     1
102
RTVSPropertyOp57
 70
     1
102
RTVSPropertyOp58
 70
     1
102
RTVSPropertyOp59
 70
     1
102
RTVSPropertyOp60
 70
     1
102
RTVSPropertyOp61
 70
     1
102
RTVSPropertyOp62
 70
     1
  0
XRECORD
  5
70BD
102
{ACAD_REACTORS
330
70BC
102
}
330
70BC
100
AcDbXrecord
280
     1
102
RTVSPost2010Prop28
280
     0
102
RTVSPost2010PropOp28
 70
     1
102
RTVSPost2010Prop29
280
     1
102
RTVSPost2010PropOp29
 70
     1
102
RTVSPost2010Prop30
280
     1
102
RTVSPost2010PropOp30
 70
     1
102
RTVSPost2010Prop31
280
     0
102
RTVSPost2010PropOp31
 70
     1
102
RTVSPost2010Prop32
280
     0
102
RTVSPost2010PropOp32
 70
     1
102
RTVSPost2010Prop33
280
     0
102
RTVSPost2010PropOp33
 70
     1
102
RTVSPost2010Prop34
280
     0
102
RTVSPost2010PropOp34
 70
     1
102
RTVSPost2010Prop35
280
     0
102
RTVSPost2010PropOp35
 70
     1
102
RTVSPost2010Prop36
280
     0
102
RTVSPost2010PropOp36
 70
     1
102
RTVSPost2010Prop37
 90
       50
102
RTVSPost2010PropOp37
 70
     1
102
RTVSPost2010Prop38
140
0.0
102
RTVSPost2010PropOp38
 70
     1
102
RTVSPost2010Prop39
140
1.0
102
RTVSPost2010PropOp39
 70
     1
102
RTVSPost2010Prop40
 90
        0
102
RTVSPost2010PropOp40
 70
     1
102
RTVSPost2010Prop41ColorIndex
 90
       18
102
RTVSPost2010Prop41ColorRGB
 90
        0
102
RTVSPost2010PropOp41
 70
     1
102
RTVSPost2010Prop42
 90
       50
102
RTVSPost2010PropOp42
 70
     1
102
RTVSPost2010Prop43
 90
        3
102
RTVSPost2010PropOp43
 70
     1
102
RTVSPost2010Prop44ColorIndex
 90
        5
102
RTVSPost2010Prop44ColorRGB
 90
      255
102
RTVSPost2010PropOp44
 70
     1
102
RTVSPost2010Prop45
280
     0
102
RTVSPost2010PropOp45
 70
     1
102
RTVSPost2010Prop46
 90
       50
102
RTVSPost2010PropOp46
 70
     1
102
RTVSPost2010Prop47
 90
       50
102
RTVSPost2010PropOp47
 70
     1
102
RTVSPost2010Prop48
 90
       50
102
RTVSPost2010PropOp48
 70
     1
102
RTVSPost2010Prop49
280
     0
102
RTVSPost2010PropOp49
 70
     1
102
RTVSPost2010Prop50
 90
       50
102
RTVSPost2010PropOp50
 70
     1
102
RTVSPost2010Prop51ColorIndex
 90
      256
102
RTVSPost2010Prop51ColorRGB
 90
-16777216
102
RTVSPost2010PropOp51
 70
     0
102
RTVSPost2010Prop52
140
1.0
102
RTVSPost2010PropOp52
 70
     0
102
RTVSPost2010Prop53
 90
        2
102
RTVSPost2010PropOp53
 70
     1
102
RTVSPost2010Prop54
  1
strokes_ogs.tif
102
RTVSPost2010PropOp54
 70
     1
102
RTVSPost2010Prop55
280
     0
102
RTVSPost2010PropOp55
 70
     1
102
RTVSPost2010Prop56
140
1.0
102
RTVSPost2010PropOp56
 70
     1
102
RTVSPost2010Prop57
140
1.0
102
RTVSPost2010PropOp57
 70
     1
102
RTVSPropertyOp0
 70
     0
102
RTVSPropertyOp1
 70
     0
102
RTVSPropertyOp2
 70
     0
102
RTVSPropertyOp3
 70
     0
102
RTVSPropertyOp4
 70
     0
102
RTVSPropertyOp5
 70
     0
102
RTVSPropertyOp6
 70
     0
102
RTVSPropertyOp7
 70
     0
102
RTVSPropertyOp8
 70
     0
102
RTVSPropertyOp9
 70
     0
102
RTVSPropertyOp10
 70
     0
102
RTVSPropertyOp11
 70
     0
102
RTVSPropertyOp12
 70
     0
102
RTVSPropertyOp13
 70
     0
102
RTVSPropertyOp14
 70
     2
102
RTVSPropertyOp15
 70
     0
102
RTVSPropertyOp16
 70
     0
102
RTVSPropertyOp17
 70
     0
102
RTVSPropertyOp18
 70
     0
102
RTVSPropertyOp19
 70
     0
102
RTVSPropertyOp20
 70
     0
102
RTVSPropertyOp21
 70
     0
102
RTVSPropertyOp22
 70
     0
102
RTVSPropertyOp23
 70
     0
102
RTVSPropertyOp24
 70
     0
102
RTVSPropertyOp25
 70
     0
102
RTVSPropertyOp26
 70
     0
102
RTVSPropertyOp27
 70
     0
102
RTVSPropertyOp28
 70
     1
102
RTVSPropertyOp29
 70
     1
102
RTVSPropertyOp30
 70
     1
102
RTVSPropertyOp31
 70
     1
102
RTVSPropertyOp32
 70
     1
102
RTVSPropertyOp33
 70
     1
102
RTVSPropertyOp34
 70
     1
102
RTVSPropertyOp35
 70
     1
102
RTVSPropertyOp36
 70
     1
102
RTVSPropertyOp37
 70
     1
102
RTVSPropertyOp38
 70
     1
102
RTVSPropertyOp39
 70
     1
102
RTVSPropertyOp40
 70
     1
102
RTVSPropertyOp41
 70
     1
102
RTVSPropertyOp42
 70
     1
102
RTVSPropertyOp43
 70
     1
102
RTVSPropertyOp44
 70
     1
102
RTVSPropertyOp45
 70
     1
102
RTVSPropertyOp46
 70
     1
102
RTVSPropertyOp47
 70
     1
102
RTVSPropertyOp48
 70
     1
102
RTVSPropertyOp49
 70
     1
102
RTVSPropertyOp50
 70
     1
102
RTVSPropertyOp51
 70
     0
102
RTVSPropertyOp52
 70
     0
102
RTVSPropertyOp53
 70
     1
102
RTVSPropertyOp54
 70
     1
102
RTVSPropertyOp55
 70
     1
102
RTVSPropertyOp56
 70
     1
102
RTVSPropertyOp57
 70
     1
102
RTVSPropertyOp58
 70
     1
102
RTVSPropertyOp59
 70
     1
102
RTVSPropertyOp60
 70
     1
102
RTVSPropertyOp61
 70
     1
102
RTVSPropertyOp62
 70
     1
  0
XRECORD
  5
70AB
102
{ACAD_REACTORS
330
70AA
102
}
330
70AA
100
AcDbXrecord
280
     1
102
RTVSPost2010Prop28
280
     0
102
RTVSPost2010PropOp28
 70
     1
102
RTVSPost2010Prop29
280
     1
102
RTVSPost2010PropOp29
 70
     1
102
RTVSPost2010Prop30
280
     1
102
RTVSPost2010PropOp30
 70
     1
102
RTVSPost2010Prop31
280
     0
102
RTVSPost2010PropOp31
 70
     1
102
RTVSPost2010Prop32
280
     0
102
RTVSPost2010PropOp32
 70
     1
102
RTVSPost2010Prop33
280
     0
102
RTVSPost2010PropOp33
 70
     1
102
RTVSPost2010Prop34
280
     0
102
RTVSPost2010PropOp34
 70
     1
102
RTVSPost2010Prop35
280
     0
102
RTVSPost2010PropOp35
 70
     1
102
RTVSPost2010Prop36
280
     0
102
RTVSPost2010PropOp36
 70
     1
102
RTVSPost2010Prop37
 90
       50
102
RTVSPost2010PropOp37
 70
     1
102
RTVSPost2010Prop38
140
0.0
102
RTVSPost2010PropOp38
 70
     1
102
RTVSPost2010Prop39
140
1.0
102
RTVSPost2010PropOp39
 70
     1
102
RTVSPost2010Prop40
 90
        0
102
RTVSPost2010PropOp40
 70
     1
102
RTVSPost2010Prop41ColorIndex
 90
       18
102
RTVSPost2010Prop41ColorRGB
 90
        0
102
RTVSPost2010PropOp41
 70
     1
102
RTVSPost2010Prop42
 90
       50
102
RTVSPost2010PropOp42
 70
     1
102
RTVSPost2010Prop43
 90
        3
102
RTVSPost2010PropOp43
 70
     1
102
RTVSPost2010Prop44ColorIndex
 90
        5
102
RTVSPost2010Prop44ColorRGB
 90
      255
102
RTVSPost2010PropOp44
 70
     1
102
RTVSPost2010Prop45
280
     0
102
RTVSPost2010PropOp45
 70
     1
102
RTVSPost2010Prop46
 90
       50
102
RTVSPost2010PropOp46
 70
     1
102
RTVSPost2010Prop47
 90
       50
102
RTVSPost2010PropOp47
 70
     1
102
RTVSPost2010Prop48
 90
       50
102
RTVSPost2010PropOp48
 70
     1
102
RTVSPost2010Prop49
280
     0
102
RTVSPost2010PropOp49
 70
     1
102
RTVSPost2010Prop50
 90
       50
102
RTVSPost2010PropOp50
 70
     1
102
RTVSPost2010Prop51ColorIndex
 90
      256
102
RTVSPost2010Prop51ColorRGB
 90
-16777216
102
RTVSPost2010PropOp51
 70
     0
102
RTVSPost2010Prop52
140
1.0
102
RTVSPost2010PropOp52
 70
     0
102
RTVSPost2010Prop53
 90
        2
102
RTVSPost2010PropOp53
 70
     1
102
RTVSPost2010Prop54
  1
strokes_ogs.tif
102
RTVSPost2010PropOp54
 70
     1
102
RTVSPost2010Prop55
280
     0
102
RTVSPost2010PropOp55
 70
     1
102
RTVSPost2010Prop56
140
1.0
102
RTVSPost2010PropOp56
 70
     1
102
RTVSPost2010Prop57
140
1.0
102
RTVSPost2010PropOp57
 70
     1
102
RTVSPropertyOp0
 70
     1
102
RTVSPropertyOp1
 70
     1
102
RTVSPropertyOp2
 70
     1
102
RTVSPropertyOp3
 70
     1
102
RTVSPropertyOp4
 70
     1
102
RTVSPropertyOp5
 70
     1
102
RTVSPropertyOp6
 70
     1
102
RTVSPropertyOp7
 70
     1
102
RTVSPropertyOp8
 70
     1
102
RTVSPropertyOp9
 70
     1
102
RTVSPropertyOp10
 70
     1
102
RTVSPropertyOp11
 70
     1
102
RTVSPropertyOp12
 70
     1
102
RTVSPropertyOp13
 70
     1
102
RTVSPropertyOp14
 70
     1
102
RTVSPropertyOp15
 70
     1
102
RTVSPropertyOp16
 70
     1
102
RTVSPropertyOp17
 70
     1
102
RTVSPropertyOp18
 70
     1
102
RTVSPropertyOp19
 70
     1
102
RTVSPropertyOp20
 70
     1
102
RTVSPropertyOp21
 70
     1
102
RTVSPropertyOp22
 70
     1
102
RTVSPropertyOp23
 70
     1
102
RTVSPropertyOp24
 70
     1
102
RTVSPropertyOp25
 70
     1
102
RTVSPropertyOp26
 70
     1
102
RTVSPropertyOp27
 70
     1
102
RTVSPropertyOp28
 70
     1
102
RTVSPropertyOp29
 70
     1
102
RTVSPropertyOp30
 70
     1
102
RTVSPropertyOp31
 70
     1
102
RTVSPropertyOp32
 70
     1
102
RTVSPropertyOp33
 70
     1
102
RTVSPropertyOp34
 70
     1
102
RTVSPropertyOp35
 70
     1
102
RTVSPropertyOp36
 70
     1
102
RTVSPropertyOp37
 70
     1
102
RTVSPropertyOp38
 70
     1
102
RTVSPropertyOp39
 70
     1
102
RTVSPropertyOp40
 70
     1
102
RTVSPropertyOp41
 70
     1
102
RTVSPropertyOp42
 70
     1
102
RTVSPropertyOp43
 70
     1
102
RTVSPropertyOp44
 70
     1
102
RTVSPropertyOp45
 70
     1
102
RTVSPropertyOp46
 70
     1
102
RTVSPropertyOp47
 70
     1
102
RTVSPropertyOp48
 70
     1
102
RTVSPropertyOp49
 70
     1
102
RTVSPropertyOp50
 70
     1
102
RTVSPropertyOp51
 70
     0
102
RTVSPropertyOp52
 70
     0
102
RTVSPropertyOp53
 70
     1
102
RTVSPropertyOp54
 70
     1
102
RTVSPropertyOp55
 70
     1
102
RTVSPropertyOp56
 70
     1
102
RTVSPropertyOp57
 70
     1
102
RTVSPropertyOp58
 70
     1
102
RTVSPropertyOp59
 70
     1
102
RTVSPropertyOp60
 70
     1
102
RTVSPropertyOp61
 70
     1
102
RTVSPropertyOp62
 70
     1
  0
XRECORD
  5
70C9
102
{ACAD_REACTORS
330
70C8
102
}
330
70C8
100
AcDbXrecord
280
     1
102
RTVSPost2010Prop28
280
     0
102
RTVSPost2010PropOp28
 70
     1
102
RTVSPost2010Prop29
280
     1
102
RTVSPost2010PropOp29
 70
     1
102
RTVSPost2010Prop30
280
     1
102
RTVSPost2010PropOp30
 70
     1
102
RTVSPost2010Prop31
280
     0
102
RTVSPost2010PropOp31
 70
     1
102
RTVSPost2010Prop32
280
     0
102
RTVSPost2010PropOp32
 70
     1
102
RTVSPost2010Prop33
280
     0
102
RTVSPost2010PropOp33
 70
     1
102
RTVSPost2010Prop34
280
     0
102
RTVSPost2010PropOp34
 70
     1
102
RTVSPost2010Prop35
280
     0
102
RTVSPost2010PropOp35
 70
     1
102
RTVSPost2010Prop36
280
     0
102
RTVSPost2010PropOp36
 70
     1
102
RTVSPost2010Prop37
 90
       50
102
RTVSPost2010PropOp37
 70
     1
102
RTVSPost2010Prop38
140
0.0
102
RTVSPost2010PropOp38
 70
     1
102
RTVSPost2010Prop39
140
1.0
102
RTVSPost2010PropOp39
 70
     1
102
RTVSPost2010Prop40
 90
        0
102
RTVSPost2010PropOp40
 70
     1
102
RTVSPost2010Prop41ColorIndex
 90
       18
102
RTVSPost2010Prop41ColorRGB
 90
        0
102
RTVSPost2010PropOp41
 70
     1
102
RTVSPost2010Prop42
 90
       50
102
RTVSPost2010PropOp42
 70
     1
102
RTVSPost2010Prop43
 90
        3
102
RTVSPost2010PropOp43
 70
     1
102
RTVSPost2010Prop44ColorIndex
 90
        5
102
RTVSPost2010Prop44ColorRGB
 90
      255
102
RTVSPost2010PropOp44
 70
     1
102
RTVSPost2010Prop45
280
     0
102
RTVSPost2010PropOp45
 70
     1
102
RTVSPost2010Prop46
 90
       50
102
RTVSPost2010PropOp46
 70
     1
102
RTVSPost2010Prop47
 90
       50
102
RTVSPost2010PropOp47
 70
     1
102
RTVSPost2010Prop48
 90
       50
102
RTVSPost2010PropOp48
 70
     1
102
RTVSPost2010Prop49
280
     0
102
RTVSPost2010PropOp49
 70
     1
102
RTVSPost2010Prop50
 90
       50
102
RTVSPost2010PropOp50
 70
     1
102
RTVSPost2010Prop51ColorIndex
 90
      256
102
RTVSPost2010Prop51ColorRGB
 90
-16777216
102
RTVSPost2010PropOp51
 70
     0
102
RTVSPost2010Prop52
140
1.0
102
RTVSPost2010PropOp52
 70
     0
102
RTVSPost2010Prop53
 90
        2
102
RTVSPost2010PropOp53
 70
     1
102
RTVSPost2010Prop54
  1
strokes_ogs.tif
102
RTVSPost2010PropOp54
 70
     1
102
RTVSPost2010Prop55
280
     0
102
RTVSPost2010PropOp55
 70
     1
102
RTVSPost2010Prop56
140
1.0
102
RTVSPost2010PropOp56
 70
     1
102
RTVSPost2010Prop57
140
1.0
102
RTVSPost2010PropOp57
 70
     1
102
RTVSPropertyOp0
 70
     1
102
RTVSPropertyOp1
 70
     1
102
RTVSPropertyOp2
 70
     1
102
RTVSPropertyOp3
 70
     1
102
RTVSPropertyOp4
 70
     1
102
RTVSPropertyOp5
 70
     1
102
RTVSPropertyOp6
 70
     1
102
RTVSPropertyOp7
 70
     1
102
RTVSPropertyOp8
 70
     1
102
RTVSPropertyOp9
 70
     1
102
RTVSPropertyOp10
 70
     1
102
RTVSPropertyOp11
 70
     1
102
RTVSPropertyOp12
 70
     1
102
RTVSPropertyOp13
 70
     1
102
RTVSPropertyOp14
 70
     1
102
RTVSPropertyOp15
 70
     1
102
RTVSPropertyOp16
 70
     1
102
RTVSPropertyOp17
 70
     1
102
RTVSPropertyOp18
 70
     1
102
RTVSPropertyOp19
 70
     1
102
RTVSPropertyOp20
 70
     1
102
RTVSPropertyOp21
 70
     1
102
RTVSPropertyOp22
 70
     1
102
RTVSPropertyOp23
 70
     1
102
RTVSPropertyOp24
 70
     1
102
RTVSPropertyOp25
 70
     1
102
RTVSPropertyOp26
 70
     1
102
RTVSPropertyOp27
 70
     1
102
RTVSPropertyOp28
 70
     1
102
RTVSPropertyOp29
 70
     1
102
RTVSPropertyOp30
 70
     1
102
RTVSPropertyOp31
 70
     1
102
RTVSPropertyOp32
 70
     1
102
RTVSPropertyOp33
 70
     1
102
RTVSPropertyOp34
 70
     1
102
RTVSPropertyOp35
 70
     1
102
RTVSPropertyOp36
 70
     1
102
RTVSPropertyOp37
 70
     1
102
RTVSPropertyOp38
 70
     1
102
RTVSPropertyOp39
 70
     1
102
RTVSPropertyOp40
 70
     1
102
RTVSPropertyOp41
 70
     1
102
RTVSPropertyOp42
 70
     1
102
RTVSPropertyOp43
 70
     1
102
RTVSPropertyOp44
 70
     1
102
RTVSPropertyOp45
 70
     1
102
RTVSPropertyOp46
 70
     1
102
RTVSPropertyOp47
 70
     1
102
RTVSPropertyOp48
 70
     1
102
RTVSPropertyOp49
 70
     1
102
RTVSPropertyOp50
 70
     1
102
RTVSPropertyOp51
 70
     0
102
RTVSPropertyOp52
 70
     0
102
RTVSPropertyOp53
 70
     1
102
RTVSPropertyOp54
 70
     1
102
RTVSPropertyOp55
 70
     1
102
RTVSPropertyOp56
 70
     1
102
RTVSPropertyOp57
 70
     1
102
RTVSPropertyOp58
 70
     1
102
RTVSPropertyOp59
 70
     1
102
RTVSPropertyOp60
 70
     1
102
RTVSPropertyOp61
 70
     1
102
RTVSPropertyOp62
 70
     1
  0
XRECORD
  5
70C7
102
{ACAD_REACTORS
330
70C6
102
}
330
70C6
100
AcDbXrecord
280
     1
102
RTVSPost2010Prop28
280
     0
102
RTVSPost2010PropOp28
 70
     1
102
RTVSPost2010Prop29
280
     1
102
RTVSPost2010PropOp29
 70
     1
102
RTVSPost2010Prop30
280
     1
102
RTVSPost2010PropOp30
 70
     1
102
RTVSPost2010Prop31
280
     0
102
RTVSPost2010PropOp31
 70
     1
102
RTVSPost2010Prop32
280
     0
102
RTVSPost2010PropOp32
 70
     1
102
RTVSPost2010Prop33
280
     0
102
RTVSPost2010PropOp33
 70
     1
102
RTVSPost2010Prop34
280
     0
102
RTVSPost2010PropOp34
 70
     1
102
RTVSPost2010Prop35
280
     0
102
RTVSPost2010PropOp35
 70
     1
102
RTVSPost2010Prop36
280
     0
102
RTVSPost2010PropOp36
 70
     1
102
RTVSPost2010Prop37
 90
       50
102
RTVSPost2010PropOp37
 70
     1
102
RTVSPost2010Prop38
140
0.0
102
RTVSPost2010PropOp38
 70
     1
102
RTVSPost2010Prop39
140
1.0
102
RTVSPost2010PropOp39
 70
     1
102
RTVSPost2010Prop40
 90
        0
102
RTVSPost2010PropOp40
 70
     1
102
RTVSPost2010Prop41ColorIndex
 90
       18
102
RTVSPost2010Prop41ColorRGB
 90
        0
102
RTVSPost2010PropOp41
 70
     1
102
RTVSPost2010Prop42
 90
       50
102
RTVSPost2010PropOp42
 70
     1
102
RTVSPost2010Prop43
 90
        3
102
RTVSPost2010PropOp43
 70
     1
102
RTVSPost2010Prop44ColorIndex
 90
        5
102
RTVSPost2010Prop44ColorRGB
 90
      255
102
RTVSPost2010PropOp44
 70
     1
102
RTVSPost2010Prop45
280
     0
102
RTVSPost2010PropOp45
 70
     1
102
RTVSPost2010Prop46
 90
       50
102
RTVSPost2010PropOp46
 70
     1
102
RTVSPost2010Prop47
 90
       50
102
RTVSPost2010PropOp47
 70
     1
102
RTVSPost2010Prop48
 90
       50
102
RTVSPost2010PropOp48
 70
     1
102
RTVSPost2010Prop49
280
     0
102
RTVSPost2010PropOp49
 70
     1
102
RTVSPost2010Prop50
 90
       50
102
RTVSPost2010PropOp50
 70
     1
102
RTVSPost2010Prop51ColorIndex
 90
      256
102
RTVSPost2010Prop51ColorRGB
 90
-16777216
102
RTVSPost2010PropOp51
 70
     0
102
RTVSPost2010Prop52
140
1.0
102
RTVSPost2010PropOp52
 70
     0
102
RTVSPost2010Prop53
 90
        2
102
RTVSPost2010PropOp53
 70
     1
102
RTVSPost2010Prop54
  1
strokes_ogs.tif
102
RTVSPost2010PropOp54
 70
     1
102
RTVSPost2010Prop55
280
     0
102
RTVSPost2010PropOp55
 70
     1
102
RTVSPost2010Prop56
140
1.0
102
RTVSPost2010PropOp56
 70
     1
102
RTVSPost2010Prop57
140
1.0
102
RTVSPost2010PropOp57
 70
     1
102
RTVSPropertyOp0
 70
     1
102
RTVSPropertyOp1
 70
     1
102
RTVSPropertyOp2
 70
     1
102
RTVSPropertyOp3
 70
     1
102
RTVSPropertyOp4
 70
     1
102
RTVSPropertyOp5
 70
     1
102
RTVSPropertyOp6
 70
     1
102
RTVSPropertyOp7
 70
     1
102
RTVSPropertyOp8
 70
     1
102
RTVSPropertyOp9
 70
     1
102
RTVSPropertyOp10
 70
     1
102
RTVSPropertyOp11
 70
     1
102
RTVSPropertyOp12
 70
     1
102
RTVSPropertyOp13
 70
     1
102
RTVSPropertyOp14
 70
     1
102
RTVSPropertyOp15
 70
     1
102
RTVSPropertyOp16
 70
     1
102
RTVSPropertyOp17
 70
     1
102
RTVSPropertyOp18
 70
     1
102
RTVSPropertyOp19
 70
     1
102
RTVSPropertyOp20
 70
     1
102
RTVSPropertyOp21
 70
     1
102
RTVSPropertyOp22
 70
     1
102
RTVSPropertyOp23
 70
     1
102
RTVSPropertyOp24
 70
     1
102
RTVSPropertyOp25
 70
     1
102
RTVSPropertyOp26
 70
     1
102
RTVSPropertyOp27
 70
     1
102
RTVSPropertyOp28
 70
     1
102
RTVSPropertyOp29
 70
     1
102
RTVSPropertyOp30
 70
     1
102
RTVSPropertyOp31
 70
     1
102
RTVSPropertyOp32
 70
     1
102
RTVSPropertyOp33
 70
     1
102
RTVSPropertyOp34
 70
     1
102
RTVSPropertyOp35
 70
     1
102
RTVSPropertyOp36
 70
     1
102
RTVSPropertyOp37
 70
     1
102
RTVSPropertyOp38
 70
     1
102
RTVSPropertyOp39
 70
     1
102
RTVSPropertyOp40
 70
     1
102
RTVSPropertyOp41
 70
     1
102
RTVSPropertyOp42
 70
     1
102
RTVSPropertyOp43
 70
     1
102
RTVSPropertyOp44
 70
     1
102
RTVSPropertyOp45
 70
     1
102
RTVSPropertyOp46
 70
     1
102
RTVSPropertyOp47
 70
     1
102
RTVSPropertyOp48
 70
     1
102
RTVSPropertyOp49
 70
     1
102
RTVSPropertyOp50
 70
     1
102
RTVSPropertyOp51
 70
     0
102
RTVSPropertyOp52
 70
     0
102
RTVSPropertyOp53
 70
     1
102
RTVSPropertyOp54
 70
     1
102
RTVSPropertyOp55
 70
     1
102
RTVSPropertyOp56
 70
     1
102
RTVSPropertyOp57
 70
     1
102
RTVSPropertyOp58
 70
     1
102
RTVSPropertyOp59
 70
     1
102
RTVSPropertyOp60
 70
     1
102
RTVSPropertyOp61
 70
     1
102
RTVSPropertyOp62
 70
     1
  0
XRECORD
  5
70C1
102
{ACAD_REACTORS
330
70C0
102
}
330
70C0
100
AcDbXrecord
280
     1
102
RTVSPost2010Prop28
280
     0
102
RTVSPost2010PropOp28
 70
     1
102
RTVSPost2010Prop29
280
     1
102
RTVSPost2010PropOp29
 70
     1
102
RTVSPost2010Prop30
280
     1
102
RTVSPost2010PropOp30
 70
     1
102
RTVSPost2010Prop31
280
     0
102
RTVSPost2010PropOp31
 70
     1
102
RTVSPost2010Prop32
280
     0
102
RTVSPost2010PropOp32
 70
     1
102
RTVSPost2010Prop33
280
     0
102
RTVSPost2010PropOp33
 70
     1
102
RTVSPost2010Prop34
280
     0
102
RTVSPost2010PropOp34
 70
     1
102
RTVSPost2010Prop35
280
     0
102
RTVSPost2010PropOp35
 70
     1
102
RTVSPost2010Prop36
280
     0
102
RTVSPost2010PropOp36
 70
     1
102
RTVSPost2010Prop37
 90
       50
102
RTVSPost2010PropOp37
 70
     1
102
RTVSPost2010Prop38
140
0.0
102
RTVSPost2010PropOp38
 70
     1
102
RTVSPost2010Prop39
140
1.0
102
RTVSPost2010PropOp39
 70
     1
102
RTVSPost2010Prop40
 90
        0
102
RTVSPost2010PropOp40
 70
     1
102
RTVSPost2010Prop41ColorIndex
 90
       18
102
RTVSPost2010Prop41ColorRGB
 90
        0
102
RTVSPost2010PropOp41
 70
     1
102
RTVSPost2010Prop42
 90
       50
102
RTVSPost2010PropOp42
 70
     1
102
RTVSPost2010Prop43
 90
        3
102
RTVSPost2010PropOp43
 70
     1
102
RTVSPost2010Prop44ColorIndex
 90
        5
102
RTVSPost2010Prop44ColorRGB
 90
      255
102
RTVSPost2010PropOp44
 70
     1
102
RTVSPost2010Prop45
280
     0
102
RTVSPost2010PropOp45
 70
     1
102
RTVSPost2010Prop46
 90
       50
102
RTVSPost2010PropOp46
 70
     1
102
RTVSPost2010Prop47
 90
       50
102
RTVSPost2010PropOp47
 70
     1
102
RTVSPost2010Prop48
 90
       50
102
RTVSPost2010PropOp48
 70
     1
102
RTVSPost2010Prop49
280
     0
102
RTVSPost2010PropOp49
 70
     1
102
RTVSPost2010Prop50
 90
       50
102
RTVSPost2010PropOp50
 70
     1
102
RTVSPost2010Prop51ColorIndex
 90
      256
102
RTVSPost2010Prop51ColorRGB
 90
-16777216
102
RTVSPost2010PropOp51
 70
     0
102
RTVSPost2010Prop52
140
1.0
102
RTVSPost2010PropOp52
 70
     0
102
RTVSPost2010Prop53
 90
        2
102
RTVSPost2010PropOp53
 70
     1
102
RTVSPost2010Prop54
  1
strokes_ogs.tif
102
RTVSPost2010PropOp54
 70
     1
102
RTVSPost2010Prop55
280
     0
102
RTVSPost2010PropOp55
 70
     1
102
RTVSPost2010Prop56
140
1.0
102
RTVSPost2010PropOp56
 70
     1
102
RTVSPost2010Prop57
140
1.0
102
RTVSPost2010PropOp57
 70
     1
102
RTVSPropertyOp0
 70
     1
102
RTVSPropertyOp1
 70
     1
102
RTVSPropertyOp2
 70
     1
102
RTVSPropertyOp3
 70
     1
102
RTVSPropertyOp4
 70
     1
102
RTVSPropertyOp5
 70
     1
102
RTVSPropertyOp6
 70
     1
102
RTVSPropertyOp7
 70
     1
102
RTVSPropertyOp8
 70
     1
102
RTVSPropertyOp9
 70
     1
102
RTVSPropertyOp10
 70
     1
102
RTVSPropertyOp11
 70
     1
102
RTVSPropertyOp12
 70
     1
102
RTVSPropertyOp13
 70
     1
102
RTVSPropertyOp14
 70
     1
102
RTVSPropertyOp15
 70
     1
102
RTVSPropertyOp16
 70
     1
102
RTVSPropertyOp17
 70
     1
102
RTVSPropertyOp18
 70
     1
102
RTVSPropertyOp19
 70
     1
102
RTVSPropertyOp20
 70
     1
102
RTVSPropertyOp21
 70
     1
102
RTVSPropertyOp22
 70
     1
102
RTVSPropertyOp23
 70
     1
102
RTVSPropertyOp24
 70
     1
102
RTVSPropertyOp25
 70
     1
102
RTVSPropertyOp26
 70
     1
102
RTVSPropertyOp27
 70
     1
102
RTVSPropertyOp28
 70
     1
102
RTVSPropertyOp29
 70
     1
102
RTVSPropertyOp30
 70
     1
102
RTVSPropertyOp31
 70
     1
102
RTVSPropertyOp32
 70
     1
102
RTVSPropertyOp33
 70
     1
102
RTVSPropertyOp34
 70
     1
102
RTVSPropertyOp35
 70
     1
102
RTVSPropertyOp36
 70
     1
102
RTVSPropertyOp37
 70
     1
102
RTVSPropertyOp38
 70
     1
102
RTVSPropertyOp39
 70
     1
102
RTVSPropertyOp40
 70
     1
102
RTVSPropertyOp41
 70
     1
102
RTVSPropertyOp42
 70
     1
102
RTVSPropertyOp43
 70
     1
102
RTVSPropertyOp44
 70
     1
102
RTVSPropertyOp45
 70
     1
102
RTVSPropertyOp46
 70
     1
102
RTVSPropertyOp47
 70
     1
102
RTVSPropertyOp48
 70
     1
102
RTVSPropertyOp49
 70
     1
102
RTVSPropertyOp50
 70
     1
102
RTVSPropertyOp51
 70
     0
102
RTVSPropertyOp52
 70
     0
102
RTVSPropertyOp53
 70
     1
102
RTVSPropertyOp54
 70
     1
102
RTVSPropertyOp55
 70
     1
102
RTVSPropertyOp56
 70
     1
102
RTVSPropertyOp57
 70
     1
102
RTVSPropertyOp58
 70
     1
102
RTVSPropertyOp59
 70
     1
102
RTVSPropertyOp60
 70
     1
102
RTVSPropertyOp61
 70
     1
102
RTVSPropertyOp62
 70
     1
  0
XRECORD
  5
70C3
102
{ACAD_REACTORS
330
70C2
102
}
330
70C2
100
AcDbXrecord
280
     1
102
RTVSPost2010Prop28
280
     0
102
RTVSPost2010PropOp28
 70
     1
102
RTVSPost2010Prop29
280
     1
102
RTVSPost2010PropOp29
 70
     1
102
RTVSPost2010Prop30
280
     1
102
RTVSPost2010PropOp30
 70
     1
102
RTVSPost2010Prop31
280
     0
102
RTVSPost2010PropOp31
 70
     1
102
RTVSPost2010Prop32
280
     0
102
RTVSPost2010PropOp32
 70
     1
102
RTVSPost2010Prop33
280
     0
102
RTVSPost2010PropOp33
 70
     1
102
RTVSPost2010Prop34
280
     0
102
RTVSPost2010PropOp34
 70
     1
102
RTVSPost2010Prop35
280
     0
102
RTVSPost2010PropOp35
 70
     1
102
RTVSPost2010Prop36
280
     0
102
RTVSPost2010PropOp36
 70
     1
102
RTVSPost2010Prop37
 90
       50
102
RTVSPost2010PropOp37
 70
     1
102
RTVSPost2010Prop38
140
0.0
102
RTVSPost2010PropOp38
 70
     1
102
RTVSPost2010Prop39
140
1.0
102
RTVSPost2010PropOp39
 70
     1
102
RTVSPost2010Prop40
 90
        0
102
RTVSPost2010PropOp40
 70
     1
102
RTVSPost2010Prop41ColorIndex
 90
       18
102
RTVSPost2010Prop41ColorRGB
 90
        0
102
RTVSPost2010PropOp41
 70
     1
102
RTVSPost2010Prop42
 90
       50
102
RTVSPost2010PropOp42
 70
     1
102
RTVSPost2010Prop43
 90
        3
102
RTVSPost2010PropOp43
 70
     1
102
RTVSPost2010Prop44ColorIndex
 90
        5
102
RTVSPost2010Prop44ColorRGB
 90
      255
102
RTVSPost2010PropOp44
 70
     1
102
RTVSPost2010Prop45
280
     0
102
RTVSPost2010PropOp45
 70
     1
102
RTVSPost2010Prop46
 90
       50
102
RTVSPost2010PropOp46
 70
     1
102
RTVSPost2010Prop47
 90
       50
102
RTVSPost2010PropOp47
 70
     1
102
RTVSPost2010Prop48
 90
       50
102
RTVSPost2010PropOp48
 70
     1
102
RTVSPost2010Prop49
280
     0
102
RTVSPost2010PropOp49
 70
     1
102
RTVSPost2010Prop50
 90
       50
102
RTVSPost2010PropOp50
 70
     1
102
RTVSPost2010Prop51ColorIndex
 90
      256
102
RTVSPost2010Prop51ColorRGB
 90
-16777216
102
RTVSPost2010PropOp51
 70
     0
102
RTVSPost2010Prop52
140
1.0
102
RTVSPost2010PropOp52
 70
     0
102
RTVSPost2010Prop53
 90
        2
102
RTVSPost2010PropOp53
 70
     1
102
RTVSPost2010Prop54
  1
strokes_ogs.tif
102
RTVSPost2010PropOp54
 70
     1
102
RTVSPost2010Prop55
280
     0
102
RTVSPost2010PropOp55
 70
     1
102
RTVSPost2010Prop56
140
1.0
102
RTVSPost2010PropOp56
 70
     1
102
RTVSPost2010Prop57
140
1.0
102
RTVSPost2010PropOp57
 70
     1
102
RTVSPropertyOp0
 70
     1
102
RTVSPropertyOp1
 70
     1
102
RTVSPropertyOp2
 70
     1
102
RTVSPropertyOp3
 70
     1
102
RTVSPropertyOp4
 70
     1
102
RTVSPropertyOp5
 70
     1
102
RTVSPropertyOp6
 70
     1
102
RTVSPropertyOp7
 70
     1
102
RTVSPropertyOp8
 70
     1
102
RTVSPropertyOp9
 70
     1
102
RTVSPropertyOp10
 70
     1
102
RTVSPropertyOp11
 70
     1
102
RTVSPropertyOp12
 70
     1
102
RTVSPropertyOp13
 70
     1
102
RTVSPropertyOp14
 70
     1
102
RTVSPropertyOp15
 70
     1
102
RTVSPropertyOp16
 70
     1
102
RTVSPropertyOp17
 70
     1
102
RTVSPropertyOp18
 70
     1
102
RTVSPropertyOp19
 70
     1
102
RTVSPropertyOp20
 70
     1
102
RTVSPropertyOp21
 70
     1
102
RTVSPropertyOp22
 70
     1
102
RTVSPropertyOp23
 70
     1
102
RTVSPropertyOp24
 70
     1
102
RTVSPropertyOp25
 70
     1
102
RTVSPropertyOp26
 70
     1
102
RTVSPropertyOp27
 70
     1
102
RTVSPropertyOp28
 70
     1
102
RTVSPropertyOp29
 70
     1
102
RTVSPropertyOp30
 70
     1
102
RTVSPropertyOp31
 70
     1
102
RTVSPropertyOp32
 70
     1
102
RTVSPropertyOp33
 70
     1
102
RTVSPropertyOp34
 70
     1
102
RTVSPropertyOp35
 70
     1
102
RTVSPropertyOp36
 70
     1
102
RTVSPropertyOp37
 70
     1
102
RTVSPropertyOp38
 70
     1
102
RTVSPropertyOp39
 70
     1
102
RTVSPropertyOp40
 70
     1
102
RTVSPropertyOp41
 70
     1
102
RTVSPropertyOp42
 70
     1
102
RTVSPropertyOp43
 70
     1
102
RTVSPropertyOp44
 70
     1
102
RTVSPropertyOp45
 70
     1
102
RTVSPropertyOp46
 70
     1
102
RTVSPropertyOp47
 70
     1
102
RTVSPropertyOp48
 70
     1
102
RTVSPropertyOp49
 70
     1
102
RTVSPropertyOp50
 70
     1
102
RTVSPropertyOp51
 70
     0
102
RTVSPropertyOp52
 70
     0
102
RTVSPropertyOp53
 70
     1
102
RTVSPropertyOp54
 70
     1
102
RTVSPropertyOp55
 70
     1
102
RTVSPropertyOp56
 70
     1
102
RTVSPropertyOp57
 70
     1
102
RTVSPropertyOp58
 70
     1
102
RTVSPropertyOp59
 70
     1
102
RTVSPropertyOp60
 70
     1
102
RTVSPropertyOp61
 70
     1
102
RTVSPropertyOp62
 70
     1
  0
XRECORD
  5
70B1
102
{ACAD_REACTORS
330
70B0
102
}
330
70B0
100
AcDbXrecord
280
     1
102
RTVSPost2010Prop28
280
     0
102
RTVSPost2010PropOp28
 70
     1
102
RTVSPost2010Prop29
280
     1
102
RTVSPost2010PropOp29
 70
     1
102
RTVSPost2010Prop30
280
     1
102
RTVSPost2010PropOp30
 70
     1
102
RTVSPost2010Prop31
280
     0
102
RTVSPost2010PropOp31
 70
     1
102
RTVSPost2010Prop32
280
     0
102
RTVSPost2010PropOp32
 70
     1
102
RTVSPost2010Prop33
280
     0
102
RTVSPost2010PropOp33
 70
     1
102
RTVSPost2010Prop34
280
     0
102
RTVSPost2010PropOp34
 70
     1
102
RTVSPost2010Prop35
280
     0
102
RTVSPost2010PropOp35
 70
     1
102
RTVSPost2010Prop36
280
     0
102
RTVSPost2010PropOp36
 70
     1
102
RTVSPost2010Prop37
 90
       50
102
RTVSPost2010PropOp37
 70
     1
102
RTVSPost2010Prop38
140
0.0
102
RTVSPost2010PropOp38
 70
     1
102
RTVSPost2010Prop39
140
1.0
102
RTVSPost2010PropOp39
 70
     1
102
RTVSPost2010Prop40
 90
        0
102
RTVSPost2010PropOp40
 70
     1
102
RTVSPost2010Prop41ColorIndex
 90
       18
102
RTVSPost2010Prop41ColorRGB
 90
        0
102
RTVSPost2010PropOp41
 70
     1
102
RTVSPost2010Prop42
 90
       50
102
RTVSPost2010PropOp42
 70
     1
102
RTVSPost2010Prop43
 90
        3
102
RTVSPost2010PropOp43
 70
     1
102
RTVSPost2010Prop44ColorIndex
 90
        5
102
RTVSPost2010Prop44ColorRGB
 90
      255
102
RTVSPost2010PropOp44
 70
     1
102
RTVSPost2010Prop45
280
     0
102
RTVSPost2010PropOp45
 70
     1
102
RTVSPost2010Prop46
 90
       50
102
RTVSPost2010PropOp46
 70
     1
102
RTVSPost2010Prop47
 90
       50
102
RTVSPost2010PropOp47
 70
     1
102
RTVSPost2010Prop48
 90
       50
102
RTVSPost2010PropOp48
 70
     1
102
RTVSPost2010Prop49
280
     0
102
RTVSPost2010PropOp49
 70
     1
102
RTVSPost2010Prop50
 90
       50
102
RTVSPost2010PropOp50
 70
     1
102
RTVSPost2010Prop51ColorIndex
 90
      256
102
RTVSPost2010Prop51ColorRGB
 90
-16777216
102
RTVSPost2010PropOp51
 70
     0
102
RTVSPost2010Prop52
140
1.0
102
RTVSPost2010PropOp52
 70
     0
102
RTVSPost2010Prop53
 90
        2
102
RTVSPost2010PropOp53
 70
     1
102
RTVSPost2010Prop54
  1
strokes_ogs.tif
102
RTVSPost2010PropOp54
 70
     1
102
RTVSPost2010Prop55
280
     0
102
RTVSPost2010PropOp55
 70
     1
102
RTVSPost2010Prop56
140
1.0
102
RTVSPost2010PropOp56
 70
     1
102
RTVSPost2010Prop57
140
1.0
102
RTVSPost2010PropOp57
 70
     1
102
RTVSPropertyOp0
 70
     1
102
RTVSPropertyOp1
 70
     1
102
RTVSPropertyOp2
 70
     1
102
RTVSPropertyOp3
 70
     1
102
RTVSPropertyOp4
 70
     1
102
RTVSPropertyOp5
 70
     1
102
RTVSPropertyOp6
 70
     1
102
RTVSPropertyOp7
 70
     1
102
RTVSPropertyOp8
 70
     1
102
RTVSPropertyOp9
 70
     1
102
RTVSPropertyOp10
 70
     1
102
RTVSPropertyOp11
 70
     1
102
RTVSPropertyOp12
 70
     1
102
RTVSPropertyOp13
 70
     1
102
RTVSPropertyOp14
 70
     1
102
RTVSPropertyOp15
 70
     1
102
RTVSPropertyOp16
 70
     1
102
RTVSPropertyOp17
 70
     1
102
RTVSPropertyOp18
 70
     1
102
RTVSPropertyOp19
 70
     1
102
RTVSPropertyOp20
 70
     1
102
RTVSPropertyOp21
 70
     1
102
RTVSPropertyOp22
 70
     1
102
RTVSPropertyOp23
 70
     1
102
RTVSPropertyOp24
 70
     1
102
RTVSPropertyOp25
 70
     1
102
RTVSPropertyOp26
 70
     1
102
RTVSPropertyOp27
 70
     1
102
RTVSPropertyOp28
 70
     1
102
RTVSPropertyOp29
 70
     1
102
RTVSPropertyOp30
 70
     1
102
RTVSPropertyOp31
 70
     1
102
RTVSPropertyOp32
 70
     1
102
RTVSPropertyOp33
 70
     1
102
RTVSPropertyOp34
 70
     1
102
RTVSPropertyOp35
 70
     1
102
RTVSPropertyOp36
 70
     1
102
RTVSPropertyOp37
 70
     1
102
RTVSPropertyOp38
 70
     1
102
RTVSPropertyOp39
 70
     1
102
RTVSPropertyOp40
 70
     1
102
RTVSPropertyOp41
 70
     1
102
RTVSPropertyOp42
 70
     1
102
RTVSPropertyOp43
 70
     1
102
RTVSPropertyOp44
 70
     1
102
RTVSPropertyOp45
 70
     1
102
RTVSPropertyOp46
 70
     1
102
RTVSPropertyOp47
 70
     1
102
RTVSPropertyOp48
 70
     1
102
RTVSPropertyOp49
 70
     1
102
RTVSPropertyOp50
 70
     1
102
RTVSPropertyOp51
 70
     0
102
RTVSPropertyOp52
 70
     0
102
RTVSPropertyOp53
 70
     1
102
RTVSPropertyOp54
 70
     1
102
RTVSPropertyOp55
 70
     1
102
RTVSPropertyOp56
 70
     1
102
RTVSPropertyOp57
 70
     1
102
RTVSPropertyOp58
 70
     1
102
RTVSPropertyOp59
 70
     1
102
RTVSPropertyOp60
 70
     1
102
RTVSPropertyOp61
 70
     1
102
RTVSPropertyOp62
 70
     1
  0
XRECORD
  5
70A5
102
{ACAD_REACTORS
330
70A4
102
}
330
70A4
100
AcDbXrecord
280
     1
102
RTVSPost2010Prop28
280
     0
102
RTVSPost2010PropOp28
 70
     1
102
RTVSPost2010Prop29
280
     1
102
RTVSPost2010PropOp29
 70
     1
102
RTVSPost2010Prop30
280
     1
102
RTVSPost2010PropOp30
 70
     1
102
RTVSPost2010Prop31
280
     0
102
RTVSPost2010PropOp31
 70
     1
102
RTVSPost2010Prop32
280
     0
102
RTVSPost2010PropOp32
 70
     1
102
RTVSPost2010Prop33
280
     0
102
RTVSPost2010PropOp33
 70
     1
102
RTVSPost2010Prop34
280
     0
102
RTVSPost2010PropOp34
 70
     1
102
RTVSPost2010Prop35
280
     0
102
RTVSPost2010PropOp35
 70
     1
102
RTVSPost2010Prop36
280
     0
102
RTVSPost2010PropOp36
 70
     1
102
RTVSPost2010Prop37
 90
       50
102
RTVSPost2010PropOp37
 70
     1
102
RTVSPost2010Prop38
140
0.0
102
RTVSPost2010PropOp38
 70
     1
102
RTVSPost2010Prop39
140
1.0
102
RTVSPost2010PropOp39
 70
     1
102
RTVSPost2010Prop40
 90
        0
102
RTVSPost2010PropOp40
 70
     1
102
RTVSPost2010Prop41ColorIndex
 90
       18
102
RTVSPost2010Prop41ColorRGB
 90
        0
102
RTVSPost2010PropOp41
 70
     1
102
RTVSPost2010Prop42
 90
       50
102
RTVSPost2010PropOp42
 70
     1
102
RTVSPost2010Prop43
 90
        3
102
RTVSPost2010PropOp43
 70
     1
102
RTVSPost2010Prop44ColorIndex
 90
        5
102
RTVSPost2010Prop44ColorRGB
 90
      255
102
RTVSPost2010PropOp44
 70
     1
102
RTVSPost2010Prop45
280
     0
102
RTVSPost2010PropOp45
 70
     1
102
RTVSPost2010Prop46
 90
       50
102
RTVSPost2010PropOp46
 70
     1
102
RTVSPost2010Prop47
 90
       50
102
RTVSPost2010PropOp47
 70
     1
102
RTVSPost2010Prop48
 90
       50
102
RTVSPost2010PropOp48
 70
     1
102
RTVSPost2010Prop49
280
     0
102
RTVSPost2010PropOp49
 70
     1
102
RTVSPost2010Prop50
 90
       50
102
RTVSPost2010PropOp50
 70
     1
102
RTVSPost2010Prop51ColorIndex
 90
      256
102
RTVSPost2010Prop51ColorRGB
 90
-16777216
102
RTVSPost2010PropOp51
 70
     0
102
RTVSPost2010Prop52
140
1.0
102
RTVSPost2010PropOp52
 70
     0
102
RTVSPost2010Prop53
 90
        2
102
RTVSPost2010PropOp53
 70
     1
102
RTVSPost2010Prop54
  1
strokes_ogs.tif
102
RTVSPost2010PropOp54
 70
     1
102
RTVSPost2010Prop55
280
     0
102
RTVSPost2010PropOp55
 70
     1
102
RTVSPost2010Prop56
140
1.0
102
RTVSPost2010PropOp56
 70
     1
102
RTVSPost2010Prop57
140
1.0
102
RTVSPost2010PropOp57
 70
     1
102
RTVSPropertyOp0
 70
     1
102
RTVSPropertyOp1
 70
     1
102
RTVSPropertyOp2
 70
     1
102
RTVSPropertyOp3
 70
     1
102
RTVSPropertyOp4
 70
     1
102
RTVSPropertyOp5
 70
     1
102
RTVSPropertyOp6
 70
     1
102
RTVSPropertyOp7
 70
     1
102
RTVSPropertyOp8
 70
     1
102
RTVSPropertyOp9
 70
     1
102
RTVSPropertyOp10
 70
     1
102
RTVSPropertyOp11
 70
     1
102
RTVSPropertyOp12
 70
     1
102
RTVSPropertyOp13
 70
     1
102
RTVSPropertyOp14
 70
     1
102
RTVSPropertyOp15
 70
     1
102
RTVSPropertyOp16
 70
     1
102
RTVSPropertyOp17
 70
     1
102
RTVSPropertyOp18
 70
     1
102
RTVSPropertyOp19
 70
     1
102
RTVSPropertyOp20
 70
     1
102
RTVSPropertyOp21
 70
     1
102
RTVSPropertyOp22
 70
     1
102
RTVSPropertyOp23
 70
     1
102
RTVSPropertyOp24
 70
     1
102
RTVSPropertyOp25
 70
     1
102
RTVSPropertyOp26
 70
     1
102
RTVSPropertyOp27
 70
     1
102
RTVSPropertyOp28
 70
     1
102
RTVSPropertyOp29
 70
     1
102
RTVSPropertyOp30
 70
     1
102
RTVSPropertyOp31
 70
     1
102
RTVSPropertyOp32
 70
     1
102
RTVSPropertyOp33
 70
     1
102
RTVSPropertyOp34
 70
     1
102
RTVSPropertyOp35
 70
     1
102
RTVSPropertyOp36
 70
     1
102
RTVSPropertyOp37
 70
     1
102
RTVSPropertyOp38
 70
     1
102
RTVSPropertyOp39
 70
     1
102
RTVSPropertyOp40
 70
     1
102
RTVSPropertyOp41
 70
     1
102
RTVSPropertyOp42
 70
     1
102
RTVSPropertyOp43
 70
     1
102
RTVSPropertyOp44
 70
     1
102
RTVSPropertyOp45
 70
     1
102
RTVSPropertyOp46
 70
     1
102
RTVSPropertyOp47
 70
     1
102
RTVSPropertyOp48
 70
     1
102
RTVSPropertyOp49
 70
     1
102
RTVSPropertyOp50
 70
     1
102
RTVSPropertyOp51
 70
     0
102
RTVSPropertyOp52
 70
     0
102
RTVSPropertyOp53
 70
     1
102
RTVSPropertyOp54
 70
     1
102
RTVSPropertyOp55
 70
     1
102
RTVSPropertyOp56
 70
     1
102
RTVSPropertyOp57
 70
     1
102
RTVSPropertyOp58
 70
     1
102
RTVSPropertyOp59
 70
     1
102
RTVSPropertyOp60
 70
     1
102
RTVSPropertyOp61
 70
     1
102
RTVSPropertyOp62
 70
     1
  0
XRECORD
  5
70C5
102
{ACAD_REACTORS
330
70C4
102
}
330
70C4
100
AcDbXrecord
280
     1
102
RTVSPost2010Prop28
280
     0
102
RTVSPost2010PropOp28
 70
     1
102
RTVSPost2010Prop29
280
     1
102
RTVSPost2010PropOp29
 70
     1
102
RTVSPost2010Prop30
280
     1
102
RTVSPost2010PropOp30
 70
     1
102
RTVSPost2010Prop31
280
     0
102
RTVSPost2010PropOp31
 70
     1
102
RTVSPost2010Prop32
280
     0
102
RTVSPost2010PropOp32
 70
     1
102
RTVSPost2010Prop33
280
     0
102
RTVSPost2010PropOp33
 70
     1
102
RTVSPost2010Prop34
280
     0
102
RTVSPost2010PropOp34
 70
     1
102
RTVSPost2010Prop35
280
     0
102
RTVSPost2010PropOp35
 70
     1
102
RTVSPost2010Prop36
280
     0
102
RTVSPost2010PropOp36
 70
     1
102
RTVSPost2010Prop37
 90
       50
102
RTVSPost2010PropOp37
 70
     1
102
RTVSPost2010Prop38
140
0.0
102
RTVSPost2010PropOp38
 70
     1
102
RTVSPost2010Prop39
140
1.0
102
RTVSPost2010PropOp39
 70
     1
102
RTVSPost2010Prop40
 90
        0
102
RTVSPost2010PropOp40
 70
     1
102
RTVSPost2010Prop41ColorIndex
 90
       18
102
RTVSPost2010Prop41ColorRGB
 90
        0
102
RTVSPost2010PropOp41
 70
     1
102
RTVSPost2010Prop42
 90
       50
102
RTVSPost2010PropOp42
 70
     1
102
RTVSPost2010Prop43
 90
        3
102
RTVSPost2010PropOp43
 70
     1
102
RTVSPost2010Prop44ColorIndex
 90
        5
102
RTVSPost2010Prop44ColorRGB
 90
      255
102
RTVSPost2010PropOp44
 70
     1
102
RTVSPost2010Prop45
280
     0
102
RTVSPost2010PropOp45
 70
     1
102
RTVSPost2010Prop46
 90
       50
102
RTVSPost2010PropOp46
 70
     1
102
RTVSPost2010Prop47
 90
       50
102
RTVSPost2010PropOp47
 70
     1
102
RTVSPost2010Prop48
 90
       50
102
RTVSPost2010PropOp48
 70
     1
102
RTVSPost2010Prop49
280
     0
102
RTVSPost2010PropOp49
 70
     1
102
RTVSPost2010Prop50
 90
       50
102
RTVSPost2010PropOp50
 70
     1
102
RTVSPost2010Prop51ColorIndex
 90
      256
102
RTVSPost2010Prop51ColorRGB
 90
-16777216
102
RTVSPost2010PropOp51
 70
     0
102
RTVSPost2010Prop52
140
1.0
102
RTVSPost2010PropOp52
 70
     0
102
RTVSPost2010Prop53
 90
        2
102
RTVSPost2010PropOp53
 70
     1
102
RTVSPost2010Prop54
  1
strokes_ogs.tif
102
RTVSPost2010PropOp54
 70
     1
102
RTVSPost2010Prop55
280
     0
102
RTVSPost2010PropOp55
 70
     1
102
RTVSPost2010Prop56
140
1.0
102
RTVSPost2010PropOp56
 70
     1
102
RTVSPost2010Prop57
140
1.0
102
RTVSPost2010PropOp57
 70
     1
102
RTVSPropertyOp0
 70
     1
102
RTVSPropertyOp1
 70
     1
102
RTVSPropertyOp2
 70
     1
102
RTVSPropertyOp3
 70
     1
102
RTVSPropertyOp4
 70
     1
102
RTVSPropertyOp5
 70
     1
102
RTVSPropertyOp6
 70
     1
102
RTVSPropertyOp7
 70
     1
102
RTVSPropertyOp8
 70
     1
102
RTVSPropertyOp9
 70
     1
102
RTVSPropertyOp10
 70
     1
102
RTVSPropertyOp11
 70
     1
102
RTVSPropertyOp12
 70
     1
102
RTVSPropertyOp13
 70
     1
102
RTVSPropertyOp14
 70
     1
102
RTVSPropertyOp15
 70
     1
102
RTVSPropertyOp16
 70
     1
102
RTVSPropertyOp17
 70
     1
102
RTVSPropertyOp18
 70
     1
102
RTVSPropertyOp19
 70
     1
102
RTVSPropertyOp20
 70
     1
102
RTVSPropertyOp21
 70
     1
102
RTVSPropertyOp22
 70
     1
102
RTVSPropertyOp23
 70
     1
102
RTVSPropertyOp24
 70
     1
102
RTVSPropertyOp25
 70
     1
102
RTVSPropertyOp26
 70
     1
102
RTVSPropertyOp27
 70
     1
102
RTVSPropertyOp28
 70
     1
102
RTVSPropertyOp29
 70
     1
102
RTVSPropertyOp30
 70
     1
102
RTVSPropertyOp31
 70
     1
102
RTVSPropertyOp32
 70
     1
102
RTVSPropertyOp33
 70
     1
102
RTVSPropertyOp34
 70
     1
102
RTVSPropertyOp35
 70
     1
102
RTVSPropertyOp36
 70
     1
102
RTVSPropertyOp37
 70
     1
102
RTVSPropertyOp38
 70
     1
102
RTVSPropertyOp39
 70
     1
102
RTVSPropertyOp40
 70
     1
102
RTVSPropertyOp41
 70
     1
102
RTVSPropertyOp42
 70
     1
102
RTVSPropertyOp43
 70
     1
102
RTVSPropertyOp44
 70
     1
102
RTVSPropertyOp45
 70
     1
102
RTVSPropertyOp46
 70
     1
102
RTVSPropertyOp47
 70
     1
102
RTVSPropertyOp48
 70
     1
102
RTVSPropertyOp49
 70
     1
102
RTVSPropertyOp50
 70
     1
102
RTVSPropertyOp51
 70
     0
102
RTVSPropertyOp52
 70
     0
102
RTVSPropertyOp53
 70
     1
102
RTVSPropertyOp54
 70
     1
102
RTVSPropertyOp55
 70
     1
102
RTVSPropertyOp56
 70
     1
102
RTVSPropertyOp57
 70
     1
102
RTVSPropertyOp58
 70
     1
102
RTVSPropertyOp59
 70
     1
102
RTVSPropertyOp60
 70
     1
102
RTVSPropertyOp61
 70
     1
102
RTVSPropertyOp62
 70
     1
  0
ENDSEC
  0
EOF
