  0
SECTION
  2
HEADER
  9
$ACADVER
  1
AC1015
  9
$ACADMAINTVER
 70
    18
  9
$DWGCODEPAGE
  3
ANSI_1252
  9
$INSBASE
 10
0.0
 20
0.0
 30
0.0
  9
$EXTMIN
 10
-197.6248161467081
 20
-212.8478846881165
 30
-0.0015258207003583
  9
$EXTMAX
 10
252.6818855487297
 20
236.1008612163142
 30
0.0000000349246037
  9
$LIMMIN
 10
0.0
 20
0.0
  9
$LIMMAX
 10
420.0
 20
297.0
  9
$ORTHOMODE
 70
     0
  9
$REGENMODE
 70
     1
  9
$FILLMODE
 70
     1
  9
$QTEXTMODE
 70
     0
  9
$MIRRTEXT
 70
     0
  9
$LTSCALE
 40
1.0
  9
$ATTMODE
 70
     1
  9
$TEXTSIZE
 40
2.5
  9
$TRACEWID
 40
1.0
  9
$TEXTSTYLE
  7
Standard
  9
$CLAYER
  8
0
  9
$CELTYPE
  6
ByLayer
  9
$CECOLOR
 62
   256
  9
$CELTSCALE
 40
1.0
  9
$DISPSILH
 70
     0
  9
$DIMSCALE
 40
1.0
  9
$DIMASZ
 40
2.5
  9
$DIMEXO
 40
0.625
  9
$DIMDLI
 40
3.75
  9
$DIMRND
 40
0.0
  9
$DIMDLE
 40
0.0
  9
$DIMEXE
 40
1.25
  9
$DIMTP
 40
0.0
  9
$DIMTM
 40
0.0
  9
$DIMTXT
 40
2.5
  9
$DIMCEN
 40
2.5
  9
$DIMTSZ
 40
0.0
  9
$DIMTOL
 70
     0
  9
$DIMLIM
 70
     0
  9
$DIMTIH
 70
     0
  9
$DIMTOH
 70
     0
  9
$DIMSE1
 70
     0
  9
$DIMSE2
 70
     0
  9
$DIMTAD
 70
     1
  9
$DIMZIN
 70
     8
  9
$DIMBLK
  1

  9
$DIMASO
 70
     1
  9
$DIMSHO
 70
     1
  9
$DIMPOST
  1

  9
$DIMAPOST
  1

  9
$DIMALT
 70
     0
  9
$DIMALTD
 70
     3
  9
$DIMALTF
 40
0.03937007874016
  9
$DIMLFAC
 40
1.0
  9
$DIMTOFL
 70
     1
  9
$DIMTVP
 40
0.0
  9
$DIMTIX
 70
     0
  9
$DIMSOXD
 70
     0
  9
$DIMSAH
 70
     0
  9
$DIMBLK1
  1

  9
$DIMBLK2
  1

  9
$DIMSTYLE
  2
ISO-25
  9
$DIMCLRD
 70
     0
  9
$DIMCLRE
 70
     0
  9
$DIMCLRT
 70
     0
  9
$DIMTFAC
 40
1.0
  9
$DIMGAP
 40
0.625
  9
$DIMJUST
 70
     0
  9
$DIMSD1
 70
     0
  9
$DIMSD2
 70
     0
  9
$DIMTOLJ
 70
     0
  9
$DIMTZIN
 70
     8
  9
$DIMALTZ
 70
     0
  9
$DIMALTTZ
 70
     0
  9
$DIMUPT
 70
     0
  9
$DIMDEC
 70
     2
  9
$DIMTDEC
 70
     2
  9
$DIMALTU
 70
     2
  9
$DIMALTTD
 70
     3
  9
$DIMTXSTY
  7
Standard
  9
$DIMAUNIT
 70
     0
  9
$DIMADEC
 70
     0
  9
$DIMALTRND
 40
0.0
  9
$DIMAZIN
 70
     0
  9
$DIMDSEP
 70
    44
  9
$DIMATFIT
 70
     3
  9
$DIMFRAC
 70
     0
  9
$DIMLDRBLK
  1

  9
$DIMLUNIT
 70
     2
  9
$DIMLWD
 70
    -2
  9
$DIMLWE
 70
    -2
  9
$DIMTMOVE
 70
     0
  9
$LUNITS
 70
     2
  9
$LUPREC
 70
     4
  9
$SKETCHINC
 40
1.0
  9
$FILLETRAD
 40
0.0
  9
$AUNITS
 70
     0
  9
$AUPREC
 70
     0
  9
$MENU
  1
.
  9
$ELEVATION
 40
0.0
  9
$PELEVATION
 40
0.0
  9
$THICKNESS
 40
0.0
  9
$LIMCHECK
 70
     0
  9
$CHAMFERA
 40
0.0
  9
$CHAMFERB
 40
0.0
  9
$CHAMFERC
 40
0.0
  9
$CHAMFERD
 40
0.0
  9
$SKPOLY
 70
     0
  9
$TDCREATE
 40
2460398.356956019
  9
$TDUCREATE
 40
2460398.065289352
  9
$TDUPDATE
 40
2460398.374108797
  9
$TDUUPDATE
 40
2460398.082442130
  9
$TDINDWG
 40
0.0076736111
  9
$TDUSRTIMER
 40
0.0076736111
  9
$USRTIMER
 70
     1
  9
$ANGBASE
 50
0.0
  9
$ANGDIR
 70
     0
  9
$PDMODE
 70
     0
  9
$PDSIZE
 40
0.0
  9
$PLINEWID
 40
0.0
  9
$SPLFRAME
 70
     0
  9
$SPLINETYPE
 70
     6
  9
$SPLINESEGS
 70
     8
  9
$HANDSEED
  5
7FB8
  9
$SURFTAB1
 70
     6
  9
$SURFTAB2
 70
     6
  9
$SURFTYPE
 70
     6
  9
$SURFU
 70
     6
  9
$SURFV
 70
     6
  9
$UCSBASE
  2

  9
$UCSNAME
  2

  9
$UCSORG
 10
0.0
 20
0.0
 30
0.0
  9
$UCSXDIR
 10
1.0
 20
0.0
 30
0.0
  9
$UCSYDIR
 10
0.0
 20
1.0
 30
0.0
  9
$UCSORTHOREF
  2

  9
$UCSORTHOVIEW
 70
     0
  9
$UCSORGTOP
 10
0.0
 20
0.0
 30
0.0
  9
$UCSORGBOTTOM
 10
0.0
 20
0.0
 30
0.0
  9
$UCSORGLEFT
 10
0.0
 20
0.0
 30
0.0
  9
$UCSORGRIGHT
 10
0.0
 20
0.0
 30
0.0
  9
$UCSORGFRONT
 10
0.0
 20
0.0
 30
0.0
  9
$UCSORGBACK
 10
0.0
 20
0.0
 30
0.0
  9
$PUCSBASE
  2

  9
$PUCSNAME
  2

  9
$PUCSORG
 10
0.0
 20
0.0
 30
0.0
  9
$PUCSXDIR
 10
1.0
 20
0.0
 30
0.0
  9
$PUCSYDIR
 10
0.0
 20
1.0
 30
0.0
  9
$PUCSORTHOREF
  2

  9
$PUCSORTHOVIEW
 70
     0
  9
$PUCSORGTOP
 10
0.0
 20
0.0
 30
0.0
  9
$PUCSORGBOTTOM
 10
0.0
 20
0.0
 30
0.0
  9
$PUCSORGLEFT
 10
0.0
 20
0.0
 30
0.0
  9
$PUCSORGRIGHT
 10
0.0
 20
0.0
 30
0.0
  9
$PUCSORGFRONT
 10
0.0
 20
0.0
 30
0.0
  9
$PUCSORGBACK
 10
0.0
 20
0.0
 30
0.0
  9
$USERI1
 70
     0
  9
$USERI2
 70
     0
  9
$USERI3
 70
     0
  9
$USERI4
 70
     0
  9
$USERI5
 70
     0
  9
$USERR1
 40
0.0
  9
$USERR2
 40
0.0
  9
$USERR3
 40
0.0
  9
$USERR4
 40
0.0
  9
$USERR5
 40
0.0
  9
$WORLDVIEW
 70
     1
  9
$SHADEDGE
 70
     3
  9
$SHADEDIF
 70
    70
  9
$TILEMODE
 70
     1
  9
$MAXACTVP
 70
    48
  9
$PINSBASE
 10
0.0
 20
0.0
 30
0.0
  9
$PLIMCHECK
 70
     0
  9
$PEXTMIN
 10
0.0
 20
0.0
 30
0.0
  9
$PEXTMAX
 10
0.0
 20
0.0
 30
0.0
  9
$PLIMMIN
 10
0.0
 20
0.0
  9
$PLIMMAX
 10
12.0
 20
9.0
  9
$UNITMODE
 70
     0
  9
$VISRETAIN
 70
     1
  9
$PLINEGEN
 70
     0
  9
$PSLTSCALE
 70
     1
  9
$TREEDEPTH
 70
  3020
  9
$CMLSTYLE
  2
Standard
  9
$CMLJUST
 70
     0
  9
$CMLSCALE
 40
20.0
  9
$PROXYGRAPHICS
 70
     1
  9
$MEASUREMENT
 70
     1
  9
$CELWEIGHT
370
    -1
  9
$ENDCAPS
280
     0
  9
$JOINSTYLE
280
     0
  9
$LWDISPLAY
290
     0
  9
$INSUNITS
 70
     4
  9
$HYPERLINKBASE
  1

  9
$STYLESHEET
  1

  9
$XEDIT
290
     1
  9
$CEPSNTYPE
380
     0
  9
$PSTYLEMODE
290
     1
  9
$FINGERPRINTGUID
  2
{6C1266EE-7BC1-BF4A-B059-A6E7702B10CE}
  9
$VERSIONGUID
  2
{793F9C7A-840B-FC4B-AE06-ABA7B8E679BA}
  9
$EXTNAMES
290
     1
  9
$PSVPSCALE
 40
0.0
  9
$OLESTARTUP
290
     0
  0
ENDSEC
  0
SECTION
  2
CLASSES
  0
CLASS
  1
ACDBDICTIONARYWDFLT
  2
AcDbDictionaryWithDefault
  3
ObjectDBX Classes
 90
        0
280
     0
281
     0
  0
CLASS
  1
ACDBPLACEHOLDER
  2
AcDbPlaceHolder
  3
ObjectDBX Classes
 90
        0
280
     0
281
     0
  0
CLASS
  1
LAYOUT
  2
AcDbLayout
  3
ObjectDBX Classes
 90
        0
280
     0
281
     0
  0
CLASS
  1
DICTIONARYVAR
  2
AcDbDictionaryVar
  3
ObjectDBX Classes
 90
        0
280
     0
281
     0
  0
CLASS
  1
TABLESTYLE
  2
AcDbTableStyle
  3
ObjectDBX Classes
 90
     4095
280
     0
281
     0
  0
CLASS
  1
MATERIAL
  2
AcDbMaterial
  3
ObjectDBX Classes
 90
     1153
280
     0
281
     0
  0
CLASS
  1
VISUALSTYLE
  2
AcDbVisualStyle
  3
ObjectDBX Classes
 90
     4095
280
     0
281
     0
  0
CLASS
  1
SCALE
  2
AcDbScale
  3
ObjectDBX Classes
 90
     1153
280
     0
281
     0
  0
CLASS
  1
MLEADERSTYLE
  2
AcDbMLeaderStyle
  3
ACDB_MLEADERSTYLE_CLASS
 90
     4095
280
     0
281
     0
  0
CLASS
  1
CELLSTYLEMAP
  2
AcDbCellStyleMap
  3
ObjectDBX Classes
 90
     1152
280
     0
281
     0
  0
CLASS
  1
EXACXREFPANELOBJECT
  2
ExAcXREFPanelObject
  3
EXAC_ESW
 90
    33793
280
     0
281
     0
  0
CLASS
  1
NPOCOLLECTION
  2
AcDbImpNonPersistentObjectsCollection
  3
ObjectDBX Classes
 90
    33921
280
     0
281
     0
  0
CLASS
  1
LAYER_INDEX
  2
AcDbLayerIndex
  3
ObjectDBX Classes
 90
    32768
280
     0
281
     0
  0
CLASS
  1
SPATIAL_INDEX
  2
AcDbSpatialIndex
  3
ObjectDBX Classes
 90
    32768
280
     0
281
     0
  0
CLASS
  1
IDBUFFER
  2
AcDbIdBuffer
  3
ObjectDBX Classes
 90
    32768
280
     0
281
     0
  0
CLASS
  1
ACDBSECTIONVIEWSTYLE
  2
AcDbSectionViewStyle
  3
ObjectDBX Classes
 90
     1025
280
     0
281
     0
  0
CLASS
  1
ACDBDETAILVIEWSTYLE
  2
AcDbDetailViewStyle
  3
ObjectDBX Classes
 90
     1025
280
     0
281
     0
  0
CLASS
  1
XRECORD
  2
AcDbXrecord
  3
ObjectDBX Classes
 90
        0
280
     0
281
     0
  0
ENDSEC
  0
SECTION
  2
TABLES
  0
TABLE
  2
VPORT
  5
8
102
{ACAD_XDICTIONARY
360
7EC6
102
}
330
0
100
AcDbSymbolTable
 70
     1
  0
VPORT
  5
EA
330
8
100
AcDbSymbolTableRecord
100
AcDbViewportTableRecord
  2
*Active
 70
     0
 10
0.0
 20
0.0
 11
1.0
 21
1.0
 12
27.52853470101082
 22
11.62648826409887
 13
0.0
 23
0.0
 14
10.0
 24
10.0
 15
10.0
 25
10.0
 16
0.0
 26
0.0
 36
1.0
 17
0.0
 27
0.0
 37
0.0
 40
486.419580162787
 41
0.9846153846153846
 42
50.0
 43
0.0
 44
0.0
 50
0.0
 51
0.0
 71
     0
 72
  1000
 73
     1
 74
     3
 75
     0
 76
     1
 77
     0
 78
     0
281
     0
 65
     1
110
0.0
120
0.0
130
0.0
111
1.0
121
0.0
131
0.0
112
0.0
122
1.0
132
0.0
 79
     0
146
0.0
1001
ACAD_NAV_VCDISPLAY
1070
     3
  0
ENDTAB
  0
TABLE
  2
LTYPE
  5
5
330
0
100
AcDbSymbolTable
 70
     1
  0
LTYPE
  5
14
330
5
100
AcDbSymbolTableRecord
100
AcDbLinetypeTableRecord
  2
ByBlock
 70
     0
  3

 72
    65
 73
     0
 40
0.0
  0
LTYPE
  5
15
330
5
100
AcDbSymbolTableRecord
100
AcDbLinetypeTableRecord
  2
ByLayer
 70
     0
  3

 72
    65
 73
     0
 40
0.0
  0
LTYPE
  5
16
330
5
100
AcDbSymbolTableRecord
100
AcDbLinetypeTableRecord
  2
Continuous
 70
     0
  3
Solid line
 72
    65
 73
     0
 40
0.0
  0
ENDTAB
  0
TABLE
  2
LAYER
  5
2
102
{ACAD_XDICTIONARY
360
1FF
102
}
330
0
100
AcDbSymbolTable
 70
     1
  0
LAYER
  5
10
102
{ACAD_XDICTIONARY
360
13C
102
}
330
2
100
AcDbSymbolTableRecord
100
AcDbLayerTableRecord
  2
0
 70
     0
 62
     7
  6
Continuous
370
    -3
390
F
  0
ENDTAB
  0
TABLE
  2
STYLE
  5
3
330
0
100
AcDbSymbolTable
 70
     1
  0
STYLE
  5
11
330
3
100
AcDbSymbolTableRecord
100
AcDbTextStyleTableRecord
  2
Standard
 70
     0
 40
0.0
 41
1.0
 50
0.0
 71
     0
 42
2.5
  3
arial.ttf
  4

1001
ACAD
1000
Arial
1071
       34
  0
ENDTAB
  0
TABLE
  2
VIEW
  5
6
330
0
100
AcDbSymbolTable
 70
     0
  0
ENDTAB
  0
TABLE
  2
UCS
  5
7
330
0
100
AcDbSymbolTable
 70
     0
  0
ENDTAB
  0
TABLE
  2
APPID
  5
9
330
0
100
AcDbSymbolTable
 70
     8
  0
APPID
  5
12
330
9
100
AcDbSymbolTableRecord
100
AcDbRegAppTableRecord
  2
ACAD
 70
     0
  0
APPID
  5
9E
330
9
100
AcDbSymbolTableRecord
100
AcDbRegAppTableRecord
  2
ACAD_PSEXT
 70
     0
  0
APPID
  5
133
330
9
100
AcDbSymbolTableRecord
100
AcDbRegAppTableRecord
  2
AcadAnnoPO
 70
     0
  0
APPID
  5
134
330
9
100
AcDbSymbolTableRecord
100
AcDbRegAppTableRecord
  2
AcadAnnotative
 70
     0
  0
APPID
  5
135
330
9
100
AcDbSymbolTableRecord
100
AcDbRegAppTableRecord
  2
ACAD_DSTYLE_DIMJAG
 70
     0
  0
APPID
  5
136
330
9
100
AcDbSymbolTableRecord
100
AcDbRegAppTableRecord
  2
ACAD_DSTYLE_DIMTALN
 70
     0
  0
APPID
  5
165
330
9
100
AcDbSymbolTableRecord
100
AcDbRegAppTableRecord
  2
ACAD_MLEADERVER
 70
     0
  0
APPID
  5
217
330
9
100
AcDbSymbolTableRecord
100
AcDbRegAppTableRecord
  2
ACAD_NAV_VCDISPLAY
 70
     0
  0
ENDTAB
  0
TABLE
  2
DIMSTYLE
  5
A
330
0
100
AcDbSymbolTable
 70
     1
100
AcDbDimStyleTable
 71
     0
  0
DIMSTYLE
105
27
330
A
100
AcDbSymbolTableRecord
100
AcDbDimStyleTableRecord
  2
ISO-25
 70
     0
 41
2.5
 42
0.625
 43
3.75
 44
1.25
 73
     0
 74
     0
 77
     1
 78
     8
140
2.5
141
2.5
143
0.03937007874016
147
0.625
171
     3
172
     1
271
     2
272
     2
274
     3
278
    44
283
     0
284
     8
340
11
  0
ENDTAB
  0
TABLE
  2
BLOCK_RECORD
  5
1
330
0
100
AcDbSymbolTable
 70
     7
  0
BLOCK_RECORD
  5
1F
102
{ACAD_XDICTIONARY
360
1CE
102
}
330
1
100
AcDbSymbolTableRecord
100
AcDbBlockTableRecord
  2
*Model_Space
340
22
  0
BLOCK_RECORD
  5
D2
102
{ACAD_XDICTIONARY
360
7E79
102
}
330
1
100
AcDbSymbolTableRecord
100
AcDbBlockTableRecord
  2
*Paper_Space
340
D3
  0
BLOCK_RECORD
  5
D6
102
{ACAD_XDICTIONARY
360
7E7B
102
}
330
1
100
AcDbSymbolTableRecord
100
AcDbBlockTableRecord
  2
*Paper_Space0
340
D7
  0
BLOCK_RECORD
  5
7D04
330
1
100
AcDbSymbolTableRecord
100
AcDbBlockTableRecord
  2
SAE300_70_2-Front
340
0
102
{BLKREFS
331
7E6F
102
}
  0
BLOCK_RECORD
  5
7D52
330
1
100
AcDbSymbolTableRecord
100
AcDbBlockTableRecord
  2
SAE300_70_2-Left
340
0
102
{BLKREFS
331
7E70
102
}
  0
BLOCK_RECORD
  5
7D6F
330
1
100
AcDbSymbolTableRecord
100
AcDbBlockTableRecord
  2
SAE300_70_2-Right
340
0
102
{BLKREFS
331
7E71
102
}
  0
BLOCK_RECORD
  5
7D8D
330
1
100
AcDbSymbolTableRecord
100
AcDbBlockTableRecord
  2
SAE300_70_2-Top
340
0
102
{BLKREFS
331
7E72
102
}
  0
BLOCK_RECORD
  5
7DBD
330
1
100
AcDbSymbolTableRecord
100
AcDbBlockTableRecord
  2
SAE300_70_2-Bottom
340
0
102
{BLKREFS
331
7E73
102
}
  0
BLOCK_RECORD
  5
7DE6
330
1
100
AcDbSymbolTableRecord
100
AcDbBlockTableRecord
  2
SAE300_70_2-ISO
340
0
102
{BLKREFS
331
7E74
102
}
  0
ENDTAB
  0
ENDSEC
  0
SECTION
  2
BLOCKS
  0
BLOCK
  5
20
330
1F
100
AcDbEntity
  8
0
100
AcDbBlockBegin
  2
*Model_Space
 70
     0
 10
0.0
 20
0.0
 30
0.0
  3
*Model_Space
  1

  0
ENDBLK
  5
21
330
1F
100
AcDbEntity
  8
0
100
AcDbBlockEnd
  0
BLOCK
  5
D4
330
D2
100
AcDbEntity
 67
     1
  8
0
100
AcDbBlockBegin
  2
*Paper_Space
 70
     0
 10
0.0
 20
0.0
 30
0.0
  3
*Paper_Space
  1

  0
ENDBLK
  5
D5
330
D2
100
AcDbEntity
 67
     1
  8
0
100
AcDbBlockEnd
  0
BLOCK
  5
D8
330
D6
100
AcDbEntity
 67
     1
  8
0
100
AcDbBlockBegin
  2
*Paper_Space0
 70
     0
 10
0.0
 20
0.0
 30
0.0
  3
*Paper_Space0
  1

  0
ENDBLK
  5
D9
330
D6
100
AcDbEntity
 67
     1
  8
0
100
AcDbBlockEnd
  0
BLOCK
  5
7D05
330
7D04
100
AcDbEntity
  8
0
100
AcDbBlockBegin
  2
SAE300_70_2-Front
 70
     0
 10
0.0
 20
0.0
 30
0.0
  3
SAE300_70_2-Front
  1

  0
SPLINE
  5
7D07
330
7D04
100
AcDbEntity
  8
0
100
AcDbSpline
210
0.0
220
0.0
230
1.0
 70
     8
 71
     3
 72
    14
 73
    10
 74
     0
 42
0.000000001
 43
0.0000000001
 40
0.0
 40
0.0
 40
0.0
 40
0.0
 40
0.3435201404065436
 40
0.3435201404065436
 40
0.3435201404065436
 40
0.757012756802576
 40
0.757012756802576
 40
0.757012756802576
 40
0.9986524677956719
 40
0.9986524677956719
 40
0.9986524677956719
 40
0.9986524677956719
 10
39.60606060606066
 20
7.562499999999959
 30
0.0
 10
39.28489935602448
 20
7.30248939774169
 30
0.0
 10
38.87245051748374
 20
7.075286291220925
 30
0.0
 10
38.47645515512566
 20
6.844070746817738
 30
0.0
 10
37.99979850766284
 20
6.565758330277732
 30
0.0
 10
37.53725634323202
 20
6.271363892346685
 30
0.0
 10
37.26239324897362
 20
5.85787118804397
 30
0.0
 10
37.10176682899504
 20
5.616231425679352
 30
0.0
 10
37.00111647924167
 20
5.361040543133263
 30
0.0
 10
37.0000092297748
 20
5.005949949955638
 30
0.0
  0
LINE
  5
7D08
330
7D04
100
AcDbEntity
  8
0
100
AcDbLine
 10
37.0
 20
7.562499999999987
 30
0.0
 11
39.0
 21
7.562499999999987
 31
0.0
  0
SPLINE
  5
7D09
330
7D04
100
AcDbEntity
  8
0
100
AcDbSpline
210
0.0
220
0.0
230
1.0
 70
     8
 71
     3
 72
    20
 73
    16
 74
     0
 42
0.000000001
 43
0.0000000001
 40
0.0120765331180169
 40
0.0120765331180169
 40
0.0120765331180169
 40
0.0120765331180169
 40
0.0124299338927816
 40
0.0124299338927816
 40
0.0135323717904559
 40
0.0135323717904559
 40
0.0142287686629402
 40
0.0142287686629402
 40
0.0153124062719902
 40
0.0153124062719902
 40
0.0162555189866368
 40
0.0162555189866368
 40
0.0174042296478117
 40
0.0174042296478117
 40
0.020248257161124
 40
0.020248257161124
 40
0.020248257161124
 40
0.020248257161124
 10
37.0002916470256
 20
5.058649023359867
 30
0.0
 10
37.00029164702531
 20
5.058649023335034
 30
0.0
 10
37.00029123985803
 20
5.058613479342821
 30
0.0
 10
37.00028776216117
 20
5.058304589329901
 30
0.0
 10
37.00028070246649
 20
5.057680252077142
 30
0.0
 10
37.00026151506558
 20
5.055814177494233
 30
0.0
 10
37.00025215189576
 20
5.054875758929898
 30
0.0
 10
37.00022452416617
 20
5.051904329862205
 30
0.0
 10
37.00020367422541
 20
5.049480751275087
 30
0.0
 10
37.00016558925943
 20
5.044232723720049
 30
0.0
 10
37.00014804564349
 20
5.041467738417175
 30
0.0
 10
37.00011450601223
 20
5.035101746055465
 30
0.0
 10
37.00009960125961
 20
5.031460481644368
 30
0.0
 10
37.00006174602798
 20
5.018687077751407
 30
0.0
 10
37.00005914044803
 20
5.009319330242597
 30
0.0
 10
37.00007431494577
 20
5.000000121015806
 30
0.0
  0
SPLINE
  5
7D0A
330
7D04
100
AcDbEntity
  8
0
100
AcDbSpline
210
0.0
220
0.0
230
1.0
 70
     8
 71
     3
 72
    20
 73
    16
 74
     0
 42
0.000000001
 43
0.0000000001
 40
0.005333044398268
 40
0.005333044398268
 40
0.005333044398268
 40
0.005333044398268
 40
0.0056477561016835
 40
0.0056477561016835
 40
0.0060465169099022
 40
0.0060465169099022
 40
0.006530867279778
 40
0.006530867279778
 40
0.0071941562488387
 40
0.0071941562488387
 40
0.0085674960014007
 40
0.0085674960014007
 40
0.0106391405209384
 40
0.0106391405209384
 40
0.0111026036944092
 40
0.0111026036944092
 40
0.0111026036944092
 40
0.0111026036944092
 10
37.00010883933725
 20
5.045463134330726
 30
0.0
 10
37.00010883931868
 20
5.045463131340683
 30
0.0
 10
37.00010796016169
 20
5.04532229590567
 30
0.0
 10
37.00010437324554
 20
5.044734663622588
 30
0.0
 10
37.00010121326027
 20
5.044211010401919
 30
0.0
 10
37.00009286769673
 20
5.042767137923732
 30
0.0
 10
37.00008734580654
 20
5.041776058661531
 30
0.0
 10
37.00007384231569
 20
5.03918099216117
 30
0.0
 10
37.00006571116021
 20
5.037482921511875
 30
0.0
 10
37.00004297959477
 20
5.032163647396728
 30
0.0
 10
37.0000298302605
 20
5.028232172972436
 30
0.0
 10
37.00000644282623
 20
5.017931672112575
 30
0.0
 10
37.00000107515158
 20
5.011262230456433
 30
0.0
 10
37.00000622935031
 20
5.003027283159928
 30
0.0
 10
37.00000763272405
 20
5.001515423565187
 30
0.0
 10
37.00000948425087
 20
4.999999570123556
 30
0.0
  0
SPLINE
  5
7D0B
330
7D04
100
AcDbEntity
  8
0
100
AcDbSpline
210
0.0
220
0.0
230
1.0
 70
     8
 71
     3
 72
     8
 73
     4
 74
     0
 42
0.000000001
 43
0.0000000001
 40
0.0
 40
0.0
 40
0.0
 40
0.0
 40
0.0015511722922744
 40
0.0015511722922744
 40
0.0015511722922744
 40
0.0015511722922744
 10
34.9995598465437
 20
5.00000111615405
 30
0.0
 10
34.99956565327766
 20
5.004468810971728
 30
0.0
 10
34.99957076641533
 20
5.008847082567976
 30
0.0
 10
34.99957512909037
 20
5.01307591320864
 30
0.0
  0
SPLINE
  5
7D0C
330
7D04
100
AcDbEntity
  8
0
100
AcDbSpline
210
0.0
220
0.0
230
1.0
 70
     8
 71
     3
 72
    16
 73
    12
 74
     0
 42
0.000000001
 43
0.0000000001
 40
0.0
 40
0.0
 40
0.0
 40
0.0
 40
0.00211868117189
 40
0.00211868117189
 40
0.0037963488521762
 40
0.0037963488521762
 40
0.006049011023707
 40
0.006049011023707
 40
0.0082160740796239
 40
0.0082160740796239
 40
0.0100715168803822
 40
0.0100715168803822
 40
0.0100715168803822
 40
0.0100715168803822
 10
34.99977770285733
 20
4.999996711300775
 30
0.0
 10
34.99967060184398
 20
5.006962620959231
 30
0.0
 10
34.99956026411825
 20
5.014064376961306
 30
0.0
 10
34.99936153534793
 20
5.026708140819147
 30
0.0
 10
34.9992727194891
 20
5.032305707961554
 30
0.0
 10
34.99907108313827
 20
5.044902488100973
 30
0.0
 10
34.99895813016936
 20
5.051872739389899
 30
0.0
 10
34.99876083666272
 20
5.06395003190811
 30
0.0
 10
34.99867338960485
 20
5.069253598443209
 30
0.0
 10
34.99853375467119
 20
5.077668221317606
 30
0.0
 10
34.99847718644779
 20
5.08105233817894
 30
0.0
 10
34.99842789893553
 20
5.083983497803296
 30
0.0
  0
SPLINE
  5
7D0D
330
7D04
100
AcDbEntity
  8
0
100
AcDbSpline
210
0.0
220
0.0
230
1.0
 70
     8
 71
     3
 72
    34
 73
    30
 74
     0
 42
0.000000001
 43
0.0000000001
 40
0.0018826910017725
 40
0.0018826910017725
 40
0.0018826910017725
 40
0.0018826910017725
 40
0.0067931669925113
 40
0.0067931669925113
 40
0.0148581762759878
 40
0.0148581762759878
 40
0.021657162483864
 40
0.021657162483864
 40
0.0241181605990646
 40
0.0241181605990646
 40
0.0262721351306322
 40
0.0262721351306322
 40
0.0291183974808212
 40
0.0291183974808212
 40
0.0315307617391455
 40
0.0315307617391455
 40
0.034650620925135
 40
0.034650620925135
 40
0.0395925192936282
 40
0.0395925192936282
 40
0.0489047040335998
 40
0.0489047040335998
 40
0.0719038372184494
 40
0.0719038372184494
 40
0.1414749574083354
 40
0.1414749574083354
 40
0.2235343187032624
 40
0.2235343187032624
 40
0.2662176350989944
 40
0.2662176350989944
 40
0.2662176350989944
 40
0.2662176350989944
 10
34.99993408575556
 20
5.003821542998143
 30
0.0
 10
34.99986408235884
 20
5.007840102620704
 30
0.0
 10
34.99976229507081
 20
5.013587988997216
 30
0.0
 10
34.99943617609176
 20
5.031500952532237
 30
0.0
 10
34.99917379097048
 20
5.045479057638766
 30
0.0
 10
34.99862147508077
 20
5.074128516640219
 30
0.0
 10
34.99834195422324
 20
5.08836978792225
 30
0.0
 10
34.99789287056227
 20
5.111299852428351
 30
0.0
 10
34.99776556978271
 20
5.117807838703357
 30
0.0
 10
34.99751102760959
 20
5.13092137194066
 30
0.0
 10
34.99738418371677
 20
5.137495995195221
 30
0.0
 10
34.99708160720921
 20
5.153391725096946
 30
0.0
 10
34.99689912594361
 20
5.163147598086391
 30
0.0
 10
34.99658164288906
 20
5.180631640745648
 30
0.0
 10
34.99644054079551
 20
5.188607623551119
 30
0.0
 10
34.99613963834363
 20
5.206133284937928
 30
0.0
 10
34.99598354352507
 20
5.215623066497403
 30
0.0
 10
34.99561575572541
 20
5.238972558268142
 30
0.0
 10
34.99542133084349
 20
5.252352929417786
 30
0.0
 10
34.99492632777853
 20
5.289080360336622
 30
0.0
 10
34.99467887913385
 20
5.311076629043115
 30
0.0
 10
34.99397377071253
 20
5.384835454292753
 30
0.0
 10
34.99373075802681
 20
5.433251286794659
 30
0.0
 10
34.99330496971774
 20
5.635245133577972
 30
0.0
 10
34.99455225586695
 20
5.81157714509859
 30
0.0
 10
34.99793365450422
 20
6.233028520366014
 30
0.0
 10
34.99943798483618
 20
6.488416500996612
 30
0.0
 10
34.99998708512245
 20
6.892407450617922
 30
0.0
 10
34.99998191116092
 20
7.034078412488963
 30
0.0
 10
34.99998937018702
 20
7.175862721511943
 30
0.0
  0
SPLINE
  5
7D0E
330
7D04
100
AcDbEntity
  8
0
100
AcDbSpline
210
0.0
220
0.0
230
1.0
 70
     8
 71
     3
 72
    12
 73
     8
 74
     0
 42
0.000000001
 43
0.0000000001
 40
0.0
 40
0.0
 40
0.0
 40
0.0
 40
0.0030437042976007
 40
0.0030437042976007
 40
0.005948104151608
 40
0.005948104151608
 40
0.0077014641313962
 40
0.0077014641313962
 40
0.0077014641313962
 40
0.0077014641313962
 10
34.99994095221156
 20
4.99999987947082
 30
0.0
 10
34.99992879819975
 20
5.006961280065351
 30
0.0
 10
34.99991751862594
 20
5.012749014282017
 30
0.0
 10
34.99989988569942
 20
5.020868019031113
 30
0.0
 10
34.99989321745714
 20
5.02345476435449
 30
0.0
 10
34.99988738789279
 20
5.025581684042831
 30
0.0
 10
34.99988625762899
 20
5.025943676552708
 30
0.0
 10
34.99988625762905
 20
5.02594367653522
 30
0.0
  0
SPLINE
  5
7D0F
330
7D04
100
AcDbEntity
  8
0
100
AcDbSpline
210
0.0
220
0.0
230
1.0
 70
     8
 71
     3
 72
     8
 73
     4
 74
     0
 42
0.000000001
 43
0.0000000001
 40
0.0
 40
0.0
 40
0.0
 40
0.0
 40
0.0007120106170173
 40
0.0007120106170173
 40
0.0007120106170173
 40
0.0007120106170173
 10
39.60611379964105
 20
7.562431609149368
 30
0.0
 10
39.60533817504412
 20
7.561828670066398
 30
0.0
 10
39.60453867270004
 20
7.561207552498315
 30
0.0
 10
39.60373319772905
 20
7.560581660588447
 30
0.0
  0
SPLINE
  5
7D10
330
7D04
100
AcDbEntity
  8
0
100
AcDbSpline
210
0.0
220
0.0
230
1.0
 70
     8
 71
     3
 72
     8
 73
     4
 74
     0
 42
0.000000001
 43
0.0000000001
 40
0.0001369350470986
 40
0.0001369350470986
 40
0.0001369350470986
 40
0.0001369350470986
 40
0.0006732100683254
 40
0.0006732100683254
 40
0.0006732100683254
 40
0.0006732100683254
 10
39.60523147097868
 20
7.561745780092909
 30
0.0
 10
39.6040841106824
 20
7.560822446635484
 30
0.0
 10
39.60290028316378
 20
7.559870690234557
 30
0.0
 10
39.60168732652848
 20
7.558896434501823
 30
0.0
  0
LINE
  5
7D11
330
7D04
100
AcDbEntity
  8
0
100
AcDbLine
 10
32.99999999999999
 20
-2.0
 30
0.0
 11
-32.99999999999999
 21
-2.000000000000003
 31
0.0
  0
LINE
  5
7D12
330
7D04
100
AcDbEntity
  8
0
100
AcDbLine
 10
-32.99999999999999
 20
0.0
 30
0.0
 11
32.99999999999999
 21
0.0
 31
0.0
  0
LINE
  5
7D13
330
7D04
100
AcDbEntity
  8
0
100
AcDbLine
 10
-39.0
 20
7.562499999999987
 30
0.0
 11
-37.0
 21
7.562499999999987
 31
0.0
  0
SPLINE
  5
7D14
330
7D04
100
AcDbEntity
  8
0
100
AcDbSpline
210
0.0
220
0.0
230
1.0
 70
     8
 71
     3
 72
    14
 73
    10
 74
     0
 42
0.000000001
 43
0.0000000001
 40
0.0
 40
0.0
 40
0.0
 40
0.0
 40
0.3435201404065436
 40
0.3435201404065436
 40
0.3435201404065436
 40
0.757012756802576
 40
0.757012756802576
 40
0.757012756802576
 40
0.998652467796303
 40
0.998652467796303
 40
0.998652467796303
 40
0.998652467796303
 10
-39.60606060606066
 20
7.562499999999959
 30
0.0
 10
-39.28489935602448
 20
7.30248939774169
 30
0.0
 10
-38.87245051748374
 20
7.075286291220925
 30
0.0
 10
-38.47645515512566
 20
6.844070746817738
 30
0.0
 10
-37.99979850766284
 20
6.565758330277732
 30
0.0
 10
-37.53725634323202
 20
6.271363892346685
 30
0.0
 10
-37.26239324897362
 20
5.85787118804397
 30
0.0
 10
-37.10176682899462
 20
5.61623142567872
 30
0.0
 10
-37.00111647924114
 20
5.36104054313193
 30
0.0
 10
-37.0000092297748
 20
5.005949949952856
 30
0.0
  0
SPLINE
  5
7D15
330
7D04
100
AcDbEntity
  8
0
100
AcDbSpline
210
0.0
220
0.0
230
1.0
 70
     8
 71
     3
 72
    30
 73
    26
 74
     0
 42
0.000000001
 43
0.0000000001
 40
0.0
 40
0.0
 40
0.0
 40
0.0
 40
0.0655513429768248
 40
0.0655513429768248
 40
0.1471084880383561
 40
0.1471084880383561
 40
0.1864915416236405
 40
0.1864915416236405
 40
0.224428700716999
 40
0.224428700716999
 40
0.2339025228767815
 40
0.2339025228767815
 40
0.2360478139169582
 40
0.2360478139169582
 40
0.2376817992276479
 40
0.2376817992276479
 40
0.2393184066659154
 40
0.2393184066659154
 40
0.2426422771743795
 40
0.2426422771743795
 40
0.2492709696306362
 40
0.2492709696306362
 40
0.2559206221920233
 40
0.2559206221920233
 40
0.2643718038859762
 40
0.2643718038859762
 40
0.2643718038859762
 40
0.2643718038859762
 10
-34.99998937018702
 20
7.175862721520366
 30
0.0
 10
-34.99997791491084
 20
6.958116007948956
 30
0.0
 10
-34.99997499580917
 20
6.739551192521759
 30
0.0
 10
-34.99847087262018
 20
6.277660627219222
 30
0.0
 10
-34.99618388741884
 20
6.036330664104362
 30
0.0
 10
-34.99399786143216
 20
5.72034886109034
 30
0.0
 10
-34.99356181606238
 20
5.624108142970007
 30
0.0
 10
-34.99357524463094
 20
5.451203032657029
 30
0.0
 10
-34.9938539890707
 20
5.376438550305664
 30
0.0
 10
-34.99531495667222
 20
5.25912774544323
 30
0.0
 10
-34.99568020989591
 20
5.233633285209361
 30
0.0
 10
-34.9962832356004
 20
5.197711339099029
 30
0.0
 10
-34.99640193877476
 20
5.190833763312791
 30
0.0
 10
-34.99662079997931
 20
5.178479130770043
 30
0.0
 10
-34.99671935863349
 20
5.17301832030211
 30
0.0
 10
-34.99691927582837
 20
5.162118425561372
 30
0.0
 10
-34.99702160490601
 20
5.156626782073247
 30
0.0
 10
-34.99732644919652
 20
5.140458490996147
 30
0.0
 10
-34.99752713317085
 20
5.130072734203459
 30
0.0
 10
-34.99806275349055
 20
5.102551071502656
 30
0.0
 10
-34.99835960842084
 20
5.087518315893934
 30
0.0
 10
-34.99889075160942
 20
5.060225067438305
 30
0.0
 10
-34.99912909557131
 20
5.047794283224922
 30
0.0
 10
-34.99959874139693
 20
5.022729928482075
 30
0.0
 10
-34.99981365266338
 20
5.010727455844975
 30
0.0
 10
-34.99993408544855
 20
5.003813986637517
 30
0.0
  0
SPLINE
  5
7D16
330
7D04
100
AcDbEntity
  8
0
100
AcDbSpline
210
0.0
220
0.0
230
1.0
 70
     8
 71
     3
 72
     8
 73
     4
 74
     0
 42
0.000000001
 43
0.0000000001
 40
0.0195591544663218
 40
0.0195591544663218
 40
0.0195591544663218
 40
0.0195591544663218
 40
0.0211163010441734
 40
0.0211163010441734
 40
0.0211163010441734
 40
0.0211163010441734
 10
-34.99957522640352
 20
5.013077780466814
 30
0.0
 10
-34.99957087693727
 20
5.008861753382341
 30
0.0
 10
-34.99956567564208
 20
5.00448601814133
 30
0.0
 10
-34.9995598465437
 20
5.000001116154047
 30
0.0
  0
SPLINE
  5
7D17
330
7D04
100
AcDbEntity
  8
0
100
AcDbSpline
210
0.0
220
0.0
230
1.0
 70
     8
 71
     3
 72
    16
 73
    12
 74
     0
 42
0.000000001
 43
0.0000000001
 40
0.0328453658147035
 40
0.0328453658147035
 40
0.0328453658147035
 40
0.0328453658147035
 40
0.0346121739306713
 40
0.0346121739306713
 40
0.0362943907654835
 40
0.0362943907654835
 40
0.038872634318722
 40
0.038872634318722
 40
0.041044947557332
 40
0.041044947557332
 40
0.0429128452391337
 40
0.0429128452391337
 40
0.0429128452391337
 40
0.0429128452391337
 10
-34.99842789914639
 20
5.083983495126398
 30
0.0
 10
-34.99847484522128
 20
5.08119158226708
 30
0.0
 10
-34.99852835649448
 20
5.077991095393289
 30
0.0
 10
-34.99864665535102
 20
5.070866625281226
 30
0.0
 10
-34.99871142262012
 20
5.06694586353244
 30
0.0
 10
-34.99889097016786
 20
5.056002932255787
 30
0.0
 10
-34.99901757415395
 20
5.048221821964327
 30
0.0
 10
-34.99925928465319
 20
5.033159349413328
 30
0.0
 10
-34.99937543020024
 20
5.025840267027525
 30
0.0
 10
-34.99958650226624
 20
5.012374774107247
 30
0.0
 10
-34.99968327914826
 20
5.006138082015403
 30
0.0
 10
-34.99977770285732
 20
4.999996711300775
 30
0.0
  0
SPLINE
  5
7D18
330
7D04
100
AcDbEntity
  8
0
100
AcDbSpline
210
0.0
220
0.0
230
1.0
 70
     8
 71
     3
 72
    12
 73
     8
 74
     0
 42
0.000000001
 43
0.0000000001
 40
0.0138054908138567
 40
0.0138054908138567
 40
0.0138054908138567
 40
0.0138054908138567
 40
0.0169840789820283
 40
0.0169840789820283
 40
0.0189304805802931
 40
0.0189304805802931
 40
0.021508139164302
 40
0.021508139164302
 40
0.021508139164302
 40
0.021508139164302
 10
-34.99988625762904
 20
5.025943676538644
 30
0.0
 10
-34.99988625767155
 20
5.025943662839392
 30
0.0
 10
-34.9998900944546
 20
5.024723687324107
 30
0.0
 10
-34.99990126115659
 20
5.020165309618361
 30
0.0
 10
-34.9999066645746
 20
5.017817797887604
 30
0.0
 10
-34.99992101923492
 20
5.010952288197011
 30
0.0
 10
-34.99993065919694
 20
5.005895364788631
 30
0.0
 10
-34.99994095221156
 20
4.999999879470821
 30
0.0
  0
SPLINE
  5
7D19
330
7D04
100
AcDbEntity
  8
0
100
AcDbSpline
210
0.0
220
0.0
230
1.0
 70
     8
 71
     3
 72
    16
 73
    12
 74
     0
 42
0.000000001
 43
0.0000000001
 40
0.0
 40
0.0
 40
0.0
 40
0.0
 40
0.0041147701463435
 40
0.0041147701463435
 40
0.0050669104906263
 40
0.0050669104906263
 40
0.0058958097676561
 40
0.0058958097676561
 40
0.0067234516756903
 40
0.0067234516756903
 40
0.0081601476159878
 40
0.0081601476159878
 40
0.0081601476159878
 40
0.0081601476159878
 10
-37.00007431501604
 20
5.000000077871202
 30
0.0
 10
-37.00005236030863
 20
5.013483211823437
 30
0.0
 10
-37.00007089002006
 20
5.027436119573817
 30
0.0
 10
-37.00015518626417
 20
5.042643239121288
 30
0.0
 10
-37.00017334253751
 20
5.045373914447084
 30
0.0
 10
-37.00020680359976
 20
5.049809094557639
 30
0.0
 10
-37.00022231882156
 20
5.051629983905776
 30
0.0
 10
-37.00024914482398
 20
5.05457669181612
 30
0.0
 10
-37.00026066603042
 20
5.055732994696006
 30
0.0
 10
-37.00028457044091
 20
5.058053916456187
 30
0.0
 10
-37.00029164702566
 20
5.058649023366507
 30
0.0
 10
-37.00029164702557
 20
5.058649023357791
 30
0.0
  0
SPLINE
  5
7D1A
330
7D04
100
AcDbEntity
  8
0
100
AcDbSpline
210
0.0
220
0.0
230
1.0
 70
     8
 71
     3
 72
    18
 73
    14
 74
     0
 42
0.000000001
 43
0.0000000001
 40
0.0
 40
0.0
 40
0.0
 40
0.0
 40
0.0020456842556717
 40
0.0020456842556717
 40
0.003710379915001
 40
0.003710379915001
 40
0.0047886574619158
 40
0.0047886574619158
 40
0.0054058580371224
 40
0.0054058580371224
 40
0.0056713593913324
 40
0.0056713593913324
 40
0.0057658587678253
 40
0.0057658587678253
 40
0.0057658587678253
 40
0.0057658587678253
 10
-37.00000948370933
 20
5.000000013499223
 30
0.0
 10
-37.00000131162408
 20
5.006690848947849
 30
0.0
 10
-37.00000211672952
 20
5.013350862407514
 30
0.0
 10
-37.00001995709066
 20
5.024783520493372
 30
0.0
 10
-37.0000340505978
 20
5.029724647153084
 30
0.0
 10
-37.00006334256495
 20
5.03706867862676
 30
0.0
 10
-37.00007727322348
 20
5.03991934640701
 30
0.0
 10
-37.00009604289475
 20
5.043342733267376
 30
0.0
 10
-37.00010217954302
 20
5.044372496437371
 30
0.0
 10
-37.0001071609121
 20
5.045192182843781
 30
0.0
 10
-37.00010818416279
 20
5.045357417647862
 30
0.0
 10
-37.00010876159659
 20
5.045450624821045
 30
0.0
 10
-37.00010883935402
 20
5.045463137029145
 30
0.0
 10
-37.00010883933732
 20
5.045463134342026
 30
0.0
  0
SPLINE
  5
7D1B
330
7D04
100
AcDbEntity
  8
0
100
AcDbSpline
210
0.0
220
0.0
230
1.0
 70
     8
 71
     3
 72
     8
 73
     4
 74
     0
 42
0.000000001
 43
0.0000000001
 40
0.0
 40
0.0
 40
0.0
 40
0.0
 40
0.0007418618404526
 40
0.0007418618404526
 40
0.0007418618404526
 40
0.0007418618404526
 10
-37.00001228473427
 20
4.999999993596726
 30
0.0
 10
-37.00000823587389
 20
5.00154343845393
 30
0.0
 10
-37.00000411639132
 20
5.003177156960561
 30
0.0
 10
-36.99999998544272
 20
5.00485798904492
 30
0.0
  0
SPLINE
  5
7D1C
330
7D04
100
AcDbEntity
  8
0
100
AcDbSpline
210
0.0
220
0.0
230
1.0
 70
     8
 71
     3
 72
     8
 73
     4
 74
     0
 42
0.000000001
 43
0.0000000001
 40
0.2821157025024838
 40
0.2821157025024838
 40
0.2821157025024838
 40
0.2821157025024838
 40
0.282652157276058
 40
0.282652157276058
 40
0.282652157276058
 40
0.282652157276058
 10
-39.60168882149397
 20
7.55889777747843
 30
0.0
 10
-39.60290205680339
 20
7.559872257044281
 30
0.0
 10
-39.60408409214031
 20
7.560822438624602
 30
0.0
 10
-39.60523157680039
 20
7.561745872163275
 30
0.0
  0
SPLINE
  5
7D1D
330
7D04
100
AcDbEntity
  8
0
100
AcDbSpline
210
0.0
220
0.0
230
1.0
 70
     8
 71
     3
 72
     8
 73
     4
 74
     0
 42
0.000000001
 43
0.0000000001
 40
0.016926692625092
 40
0.016926692625092
 40
0.016926692625092
 40
0.016926692625092
 40
0.0176395326803204
 40
0.0176395326803204
 40
0.0176395326803204
 40
0.0176395326803204
 10
-39.60373955754555
 20
7.560586334682999
 30
0.0
 10
-39.60454415560356
 20
7.56121154519027
 30
0.0
 10
-39.60533727150046
 20
7.561827967688239
 30
0.0
 10
-39.60611379964105
 20
7.562431609149378
 30
0.0
  0
ARC
  5
7D1E
330
7D04
100
AcDbEntity
  8
0
100
AcDbCircle
 10
-32.99999999999999
 20
2.0
 30
0.0
 40
4.000000000000003
100
AcDbArc
 50
180.0
 51
270.0
  0
ARC
  5
7D1F
330
7D04
100
AcDbEntity
  8
0
100
AcDbCircle
 10
-32.99999999999999
 20
2.0
 30
0.0
 40
2.000000000000001
100
AcDbArc
 50
180.0
 51
270.0
  0
ARC
  5
7D20
330
7D04
100
AcDbEntity
  8
0
100
AcDbCircle
 10
32.99999999999999
 20
2.0
 30
0.0
 40
4.000000000000003
100
AcDbArc
 50
270.0
 51
0.0
  0
LINE
  5
7D21
330
7D04
100
AcDbEntity
  8
0
100
AcDbLine
 10
39.60606060606064
 20
7.562499999999985
 30
0.0
 11
76.50000000000007
 21
37.99999999999998
 31
0.0
  0
LINE
  5
7D22
330
7D04
100
AcDbEntity
  8
0
100
AcDbLine
 10
34.99999999999999
 20
5.0
 30
0.0
 11
35.0
 21
37.99999999999998
 31
0.0
  0
LINE
  5
7D23
330
7D04
100
AcDbEntity
  8
0
100
AcDbLine
 10
36.99999999999999
 20
5.0
 30
0.0
 11
34.99999999999999
 21
5.0
 31
0.0
  0
LINE
  5
7D24
330
7D04
100
AcDbEntity
  8
0
100
AcDbLine
 10
36.99999999999999
 20
37.99999999999998
 30
0.0
 11
36.99999999999999
 21
5.0
 31
0.0
  0
LINE
  5
7D25
330
7D04
100
AcDbEntity
  8
0
100
AcDbLine
 10
36.99999999999999
 20
37.99999999999998
 30
0.0
 11
35.0
 21
37.99999999999998
 31
0.0
  0
LINE
  5
7D26
330
7D04
100
AcDbEntity
  8
0
100
AcDbLine
 10
35.0
 20
37.99999999999998
 30
0.0
 11
35.0
 21
115.0
 31
0.0
  0
LINE
  5
7D27
330
7D04
100
AcDbEntity
  8
0
100
AcDbLine
 10
36.99999999999999
 20
115.0
 30
0.0
 11
36.99999999999999
 21
37.99999999999998
 31
0.0
  0
LINE
  5
7D28
330
7D04
100
AcDbEntity
  8
0
100
AcDbLine
 10
35.0
 20
115.0
 30
0.0
 11
36.99999999999999
 21
115.0
 31
0.0
  0
LINE
  5
7D29
330
7D04
100
AcDbEntity
  8
0
100
AcDbLine
 10
36.99999999999999
 20
5.0
 30
0.0
 11
36.99999999999999
 21
2.0
 31
0.0
  0
LINE
  5
7D2A
330
7D04
100
AcDbEntity
  8
0
100
AcDbLine
 10
34.99999999999999
 20
2.0
 30
0.0
 11
34.99999999999999
 21
5.0
 31
0.0
  0
ARC
  5
7D2B
330
7D04
100
AcDbEntity
  8
0
100
AcDbCircle
 10
32.99999999999999
 20
2.0
 30
0.0
 40
2.000000000000001
100
AcDbArc
 50
270.0
 51
0.0
  0
LINE
  5
7D2C
330
7D04
100
AcDbEntity
  8
0
100
AcDbLine
 10
39.0
 20
115.0
 30
0.0
 11
37.0
 21
115.0
 31
0.0
  0
LINE
  5
7D2D
330
7D04
100
AcDbEntity
  8
0
100
AcDbLine
 10
76.50000000000007
 20
37.99999999999998
 30
0.0
 11
76.5
 21
115.0
 31
0.0
  0
LINE
  5
7D2E
330
7D04
100
AcDbEntity
  8
0
100
AcDbLine
 10
76.5
 20
115.0
 30
0.0
 11
39.0
 21
115.0
 31
0.0
  0
CIRCLE
  5
7D2F
330
7D04
100
AcDbEntity
  8
0
100
AcDbCircle
 10
57.0
 20
95.0
 30
0.0
 40
6.5
  0
CIRCLE
  5
7D30
330
7D04
100
AcDbEntity
  8
0
100
AcDbCircle
 10
68.0
 20
100.0
 30
0.0
 40
2.5
  0
LINE
  5
7D31
330
7D04
100
AcDbEntity
  8
0
100
AcDbLine
 10
-76.50000000000007
 20
37.99999999999998
 30
0.0
 11
-39.60606060606064
 21
7.562499999999987
 31
0.0
  0
LINE
  5
7D32
330
7D04
100
AcDbEntity
  8
0
100
AcDbLine
 10
-35.0
 20
37.99999999999998
 30
0.0
 11
-34.99999999999999
 21
5.0
 31
0.0
  0
LINE
  5
7D33
330
7D04
100
AcDbEntity
  8
0
100
AcDbLine
 10
-36.99999999999999
 20
37.99999999999998
 30
0.0
 11
-35.0
 21
37.99999999999998
 31
0.0
  0
LINE
  5
7D34
330
7D04
100
AcDbEntity
  8
0
100
AcDbLine
 10
-36.99999999999999
 20
5.0
 30
0.0
 11
-36.99999999999999
 21
37.99999999999998
 31
0.0
  0
LINE
  5
7D35
330
7D04
100
AcDbEntity
  8
0
100
AcDbLine
 10
-34.99999999999999
 20
5.0
 30
0.0
 11
-36.99999999999999
 21
5.0
 31
0.0
  0
LINE
  5
7D36
330
7D04
100
AcDbEntity
  8
0
100
AcDbLine
 10
-35.0
 20
115.0
 30
0.0
 11
-35.0
 21
37.99999999999998
 31
0.0
  0
LINE
  5
7D37
330
7D04
100
AcDbEntity
  8
0
100
AcDbLine
 10
-36.99999999999999
 20
115.0
 30
0.0
 11
-35.0
 21
115.0
 31
0.0
  0
LINE
  5
7D38
330
7D04
100
AcDbEntity
  8
0
100
AcDbLine
 10
-36.99999999999999
 20
37.99999999999998
 30
0.0
 11
-36.99999999999999
 21
115.0
 31
0.0
  0
CIRCLE
  5
7D39
330
7D04
100
AcDbEntity
  8
0
100
AcDbCircle
 10
-57.0
 20
45.0
 30
0.0
 40
6.5
  0
CIRCLE
  5
7D3A
330
7D04
100
AcDbEntity
  8
0
100
AcDbCircle
 10
57.0
 20
45.0
 30
0.0
 40
6.5
  0
CIRCLE
  5
7D3B
330
7D04
100
AcDbEntity
  8
0
100
AcDbCircle
 10
-57.0
 20
95.0
 30
0.0
 40
6.5
  0
CIRCLE
  5
7D3C
330
7D04
100
AcDbEntity
  8
0
100
AcDbCircle
 10
-46.0
 20
30.0
 30
0.0
 40
2.5
  0
CIRCLE
  5
7D3D
330
7D04
100
AcDbEntity
  8
0
100
AcDbCircle
 10
-46.0
 20
50.0
 30
0.0
 40
2.5
  0
CIRCLE
  5
7D3E
330
7D04
100
AcDbEntity
  8
0
100
AcDbCircle
 10
-46.0
 20
70.0
 30
0.0
 40
2.5
  0
CIRCLE
  5
7D3F
330
7D04
100
AcDbEntity
  8
0
100
AcDbCircle
 10
-46.0
 20
90.0
 30
0.0
 40
2.5
  0
CIRCLE
  5
7D40
330
7D04
100
AcDbEntity
  8
0
100
AcDbCircle
 10
46.0
 20
30.0
 30
0.0
 40
2.5
  0
CIRCLE
  5
7D41
330
7D04
100
AcDbEntity
  8
0
100
AcDbCircle
 10
46.0
 20
50.0
 30
0.0
 40
2.5
  0
CIRCLE
  5
7D42
330
7D04
100
AcDbEntity
  8
0
100
AcDbCircle
 10
46.0
 20
70.0
 30
0.0
 40
2.5
  0
CIRCLE
  5
7D43
330
7D04
100
AcDbEntity
  8
0
100
AcDbCircle
 10
46.0
 20
90.0
 30
0.0
 40
2.5
  0
CIRCLE
  5
7D44
330
7D04
100
AcDbEntity
  8
0
100
AcDbCircle
 10
-46.0
 20
110.0
 30
0.0
 40
2.5
  0
CIRCLE
  5
7D45
330
7D04
100
AcDbEntity
  8
0
100
AcDbCircle
 10
46.0
 20
110.0
 30
0.0
 40
2.5
  0
CIRCLE
  5
7D46
330
7D04
100
AcDbEntity
  8
0
100
AcDbCircle
 10
-68.0
 20
40.0
 30
0.0
 40
2.5
  0
CIRCLE
  5
7D47
330
7D04
100
AcDbEntity
  8
0
100
AcDbCircle
 10
-68.0
 20
60.0
 30
0.0
 40
2.5
  0
CIRCLE
  5
7D48
330
7D04
100
AcDbEntity
  8
0
100
AcDbCircle
 10
-68.0
 20
80.0
 30
0.0
 40
2.5
  0
CIRCLE
  5
7D49
330
7D04
100
AcDbEntity
  8
0
100
AcDbCircle
 10
68.0
 20
40.0
 30
0.0
 40
2.5
  0
CIRCLE
  5
7D4A
330
7D04
100
AcDbEntity
  8
0
100
AcDbCircle
 10
68.0
 20
60.0
 30
0.0
 40
2.5
  0
CIRCLE
  5
7D4B
330
7D04
100
AcDbEntity
  8
0
100
AcDbCircle
 10
68.0
 20
80.0
 30
0.0
 40
2.5
  0
CIRCLE
  5
7D4C
330
7D04
100
AcDbEntity
  8
0
100
AcDbCircle
 10
-68.0
 20
100.0
 30
0.0
 40
2.5
  0
LINE
  5
7D4D
330
7D04
100
AcDbEntity
  8
0
100
AcDbLine
 10
-76.5
 20
115.0
 30
0.0
 11
-39.0
 21
115.0
 31
0.0
  0
LINE
  5
7D4E
330
7D04
100
AcDbEntity
  8
0
100
AcDbLine
 10
-76.50000000000007
 20
37.99999999999998
 30
0.0
 11
-76.5
 21
115.0
 31
0.0
  0
LINE
  5
7D4F
330
7D04
100
AcDbEntity
  8
0
100
AcDbLine
 10
-34.99999999999999
 20
2.0
 30
0.0
 11
-34.99999999999999
 21
5.0
 31
0.0
  0
LINE
  5
7D50
330
7D04
100
AcDbEntity
  8
0
100
AcDbLine
 10
-36.99999999999999
 20
5.0
 30
0.0
 11
-36.99999999999999
 21
2.0
 31
0.0
  0
LINE
  5
7D51
330
7D04
100
AcDbEntity
  8
0
100
AcDbLine
 10
-39.0
 20
115.0
 30
0.0
 11
-37.0
 21
115.0
 31
0.0
  0
ENDBLK
  5
7D06
330
7D04
100
AcDbEntity
  8
0
100
AcDbBlockEnd
  0
BLOCK
  5
7D53
330
7D52
100
AcDbEntity
  8
0
100
AcDbBlockBegin
  2
SAE300_70_2-Left
 70
     0
 10
0.0
 20
0.0
 30
0.0
  3
SAE300_70_2-Left
  1

  0
LINE
  5
7D55
330
7D52
100
AcDbEntity
  8
0
100
AcDbLine
 10
2.000000000000004
 20
-2.0
 30
0.0
 11
86.00000000000001
 21
-2.000000000000003
 31
0.0
  0
LINE
  5
7D56
330
7D52
100
AcDbEntity
  8
0
100
AcDbLine
 10
2.00000000000001
 20
2.000000000000004
 30
0.0
 11
2.000000000000004
 21
-1.999999999999999
 31
0.0
  0
LINE
  5
7D57
330
7D52
100
AcDbEntity
  8
0
100
AcDbLine
 10
86.00000000000001
 20
-2.000000000000003
 30
0.0
 11
86.00000000000001
 21
2.0
 31
0.0
  0
SPLINE
  5
7D58
330
7D52
100
AcDbEntity
  8
0
100
AcDbSpline
210
0.0
220
0.0
230
1.0
 70
     8
 71
     3
 72
    14
 73
    10
 74
     0
 42
0.000000001
 43
0.0000000001
 40
-0.4813026533026289
 40
-0.4813026533026289
 40
-0.4813026533026289
 40
-0.4813026533026289
 40
-0.3760960081003366
 40
-0.3760960081003366
 40
-0.3760960081003366
 40
-0.0765284972687701
 40
-0.0765284972687701
 40
-0.0765284972687701
 40
0.0
 40
0.0
 40
0.0
 40
0.0
 10
0.9454120927603602
 20
6.731760115219215
 30
0.0
 10
0.8408297880084669
 20
6.768676186078595
 30
0.0
 10
0.7371129357627117
 20
6.800540904829677
 30
0.0
 10
0.6388614064419246
 20
6.834236663210585
 30
0.0
 10
0.3590980320141119
 20
6.930182641188888
 30
0.0
 10
0.1217220476590712
 20
7.040016129675549
 30
0.0
 10
0.0342615816153242
 20
7.314433869555669
 30
0.0
 10
0.0119186445652595
 20
7.384537523982753
 30
0.0
 10
0.0000045452574061
 20
7.467696651042727
 30
0.0
 10
0.0000000001152099
 20
7.562500000040066
 30
0.0
  0
SPLINE
  5
7D59
330
7D52
100
AcDbEntity
  8
0
100
AcDbSpline
210
0.0
220
0.0
230
1.0
 70
     8
 71
     3
 72
    14
 73
    10
 74
     0
 42
0.000000001
 43
0.0000000001
 40
0.0
 40
0.0
 40
0.0
 40
0.0
 40
0.3435201404065436
 40
0.3435201404065436
 40
0.3435201404065436
 40
0.757012756802576
 40
0.757012756802576
 40
0.757012756802576
 40
1.0
 40
1.0
 40
1.0
 40
1.0
 10
2.000000000000014
 20
7.562499999999959
 30
0.0
 10
2.000036880620261
 20
7.30248939774169
 30
0.0
 10
1.996834301352275
 20
7.075286291220925
 30
0.0
 10
1.998675474349403
 20
6.844070746817738
 30
0.0
 10
2.000891680476122
 20
6.565758330277732
 30
0.0
 10
2.001068977479109
 20
6.271363892346685
 30
0.0
 10
2.001123170497652
 20
5.85787118804397
 30
0.0
 10
2.001155016803134
 20
5.614883893188544
 30
0.0
 10
2.000250524374834
 20
5.358193917906173
 30
0.0
 10
1.999999999992547
 20
5.00000000165264
 30
0.0
  0
LINE
  5
7D5A
330
7D52
100
AcDbEntity
  8
0
100
AcDbLine
 10
0.0
 20
7.562499999999985
 30
0.0
 11
2.000000000000005
 21
7.562499999999985
 31
0.0
  0
SPLINE
  5
7D5B
330
7D52
100
AcDbEntity
  8
0
100
AcDbSpline
210
0.0
220
0.0
230
1.0
 70
     8
 71
     3
 72
    18
 73
    14
 74
     0
 42
0.000000001
 43
0.0000000001
 40
0.0
 40
0.0
 40
0.0
 40
0.0
 40
0.0048729671372211
 40
0.0048729671372211
 40
0.00703538211955
 40
0.00703538211955
 40
0.0087994749872511
 40
0.0087994749872511
 40
0.0102139388696619
 40
0.0102139388696619
 40
0.0113405492795459
 40
0.0113405492795459
 40
0.0120695907488345
 40
0.0120695907488345
 40
0.0120695907488345
 40
0.0120695907488345
 10
1.999551536423711
 20
4.999998570083717
 30
0.0
 10
1.999501455261175
 20
5.015558931627404
 30
0.0
 10
1.999399311237772
 20
5.030643874952824
 30
0.0
 10
1.999203740487996
 20
5.04934394062724
 30
0.0
 10
1.999136854850847
 20
5.0547369273216
 30
0.0
 10
1.999013998696523
 20
5.063434211146367
 30
0.0
 10
1.998957798438383
 20
5.066974668638541
 30
0.0
 10
1.998866163903427
 20
5.072305960514542
 30
0.0
 10
1.998828540631402
 20
5.074323145114751
 30
0.0
 10
1.998775561642798
 20
5.077039722806773
 30
0.0
 10
1.998757115883643
 20
5.077931805654936
 30
0.0
 10
1.998739470221046
 20
5.078768885883193
 30
0.0
 10
1.998735706105161
 20
5.078940582734866
 30
0.0
 10
1.998735706096325
 20
5.078940583138422
 30
0.0
  0
SPLINE
  5
7D5C
330
7D52
100
AcDbEntity
  8
0
100
AcDbSpline
210
0.0
220
0.0
230
1.0
 70
     8
 71
     3
 72
    12
 73
     8
 74
     0
 42
0.000000001
 43
0.0000000001
 40
0.0063239168514075
 40
0.0063239168514075
 40
0.0063239168514075
 40
0.0063239168514075
 40
0.0066536744771733
 40
0.0066536744771733
 40
0.0086398637371788
 40
0.0086398637371788
 40
0.0087253469364714
 40
0.0087253469364714
 40
0.0087253469364714
 40
0.0087253469364714
 10
1.999399054355915
 20
5.028577590790482
 30
0.0
 10
1.999392884239322
 20
5.028841278156944
 30
0.0
 10
1.999387053970594
 20
5.029088799636606
 30
0.0
 10
1.999348675825758
 20
5.030709567740654
 30
0.0
 10
1.999329089675467
 20
5.031494456174236
 30
0.0
 10
1.999327499326468
 20
5.031558586865045
 30
0.0
 10
1.99932746637566
 20
5.031559914280078
 30
0.0
 10
1.999327466389774
 20
5.0315599137115
 30
0.0
  0
SPLINE
  5
7D5D
330
7D52
100
AcDbEntity
  8
0
100
AcDbSpline
210
0.0
220
0.0
230
1.0
 70
     8
 71
     3
 72
    32
 73
    28
 74
     0
 42
0.000000001
 43
0.0000000001
 40
0.004564712965851
 40
0.004564712965851
 40
0.004564712965851
 40
0.004564712965851
 40
0.0070673478729555
 40
0.0070673478729555
 40
0.0097302523659546
 40
0.0097302523659546
 40
0.0113867362547822
 40
0.0113867362547822
 40
0.0131313856171378
 40
0.0131313856171378
 40
0.015563692627128
 40
0.015563692627128
 40
0.0212052865782771
 40
0.0212052865782771
 40
0.0381194972357736
 40
0.0381194972357736
 40
0.0891487785849458
 40
0.0891487785849458
 40
0.1164039099154526
 40
0.1164039099154526
 40
0.1533844625000947
 40
0.1533844625000947
 40
0.186985908112626
 40
0.186985908112626
 40
0.2293218118138657
 40
0.2293218118138657
 40
0.2446904103017636
 40
0.2446904103017636
 40
0.2446904103017636
 40
0.2446904103017636
 10
1.999436008012875
 20
5.023433519409612
 30
0.0
 10
1.999332404454282
 20
5.027300531337993
 30
0.0
 10
1.999227682539692
 20
5.030996295269521
 30
0.0
 10
1.998981968469687
 20
5.039193709305162
 30
0.0
 10
1.998837961926589
 20
5.043808221255623
 30
0.0
 10
1.998501723918309
 20
5.053672724990564
 30
0.0
 10
1.99834422647789
 20
5.058113868440407
 30
0.0
 10
1.997972214972307
 20
5.06798627045649
 30
0.0
 10
1.997753619571897
 20
5.073491354426105
 30
0.0
 10
1.997190397662378
 20
5.086843763826393
 30
0.0
 10
1.996826631612479
 20
5.094852809530335
 30
0.0
 10
1.995525627725305
 20
5.12144433133646
 30
0.0
 10
1.994458470442276
 20
5.140200644738186
 30
0.0
 10
1.989568500884392
 20
5.214997013974923
 30
0.0
 10
1.98448783479691
 20
5.270972406441028
 30
0.0
 10
1.95779270811318
 20
5.494213261113812
 30
0.0
 10
1.923086045946826
 20
5.662765905681995
 30
0.0
 10
1.836502516970535
 20
5.908775505064307
 30
0.0
 10
1.799737008870469
 20
5.992655788990498
 30
0.0
 10
1.698972350171884
 20
6.176343064902218
 30
0.0
 10
1.628286279575304
 20
6.273004126477969
 30
0.0
 10
1.483812341536955
 20
6.426137441302658
 30
0.0
 10
1.409906182019213
 20
6.48742821806582
 30
0.0
 10
1.242075423145453
 20
6.602199312586661
 30
0.0
 10
1.14601112382335
 20
6.651413877753464
 30
0.0
 10
1.013499390023044
 20
6.706472164683212
 30
0.0
 10
0.97797019314254
 20
6.719983891625009
 30
0.0
 10
0.9420912521320479
 20
6.732597129637017
 30
0.0
  0
LINE
  5
7D5E
330
7D52
100
AcDbEntity
  8
0
100
AcDbLine
 10
2.00000000000001
 20
2.000000000000003
 30
0.0
 11
2.00000000000001
 21
5.0
 31
0.0
  0
LINE
  5
7D5F
330
7D52
100
AcDbEntity
  8
0
100
AcDbLine
 10
1.999999999999997
 20
37.99999999999998
 30
0.0
 11
2.000000000000005
 21
7.562499999999987
 31
0.0
  0
LINE
  5
7D60
330
7D52
100
AcDbEntity
  8
0
100
AcDbLine
 10
0.0
 20
37.99999999999998
 30
0.0
 11
1.999999999999997
 21
37.99999999999998
 31
0.0
  0
LINE
  5
7D61
330
7D52
100
AcDbEntity
  8
0
100
AcDbLine
 10
0.0
 20
7.562499999999985
 30
0.0
 11
0.0
 21
37.99999999999998
 31
0.0
  0
LINE
  5
7D62
330
7D52
100
AcDbEntity
  8
0
100
AcDbLine
 10
86.00000000000003
 20
5.0
 30
0.0
 11
46.00000000000003
 21
37.99999999999998
 31
0.0
  0
LINE
  5
7D63
330
7D52
100
AcDbEntity
  8
0
100
AcDbLine
 10
46.00000000000003
 20
37.99999999999998
 30
0.0
 11
46.00000000000001
 21
115.0
 31
0.0
  0
LINE
  5
7D64
330
7D52
100
AcDbEntity
  8
0
100
AcDbLine
 10
1.999999999999997
 20
37.99999999999998
 30
0.0
 11
2.00000000000001
 21
115.0
 31
0.0
  0
LINE
  5
7D65
330
7D52
100
AcDbEntity
  8
0
100
AcDbLine
 10
86.00000000000003
 20
5.0
 30
0.0
 11
86.00000000000001
 21
2.0
 31
0.0
  0
LINE
  5
7D66
330
7D52
100
AcDbEntity
  8
0
100
AcDbLine
 10
4.000000000000003
 20
115.0
 30
0.0
 11
46.00000000000001
 21
115.0
 31
0.0
  0
LINE
  5
7D67
330
7D52
100
AcDbEntity
  8
0
100
AcDbLine
 10
0.0
 20
115.0
 30
0.0
 11
2.00000000000001
 21
115.0
 31
0.0
  0
LINE
  5
7D68
330
7D52
100
AcDbEntity
  8
0
100
AcDbLine
 10
0.0
 20
37.99999999999998
 30
0.0
 11
0.0
 21
115.0
 31
0.0
  0
LINE
  5
7D69
330
7D52
100
AcDbEntity
  8
0
100
AcDbLine
 10
2.000000000000006
 20
115.0
 30
0.0
 11
4.000000000000003
 21
115.0
 31
0.0
  0
CIRCLE
  5
7D6A
330
7D52
100
AcDbEntity
  8
0
100
AcDbCircle
 10
38.50000000000001
 20
29.99999999999996
 30
0.0
 40
2.5
  0
CIRCLE
  5
7D6B
330
7D52
100
AcDbEntity
  8
0
100
AcDbCircle
 10
38.50000000000001
 20
49.99999999999996
 30
0.0
 40
2.5
  0
CIRCLE
  5
7D6C
330
7D52
100
AcDbEntity
  8
0
100
AcDbCircle
 10
38.50000000000001
 20
69.99999999999997
 30
0.0
 40
2.5
  0
CIRCLE
  5
7D6D
330
7D52
100
AcDbEntity
  8
0
100
AcDbCircle
 10
38.50000000000001
 20
89.99999999999998
 30
0.0
 40
2.5
  0
CIRCLE
  5
7D6E
330
7D52
100
AcDbEntity
  8
0
100
AcDbCircle
 10
38.50000000000001
 20
109.9999999999999
 30
0.0
 40
2.5
  0
ENDBLK
  5
7D54
330
7D52
100
AcDbEntity
  8
0
100
AcDbBlockEnd
  0
BLOCK
  5
7D70
330
7D6F
100
AcDbEntity
  8
0
100
AcDbBlockBegin
  2
SAE300_70_2-Right
 70
     0
 10
0.0
 20
0.0
 30
0.0
  3
SAE300_70_2-Right
  1

  0
SPLINE
  5
7D72
330
7D6F
100
AcDbEntity
  8
0
100
AcDbSpline
210
0.0
220
0.0
230
1.0
 70
     8
 71
     3
 72
    14
 73
    10
 74
     0
 42
0.000000001
 43
0.0000000001
 40
0.0
 40
0.0
 40
0.0
 40
0.0
 40
0.3435201404065436
 40
0.3435201404065436
 40
0.3435201404065436
 40
0.757012756802576
 40
0.757012756802576
 40
0.757012756802576
 40
1.0
 40
1.0
 40
1.0
 40
1.0
 10
-2.000000000000014
 20
7.562499999999959
 30
0.0
 10
-2.000036880620261
 20
7.30248939774169
 30
0.0
 10
-1.996834301352275
 20
7.075286291220925
 30
0.0
 10
-1.998675474349403
 20
6.844070746817738
 30
0.0
 10
-2.000891680476122
 20
6.565758330277732
 30
0.0
 10
-2.001068977479109
 20
6.271363892346685
 30
0.0
 10
-2.001123170497652
 20
5.85787118804397
 30
0.0
 10
-2.001155016803134
 20
5.614883893188544
 30
0.0
 10
-2.000250524374834
 20
5.358193917906173
 30
0.0
 10
-1.999999999992547
 20
5.00000000165264
 30
0.0
  0
SPLINE
  5
7D73
330
7D6F
100
AcDbEntity
  8
0
100
AcDbSpline
210
0.0
220
0.0
230
1.0
 70
     8
 71
     3
 72
    14
 73
    10
 74
     0
 42
0.000000001
 43
0.0000000001
 40
-0.4813026533026383
 40
-0.4813026533026383
 40
-0.4813026533026383
 40
-0.4813026533026383
 40
-0.3760960081003366
 40
-0.3760960081003366
 40
-0.3760960081003366
 40
-0.0765284972687701
 40
-0.0765284972687701
 40
-0.0765284972687701
 40
0.0
 40
0.0
 40
0.0
 40
0.0
 10
-0.9454120927603884
 20
6.731760115219206
 30
0.0
 10
-0.8408297880084855
 20
6.768676186078589
 30
0.0
 10
-0.7371129357627206
 20
6.800540904829674
 30
0.0
 10
-0.6388614064419246
 20
6.834236663210585
 30
0.0
 10
-0.3590980320141119
 20
6.930182641188888
 30
0.0
 10
-0.1217220476590712
 20
7.040016129675549
 30
0.0
 10
-0.0342615816153242
 20
7.314433869555669
 30
0.0
 10
-0.0119186445652595
 20
7.384537523982753
 30
0.0
 10
-0.0000045452574061
 20
7.467696651042727
 30
0.0
 10
-0.0000000001152099
 20
7.562500000040066
 30
0.0
  0
LINE
  5
7D74
330
7D6F
100
AcDbEntity
  8
0
100
AcDbLine
 10
-2.000000000000005
 20
7.562499999999985
 30
0.0
 11
0.0
 21
7.562499999999985
 31
0.0
  0
SPLINE
  5
7D75
330
7D6F
100
AcDbEntity
  8
0
100
AcDbSpline
210
0.0
220
0.0
230
1.0
 70
     8
 71
     3
 72
    18
 73
    14
 74
     0
 42
0.000000001
 43
0.0000000001
 40
0.0122744830585236
 40
0.0122744830585236
 40
0.0122744830585236
 40
0.0122744830585236
 40
0.012792247666122
 40
0.012792247666122
 40
0.0141039698255248
 40
0.0141039698255248
 40
0.0167552321457613
 40
0.0167552321457613
 40
0.0193828999308889
 40
0.0193828999308889
 40
0.022794975190754
 40
0.022794975190754
 40
0.0243496808515026
 40
0.0243496808515026
 40
0.0243496808515026
 40
0.0243496808515026
 10
-1.998735706096262
 20
5.078940583141302
 30
0.0
 10
-1.998735706096998
 20
5.078940583107712
 30
0.0
 10
-1.998737581483042
 20
5.078854997855454
 30
0.0
 10
-1.998750171843831
 20
5.078264942171847
 30
0.0
 10
-1.998770288867446
 20
5.077307028575004
 30
0.0
 10
-1.998852036456626
 20
5.073124271290689
 30
0.0
 10
-1.998935149899849
 20
5.068529948197354
 30
0.0
 10
-1.999099882286505
 20
5.057603421354246
 30
0.0
 10
-1.999183729707918
 20
5.051168287597388
 30
0.0
 10
-1.999352847327062
 20
5.035193523890704
 30
0.0
 10
-1.999433043625711
 20
5.025128136542537
 30
0.0
 10
-1.999514685042184
 20
5.009857885922052
 30
0.0
 10
-1.99953555817787
 20
5.004963057118826
 30
0.0
 10
-1.999551536423711
 20
4.999998570083717
 30
0.0
  0
SPLINE
  5
7D76
330
7D6F
100
AcDbEntity
  8
0
100
AcDbSpline
210
0.0
220
0.0
230
1.0
 70
     8
 71
     3
 72
    10
 73
     6
 74
     0
 42
0.000000001
 43
0.0000000001
 40
0.008674441235067
 40
0.008674441235067
 40
0.008674441235067
 40
0.008674441235067
 40
0.0108228418769429
 40
0.0108228418769429
 40
0.0110653810387668
 40
0.0110653810387668
 40
0.0110653810387668
 40
0.0110653810387668
 10
-1.999327466389653
 20
5.03155991371643
 30
0.0
 10
-1.999327466386263
 20
5.031559913853017
 30
0.0
 10
-1.999348975124402
 20
5.030701111334838
 30
0.0
 10
-1.9993898962847
 20
5.028968013019073
 30
0.0
 10
-1.999394241633739
 20
5.02878323015272
 30
0.0
 10
-1.99939877091409
 20
5.028589702861876
 30
0.0
  0
SPLINE
  5
7D77
330
7D6F
100
AcDbEntity
  8
0
100
AcDbSpline
210
0.0
220
0.0
230
1.0
 70
     8
 71
     3
 72
    28
 73
    24
 74
     0
 42
0.000000001
 43
0.0000000001
 40
0.0
 40
0.0
 40
0.0
 40
0.0
 40
0.0650016965067737
 40
0.0650016965067737
 40
0.1023228294581438
 40
0.1023228294581438
 40
0.1414747326687681
 40
0.1414747326687681
 40
0.1748987385433763
 40
0.1748987385433763
 40
0.2169224706761973
 40
0.2169224706761973
 40
0.228544298681125
 40
0.228544298681125
 40
0.2315623594384396
 40
0.2315623594384396
 40
0.2331850709337079
 40
0.2331850709337079
 40
0.234818157615361
 40
0.234818157615361
 40
0.2381012863210214
 40
0.2381012863210214
 40
0.239916075601217
 40
0.239916075601217
 40
0.239916075601217
 40
0.239916075601217
 10
-0.9420912521320719
 20
6.732597129637011
 30
0.0
 10
-1.093841721531397
 20
6.679249267769852
 30
0.0
 10
-1.242353898737819
 20
6.609887993422116
 30
0.0
 10
-1.4664517710133
 20
6.441716173712041
 30
0.0
 10
-1.547407943203906
 20
6.36594146110424
 30
0.0
 10
-1.695446554660018
 20
6.182414138255677
 30
0.0
 10
-1.76306128954853
 20
6.070407411166555
 30
0.0
 10
-1.860492149632422
 20
5.85077461309996
 30
0.0
 10
-1.895809632775778
 20
5.743215210292472
 30
0.0
 10
-1.955909904596877
 20
5.499573961210057
 30
0.0
 10
-1.976604789858786
 20
5.361783568115454
 30
0.0
 10
-1.99170837086688
 20
5.18431953878852
 30
0.0
 10
-1.994292669593186
 20
5.145600662208269
 30
0.0
 10
-1.99671676926982
 20
5.097298302548965
 30
0.0
 10
-1.997174215885994
 20
5.087308586096361
 30
0.0
 10
-1.997791800469279
 20
5.072532957220369
 30
0.0
 10
-1.997992861248613
 20
5.067444413446128
 30
0.0
 10
-1.998347803048626
 20
5.058012628325375
 30
0.0
 10
-1.998502718509538
 20
5.053642895523125
 30
0.0
 10
-1.998885696674305
 20
5.042409087594647
 30
0.0
 10
-1.999047032940749
 20
5.037119415229676
 30
0.0
 10
-1.999275993866744
 20
5.029271018422898
 30
0.0
 10
-1.999356886192828
 20
5.026374739236473
 30
0.0
 10
-1.999436029917555
 20
5.02341154909014
 30
0.0
  0
LINE
  5
7D78
330
7D6F
100
AcDbEntity
  8
0
100
AcDbLine
 10
-2.000000000000004
 20
-2.0
 30
0.0
 11
-86.00000000000001
 21
-2.0
 31
0.0
  0
LINE
  5
7D79
330
7D6F
100
AcDbEntity
  8
0
100
AcDbLine
 10
-2.00000000000001
 20
2.000000000000003
 30
0.0
 11
-2.00000000000001
 21
5.0
 31
0.0
  0
LINE
  5
7D7A
330
7D6F
100
AcDbEntity
  8
0
100
AcDbLine
 10
-2.00000000000001
 20
2.000000000000004
 30
0.0
 11
-2.000000000000004
 21
-1.999999999999999
 31
0.0
  0
LINE
  5
7D7B
330
7D6F
100
AcDbEntity
  8
0
100
AcDbLine
 10
-86.00000000000001
 20
-2.000000000000003
 30
0.0
 11
-86.00000000000001
 21
2.0
 31
0.0
  0
LINE
  5
7D7C
330
7D6F
100
AcDbEntity
  8
0
100
AcDbLine
 10
0.0
 20
37.99999999999998
 30
0.0
 11
0.0
 21
7.562499999999987
 31
0.0
  0
LINE
  5
7D7D
330
7D6F
100
AcDbEntity
  8
0
100
AcDbLine
 10
-1.999999999999997
 20
37.99999999999998
 30
0.0
 11
0.0
 21
37.99999999999998
 31
0.0
  0
LINE
  5
7D7E
330
7D6F
100
AcDbEntity
  8
0
100
AcDbLine
 10
-2.000000000000005
 20
7.562499999999985
 30
0.0
 11
-1.999999999999997
 21
37.99999999999998
 31
0.0
  0
LINE
  5
7D7F
330
7D6F
100
AcDbEntity
  8
0
100
AcDbLine
 10
0.0
 20
37.99999999999998
 30
0.0
 11
0.0
 21
115.0
 31
0.0
  0
CIRCLE
  5
7D80
330
7D6F
100
AcDbEntity
  8
0
100
AcDbCircle
 10
-38.50000000000002
 20
100.0
 30
0.0
 40
2.5
  0
LINE
  5
7D81
330
7D6F
100
AcDbEntity
  8
0
100
AcDbLine
 10
-46.00000000000003
 20
37.99999999999998
 30
0.0
 11
-86.00000000000003
 21
5.0
 31
0.0
  0
LINE
  5
7D82
330
7D6F
100
AcDbEntity
  8
0
100
AcDbLine
 10
-46.00000000000001
 20
115.0
 30
0.0
 11
-46.00000000000003
 21
37.99999999999998
 31
0.0
  0
LINE
  5
7D83
330
7D6F
100
AcDbEntity
  8
0
100
AcDbLine
 10
-86.00000000000003
 20
5.0
 30
0.0
 11
-86.00000000000001
 21
2.0
 31
0.0
  0
LINE
  5
7D84
330
7D6F
100
AcDbEntity
  8
0
100
AcDbLine
 10
-4.000000000000003
 20
115.0
 30
0.0
 11
-46.00000000000001
 21
115.0
 31
0.0
  0
LINE
  5
7D85
330
7D6F
100
AcDbEntity
  8
0
100
AcDbLine
 10
-2.000000000000006
 20
115.0
 30
0.0
 11
-4.000000000000003
 21
115.0
 31
0.0
  0
LINE
  5
7D86
330
7D6F
100
AcDbEntity
  8
0
100
AcDbLine
 10
0.0
 20
115.0
 30
0.0
 11
-2.00000000000001
 21
115.0
 31
0.0
  0
LINE
  5
7D87
330
7D6F
100
AcDbEntity
  8
0
100
AcDbLine
 10
-1.999999999999997
 20
37.99999999999998
 30
0.0
 11
-2.00000000000001
 21
115.0
 31
0.0
  0
CIRCLE
  5
7D88
330
7D6F
100
AcDbEntity
  8
0
100
AcDbCircle
 10
-38.50000000000002
 20
19.99999999999998
 30
0.0
 40
2.5
  0
CIRCLE
  5
7D89
330
7D6F
100
AcDbEntity
  8
0
100
AcDbCircle
 10
-38.50000000000002
 20
39.99999999999999
 30
0.0
 40
2.5
  0
CIRCLE
  5
7D8A
330
7D6F
100
AcDbEntity
  8
0
100
AcDbCircle
 10
-38.50000000000002
 20
59.99999999999999
 30
0.0
 40
2.5
  0
CIRCLE
  5
7D8B
330
7D6F
100
AcDbEntity
  8
0
100
AcDbCircle
 10
-38.50000000000002
 20
79.99999999999999
 30
0.0
 40
2.5
  0
SPLINE
  5
7D8C
330
7D6F
100
AcDbEntity
  8
0
100
AcDbSpline
210
0.0
220
0.0
230
1.0
 70
     8
 71
     3
 72
    10
 73
     6
 74
     0
 42
0.000000001
 43
0.0000000001
 40
0.0218311961771729
 40
0.0218311961771729
 40
0.0218311961771729
 40
0.0218311961771729
 40
0.022794975190754
 40
0.022794975190754
 40
0.0243496808515026
 40
0.0243496808515026
 40
0.0243496808515026
 40
0.0243496808515026
 10
-1.999436029917556
 20
5.023411549090141
 30
0.0
 10
-1.999455521736233
 20
5.020530118421751
 30
0.0
 10
-1.999473287473121
 20
5.017600907564351
 30
0.0
 10
-1.999514685042184
 20
5.009857885922052
 30
0.0
 10
-1.99953555817787
 20
5.004963057118826
 30
0.0
 10
-1.999551536423711
 20
4.999998570083717
 30
0.0
  0
ENDBLK
  5
7D71
330
7D6F
100
AcDbEntity
  8
0
100
AcDbBlockEnd
  0
BLOCK
  5
7D8E
330
7D8D
100
AcDbEntity
  8
0
100
AcDbBlockBegin
  2
SAE300_70_2-Top
 70
     0
 10
0.0
 20
0.0
 30
0.0
  3
SAE300_70_2-Top
  1

  0
LINE
  5
7D90
330
7D8D
100
AcDbEntity
  8
0
100
AcDbLine
 10
35.00000000000002
 20
-2.000000000000007
 30
0.0
 11
35.00000000000002
 21
-2.069004766155072
 31
0.0
  0
SPLINE
  5
7D91
330
7D8D
100
AcDbEntity
  8
0
100
AcDbSpline
210
0.0
220
0.0
230
1.0
 70
     8
 71
     3
 72
    11
 73
     7
 74
     0
 42
0.000000001
 43
0.0000000001
 40
-1.0
 40
-1.0
 40
-1.0
 40
-1.0
 40
-0.7994286890773533
 40
-0.7994286890773533
 40
-0.7994286890773533
 40
-0.6533573777220722
 40
-0.6533573777220722
 40
-0.6533573777220722
 40
-0.6533573777220722
 10
35.00000000000002
 20
-2.000000000000016
 30
0.0
 10
34.99999961270346
 20
-1.999093543230753
 30
0.0
 10
35.12633150600102
 20
-1.919863896637736
 30
0.0
 10
35.33607694562268
 20
-1.790687786211022
 30
0.0
 10
35.48882955652894
 20
-1.696611899889065
 30
0.0
 10
35.68837056419864
 20
-1.577391377855162
 30
0.0
 10
35.91982716790678
 20
-1.445337717162817
 30
0.0
  0
SPLINE
  5
7D92
330
7D8D
100
AcDbEntity
  8
0
100
AcDbSpline
210
0.0
220
0.0
230
1.0
 70
     8
 71
     3
 72
    24
 73
    20
 74
     0
 42
0.000000001
 43
0.0000000001
 40
0.0
 40
0.0
 40
0.0
 40
0.0
 40
0.0062834381645636
 40
0.0062834381645636
 40
0.0147058050184497
 40
0.0147058050184497
 40
0.037375579488417
 40
0.037375579488417
 40
0.0501947863124144
 40
0.0501947863124144
 40
0.0667265035421266
 40
0.0667265035421266
 40
0.0742906734682973
 40
0.0742906734682973
 40
0.0802483922370627
 40
0.0802483922370627
 40
0.0850816717944179
 40
0.0850816717944179
 40
0.0856957592876256
 40
0.0856957592876256
 40
0.0856957592876256
 40
0.0856957592876256
 10
39.56214430294034
 20
-2.000020290751287
 30
0.0
 10
39.54700960594346
 20
-2.00002142546291
 30
0.0
 10
39.52948500192313
 20
-2.00002842579613
 30
0.0
 10
39.48709187797683
 20
-2.000060615576162
 30
0.0
 10
39.46142391775125
 20
-2.000092345612438
 30
0.0
 10
39.36626722119466
 20
-2.000257841537239
 30
0.0
 10
39.29520834427787
 20
-2.000490386306145
 30
0.0
 10
39.18816022243309
 20
-2.000912253182808
 30
0.0
 10
39.15315286482808
 20
-2.001031881988937
 30
0.0
 10
39.07005262743675
 20
-2.001571974319432
 30
0.0
 10
39.01830295957404
 20
-2.002077321669239
 30
0.0
 10
38.93976339571906
 20
-2.004016812801162
 30
0.0
 10
38.91447637073728
 20
-2.004811672123624
 30
0.0
 10
38.86944309083931
 20
-2.006675242106978
 30
0.0
 10
38.84947739847208
 20
-2.007658890939059
 30
0.0
 10
38.81421215932613
 20
-2.009735979592699
 30
0.0
 10
38.79857684680316
 20
-2.01078499056423
 30
0.0
 10
38.78191517636995
 20
-2.012048873469622
 30
0.0
 10
38.78004721646848
 20
-2.01219290987864
 30
0.0
 10
38.77819292848897
 20
-2.012337841306735
 30
0.0
  0
SPLINE
  5
7D93
330
7D8D
100
AcDbEntity
  8
0
100
AcDbSpline
210
0.0
220
0.0
230
1.0
 70
     8
 71
     3
 72
    10
 73
     6
 74
     0
 42
0.000000001
 43
0.0000000001
 40
0.0662129554662176
 40
0.0662129554662176
 40
0.0662129554662176
 40
0.0662129554662176
 40
0.0674413383536684
 40
0.0674413383536684
 40
0.0706012009805467
 40
0.0706012009805467
 40
0.0706012009805467
 40
0.0706012009805467
 10
37.00189270278939
 20
-3.913021602244885
 30
0.0
 10
37.00179633190463
 20
-3.916137798127015
 30
0.0
 10
37.00170141109822
 20
-3.919304415191495
 30
0.0
 10
37.00137023791736
 20
-3.930825839935021
 30
0.0
 10
37.00114394119494
 20
-3.939519345499107
 30
0.0
 10
37.00093640231667
 20
-3.948477388702353
 30
0.0
  0
SPLINE
  5
7D94
330
7D8D
100
AcDbEntity
  8
0
100
AcDbSpline
210
0.0
220
0.0
230
1.0
 70
     8
 71
     3
 72
    12
 73
     8
 74
     0
 42
0.000000001
 43
0.0000000001
 40
0.0101225225004046
 40
0.0101225225004046
 40
0.0101225225004046
 40
0.0101225225004046
 40
0.0121419227741272
 40
0.0121419227741272
 40
0.01338406334083
 40
0.01338406334083
 40
0.014106456194495
 40
0.014106456194495
 40
0.014106456194495
 40
0.014106456194495
 10
36.99998998734782
 20
-3.99841211900069
 30
0.0
 10
36.99998998734739
 20
-3.998412118934187
 30
0.0
 10
36.999990689009
 20
-3.998522847586222
 30
0.0
 10
36.99999495447296
 20
-3.999182895994587
 30
0.0
 10
36.99999821558688
 20
-3.999685158902488
 30
0.0
 10
37.00000191873675
 20
-4.000252312203086
 30
0.0
 10
37.0000028530883
 20
-4.000394832766136
 30
0.0
 10
37.00000285306453
 20
-4.000394829139103
 30
0.0
  0
SPLINE
  5
7D95
330
7D8D
100
AcDbEntity
  8
0
100
AcDbSpline
210
0.0
220
0.0
230
1.0
 70
     8
 71
     3
 72
    16
 73
    12
 74
     0
 42
0.000000001
 43
0.0000000001
 40
0.0298160531256647
 40
0.0298160531256647
 40
0.0298160531256647
 40
0.0298160531256647
 40
0.0305405648673436
 40
0.0305405648673436
 40
0.0359537601575415
 40
0.0359537601575415
 40
0.0382249017211361
 40
0.0382249017211361
 40
0.0413340218647909
 40
0.0413340218647909
 40
0.0433661954849821
 40
0.0433661954849821
 40
0.0433661954849821
 40
0.0433661954849821
 10
37.00114771962333
 20
-3.937776707726254
 30
0.0
 10
37.0011477196248
 20
-3.937776707660454
 30
0.0
 10
37.00114687915578
 20
-3.937814367976466
 30
0.0
 10
37.00113196445791
 20
-3.938489932775942
 30
0.0
 10
37.0010577948758
 20
-3.941612150335867
 30
0.0
 10
37.00087662463083
 20
-3.951851210883774
 30
0.0
 10
37.00081397894698
 20
-3.955643233952619
 30
0.0
 10
37.00066070309761
 20
-3.966444208217673
 30
0.0
 10
37.00056980496093
 20
-3.974140975459334
 30
0.0
 10
37.00045087400384
 20
-3.988060778204331
 30
0.0
 10
37.00041102190707
 20
-3.993926937745051
 30
0.0
 10
37.00037993280679
 20
-4.000001916296975
 30
0.0
  0
SPLINE
  5
7D96
330
7D8D
100
AcDbEntity
  8
0
100
AcDbSpline
210
0.0
220
0.0
230
1.0
 70
     8
 71
     3
 72
    28
 73
    24
 74
     0
 42
0.000000001
 43
0.0000000001
 40
0.0059924018438003
 40
0.0059924018438003
 40
0.0059924018438003
 40
0.0059924018438003
 40
0.0060018369457903
 40
0.0060018369457903
 40
0.0060343725499163
 40
0.0060343725499163
 40
0.0061001204967449
 40
0.0061001204967449
 40
0.0063665705332856
 40
0.0063665705332856
 40
0.0733611919301812
 40
0.0733611919301812
 40
0.1461777906729132
 40
0.1461777906729132
 40
0.1822197185075509
 40
0.1822197185075509
 40
0.2005090906755811
 40
0.2005090906755811
 40
0.2098937702794569
 40
0.2098937702794569
 40
0.2150065164788117
 40
0.2150065164788117
 40
0.2204217707674446
 40
0.2204217707674446
 40
0.2204217707674446
 40
0.2204217707674446
 10
34.99996683550283
 20
-3.99826242436322
 30
0.0
 10
34.99996641657394
 20
-3.998238326928391
 30
0.0
 10
34.9999659870496
 20
-3.998213618886178
 30
0.0
 10
34.99996402994047
 20
-3.998101032093944
 30
0.0
 10
34.99996237794059
 20
-3.998005981888796
 30
0.0
 10
34.9999571754552
 20
-3.9977065866831
 30
0.0
 10
34.99995334680287
 20
-3.997486167919159
 30
0.0
 10
34.9999341979391
 20
-3.996383246005503
 30
0.0
 10
34.99991873432976
 20
-3.995490974864199
 30
0.0
 10
34.99618179790325
 20
-3.779498087078098
 30
0.0
 10
34.9944438285001
 20
-3.58531020899204
 30
0.0
 10
34.99316940674936
 20
-3.164116983867673
 30
0.0
 10
34.9937551975617
 20
-2.938044663078244
 30
0.0
 10
34.99572386740279
 20
-2.597038477950202
 30
0.0
 10
34.99651060731981
 20
-2.485243357110755
 30
0.0
 10
34.99791998574572
 20
-2.319629730940956
 30
0.0
 10
34.99852173086764
 20
-2.262940904154159
 30
0.0
 10
34.99923838890035
 20
-2.180972752888076
 30
0.0
 10
34.99942028491228
 20
-2.15399271397283
 30
0.0
 10
34.9995563367583
 20
-2.117588859988371
 30
0.0
 10
34.99957946479232
 20
-2.105610810249027
 30
0.0
 10
34.99959432353947
 20
-2.084188235330893
 30
0.0
 10
34.99958391144664
 20
-2.074632505425692
 30
0.0
 10
34.9995722882978
 20
-2.069004766155072
 30
0.0
  0
SPLINE
  5
7D97
330
7D8D
100
AcDbEntity
  8
0
100
AcDbSpline
210
0.0
220
0.0
230
1.0
 70
     8
 71
     3
 72
    12
 73
     8
 74
     0
 42
0.000000001
 43
0.0000000001
 40
0.0
 40
0.0
 40
0.0
 40
0.0
 40
0.0073680638600468
 40
0.0073680638600468
 40
0.0094714794537617
 40
0.0094714794537617
 40
0.010689234427606
 40
0.010689234427606
 40
0.010689234427606
 40
0.010689234427606
 10
34.99996053853828
 20
-3.999985503002876
 30
0.0
 10
35.00000120689117
 20
-3.988738678368682
 30
0.0
 10
35.00005705426694
 20
-3.976817397494731
 30
0.0
 10
35.00011475911468
 20
-3.966829073071812
 30
0.0
 10
35.00012596496195
 20
-3.965004429935917
 30
0.0
 10
35.00013624741432
 20
-3.96334074946041
 30
0.0
 10
35.00013843227574
 20
-3.96298923978269
 30
0.0
 10
35.00013843227569
 20
-3.962989239790534
 30
0.0
  0
LINE
  5
7D98
330
7D8D
100
AcDbEntity
  8
0
100
AcDbLine
 10
-35.00000000000002
 20
-2.000000000000007
 30
0.0
 11
-35.00000000000002
 21
-2.069004766154951
 31
0.0
  0
SPLINE
  5
7D99
330
7D8D
100
AcDbEntity
  8
0
100
AcDbSpline
210
0.0
220
0.0
230
1.0
 70
     8
 71
     3
 72
    11
 73
     7
 74
     0
 42
0.000000001
 43
0.0000000001
 40
-1.0
 40
-1.0
 40
-1.0
 40
-1.0
 40
-0.7994286890773533
 40
-0.7994286890773533
 40
-0.7994286890773533
 40
-0.6533573777220722
 40
-0.6533573777220722
 40
-0.6533573777220722
 40
-0.6533573777220722
 10
-35.00000000000002
 20
-2.000000000000016
 30
0.0
 10
-34.99999961270346
 20
-1.999093543230753
 30
0.0
 10
-35.12633150600102
 20
-1.919863896637736
 30
0.0
 10
-35.33607694562268
 20
-1.790687786211022
 30
0.0
 10
-35.48882955652894
 20
-1.696611899889065
 30
0.0
 10
-35.68837056419864
 20
-1.577391377855162
 30
0.0
 10
-35.91982716790678
 20
-1.445337717162817
 30
0.0
  0
SPLINE
  5
7D9A
330
7D8D
100
AcDbEntity
  8
0
100
AcDbSpline
210
0.0
220
0.0
230
1.0
 70
     8
 71
     3
 72
    40
 73
    36
 74
     0
 42
0.000000001
 43
0.0000000001
 40
0.0
 40
0.0
 40
0.0
 40
0.0
 40
0.0038040598008388
 40
0.0038040598008388
 40
0.0084789254208772
 40
0.0084789254208772
 40
0.015805447823946
 40
0.015805447823946
 40
0.0260000339603031
 40
0.0260000339603031
 40
0.0495206343553912
 40
0.0495206343553912
 40
0.1201103983020344
 40
0.1201103983020344
 40
0.1773337569958864
 40
0.1773337569958864
 40
0.1996793210523219
 40
0.1996793210523219
 40
0.2080576298197862
 40
0.2080576298197862
 40
0.2111994536827979
 40
0.2111994536827979
 40
0.2135558718976147
 40
0.2135558718976147
 40
0.2139977582257388
 40
0.2139977582257388
 40
0.2143300852694683
 40
0.2143300852694683
 40
0.2143843564822264
 40
0.2143843564822264
 40
0.2144316605105744
 40
0.2144316605105744
 40
0.2144792390464469
 40
0.2144792390464469
 40
0.2144971596520284
 40
0.2144971596520284
 40
0.2144971596520284
 40
0.2144971596520284
 10
-34.99957228829781
 20
-2.069004766154951
 30
0.0
 10
-34.99958045322431
 20
-2.072958090520922
 30
0.0
 10
-34.99958825487933
 20
-2.078881092809234
 30
0.0
 10
-34.99959053786108
 20
-2.094285445131062
 30
0.0
 10
-34.99958182785658
 20
-2.104402911792992
 30
0.0
 10
-34.9995128732438
 20
-2.132562809674972
 30
0.0
 10
-34.9994221662468
 20
-2.152170789648409
 30
0.0
 10
-34.99908018252344
 20
-2.201629641885615
 30
0.0
 10
-34.99878019265912
 20
-2.232656804562915
 30
0.0
 10
-34.9977792758498
 20
-2.335149022712862
 30
0.0
 10
-34.99716324841592
 20
-2.406783096814859
 30
0.0
 10
-34.99498744669112
 20
-2.695965524031251
 30
0.0
 10
-34.99378539073651
 20
-2.921302549694745
 30
0.0
 10
-34.99344334744709
 20
-3.312943751555577
 30
0.0
 10
-34.99387955182958
 20
-3.483506428592362
 30
0.0
 10
-34.99604610983765
 20
-3.724044489085241
 30
0.0
 10
-34.99683120511637
 20
-3.79215875930171
 30
0.0
 10
-34.99816331322917
 20
-3.886565431796645
 30
0.0
 10
-34.99855192429661
 20
-3.912373810547798
 30
0.0
 10
-34.99912013925417
 20
-3.947930085620993
 30
0.0
 10
-34.99927855679697
 20
-3.957633753380021
 30
0.0
 10
-34.99956197418321
 20
-3.974638554788361
 30
0.0
 10
-34.99968506336355
 20
-3.981912972073219
 30
0.0
 10
-34.99983522419078
 20
-3.990654827239988
 30
0.0
 10
-34.99985906984318
 20
-3.992039214573784
 30
0.0
 10
-34.99990152980391
 20
-3.994497293278362
 30
0.0
 10
-34.99992010930876
 20
-3.99557067747383
 30
0.0
 10
-34.9999424012081
 20
-3.996855640574732
 30
0.0
 10
-34.99994555608113
 20
-3.997037430128336
 30
0.0
 10
-34.99995141896957
 20
-3.997375138798806
 30
0.0
 10
-34.9999541557214
 20
-3.997532728108633
 30
0.0
 10
-34.99995943837666
 20
-3.997836826557135
 30
0.0
 10
-34.99996202134973
 20
-3.997985468201997
 30
0.0
 10
-34.99996520048338
 20
-3.998168371412564
 30
0.0
 10
-34.99996603703563
 20
-3.998216495266694
 30
0.0
 10
-34.99996683550316
 20
-3.998262424276832
 30
0.0
  0
SPLINE
  5
7D9B
330
7D8D
100
AcDbEntity
  8
0
100
AcDbSpline
210
0.0
220
0.0
230
1.0
 70
     8
 71
     3
 72
    14
 73
    10
 74
     0
 42
0.000000001
 43
0.0000000001
 40
0.0077867807786309
 40
0.0077867807786309
 40
0.0077867807786309
 40
0.0077867807786309
 40
0.0083979033323802
 40
0.0083979033323802
 40
0.0105249655086306
 40
0.0105249655086306
 40
0.0138644923717688
 40
0.0138644923717688
 40
0.0184801346751969
 40
0.0184801346751969
 40
0.0184801346751969
 40
0.0184801346751969
 10
-35.0001384322757
 20
-3.962989239788714
 30
0.0
 10
-35.00013843227566
 20
-3.962989239794037
 30
0.0
 10
-35.00013788506605
 20
-3.963077842532782
 30
0.0
 10
-35.00013331027535
 20
-3.963815700379651
 30
0.0
 10
-35.00012394049618
 20
-3.965314845199999
 30
0.0
 10
-35.00009364632151
 20
-3.970424767511074
 30
0.0
 10
-35.00006960355223
 20
-3.974738183394348
 30
0.0
 10
-35.0000154337408
 20
-3.985811780978812
 30
0.0
 10
-34.99998601477922
 20
-3.992940053812346
 30
0.0
 10
-34.99996053853831
 20
-3.999985503002878
 30
0.0
  0
SPLINE
  5
7D9C
330
7D8D
100
AcDbEntity
  8
0
100
AcDbSpline
210
0.0
220
0.0
230
1.0
 70
     8
 71
     3
 72
    10
 73
     6
 74
     0
 42
0.000000001
 43
0.0000000001
 40
0.0391508869827166
 40
0.0391508869827166
 40
0.0391508869827166
 40
0.0391508869827166
 40
0.0423952200934119
 40
0.0423952200934119
 40
0.0435411864124207
 40
0.0435411864124207
 40
0.0435411864124207
 40
0.0435411864124207
 10
-37.00093517807334
 20
-3.948632987338585
 30
0.0
 10
-37.00114838711605
 20
-3.939430201664169
 30
0.0
 10
-37.00138202196411
 20
-3.930374016050461
 30
0.0
 10
-37.00171424707519
 20
-3.918874903885197
 30
0.0
 10
-37.00180281592571
 20
-3.915923583686615
 30
0.0
 10
-37.00189265282525
 20
-3.913018667154009
 30
0.0
  0
SPLINE
  5
7D9D
330
7D8D
100
AcDbEntity
  8
0
100
AcDbSpline
210
0.0
220
0.0
230
1.0
 70
     8
 71
     3
 72
    14
 73
    10
 74
     0
 42
0.000000001
 43
0.0000000001
 40
0.0
 40
0.0
 40
0.0
 40
0.0
 40
0.004262959094119
 40
0.004262959094119
 40
0.0078984680389399
 40
0.0078984680389399
 40
0.0110131178501392
 40
0.0110131178501392
 40
0.0135447393971627
 40
0.0135447393971627
 40
0.0135447393971627
 40
0.0135447393971627
 10
-37.00037993280679
 20
-4.000001916296977
 30
0.0
 10
-37.00044514946027
 20
-3.987258229041362
 30
0.0
 10
-37.00055430095866
 20
-3.975277107430728
 30
0.0
 10
-37.0007780915401
 20
-3.957593796926623
 30
0.0
 10
-37.00088547668074
 20
-3.951225734264183
 30
0.0
 10
-37.00103360571554
 20
-3.943153124939054
 30
0.0
 10
-37.00108435725786
 20
-3.940732005471034
 30
0.0
 10
-37.00113729054135
 20
-3.9382365900481
 30
0.0
 10
-37.00114771962692
 20
-3.937776707565745
 30
0.0
 10
-37.00114771962332
 20
-3.937776707727333
 30
0.0
  0
SPLINE
  5
7D9E
330
7D8D
100
AcDbEntity
  8
0
100
AcDbSpline
210
0.0
220
0.0
230
1.0
 70
     8
 71
     3
 72
    22
 73
    18
 74
     0
 42
0.000000001
 43
0.0000000001
 40
0.0482163190828166
 40
0.0482163190828166
 40
0.0482163190828166
 40
0.0482163190828166
 40
0.0509981140354372
 40
0.0509981140354372
 40
0.0569754081522558
 40
0.0569754081522558
 40
0.0655197408861148
 40
0.0655197408861148
 40
0.0767721190526815
 40
0.0767721190526815
 40
0.090367114829657
 40
0.090367114829657
 40
0.1102392321341414
 40
0.1102392321341414
 40
0.1292954517795078
 40
0.1292954517795078
 40
0.1339206631381286
 40
0.1339206631381286
 40
0.1339206631381286
 40
0.1339206631381286
 10
-38.77819167801199
 20
-2.012338267883055
 30
0.0
 10
-38.7865904690267
 20
-2.01168181711085
 30
0.0
 10
-38.79531792543637
 20
-2.011044009132378
 30
0.0
 10
-38.82316704815828
 20
-2.009151312392121
 30
0.0
 10
-38.84302349518298
 20
-2.008007798629019
 30
0.0
 10
-38.89123820032526
 20
-2.005661044524075
 30
0.0
 10
-38.92006915218064
 20
-2.004616214352167
 30
0.0
 10
-38.98510336215925
 20
-2.002806532547221
 30
0.0
 10
-39.02144266024972
 20
-2.002204352179115
 30
0.0
 10
-39.09667311482756
 20
-2.001331199108612
 30
0.0
 10
-39.13416731172721
 20
-2.001142643718251
 30
0.0
 10
-39.22829247937596
 20
-2.000739711459716
 30
0.0
 10
-39.29211666858144
 20
-2.000484285735474
 30
0.0
 10
-39.41127173897728
 20
-2.000161538223266
 30
0.0
 10
-39.4721914591227
 20
-2.000063587337878
 30
0.0
 10
-39.53854612040751
 20
-2.000025166696307
 30
0.0
 10
-39.55100371865731
 20
-2.000021126007553
 30
0.0
 10
-39.56214430294031
 20
-2.000020290751288
 30
0.0
  0
LINE
  5
7D9F
330
7D8D
100
AcDbEntity
  8
0
100
AcDbLine
 10
-35.0
 20
-2.000000000000007
 30
0.0
 11
-33.0
 21
-2.000000000000004
 31
0.0
  0
LINE
  5
7DA0
330
7D8D
100
AcDbEntity
  8
0
100
AcDbLine
 10
-35.0
 20
-86.00000000000001
 30
0.0
 11
-32.99999999999999
 21
-86.00000000000001
 31
0.0
  0
LINE
  5
7DA1
330
7D8D
100
AcDbEntity
  8
0
100
AcDbLine
 10
33.00000000000001
 20
-2.000000000000004
 30
0.0
 11
-33.00000000000001
 21
-2.000000000000004
 31
0.0
  0
LINE
  5
7DA2
330
7D8D
100
AcDbEntity
  8
0
100
AcDbLine
 10
-32.99999999999999
 20
-86.00000000000001
 30
0.0
 11
32.99999999999999
 21
-86.00000000000001
 31
0.0
  0
CIRCLE
  5
7DA3
330
7D8D
100
AcDbEntity
  8
0
100
AcDbCircle
 10
0.0
 20
-47.99999999999998
 30
0.0
 40
2.5
  0
CIRCLE
  5
7DA4
330
7D8D
100
AcDbEntity
  8
0
100
AcDbCircle
 10
0.0
 20
-67.99999999999998
 30
0.0
 40
2.5
  0
LINE
  5
7DA5
330
7D8D
100
AcDbEntity
  8
0
100
AcDbLine
 10
35.0
 20
-2.000000000000007
 30
0.0
 11
33.0
 21
-2.000000000000004
 31
0.0
  0
LINE
  5
7DA6
330
7D8D
100
AcDbEntity
  8
0
100
AcDbLine
 10
39.0
 20
0.0
 30
0.0
 11
76.5
 21
0.0
 31
0.0
  0
ARC
  5
7DA7
330
7D8D
100
AcDbEntity
  8
0
100
AcDbCircle
 10
39.0
 20
-4.000000000000004
 30
0.0
 40
3.999999999999999
100
AcDbArc
 50
90.00000000000012
 51
180.0
  0
LINE
  5
7DA8
330
7D8D
100
AcDbEntity
  8
0
100
AcDbLine
 10
34.99999999999999
 20
-86.00000000000003
 30
0.0
 11
35.0
 21
-46.00000000000003
 31
0.0
  0
LINE
  5
7DA9
330
7D8D
100
AcDbEntity
  8
0
100
AcDbLine
 10
36.99999999999999
 20
-86.00000000000003
 30
0.0
 11
34.99999999999999
 21
-86.00000000000003
 31
0.0
  0
LINE
  5
7DAA
330
7D8D
100
AcDbEntity
  8
0
100
AcDbLine
 10
36.99999999999999
 20
-46.00000000000003
 30
0.0
 11
36.99999999999999
 21
-86.00000000000003
 31
0.0
  0
LINE
  5
7DAB
330
7D8D
100
AcDbEntity
  8
0
100
AcDbLine
 10
35.0
 20
-46.00000000000001
 30
0.0
 11
36.99999999999999
 21
-46.00000000000001
 31
0.0
  0
LINE
  5
7DAC
330
7D8D
100
AcDbEntity
  8
0
100
AcDbLine
 10
37.0
 20
-4.000000000000003
 30
0.0
 11
36.99999999999999
 21
-46.00000000000001
 31
0.0
  0
LINE
  5
7DAD
330
7D8D
100
AcDbEntity
  8
0
100
AcDbLine
 10
35.0
 20
-46.00000000000001
 30
0.0
 11
35.0
 21
-4.000000000000003
 31
0.0
  0
LINE
  5
7DAE
330
7D8D
100
AcDbEntity
  8
0
100
AcDbLine
 10
35.0
 20
-86.00000000000001
 30
0.0
 11
32.99999999999999
 21
-86.00000000000001
 31
0.0
  0
ARC
  5
7DAF
330
7D8D
100
AcDbEntity
  8
0
100
AcDbCircle
 10
39.0
 20
-4.000000000000004
 30
0.0
 40
1.999999999999997
100
AcDbArc
 50
90.00000000000012
 51
180.0
  0
LINE
  5
7DB0
330
7D8D
100
AcDbEntity
  8
0
100
AcDbLine
 10
76.5
 20
0.0
 30
0.0
 11
76.5
 21
-2.00000000000001
 31
0.0
  0
LINE
  5
7DB1
330
7D8D
100
AcDbEntity
  8
0
100
AcDbLine
 10
76.5
 20
-2.00000000000001
 30
0.0
 11
39.0
 21
-2.000000000000006
 31
0.0
  0
LINE
  5
7DB2
330
7D8D
100
AcDbEntity
  8
0
100
AcDbLine
 10
-76.5
 20
-2.00000000000001
 30
0.0
 11
-39.0
 21
-2.000000000000006
 31
0.0
  0
LINE
  5
7DB3
330
7D8D
100
AcDbEntity
  8
0
100
AcDbLine
 10
-35.0
 20
-46.00000000000001
 30
0.0
 11
-35.0
 21
-4.000000000000003
 31
0.0
  0
LINE
  5
7DB4
330
7D8D
100
AcDbEntity
  8
0
100
AcDbLine
 10
-37.0
 20
-4.000000000000003
 30
0.0
 11
-36.99999999999999
 21
-46.00000000000001
 31
0.0
  0
LINE
  5
7DB5
330
7D8D
100
AcDbEntity
  8
0
100
AcDbLine
 10
-39.0
 20
0.0
 30
0.0
 11
-76.5
 21
0.0
 31
0.0
  0
LINE
  5
7DB6
330
7D8D
100
AcDbEntity
  8
0
100
AcDbLine
 10
-76.5
 20
0.0
 30
0.0
 11
-76.5
 21
-2.00000000000001
 31
0.0
  0
ARC
  5
7DB7
330
7D8D
100
AcDbEntity
  8
0
100
AcDbCircle
 10
-39.0
 20
-4.000000000000004
 30
0.0
 40
1.999999999999997
100
AcDbArc
 50
0.0
 51
89.99999999999987
  0
ARC
  5
7DB8
330
7D8D
100
AcDbEntity
  8
0
100
AcDbCircle
 10
-39.0
 20
-4.000000000000004
 30
0.0
 40
3.999999999999999
100
AcDbArc
 50
0.0
 51
89.99999999999987
  0
LINE
  5
7DB9
330
7D8D
100
AcDbEntity
  8
0
100
AcDbLine
 10
-35.0
 20
-46.00000000000003
 30
0.0
 11
-34.99999999999999
 21
-86.00000000000003
 31
0.0
  0
LINE
  5
7DBA
330
7D8D
100
AcDbEntity
  8
0
100
AcDbLine
 10
-36.99999999999999
 20
-86.00000000000003
 30
0.0
 11
-36.99999999999999
 21
-46.00000000000003
 31
0.0
  0
LINE
  5
7DBB
330
7D8D
100
AcDbEntity
  8
0
100
AcDbLine
 10
-34.99999999999999
 20
-86.00000000000003
 30
0.0
 11
-36.99999999999999
 21
-86.00000000000003
 31
0.0
  0
LINE
  5
7DBC
330
7D8D
100
AcDbEntity
  8
0
100
AcDbLine
 10
-36.99999999999999
 20
-46.00000000000001
 30
0.0
 11
-35.0
 21
-46.00000000000001
 31
0.0
  0
ENDBLK
  5
7D8F
330
7D8D
100
AcDbEntity
  8
0
100
AcDbBlockEnd
  0
BLOCK
  5
7DBE
330
7DBD
100
AcDbEntity
  8
0
100
AcDbBlockBegin
  2
SAE300_70_2-Bottom
 70
     0
 10
0.0
 20
0.0
 30
0.0
  3
SAE300_70_2-Bottom
  1

  0
SPLINE
  5
7DC0
330
7DBD
100
AcDbEntity
  8
0
100
AcDbSpline
210
0.0
220
0.0
230
1.0
 70
     8
 71
     3
 72
    14
 73
    10
 74
     0
 42
0.000000001
 43
0.0000000001
 40
0.0
 40
0.0
 40
0.0
 40
0.0
 40
0.3435201404065436
 40
0.3435201404065436
 40
0.3435201404065436
 40
0.757012756802576
 40
0.757012756802576
 40
0.757012756802576
 40
1.0
 40
1.0
 40
1.0
 40
1.0
 10
39.60606060606066
 20
2.000000000000014
 30
0.0
 10
39.28489935602448
 20
2.000036880620261
 30
0.0
 10
38.87245051748374
 20
1.996834301352275
 30
0.0
 10
38.47645515512566
 20
1.998675474349403
 30
0.0
 10
37.99979850766284
 20
2.000891680476122
 30
0.0
 10
37.53725634323202
 20
2.001068977479109
 30
0.0
 10
37.26239324897362
 20
2.001123170497652
 30
0.0
 10
37.10087107691482
 20
2.001155016803134
 30
0.0
 10
36.99999576744408
 20
2.000250524374834
 30
0.0
 10
36.99999999948838
 20
1.999999999992547
 30
0.0
  0
LINE
  5
7DC1
330
7DBD
100
AcDbEntity
  8
0
100
AcDbLine
 10
39.00008656732328
 20
2.000000000000005
 30
0.0
 11
39.00614404856174
 21
2.000000000000005
 31
0.0
  0
LINE
  5
7DC2
330
7DBD
100
AcDbEntity
  8
0
100
AcDbLine
 10
39.56214430294031
 20
2.000000000000005
 30
0.0
 11
39.60606060606064
 21
2.000000000000005
 31
0.0
  0
ARC
  5
7DC3
330
7DBD
100
AcDbEntity
  8
0
100
AcDbCircle
 10
39.0
 20
4.000000000000004
 30
0.0
 40
1.999999999999997
100
AcDbArc
 50
182.3401701218948
 51
263.5960493815193
  0
ARC
  5
7DC4
330
7DBD
100
AcDbEntity
  8
0
100
AcDbCircle
 10
39.0
 20
4.000000000000004
 30
0.0
 40
3.999999999999998
100
AcDbArc
 50
219.6927749101244
 51
270.0
  0
LINE
  5
7DC5
330
7DBD
100
AcDbEntity
  8
0
100
AcDbLine
 10
39.60606060606064
 20
0.0
 30
0.0
 11
39.0
 21
0.0
 31
0.0
  0
SPLINE
  5
7DC6
330
7DBD
100
AcDbEntity
  8
0
100
AcDbSpline
210
0.0
220
0.0
230
1.0
 70
     8
 71
     3
 72
    17
 73
    13
 74
     0
 42
0.000000001
 43
0.0000000001
 40
-1.0
 40
-1.0
 40
-1.0
 40
-1.0
 40
-0.7994286890773533
 40
-0.7994286890773533
 40
-0.7994286890773533
 40
-0.3760960081003366
 40
-0.3760960081003366
 40
-0.3760960081003366
 40
-0.0765284972687701
 40
-0.0765284972687701
 40
-0.0765284972687701
 40
0.0
 40
0.0
 40
0.0
 40
0.0
 10
35.00000000000002
 20
2.000000000000016
 30
0.0
 10
34.99999961270346
 20
1.999093543230753
 30
0.0
 10
35.12633150600102
 20
1.919863896637736
 30
0.0
 10
35.33607694562268
 20
1.790687786211022
 30
0.0
 10
35.77877285696359
 20
1.518044261603387
 30
0.0
 10
36.61445008343392
 20
1.034207947884105
 30
0.0
 10
37.48107962101274
 20
0.6388614064419246
 30
0.0
 10
38.09434210948028
 20
0.3590980320141119
 30
0.0
 10
38.71765761684758
 20
0.1217220476590712
 30
0.0
 10
39.23393420693463
 20
0.0342615816153242
 30
0.0
 10
39.36582391521685
 20
0.0119186445652595
 30
0.0
 10
39.48832026104931
 20
0.0000045452574061
 30
0.0
 10
39.60606060611087
 20
0.0000000001152099
 30
0.0
  0
LINE
  5
7DC7
330
7DBD
100
AcDbEntity
  8
0
100
AcDbLine
 10
39.60606060606064
 20
2.000000000000005
 30
0.0
 11
39.60606060606064
 21
0.0
 31
0.0
  0
SPLINE
  5
7DC8
330
7DBD
100
AcDbEntity
  8
0
100
AcDbSpline
210
0.0
220
0.0
230
1.0
 70
     8
 71
     3
 72
    30
 73
    26
 74
     0
 42
0.000000001
 43
0.0000000001
 40
0.0371531975277292
 40
0.0371531975277292
 40
0.0371531975277292
 40
0.0371531975277292
 40
0.0389576292663163
 40
0.0389576292663163
 40
0.0414215885860133
 40
0.0414215885860133
 40
0.0438497378007249
 40
0.0438497378007249
 40
0.0468758300120801
 40
0.0468758300120801
 40
0.0509981140359106
 40
0.0509981140359106
 40
0.0569754081529841
 40
0.0569754081529841
 40
0.0655197408871078
 40
0.0655197408871078
 40
0.0767721190539448
 40
0.0767721190539448
 40
0.0903671148311283
 40
0.0903671148311283
 40
0.1102392321318954
 40
0.1102392321318954
 40
0.1292954517755811
 40
0.1292954517755811
 40
0.1339206631381444
 40
0.1339206631381444
 40
0.1339206631381444
 40
0.1339206631381444
 10
38.71468571207658
 20
2.018273760988136
 30
0.0
 10
38.71468571207124
 20
2.018273760988748
 30
0.0
 10
38.71540137639198
 20
2.01819140806479
 30
0.0
 10
38.71874704327414
 20
2.017819617043856
 30
0.0
 10
38.7220794828049
 20
2.017455168554759
 30
0.0
 10
38.73072359843062
 20
2.016557734560914
 30
0.0
 10
38.73604197488981
 20
2.016024329689178
 30
0.0
 10
38.7492558211278
 20
2.014769517292714
 30
0.0
 10
38.75757181519617
 20
2.01402411304556
 30
0.0
 10
38.77820419875219
 20
2.012306018675249
 30
0.0
 10
38.79105590180411
 20
2.011333667026296
 30
0.0
 10
38.82316704816393
 20
2.009151312391772
 30
0.0
 10
38.84302349518956
 20
2.008007798628655
 30
0.0
 10
38.89123820033367
 20
2.005661044523727
 30
0.0
 10
38.92006915218991
 20
2.004616214351853
 30
0.0
 10
38.98510336216999
 20
2.002806532546997
 30
0.0
 10
39.02144266026103
 20
2.002204352178942
 30
0.0
 10
39.09667311483936
 20
2.001331199108526
 30
0.0
 10
39.1341673117388
 20
2.001142643718192
 30
0.0
 10
39.22829247937869
 20
2.000739711459718
 30
0.0
 10
39.292116668572
 20
2.000484285735517
 30
0.0
 10
39.41127173895175
 20
2.000161538223317
 30
0.0
 10
39.47219145908988
 20
2.000063587337919
 30
0.0
 10
39.53854612038633
 20
2.000025166696314
 30
0.0
 10
39.55100371864782
 20
2.000021126007552
 30
0.0
 10
39.56214430294031
 20
2.000020290751287
 30
0.0
  0
SPLINE
  5
7DC9
330
7DBD
100
AcDbEntity
  8
0
100
AcDbSpline
210
0.0
220
0.0
230
1.0
 70
     8
 71
     3
 72
     8
 73
     4
 74
     0
 42
0.000000001
 43
0.0000000001
 40
0.0
 40
0.0
 40
0.0
 40
0.0
 40
0.0035844670634684
 40
0.0035844670634684
 40
0.0035844670634684
 40
0.0035844670634684
 10
37.0000681830882
 20
3.999999804698426
 30
0.0
 10
37.00004435171778
 20
3.993919444687918
 30
0.0
 10
37.00002088735852
 20
3.987176465244794
 30
0.0
 10
37.00000004833699
 20
3.98038220337168
 30
0.0
  0
SPLINE
  5
7DCA
330
7DBD
100
AcDbEntity
  8
0
100
AcDbSpline
210
0.0
220
0.0
230
1.0
 70
     8
 71
     3
 72
    24
 73
    20
 74
     0
 42
0.000000001
 43
0.0000000001
 40
0.033218938622126
 40
0.033218938622126
 40
0.033218938622126
 40
0.033218938622126
 40
0.0332261107381716
 40
0.0332261107381716
 40
0.0337115894252699
 40
0.0337115894252699
 40
0.0341490471714215
 40
0.0341490471714215
 40
0.0350733829646649
 40
0.0350733829646649
 40
0.0423952190384751
 40
0.0423952190384751
 40
0.049784771622105
 40
0.049784771622105
 40
0.0571728791471749
 40
0.0571728791471749
 40
0.0667679985574168
 40
0.0667679985574168
 40
0.0674413337210085
 40
0.0674413337210085
 40
0.0674413337210085
 40
0.0674413337210085
 10
37.00005333783065
 20
3.996120356448109
 30
0.0
 10
37.00005340412751
 20
3.996115667370977
 30
0.0
 10
37.0000534710614
 20
3.996110934209718
 30
0.0
 10
37.00005808226542
 20
3.995784848526349
 30
0.0
 10
37.00006454603356
 20
3.995327964452602
 30
0.0
 10
37.00008531337787
 20
3.993886977000519
 30
0.0
 10
37.0000993515991
 20
3.992922242884172
 30
0.0
 10
37.00014976087552
 20
3.989537918477998
 30
0.0
 10
37.00019210273136
 20
3.98680283397064
 30
0.0
 10
37.000582316672
 20
3.962835478316399
 30
0.0
 10
37.00107346674005
 20
3.941053857570354
 30
0.0
 10
37.00218671485572
 20
3.902521653544109
 30
0.0
 10
37.00282066482962
 20
3.885143235781291
 30
0.0
 10
37.00401021612084
 20
3.856605846405456
 30
0.0
 10
37.00457374150361
 20
3.845148098829474
 30
0.0
 10
37.00556084467196
 20
3.826280982580461
 30
0.0
 10
37.0058982400093
 20
3.82081114580628
 30
0.0
 10
37.00594054361755
 20
3.820105345886777
 30
0.0
 10
37.00594192708365
 20
3.8200823479266
 30
0.0
 10
37.00594192710145
 20
3.8200823476307
 30
0.0
  0
SPLINE
  5
7DCB
330
7DBD
100
AcDbEntity
  8
0
100
AcDbSpline
210
0.0
220
0.0
230
1.0
 70
     8
 71
     3
 72
    10
 73
     6
 74
     0
 42
0.000000001
 43
0.0000000001
 40
0.0
 40
0.0
 40
0.0
 40
0.0
 40
0.0042629590969623
 40
0.0042629590969623
 40
0.0074741982815852
 40
0.0074741982815852
 40
0.0074741982815852
 40
0.0074741982815852
 10
37.00037993280678
 20
4.000001916296975
 30
0.0
 10
37.0004451494603
 20
3.987258229033051
 30
0.0
 10
37.00055430095885
 20
3.975277107414033
 30
0.0
 10
37.00076607052875
 20
3.958543663879359
 30
0.0
 10
37.00086108440018
 20
3.95270252032426
 30
0.0
 10
37.00093624793608
 20
3.948482298041588
 30
0.0
  0
CIRCLE
  5
7DCC
330
7DBD
100
AcDbEntity
  8
0
100
AcDbCircle
 10
0.0
 20
67.99999999999998
 30
0.0
 40
2.5
  0
CIRCLE
  5
7DCD
330
7DBD
100
AcDbEntity
  8
0
100
AcDbCircle
 10
0.0
 20
47.99999999999998
 30
0.0
 40
2.5
  0
LINE
  5
7DCE
330
7DBD
100
AcDbEntity
  8
0
100
AcDbLine
 10
33.00000000000001
 20
2.000000000000004
 30
0.0
 11
-33.00000000000001
 21
2.000000000000004
 31
0.0
  0
LINE
  5
7DCF
330
7DBD
100
AcDbEntity
  8
0
100
AcDbLine
 10
32.99999999999999
 20
86.00000000000001
 30
0.0
 11
-32.99999999999999
 21
86.00000000000001
 31
0.0
  0
SPLINE
  5
7DD0
330
7DBD
100
AcDbEntity
  8
0
100
AcDbSpline
210
0.0
220
0.0
230
1.0
 70
     8
 71
     3
 72
    17
 73
    13
 74
     0
 42
0.000000001
 43
0.0000000001
 40
-1.0
 40
-1.0
 40
-1.0
 40
-1.0
 40
-0.7994286890773533
 40
-0.7994286890773533
 40
-0.7994286890773533
 40
-0.3760960081003366
 40
-0.3760960081003366
 40
-0.3760960081003366
 40
-0.0765284972687701
 40
-0.0765284972687701
 40
-0.0765284972687701
 40
0.0
 40
0.0
 40
0.0
 40
0.0
 10
-35.00000000000002
 20
2.000000000000016
 30
0.0
 10
-34.99999961270346
 20
1.999093543230753
 30
0.0
 10
-35.12633150600102
 20
1.919863896637736
 30
0.0
 10
-35.33607694562268
 20
1.790687786211022
 30
0.0
 10
-35.77877285696359
 20
1.518044261603387
 30
0.0
 10
-36.61445008343392
 20
1.034207947884105
 30
0.0
 10
-37.48107962101274
 20
0.6388614064419246
 30
0.0
 10
-38.09434210948028
 20
0.3590980320141119
 30
0.0
 10
-38.71765761684758
 20
0.1217220476590712
 30
0.0
 10
-39.23393420693463
 20
0.0342615816153242
 30
0.0
 10
-39.36582391521685
 20
0.0119186445652595
 30
0.0
 10
-39.48832026104931
 20
0.0000045452574061
 30
0.0
 10
-39.60606060611087
 20
0.0000000001152099
 30
0.0
  0
LINE
  5
7DD1
330
7DBD
100
AcDbEntity
  8
0
100
AcDbLine
 10
-39.0
 20
0.0
 30
0.0
 11
-39.60606060606064
 21
0.0
 31
0.0
  0
ARC
  5
7DD2
330
7DBD
100
AcDbEntity
  8
0
100
AcDbCircle
 10
-39.0
 20
4.000000000000004
 30
0.0
 40
3.999999999999999
100
AcDbArc
 50
270.0000000000001
 51
320.3072250898756
  0
ARC
  5
7DD3
330
7DBD
100
AcDbEntity
  8
0
100
AcDbCircle
 10
-39.0
 20
4.000000000000004
 30
0.0
 40
1.999999999999996
100
AcDbArc
 50
276.4039506185505
 51
357.6598298781523
  0
SPLINE
  5
7DD4
330
7DBD
100
AcDbEntity
  8
0
100
AcDbSpline
210
0.0
220
0.0
230
1.0
 70
     8
 71
     3
 72
    14
 73
    10
 74
     0
 42
0.000000001
 43
0.0000000001
 40
0.0
 40
0.0
 40
0.0
 40
0.0
 40
0.3435201404065436
 40
0.3435201404065436
 40
0.3435201404065436
 40
0.757012756802576
 40
0.757012756802576
 40
0.757012756802576
 40
1.0
 40
1.0
 40
1.0
 40
1.0
 10
-39.60606060606066
 20
2.000000000000014
 30
0.0
 10
-39.28489935602448
 20
2.000036880620261
 30
0.0
 10
-38.87245051748374
 20
1.996834301352275
 30
0.0
 10
-38.47645515512566
 20
1.998675474349403
 30
0.0
 10
-37.99979850766284
 20
2.000891680476122
 30
0.0
 10
-37.53725634323202
 20
2.001068977479109
 30
0.0
 10
-37.26239324897362
 20
2.001123170497652
 30
0.0
 10
-37.10087107691482
 20
2.001155016803134
 30
0.0
 10
-36.99999576744408
 20
2.000250524374834
 30
0.0
 10
-36.99999999948838
 20
1.999999999992547
 30
0.0
  0
LINE
  5
7DD5
330
7DBD
100
AcDbEntity
  8
0
100
AcDbLine
 10
-39.60606060606064
 20
0.0
 30
0.0
 11
-39.60606060606064
 21
2.000000000000005
 31
0.0
  0
SPLINE
  5
7DD6
330
7DBD
100
AcDbEntity
  8
0
100
AcDbSpline
210
0.0
220
0.0
230
1.0
 70
     8
 71
     3
 72
    10
 73
     6
 74
     0
 42
0.000000001
 43
0.0000000001
 40
0.0194209736582234
 40
0.0194209736582234
 40
0.0194209736582234
 40
0.0194209736582234
 40
0.0196622418977828
 40
0.0196622418977828
 40
0.023005173502122
 40
0.023005173502122
 40
0.023005173502122
 40
0.023005173502122
 10
-37.00000000127189
 20
3.980395661562546
 30
0.0
 10
-37.00000140350727
 20
3.980852840150534
 30
0.0
 10
-37.0000028160331
 20
3.98131017062016
 30
0.0
 10
-37.00002398160369
 20
3.988091081050409
 30
0.0
 10
-37.00004595756905
 20
3.994329163209489
 30
0.0
 10
-37.0000681830882
 20
3.999999804698427
 30
0.0
  0
SPLINE
  5
7DD7
330
7DBD
100
AcDbEntity
  8
0
100
AcDbSpline
210
0.0
220
0.0
230
1.0
 70
     8
 71
     3
 72
    14
 73
    10
 74
     0
 42
0.000000001
 43
0.0000000001
 40
0.0358655439892516
 40
0.0358655439892516
 40
0.0358655439892516
 40
0.0358655439892516
 40
0.0359537602960913
 40
0.0359537602960913
 40
0.0382249018128423
 40
0.0382249018128423
 40
0.0413340219182082
 40
0.0413340219182082
 40
0.0433661954730501
 40
0.0433661954730501
 40
0.0433661954730501
 40
0.0433661954730501
 10
-37.0009363672201
 20
3.948475628069929
 30
0.0
 10
-37.0009343101866
 20
3.948591124746408
 30
0.0
 10
-37.00093225016748
 20
3.948707464856715
 30
0.0
 10
-37.00087662462021
 20
3.951851211519286
 30
0.0
 10
-37.00081397893681
 20
3.955643234611134
 30
0.0
 10
-37.00066070308957
 20
3.966444208863978
 30
0.0
 10
-37.00056980495478
 20
3.974140976061375
 30
0.0
 10
-37.00045087400122
 20
3.988060778582606
 30
0.0
 10
-37.00041102190607
 20
3.993926937940381
 30
0.0
 10
-37.00037993280679
 20
4.000001916296977
 30
0.0
  0
SPLINE
  5
7DD8
330
7DBD
100
AcDbEntity
  8
0
100
AcDbSpline
210
0.0
220
0.0
230
1.0
 70
     8
 71
     3
 72
    26
 73
    22
 74
     0
 42
0.000000001
 43
0.0000000001
 40
0.0423486644534797
 40
0.0423486644534797
 40
0.0423486644534797
 40
0.0423486644534797
 40
0.0483636533353262
 40
0.0483636533353262
 40
0.0586880661650866
 40
0.0586880661650866
 40
0.0674413383699445
 40
0.0674413383699445
 40
0.0715211999515066
 40
0.0715211999515066
 40
0.0739353551352374
 40
0.0739353551352374
 40
0.0748404285939633
 40
0.0748404285939633
 40
0.0755203189700262
 40
0.0755203189700262
 40
0.0758686410128736
 40
0.0758686410128736
 40
0.0761955794383974
 40
0.0761955794383974
 40
0.0765450933669942
 40
0.0765450933669942
 40
0.0765450933669942
 40
0.0765450933669942
 10
-37.0059419271014
 20
3.820082347631769
 30
0.0
 10
-37.00594192739512
 20
3.820082342748202
 30
0.0
 10
-37.0058279343004
 20
3.82194940768527
 30
0.0
 10
-37.00523926433976
 20
3.832329604944515
 30
0.0
 10
-37.00453526987482
 20
3.84511158015505
 30
0.0
 10
-37.00303841258561
 20
3.879316909812364
 30
0.0
 10
-37.00226930127323
 20
3.899547670685782
 30
0.0
 10
-37.00130080720878
 20
3.933241315383668
 30
0.0
 10
-37.00101327298294
 20
3.944620220210998
 30
0.0
 10
-37.00061012468571
 20
3.963309125685152
 30
0.0
 10
-37.0004717279438
 20
3.970404380338893
 30
0.0
 10
-37.00030096607457
 20
3.980163664512277
 30
0.0
 10
-37.00025634555178
 20
3.982828164275205
 30
0.0
 10
-37.0001829387509
 20
3.98740448738646
 30
0.0
 10
-37.00015262203795
 20
3.989363716976395
 30
0.0
 10
-37.00011259005504
 20
3.99202881870861
 30
0.0
 10
-37.00010004175326
 20
3.992879467370168
 30
0.0
 10
-37.00008017113866
 20
3.994241779272136
 30
0.0
 10
-37.00007255573628
 20
3.994771471544117
 30
0.0
 10
-37.00006075798039
 20
3.995596128941978
 30
0.0
 10
-37.00005647525466
 20
3.995897847933763
 30
0.0
 10
-37.00005322915238
 20
3.996127439887016
 30
0.0
  0
SPLINE
  5
7DD9
330
7DBD
100
AcDbEntity
  8
0
100
AcDbSpline
210
0.0
220
0.0
230
1.0
 70
     8
 71
     3
 72
    32
 73
    28
 74
     0
 42
0.000000001
 43
0.0000000001
 40
0.0
 40
0.0
 40
0.0
 40
0.0
 40
0.0062834381646104
 40
0.0062834381646104
 40
0.0147058050185091
 40
0.0147058050185091
 40
0.0373755794888692
 40
0.0373755794888692
 40
0.0501947863116392
 40
0.0501947863116392
 40
0.0667265035423084
 40
0.0667265035423084
 40
0.0742906734685457
 40
0.0742906734685457
 40
0.0802483922372733
 40
0.0802483922372733
 40
0.0850816717945848
 40
0.0850816717945848
 40
0.0887113810900187
 40
0.0887113810900187
 40
0.0911689437015959
 40
0.0911689437015959
 40
0.0929311549175991
 40
0.0929311549175991
 40
0.0957602881730357
 40
0.0957602881730357
 40
0.0967606331276352
 40
0.0967606331276352
 40
0.0967606331276352
 40
0.0967606331276352
 10
-39.56214430294014
 20
2.000020290751286
 30
0.0
 10
-39.54700960594313
 20
2.00002142546291
 30
0.0
 10
-39.52948500192274
 20
2.000028425796132
 30
0.0
 10
-39.4870918779762
 20
2.000060615576165
 30
0.0
 10
-39.46142391775059
 20
2.000092345612438
 30
0.0
 10
-39.36626722119274
 20
2.000257841537243
 30
0.0
 10
-39.29520834427457
 20
2.000490386306158
 30
0.0
 10
-39.18816022243266
 20
2.00091225318281
 30
0.0
 10
-39.15315286483082
 20
2.001031881988934
 30
0.0
 10
-39.07005262744085
 20
2.001571974319387
 30
0.0
 10
-39.01830295957518
 20
2.002077321669191
 30
0.0
 10
-38.93976339571678
 20
2.004016812801228
 30
0.0
 10
-38.91447637073474
 20
2.004811672123711
 30
0.0
 10
-38.86944309083668
 20
2.006675242107101
 30
0.0
 10
-38.84947739846959
 20
2.007658890939188
 30
0.0
 10
-38.81421215932397
 20
2.009735979592836
 30
0.0
 10
-38.79857684680117
 20
2.010784990564371
 30
0.0
 10
-38.7726913997889
 20
2.012748549626992
 30
0.0
 10
-38.7619495481776
 20
2.013641638533386
 30
0.0
 10
-38.74571513706097
 20
2.015098923796185
 30
0.0
 10
-38.73958229699247
 20
2.015681741030654
 30
0.0
 10
-38.73045851047596
 20
2.016586131856056
 30
0.0
 10
-38.72703716679519
 20
2.016937915791332
 30
0.0
 10
-38.71963202188837
 20
2.01771759560113
 30
0.0
 10
-38.71655527010957
 20
2.018062224888774
 30
0.0
 10
-38.71490106789454
 20
2.018249034672336
 30
0.0
 10
-38.71468570211186
 20
2.018273762130893
 30
0.0
 10
-38.71468571207596
 20
2.018273760988207
 30
0.0
  0
LINE
  5
7DDA
330
7DBD
100
AcDbEntity
  8
0
100
AcDbLine
 10
-37.0
 20
2.00000000000001
 30
0.0
 11
-33.0
 21
2.000000000000004
 31
0.0
  0
LINE
  5
7DDB
330
7DBD
100
AcDbEntity
  8
0
100
AcDbLine
 10
-32.99999999999999
 20
86.00000000000001
 30
0.0
 11
-36.99999999999999
 21
86.00000000000001
 31
0.0
  0
LINE
  5
7DDC
330
7DBD
100
AcDbEntity
  8
0
100
AcDbLine
 10
-36.99999999999999
 20
2.00000000000001
 30
0.0
 11
-36.99999999999999
 21
86.00000000000001
 31
0.0
  0
LINE
  5
7DDD
330
7DBD
100
AcDbEntity
  8
0
100
AcDbLine
 10
37.0
 20
2.00000000000001
 30
0.0
 11
33.0
 21
2.000000000000004
 31
0.0
  0
LINE
  5
7DDE
330
7DBD
100
AcDbEntity
  8
0
100
AcDbLine
 10
36.99999999999999
 20
2.00000000000001
 30
0.0
 11
36.99999999999999
 21
86.00000000000001
 31
0.0
  0
LINE
  5
7DDF
330
7DBD
100
AcDbEntity
  8
0
100
AcDbLine
 10
32.99999999999999
 20
86.00000000000001
 30
0.0
 11
36.99999999999999
 21
86.00000000000001
 31
0.0
  0
LINE
  5
7DE0
330
7DBD
100
AcDbEntity
  8
0
100
AcDbLine
 10
76.50000000000007
 20
0.0
 30
0.0
 11
39.60606060606064
 21
0.0
 31
0.0
  0
LINE
  5
7DE1
330
7DBD
100
AcDbEntity
  8
0
100
AcDbLine
 10
76.50000000000007
 20
1.999999999999997
 30
0.0
 11
76.50000000000007
 21
0.0
 31
0.0
  0
LINE
  5
7DE2
330
7DBD
100
AcDbEntity
  8
0
100
AcDbLine
 10
39.60606060606064
 20
2.000000000000005
 30
0.0
 11
76.50000000000007
 21
1.999999999999997
 31
0.0
  0
LINE
  5
7DE3
330
7DBD
100
AcDbEntity
  8
0
100
AcDbLine
 10
-76.50000000000007
 20
1.999999999999997
 30
0.0
 11
-39.60606060606064
 21
2.000000000000005
 31
0.0
  0
LINE
  5
7DE4
330
7DBD
100
AcDbEntity
  8
0
100
AcDbLine
 10
-76.50000000000007
 20
0.0
 30
0.0
 11
-76.50000000000007
 21
1.999999999999997
 31
0.0
  0
LINE
  5
7DE5
330
7DBD
100
AcDbEntity
  8
0
100
AcDbLine
 10
-39.60606060606064
 20
0.0
 30
0.0
 11
-76.50000000000007
 21
0.0
 31
0.0
  0
ENDBLK
  5
7DBF
330
7DBD
100
AcDbEntity
  8
0
100
AcDbBlockEnd
  0
BLOCK
  5
7DE7
330
7DE6
100
AcDbEntity
  8
0
100
AcDbBlockBegin
  2
SAE300_70_2-ISO
 70
     0
 10
0.0
 20
0.0
 30
0.0
  3
SAE300_70_2-ISO
  1

  0
LINE
  5
7DE9
330
7DE6
100
AcDbEntity
  8
0
100
AcDbLine
 10
54.92687006139973
 20
-40.54790419641101
 30
0.0
 11
54.79324359572614
 21
-40.62505347233852
 31
0.0
  0
SPLINE
  5
7DEA
330
7DE6
100
AcDbEntity
  8
0
100
AcDbSpline
210
0.0
220
0.0
230
1.0
 70
     8
 71
     3
 72
    14
 73
    10
 74
     0
 42
0.000000001
 43
0.0000000001
 40
0.0
 40
0.0
 40
0.0
 40
0.0
 40
0.3435201404065436
 40
0.3435201404065436
 40
0.3435201404065436
 40
0.757012756802576
 40
0.757012756802576
 40
0.757012756802576
 40
1.0
 40
1.0
 40
1.0
 40
1.0
 10
56.76963318812834
 20
-39.51955149505322
 30
0.0
 10
56.54251181183674
 20
-39.60075078796172
 30
0.0
 10
56.25313100672975
 20
-39.61657236686279
 30
0.0
 10
55.97181809477632
 20
-39.64444629433955
 30
0.0
 10
55.63320385267701
 20
-39.67799793177182
 30
0.0
 10
55.30601178371018
 20
-39.72961031708869
 30
0.0
 10
55.11161590561123
 20
-39.95503543225499
 30
0.0
 10
54.99737996369791
 20
-40.08750557829808
 30
0.0
 10
54.92668992104644
 20
-40.25554063534552
 30
0.0
 10
54.92687006104325
 20
-40.54790419484972
 30
0.0
  0
LINE
  5
7DEB
330
7DE6
100
AcDbEntity
  8
0
100
AcDbLine
 10
56.34108362377283
 20
-39.27212828871144
 30
0.0
 11
56.76963318812834
 21
-39.5195514950532
 31
0.0
  0
ELLIPSE
  5
7DEC
330
7DE6
100
AcDbEntity
  8
0
100
AcDbEllipse
 10
54.92687006139973
 20
-40.08862486963916
 30
0.0
 11
1.999999999999996
 21
-0.0000000000001193
 31
0.0
210
0.0
220
0.0
230
1.0
 40
0.5773502691896259
 41
0.7853981633976872
 42
2.356194490192596
  0
LINE
  5
7DED
330
7DE6
100
AcDbEntity
  8
0
100
AcDbLine
 10
53.51265649902664
 20
-39.46748659542762
 30
0.0
 11
53.51265649902664
 21
-39.27212828871144
 31
0.0
  0
LINE
  5
7DEE
330
7DE6
100
AcDbEntity
  8
0
100
AcDbLine
 10
53.51265649902664
 20
-41.36440077733873
 30
0.0
 11
53.51265649902664
 21
-39.46748659542762
 31
0.0
  0
LINE
  5
7DEF
330
7DE6
100
AcDbEntity
  8
0
100
AcDbLine
 10
54.79324359572614
 20
-40.62505347233852
 30
0.0
 11
53.51265649902664
 21
-41.36440077733873
 31
0.0
  0
ELLIPSE
  5
7DF0
330
7DE6
100
AcDbEntity
  8
0
100
AcDbEllipse
 10
-17.90512840081463
 20
-58.1025806863571
 30
0.0
 11
-2.5
 21
-0.0000000000001492
 31
0.0
210
0.0
220
0.0
230
1.0
 40
0.5773502691896258
 41
3.742856870268582
 42
5.681921090500122
  0
ELLIPSE
  5
7DF1
330
7DE6
100
AcDbEntity
  8
0
100
AcDbEllipse
 10
-3.762992777083682
 20
-49.93761487707984
 30
0.0
 11
-2.5
 21
-0.0000000000001492
 31
0.0
210
0.0
220
0.0
230
1.0
 40
0.5773502691896258
 41
3.742856870268582
 42
5.681921090500122
  0
LINE
  5
7DF2
330
7DE6
100
AcDbEntity
  8
0
100
AcDbLine
 10
-7.298526683016457
 20
-78.92324350001413
 30
0.0
 11
-53.96757424132857
 21
-51.97885632939916
 31
0.0
  0
LINE
  5
7DF3
330
7DE6
100
AcDbEntity
  8
0
100
AcDbLine
 10
4.015181815968307
 20
-11.15402728301286
 30
0.0
 11
4.01518181596832
 21
-13.60351702579605
 31
0.0
  0
LINE
  5
7DF4
330
7DE6
100
AcDbEntity
  8
0
100
AcDbLine
 10
22.39995812681851
 20
-25.85096573971192
 30
0.0
 11
5.429395378341412
 21
-16.05300676857922
 31
0.0
  0
LINE
  5
7DF5
330
7DE6
100
AcDbEntity
  8
0
100
AcDbLine
 10
-53.96757424132857
 20
-50.34586316754372
 30
0.0
 11
-7.298526683016453
 21
-77.29025033815867
 31
0.0
  0
ELLIPSE
  5
7DF6
330
7DE6
100
AcDbEntity
  8
0
100
AcDbEllipse
 10
-3.762992777083682
 20
-48.30462171522438
 30
0.0
 11
-2.499999999999999
 21
0.0000000000001492
 31
0.0
210
0.0
220
0.0
230
1.0
 40
0.5773502691896259
 41
0.0
 42
6.283185307179586
  0
ELLIPSE
  5
7DF7
330
7DE6
100
AcDbEntity
  8
0
100
AcDbEllipse
 10
-17.90512840081463
 20
-56.46958752450164
 30
0.0
 11
-2.499999999999999
 21
0.0000000000001492
 31
0.0
210
0.0
220
0.0
230
1.0
 40
0.5773502691896259
 41
0.0
 42
6.283185307179586
  0
LINE
  5
7DF8
330
7DE6
100
AcDbEntity
  8
0
100
AcDbLine
 10
4.015181815968307
 20
-11.15402728301286
 30
0.0
 11
3.92993990996461
 21
-11.20324172039033
 31
0.0
  0
SPLINE
  5
7DF9
330
7DE6
100
AcDbEntity
  8
0
100
AcDbSpline
210
0.0
220
0.0
230
1.0
 70
     8
 71
     3
 72
    11
 73
     7
 74
     0
 42
0.000000001
 43
0.0000000001
 40
-1.0
 40
-1.0
 40
-1.0
 40
-1.0
 40
-0.7994286890773533
 40
-0.7994286890773533
 40
-0.7994286890773533
 40
-0.6581426868828816
 40
-0.6581426868828816
 40
-0.6581426868828816
 40
-0.6581426868828816
 10
4.015181815968302
 20
-11.15402728301285
 30
0.0
 10
4.015823051556726
 20
-10.75941519641531
 30
0.0
 10
3.982516733502818
 20
-10.40066690797168
 30
0.0
 10
3.925545614473415
 20
-10.05933017748326
 30
0.0
 10
3.885414143969567
 20
-9.818886507693203
 30
0.0
 10
3.830964548463309
 20
-9.589052337024508
 30
0.0
 10
3.763835713781475
 20
-9.366260130756888
 30
0.0
  0
ELLIPSE
  5
7DFA
330
7DE6
100
AcDbEntity
  8
0
100
AcDbEllipse
 10
-0.2274588711509651
 20
-8.245258213457855
 30
0.0
 11
3.999999999999998
 21
0.0000000000000001
 31
0.0
210
0.0
220
0.0
230
1.0
 40
0.5773502691896258
 41
6.058746940099318
 42
6.283185307179586
  0
ELLIPSE
  5
7DFB
330
7DE6
100
AcDbEntity
  8
0
100
AcDbEllipse
 10
-0.2274588711509651
 20
-8.245258213457855
 30
0.0
 11
3.999999999999998
 21
-0.0000000000000004
 31
0.0
210
0.0
220
0.0
230
1.0
 40
0.5773502691896258
 41
5.49778714378213
 42
6.058746940099318
  0
LINE
  5
7DFC
330
7DE6
100
AcDbEntity
  8
0
100
AcDbLine
 10
2.600968253595228
 20
-9.878251375313308
 30
0.0
 11
2.600968253595228
 21
-10.07267779083053
 31
0.0
  0
LINE
  5
7DFD
330
7DE6
100
AcDbEntity
  8
0
100
AcDbLine
 10
2.600968253595228
 20
-10.07267779083053
 30
0.0
 11
2.600968253595228
 21
-11.97052386394059
 31
0.0
  0
LINE
  5
7DFE
330
7DE6
100
AcDbEntity
  8
0
100
AcDbLine
 10
3.92993990996461
 20
-11.20324172039033
 30
0.0
 11
2.600968253595214
 21
-11.97052386394059
 31
0.0
  0
SPLINE
  5
7DFF
330
7DE6
100
AcDbEntity
  8
0
100
AcDbSpline
210
0.0
220
0.0
230
1.0
 70
     8
 71
     3
 72
    16
 73
    12
 74
     0
 42
0.000000001
 43
0.0000000001
 40
0.0
 40
0.0
 40
0.0
 40
0.0
 40
0.0351246640529641
 40
0.0351246640529641
 40
0.0553378226045792
 40
0.0553378226045792
 40
0.0803966030491985
 40
0.0803966030491985
 40
0.1060253987236512
 40
0.1060253987236512
 40
0.1164300308245703
 40
0.1164300308245703
 40
0.1164300308245703
 40
0.1164300308245703
 10
3.761168456935983
 20
-8.419285973293227
 30
0.0
 10
3.745973832670039
 20
-8.535374206164817
 30
0.0
 10
3.731043959517252
 20
-8.653602471211559
 30
0.0
 10
3.716191322770425
 20
-8.830967622702727
 30
0.0
 10
3.712615348380325
 20
-8.894480567595657
 30
0.0
 10
3.710371575489186
 20
-9.02557477953791
 30
0.0
 10
3.71310560347811
 20
-9.091427946119541
 30
0.0
 10
3.72497070213396
 20
-9.206868870340287
 30
0.0
 10
3.734027271306055
 20
-9.257495168038619
 30
0.0
 10
3.750862017279894
 20
-9.326305922020068
 30
0.0
 10
3.756253625892527
 20
-9.346036421608348
 30
0.0
 10
3.762368380542886
 20
-9.36635760140518
 30
0.0
  0
ELLIPSE
  5
7E00
330
7DE6
100
AcDbEntity
  8
0
100
AcDbEllipse
 10
5.429395378341417
 20
-14.42001360672377
 30
0.0
 11
1.000000000000105
 21
-1.732050807568816
 31
0.0
210
0.0
220
0.0
230
1.0
 40
0.5773502691896267
 41
3.926990816986997
 42
5.497787143781894
  0
LINE
  5
7E01
330
7DE6
100
AcDbEntity
  8
0
100
AcDbLine
 10
5.429395378341412
 20
-16.05300676857922
 30
0.0
 11
-53.96757424132857
 21
-50.34586316754372
 31
0.0
  0
ELLIPSE
  5
7E02
330
7DE6
100
AcDbEntity
  8
0
100
AcDbEllipse
 10
-53.96757424132857
 20
-48.71287000568827
 30
0.0
 11
2.000000000000208
 21
-3.464101615137637
 31
0.0
210
0.0
220
0.0
230
1.0
 40
0.577350269189626
 41
3.926990816986997
 42
5.497787143781893
  0
LINE
  5
7E03
330
7DE6
100
AcDbEntity
  8
0
100
AcDbLine
 10
-55.38178780370166
 20
-47.89637342476054
 30
0.0
 11
4.01518181596832
 21
-13.60351702579605
 31
0.0
  0
LINE
  5
7E04
330
7DE6
100
AcDbEntity
  8
0
100
AcDbLine
 10
-56.79600136607477
 20
-47.07987684383282
 30
0.0
 11
-55.38178780370166
 21
-47.89637342476054
 31
0.0
  0
LINE
  5
7E05
330
7DE6
100
AcDbEntity
  8
0
100
AcDbLine
 10
-53.96757424132857
 20
-51.97885632939918
 30
0.0
 11
-53.96757424132857
 21
-50.34586316754372
 31
0.0
  0
ELLIPSE
  5
7E06
330
7DE6
100
AcDbEntity
  8
0
100
AcDbEllipse
 10
-53.96757424132857
 20
-48.71287000568827
 30
0.0
 11
1.000000000000104
 21
-1.732050807568818
 31
0.0
210
0.0
220
0.0
230
1.0
 40
0.577350269189626
 41
3.926990816986995
 42
5.497787143781896
  0
LINE
  5
7E07
330
7DE6
100
AcDbEntity
  8
0
100
AcDbLine
 10
54.92687006139973
 20
-42.99739393919416
 30
0.0
 11
54.92687006139973
 21
-40.54790419641101
 31
0.0
  0
ELLIPSE
  5
7E08
330
7DE6
100
AcDbEntity
  8
0
100
AcDbEllipse
 10
52.09844293665355
 20
-41.36440077733873
 30
0.0
 11
1.999999999999999
 21
-3.464101615137753
 31
0.0
210
0.0
220
0.0
230
1.0
 40
0.5773502691896251
 41
0.0
 42
0.7853981633974448
  0
LINE
  5
7E09
330
7DE6
100
AcDbEntity
  8
0
100
AcDbLine
 10
-7.298526683016457
 20
-77.29025033815867
 30
0.0
 11
-5.884313120643356
 21
-76.47375375723093
 31
0.0
  0
LINE
  5
7E0A
330
7DE6
100
AcDbEntity
  8
0
100
AcDbLine
 10
54.92687006139973
 20
-42.99739393919416
 30
0.0
 11
-4.470099558270259
 21
-77.29025033815865
 31
0.0
  0
ELLIPSE
  5
7E0B
330
7DE6
100
AcDbEntity
  8
0
100
AcDbEllipse
 10
-7.298526683016453
 20
-75.65725717630321
 30
0.0
 11
2.000000000000002
 21
-3.464101615137757
 31
0.0
210
0.0
220
0.0
230
1.0
 40
0.5773502691896259
 41
5.497787143782137
 42
7.068583470577033
  0
LINE
  5
7E0C
330
7DE6
100
AcDbEntity
  8
0
100
AcDbLine
 10
82.85758791826841
 20
-29.72932449911867
 30
0.0
 11
84.27180148064151
 21
-28.91282791819094
 31
0.0
  0
LINE
  5
7E0D
330
7DE6
100
AcDbEntity
  8
0
100
AcDbLine
 10
56.76963318812834
 20
-39.5195514950532
 30
0.0
 11
82.85758791826841
 21
-29.72932449911867
 31
0.0
  0
ELLIPSE
  5
7E0E
330
7DE6
100
AcDbEntity
  8
0
100
AcDbEllipse
 10
70.48321924750379
 20
25.58831885873479
 30
0.0
 11
-3.25
 21
5.629165124598853
 31
0.0
210
0.0
220
0.0
230
1.0
 40
0.5773502691896258
 41
0.2193254863005958
 42
2.922267167289198
  0
ELLIPSE
  5
7E0F
330
7DE6
100
AcDbEntity
  8
0
100
AcDbEllipse
 10
78.26139384055581
 20
25.18007056827094
 30
0.0
 11
1.250000000000129
 21
-2.165063509461022
 31
0.0
210
0.0
220
0.0
230
1.0
 40
0.5773502691896258
 41
3.742856870268587
 42
5.681921090500111
  0
LINE
  5
7E10
330
7DE6
100
AcDbEntity
  8
0
100
AcDbLine
 10
57.75529718614592
 20
49.26671970563886
 30
0.0
 11
84.27180148064145
 21
33.95740881324399
 31
0.0
  0
LINE
  5
7E11
330
7DE6
100
AcDbEntity
  8
0
100
AcDbLine
 10
84.27180148064151
 20
-28.91282791819094
 30
0.0
 11
84.27180148064145
 21
33.95740881324399
 31
0.0
  0
ELLIPSE
  5
7E12
330
7DE6
100
AcDbEntity
  8
0
100
AcDbEllipse
 10
54.92687006139973
 20
47.6337265437834
 30
0.0
 11
3.999999999999998
 21
-0.0000000000002379
 31
0.0
210
0.0
220
0.0
230
1.0
 40
0.5773502691896258
 41
0.7853981633976881
 42
2.356194490192583
  0
ELLIPSE
  5
7E13
330
7DE6
100
AcDbEntity
  8
0
100
AcDbEllipse
 10
27.70325898571764
 20
22.93470497071966
 30
0.0
 11
1.24999999999987
 21
2.16506350946117
 31
0.0
210
0.0
220
0.0
230
1.0
 40
0.577350269189626
 41
3.742856870268578
 42
5.681921090500117
  0
ELLIPSE
  5
7E14
330
7DE6
100
AcDbEntity
  8
0
100
AcDbEllipse
 10
29.11747254809074
 20
22.11820838979194
 30
0.0
 11
-1.25
 21
-2.165063509461095
 31
0.0
210
0.0
220
0.0
230
1.0
 40
0.577350269189626
 41
0.0
 42
6.283185307179586
  0
LINE
  5
7E15
330
7DE6
100
AcDbEntity
  8
0
100
AcDbLine
 10
-5.884313120643369
 20
-74.02426401444777
 30
0.0
 11
22.39995812681853
 21
-30.74994522527831
 31
0.0
  0
LINE
  5
7E16
330
7DE6
100
AcDbEntity
  8
0
100
AcDbLine
 10
-4.470099558270272
 20
-74.84076059537549
 30
0.0
 11
-5.884313120643369
 21
-74.02426401444777
 31
0.0
  0
LINE
  5
7E17
330
7DE6
100
AcDbEntity
  8
0
100
AcDbLine
 10
23.81417168919162
 20
-31.56644180620605
 30
0.0
 11
-4.470099558270272
 21
-74.84076059537549
 31
0.0
  0
LINE
  5
7E18
330
7DE6
100
AcDbEntity
  8
0
100
AcDbLine
 10
23.81417168919162
 20
-31.56644180620605
 30
0.0
 11
22.39995812681853
 21
-30.74994522527831
 31
0.0
  0
LINE
  5
7E19
330
7DE6
100
AcDbEntity
  8
0
100
AcDbLine
 10
22.39995812681853
 20
-30.74994522527831
 30
0.0
 11
22.39995812681854
 21
32.12029150615659
 31
0.0
  0
LINE
  5
7E1A
330
7DE6
100
AcDbEntity
  8
0
100
AcDbLine
 10
23.81417168919164
 20
31.30379492522886
 30
0.0
 11
23.81417168919162
 21
-31.56644180620605
 31
0.0
  0
LINE
  5
7E1B
330
7DE6
100
AcDbEntity
  8
0
100
AcDbLine
 10
22.39995812681854
 20
32.12029150615659
 30
0.0
 11
23.81417168919164
 21
31.30379492522886
 31
0.0
  0
LINE
  5
7E1C
330
7DE6
100
AcDbEntity
  8
0
100
AcDbLine
 10
-4.470099558270272
 20
-74.84076059537549
 30
0.0
 11
-4.470099558270259
 21
-77.29025033815865
 31
0.0
  0
LINE
  5
7E1D
330
7DE6
100
AcDbEntity
  8
0
100
AcDbLine
 10
53.51265649902664
 20
-39.27212828871144
 30
0.0
 11
53.51265649902664
 21
48.45022312471113
 31
0.0
  0
LINE
  5
7E1E
330
7DE6
100
AcDbEntity
  8
0
100
AcDbLine
 10
53.51265649902664
 20
48.45022312471112
 30
0.0
 11
23.81417168919164
 21
31.30379492522886
 31
0.0
  0
LINE
  5
7E1F
330
7DE6
100
AcDbEntity
  8
0
100
AcDbLine
 10
22.39995812681854
 20
32.12029150615659
 30
0.0
 11
52.09844293665355
 21
49.26671970563886
 31
0.0
  0
LINE
  5
7E20
330
7DE6
100
AcDbEntity
  8
0
100
AcDbLine
 10
-5.88431312064336
 20
-76.47375375723093
 30
0.0
 11
-5.884313120643369
 21
-74.02426401444777
 31
0.0
  0
LINE
  5
7E21
330
7DE6
100
AcDbEntity
  8
0
100
AcDbLine
 10
-7.298526683016457
 20
-77.29025033815867
 30
0.0
 11
-7.298526683016457
 21
-78.92324350001413
 31
0.0
  0
LINE
  5
7E22
330
7DE6
100
AcDbEntity
  8
0
100
AcDbLine
 10
-5.88431312064336
 20
-76.47375375723093
 30
0.0
 11
-4.470099558270259
 21
-77.29025033815865
 31
0.0
  0
ELLIPSE
  5
7E23
330
7DE6
100
AcDbEntity
  8
0
100
AcDbEllipse
 10
-7.298526683016453
 20
-75.65725717630321
 30
0.0
 11
1.000000000000001
 21
-1.732050807568878
 31
0.0
210
0.0
220
0.0
230
1.0
 40
0.5773502691896259
 41
5.497787143782137
 42
7.068583470577033
  0
LINE
  5
7E24
330
7DE6
100
AcDbEntity
  8
0
100
AcDbLine
 10
56.34108362377283
 20
-39.27212828871144
 30
0.0
 11
56.34108362377283
 21
48.45022312471112
 31
0.0
  0
ELLIPSE
  5
7E25
330
7DE6
100
AcDbEntity
  8
0
100
AcDbEllipse
 10
54.92687006139973
 20
47.6337265437834
 30
0.0
 11
-1.999999999999997
 21
-0.0000000000001193
 31
0.0
210
0.0
220
0.0
230
1.0
 40
0.5773502691896258
 41
3.926990816987004
 42
5.497787143781901
  0
LINE
  5
7E26
330
7DE6
100
AcDbEntity
  8
0
100
AcDbLine
 10
84.27180148064145
 20
33.95740881324399
 30
0.0
 11
82.85758791826836
 21
33.14091223231626
 31
0.0
  0
LINE
  5
7E27
330
7DE6
100
AcDbEntity
  8
0
100
AcDbLine
 10
82.85758791826841
 20
-29.72932449911867
 30
0.0
 11
82.85758791826836
 21
33.14091223231625
 31
0.0
  0
LINE
  5
7E28
330
7DE6
100
AcDbEntity
  8
0
100
AcDbLine
 10
53.51265649902664
 20
48.45022312471112
 30
0.0
 11
52.09844293665355
 21
49.26671970563886
 31
0.0
  0
LINE
  5
7E29
330
7DE6
100
AcDbEntity
  8
0
100
AcDbLine
 10
56.34108362377283
 20
48.45022312471112
 30
0.0
 11
57.75529718614592
 21
49.26671970563886
 31
0.0
  0
LINE
  5
7E2A
330
7DE6
100
AcDbEntity
  8
0
100
AcDbLine
 10
82.85758791826836
 20
33.14091223231626
 30
0.0
 11
56.34108362377283
 21
48.45022312471112
 31
0.0
  0
ELLIPSE
  5
7E2B
330
7DE6
100
AcDbEntity
  8
0
100
AcDbEllipse
 10
69.06900568513069
 20
24.77182227780707
 30
0.0
 11
-3.249999999999999
 21
5.629165124598853
 31
0.0
210
0.0
220
0.0
230
1.0
 40
0.5773502691896255
 41
0.0
 42
6.283185307179586
  0
ELLIPSE
  5
7E2C
330
7DE6
100
AcDbEntity
  8
0
100
AcDbEllipse
 10
76.84718027818272
 20
24.3635739873432
 30
0.0
 11
-1.249999999999999
 21
2.165063509461097
 31
0.0
210
0.0
220
0.0
230
0.9999999999999998
 40
0.5773502691896258
 41
0.0
 42
6.283185307179586
  0
LINE
  5
7E2D
330
7DE6
100
AcDbEntity
  8
0
100
AcDbLine
 10
-5.298526683016451
 20
-79.12135879144097
 30
0.0
 11
54.09844293665357
 21
-44.82850239247648
 31
0.0
  0
ELLIPSE
  5
7E2E
330
7DE6
100
AcDbEntity
  8
0
100
AcDbEllipse
 10
70.48321924750379
 20
-15.23651018765149
 30
0.0
 11
-3.249999999999999
 21
5.629165124598853
 31
0.0
210
0.0
220
0.0
230
1.0
 40
0.5773502691896255
 41
0.2193254863005959
 42
2.9222671672892
  0
ELLIPSE
  5
7E2F
330
7DE6
100
AcDbEntity
  8
0
100
AcDbEllipse
 10
69.06900568513069
 20
-16.05300676857922
 30
0.0
 11
-3.249999999999999
 21
5.629165124598853
 31
0.0
210
0.0
220
0.0
230
1.0
 40
0.5773502691896255
 41
0.0
 42
6.283185307179586
  0
ELLIPSE
  5
7E30
330
7DE6
100
AcDbEntity
  8
0
100
AcDbEllipse
 10
62.70504465445177
 20
-22.99322770646489
 30
0.0
 11
1.250000000000129
 21
-2.165063509461022
 31
0.0
210
0.0
220
0.0
230
1.0
 40
0.5773502691896258
 41
3.742856870268587
 42
5.681921090500111
  0
ELLIPSE
  5
7E31
330
7DE6
100
AcDbEntity
  8
0
100
AcDbEllipse
 10
62.70504465445177
 20
-6.663296087910368
 30
0.0
 11
1.250000000000129
 21
-2.165063509461022
 31
0.0
210
0.0
220
0.0
230
1.0
 40
0.5773502691896258
 41
3.742856870268587
 42
5.681921090500116
  0
ELLIPSE
  5
7E32
330
7DE6
100
AcDbEntity
  8
0
100
AcDbEllipse
 10
62.70504465445177
 20
9.666635530644146
 30
0.0
 11
1.250000000000129
 21
-2.165063509461022
 31
0.0
210
0.0
220
0.0
230
1.0
 40
0.5773502691896258
 41
3.742856870268587
 42
5.681921090500116
  0
ELLIPSE
  5
7E33
330
7DE6
100
AcDbEntity
  8
0
100
AcDbEllipse
 10
62.70504465445177
 20
25.99656714919867
 30
0.0
 11
1.250000000000129
 21
-2.165063509461022
 31
0.0
210
0.0
220
0.0
230
1.0
 40
0.5773502691896258
 41
3.742856870268587
 42
5.681921090500111
  0
ELLIPSE
  5
7E34
330
7DE6
100
AcDbEntity
  8
0
100
AcDbEllipse
 10
61.29083109207865
 20
-23.80972428739262
 30
0.0
 11
-1.249999999999999
 21
2.165063509461097
 31
0.0
210
0.0
220
0.0
230
0.9999999999999998
 40
0.5773502691896258
 41
0.0
 42
6.283185307179586
  0
ELLIPSE
  5
7E35
330
7DE6
100
AcDbEntity
  8
0
100
AcDbEllipse
 10
61.29083109207865
 20
-7.479792668838101
 30
0.0
 11
-1.249999999999999
 21
2.165063509461097
 31
0.0
210
0.0
220
0.0
230
0.9999999999999998
 40
0.5773502691896258
 41
0.0
 42
6.283185307179586
  0
ELLIPSE
  5
7E36
330
7DE6
100
AcDbEntity
  8
0
100
AcDbEllipse
 10
61.29083109207865
 20
8.850138949716415
 30
0.0
 11
-1.249999999999999
 21
2.165063509461097
 31
0.0
210
0.0
220
0.0
230
0.9999999999999998
 40
0.5773502691896258
 41
0.0
 42
6.283185307179586
  0
ELLIPSE
  5
7E37
330
7DE6
100
AcDbEntity
  8
0
100
AcDbEllipse
 10
61.29083109207865
 20
25.18007056827094
 30
0.0
 11
-1.249999999999999
 21
2.165063509461097
 31
0.0
210
0.0
220
0.0
230
0.9999999999999998
 40
0.5773502691896258
 41
0.0
 42
6.283185307179586
  0
ELLIPSE
  5
7E38
330
7DE6
100
AcDbEntity
  8
0
100
AcDbEllipse
 10
62.70504465445177
 20
42.32649876775319
 30
0.0
 11
1.250000000000129
 21
-2.165063509461022
 31
0.0
210
0.0
220
0.0
230
1.0
 40
0.5773502691896258
 41
3.742856870268589
 42
5.681921090500115
  0
ELLIPSE
  5
7E39
330
7DE6
100
AcDbEntity
  8
0
100
AcDbEllipse
 10
-3.7629927770837
 20
79.06884490950083
 30
0.0
 11
1.25
 21
-2.165063509461095
 31
0.0
210
0.0
220
0.0
230
1.0
 40
0.577350269189626
 41
0.0
 42
6.283185307179586
  0
ELLIPSE
  5
7E3A
330
7DE6
100
AcDbEntity
  8
0
100
AcDbEllipse
 10
-2.348779214710599
 20
79.88534149042857
 30
0.0
 11
1.250000000000129
 21
-2.165063509461021
 31
0.0
210
0.0
220
0.0
230
1.0
 40
0.5773502691896259
 41
3.742856870268576
 42
5.681921090500109
  0
ELLIPSE
  5
7E3B
330
7DE6
100
AcDbEntity
  8
0
100
AcDbEllipse
 10
61.29083109207865
 20
41.51000218682546
 30
0.0
 11
-1.249999999999999
 21
2.165063509461097
 31
0.0
210
0.0
220
0.0
230
0.9999999999999998
 40
0.5773502691896258
 41
0.0
 42
6.283185307179586
  0
ELLIPSE
  5
7E3C
330
7DE6
100
AcDbEntity
  8
0
100
AcDbEllipse
 10
78.26139384055581
 20
-23.80972428739262
 30
0.0
 11
1.250000000000129
 21
-2.165063509461022
 31
0.0
210
0.0
220
0.0
230
1.0
 40
0.5773502691896258
 41
3.742856870268587
 42
5.681921090500111
  0
ELLIPSE
  5
7E3D
330
7DE6
100
AcDbEntity
  8
0
100
AcDbEllipse
 10
78.26139384055581
 20
-7.479792668838101
 30
0.0
 11
1.250000000000129
 21
-2.165063509461022
 31
0.0
210
0.0
220
0.0
230
1.0
 40
0.5773502691896258
 41
3.742856870268587
 42
5.681921090500116
  0
ELLIPSE
  5
7E3E
330
7DE6
100
AcDbEntity
  8
0
100
AcDbEllipse
 10
78.26139384055581
 20
8.850138949716415
 30
0.0
 11
1.250000000000129
 21
-2.165063509461022
 31
0.0
210
0.0
220
0.0
230
1.0
 40
0.5773502691896258
 41
3.742856870268587
 42
5.681921090500116
  0
ELLIPSE
  5
7E3F
330
7DE6
100
AcDbEntity
  8
0
100
AcDbEllipse
 10
76.84718027818272
 20
-24.62622086832035
 30
0.0
 11
-1.249999999999999
 21
2.165063509461097
 31
0.0
210
0.0
220
0.0
230
0.9999999999999998
 40
0.5773502691896258
 41
0.0
 42
6.283185307179586
  0
ELLIPSE
  5
7E40
330
7DE6
100
AcDbEntity
  8
0
100
AcDbEllipse
 10
76.84718027818272
 20
-8.296289249765834
 30
0.0
 11
-1.249999999999999
 21
2.165063509461097
 31
0.0
210
0.0
220
0.0
230
0.9999999999999998
 40
0.5773502691896258
 41
0.0
 42
6.283185307179586
  0
ELLIPSE
  5
7E41
330
7DE6
100
AcDbEntity
  8
0
100
AcDbEllipse
 10
76.84718027818272
 20
8.033642368788683
 30
0.0
 11
-1.249999999999999
 21
2.165063509461097
 31
0.0
210
0.0
220
0.0
230
0.9999999999999998
 40
0.5773502691896258
 41
0.0
 42
6.283185307179586
  0
LINE
  5
7E42
330
7DE6
100
AcDbEntity
  8
0
100
AcDbLine
 10
-22.52973424012469
 20
28.44870143918252
 30
0.0
 11
-21.82252239613403
 21
27.36668272565196
 31
0.0
  0
LINE
  5
7E43
330
7DE6
100
AcDbEntity
  8
0
100
AcDbLine
 10
-27.09751655623978
 20
-2.172564892807913
 30
0.0
 11
-55.38178780370167
 21
-45.44688368197738
 31
0.0
  0
LINE
  5
7E44
330
7DE6
100
AcDbEntity
  8
0
100
AcDbLine
 10
-28.51173011861288
 20
-1.356068311880185
 30
0.0
 11
-27.09751655623978
 21
-2.172564892807913
 31
0.0
  0
LINE
  5
7E45
330
7DE6
100
AcDbEntity
  8
0
100
AcDbLine
 10
-56.79600136607477
 20
-44.63038710104965
 30
0.0
 11
-28.51173011861288
 21
-1.35606831188018
 31
0.0
  0
LINE
  5
7E46
330
7DE6
100
AcDbEntity
  8
0
100
AcDbLine
 10
-55.38178780370167
 20
-45.44688368197738
 30
0.0
 11
-56.79600136607477
 21
-44.63038710104965
 31
0.0
  0
LINE
  5
7E47
330
7DE6
100
AcDbEntity
  8
0
100
AcDbLine
 10
-27.09751655623976
 20
60.69767183862698
 30
0.0
 11
-27.09751655623978
 21
-2.172564892807908
 31
0.0
  0
LINE
  5
7E48
330
7DE6
100
AcDbEntity
  8
0
100
AcDbLine
 10
-28.51173011861286
 20
61.51416841955472
 30
0.0
 11
-27.09751655623976
 21
60.69767183862698
 31
0.0
  0
LINE
  5
7E49
330
7DE6
100
AcDbEntity
  8
0
100
AcDbLine
 10
-28.51173011861288
 20
-1.356068311880185
 30
0.0
 11
-28.51173011861286
 21
61.51416841955472
 31
0.0
  0
ELLIPSE
  5
7E4A
330
7DE6
100
AcDbEntity
  8
0
100
AcDbEllipse
 10
-11.54116737013573
 20
71.31212739068743
 30
0.0
 11
-3.250000000000004
 21
5.629165124598848
 31
0.0
210
0.0
220
0.0
230
1.0
 40
0.577350269189626
 41
4.71238898038469
 42
7.853981633974484
  0
ELLIPSE
  5
7E4B
330
7DE6
100
AcDbEntity
  8
0
100
AcDbEllipse
 10
-10.12695380776263
 20
72.12862397161517
 30
0.0
 11
-3.25
 21
5.62916512459885
 31
0.0
210
0.0
220
0.0
230
0.9999999999999998
 40
0.5773502691896258
 41
0.219325486300595
 42
1.570796326794897
  0
ELLIPSE
  5
7E4C
330
7DE6
100
AcDbEntity
  8
0
100
AcDbEllipse
 10
-19.31934196318775
 20
79.88534149042855
 30
0.0
 11
1.25
 21
-2.165063509461095
 31
0.0
210
0.0
220
0.0
230
1.0
 40
0.577350269189626
 41
0.0
 42
6.283185307179586
  0
ELLIPSE
  5
7E4D
330
7DE6
100
AcDbEntity
  8
0
100
AcDbEllipse
 10
-17.90512840081465
 20
80.70183807135629
 30
0.0
 11
1.250000000000129
 21
-2.165063509461021
 31
0.0
210
0.0
220
0.0
230
1.0
 40
0.5773502691896259
 41
3.742856870268578
 42
5.68192109050011
  0
LINE
  5
7E4E
330
7DE6
100
AcDbEntity
  8
0
100
AcDbLine
 10
1.186754691222127
 20
78.66059661903697
 30
0.0
 11
1.186754691222131
 21
80.29358978089243
 31
0.0
  0
ELLIPSE
  5
7E4F
330
7DE6
100
AcDbEntity
  8
0
100
AcDbEllipse
 10
-0.2274588711509651
 20
79.47709319996469
 30
0.0
 11
1.999999999999997
 21
0.0000000000000001
 31
0.0
210
0.0
220
0.0
230
1.0
 40
0.5773502691896258
 41
5.497787143782135
 42
7.068583470577029
  0
LINE
  5
7E50
330
7DE6
100
AcDbEntity
  8
0
100
AcDbLine
 10
2.600968253595228
 20
77.84410003810926
 30
0.0
 11
2.600968253595228
 21
-9.878251375313311
 31
0.0
  0
ELLIPSE
  5
7E51
330
7DE6
100
AcDbEntity
  8
0
100
AcDbEllipse
 10
-0.2274588711509651
 20
79.47709319996469
 30
0.0
 11
3.999999999999999
 21
-0.0000000000000003
 31
0.0
210
0.0
220
0.0
230
1.0
 40
0.5773502691896257
 41
5.497787143782139
 42
7.068583470577035
  0
LINE
  5
7E52
330
7DE6
100
AcDbEntity
  8
0
100
AcDbLine
 10
1.186754691222131
 20
80.29358978089243
 30
0.0
 11
2.600968253595232
 21
81.11008636182015
 31
0.0
  0
LINE
  5
7E53
330
7DE6
100
AcDbEntity
  8
0
100
AcDbLine
 10
1.186754691222131
 20
78.66059661903697
 30
0.0
 11
2.600968253595228
 21
77.84410003810926
 31
0.0
  0
LINE
  5
7E54
330
7DE6
100
AcDbEntity
  8
0
100
AcDbLine
 10
3.772541128849038
 20
-8.245258213457852
 30
0.0
 11
3.772541128849038
 21
79.47709319996471
 31
0.0
  0
LINE
  5
7E55
330
7DE6
100
AcDbEntity
  8
0
100
AcDbLine
 10
-25.32974960327341
 20
95.60290067328729
 30
0.0
 11
1.186754691222131
 21
80.29358978089243
 31
0.0
  0
LINE
  5
7E56
330
7DE6
100
AcDbEntity
  8
0
100
AcDbLine
 10
-25.32974960327344
 20
63.35128572664206
 30
0.0
 11
-25.32974960327341
 21
95.60290067328729
 31
0.0
  0
LINE
  5
7E57
330
7DE6
100
AcDbEntity
  8
0
100
AcDbLine
 10
-55.38178780370166
 20
-47.89637342476054
 30
0.0
 11
-55.38178780370167
 21
-45.44688368197738
 31
0.0
  0
LINE
  5
7E58
330
7DE6
100
AcDbEntity
  8
0
100
AcDbLine
 10
-27.09751655623976
 20
60.69767183862698
 30
0.0
 11
2.600968253595228
 21
77.84410003810926
 31
0.0
  0
LINE
  5
7E59
330
7DE6
100
AcDbEntity
  8
0
100
AcDbLine
 10
-56.79600136607477
 20
-44.63038710104965
 30
0.0
 11
-56.79600136607477
 21
-47.07987684383282
 31
0.0
  0
LINE
  5
7E5A
330
7DE6
100
AcDbEntity
  8
0
100
AcDbLine
 10
1.186754691222131
 20
78.66059661903697
 30
0.0
 11
-28.51173011861286
 21
61.51416841955472
 31
0.0
  0
LINE
  5
7E5B
330
7DE6
100
AcDbEntity
  8
0
100
AcDbLine
 10
2.600968253595232
 20
81.11008636182015
 30
0.0
 11
-23.91553604090031
 21
96.41939725421501
 31
0.0
  0
LINE
  5
7E5C
330
7DE6
100
AcDbEntity
  8
0
100
AcDbLine
 10
-23.91553604090031
 20
96.41939725421501
 30
0.0
 11
-25.32974960327341
 21
95.60290067328729
 31
0.0
  0
ELLIPSE
  5
7E5D
330
7DE6
100
AcDbEntity
  8
0
100
AcDbEllipse
 10
27.70325898571764
 20
-42.3850215034984
 30
0.0
 11
1.24999999999987
 21
2.16506350946117
 31
0.0
210
0.0
220
0.0
230
1.0
 40
0.577350269189626
 41
3.742856870268578
 42
5.681921090500113
  0
ELLIPSE
  5
7E5E
330
7DE6
100
AcDbEntity
  8
0
100
AcDbEllipse
 10
29.11747254809074
 20
-43.20151808442613
 30
0.0
 11
-1.25
 21
-2.165063509461095
 31
0.0
210
0.0
220
0.0
230
1.0
 40
0.577350269189626
 41
0.0
 42
6.283185307179586
  0
ELLIPSE
  5
7E5F
330
7DE6
100
AcDbEntity
  8
0
100
AcDbEllipse
 10
27.70325898571764
 20
-26.05508988494389
 30
0.0
 11
1.24999999999987
 21
2.16506350946117
 31
0.0
210
0.0
220
0.0
230
1.0
 40
0.577350269189626
 41
3.742856870268578
 42
5.681921090500115
  0
ELLIPSE
  5
7E60
330
7DE6
100
AcDbEntity
  8
0
100
AcDbEllipse
 10
29.11747254809074
 20
-26.87158646587161
 30
0.0
 11
-1.25
 21
-2.165063509461095
 31
0.0
210
0.0
220
0.0
230
1.0
 40
0.577350269189626
 41
0.0
 42
6.283185307179586
  0
ELLIPSE
  5
7E61
330
7DE6
100
AcDbEntity
  8
0
100
AcDbEllipse
 10
27.70325898571764
 20
-9.725158266389367
 30
0.0
 11
1.24999999999987
 21
2.16506350946117
 31
0.0
210
0.0
220
0.0
230
1.0
 40
0.577350269189626
 41
3.742856870268578
 42
5.681921090500117
  0
ELLIPSE
  5
7E62
330
7DE6
100
AcDbEntity
  8
0
100
AcDbEllipse
 10
29.11747254809074
 20
-10.54165484731709
 30
0.0
 11
-1.25
 21
-2.165063509461095
 31
0.0
210
0.0
220
0.0
230
1.0
 40
0.577350269189626
 41
0.0
 42
6.283185307179586
  0
ELLIPSE
  5
7E63
330
7DE6
100
AcDbEntity
  8
0
100
AcDbEllipse
 10
27.70325898571764
 20
6.604773352165147
 30
0.0
 11
1.24999999999987
 21
2.16506350946117
 31
0.0
210
0.0
220
0.0
230
1.0
 40
0.577350269189626
 41
3.742856870268578
 42
5.681921090500116
  0
ELLIPSE
  5
7E64
330
7DE6
100
AcDbEntity
  8
0
100
AcDbEllipse
 10
29.11747254809074
 20
5.788276771237423
 30
0.0
 11
-1.25
 21
-2.165063509461095
 31
0.0
210
0.0
220
0.0
230
1.0
 40
0.577350269189626
 41
0.0
 42
6.283185307179586
  0
ELLIPSE
  5
7E65
330
7DE6
100
AcDbEntity
  8
0
100
AcDbEllipse
 10
-23.20842925971375
 20
-4.826178780823027
 30
0.0
 11
1.24999999999987
 21
2.165063509461171
 31
0.0
210
0.0
220
0.0
230
1.0
 40
0.5773502691896258
 41
3.742856870268578
 42
5.681921090500114
  0
ELLIPSE
  5
7E66
330
7DE6
100
AcDbEntity
  8
0
100
AcDbEllipse
 10
-21.79421569734065
 20
-5.64267536175075
 30
0.0
 11
1.249999999999999
 21
2.165063509461096
 31
0.0
210
0.0
220
0.0
230
1.0
 40
0.5773502691896258
 41
0.0
 42
6.283185307179586
  0
ELLIPSE
  5
7E67
330
7DE6
100
AcDbEntity
  8
0
100
AcDbEllipse
 10
-23.20842925971375
 20
11.5037528377315
 30
0.0
 11
1.24999999999987
 21
2.165063509461171
 31
0.0
210
0.0
220
0.0
230
1.0
 40
0.5773502691896258
 41
3.742856870268578
 42
5.681921090500114
  0
ELLIPSE
  5
7E68
330
7DE6
100
AcDbEntity
  8
0
100
AcDbEllipse
 10
-21.79421569734065
 20
10.68725625680377
 30
0.0
 11
1.249999999999999
 21
2.165063509461096
 31
0.0
210
0.0
220
0.0
230
1.0
 40
0.5773502691896258
 41
0.0
 42
6.283185307179586
  0
ELLIPSE
  5
7E69
330
7DE6
100
AcDbEntity
  8
0
100
AcDbEllipse
 10
-23.20842925971375
 20
27.83368445628602
 30
0.0
 11
1.24999999999987
 21
2.165063509461171
 31
0.0
210
0.0
220
0.0
230
1.0
 40
0.5773502691896258
 41
3.742856870268578
 42
5.681921090500115
  0
ELLIPSE
  5
7E6A
330
7DE6
100
AcDbEntity
  8
0
100
AcDbEllipse
 10
-21.79421569734065
 20
27.01718787535829
 30
0.0
 11
1.249999999999999
 21
2.165063509461096
 31
0.0
210
0.0
220
0.0
230
1.0
 40
0.5773502691896258
 41
0.0
 42
6.283185307179586
  0
ELLIPSE
  5
7E6B
330
7DE6
100
AcDbEntity
  8
0
100
AcDbEllipse
 10
-23.20842925971375
 20
44.16361607484052
 30
0.0
 11
1.24999999999987
 21
2.165063509461171
 31
0.0
210
0.0
220
0.0
230
1.0
 40
0.5773502691896258
 41
3.742856870268578
 42
5.681921090500117
  0
ELLIPSE
  5
7E6C
330
7DE6
100
AcDbEntity
  8
0
100
AcDbEllipse
 10
-21.79421569734065
 20
43.3471194939128
 30
0.0
 11
1.249999999999999
 21
2.165063509461096
 31
0.0
210
0.0
220
0.0
230
1.0
 40
0.5773502691896258
 41
0.0
 42
6.283185307179586
  0
ELLIPSE
  5
7E6D
330
7DE6
100
AcDbEntity
  8
0
100
AcDbEllipse
 10
-23.20842925971375
 20
60.49354769339503
 30
0.0
 11
1.24999999999987
 21
2.165063509461171
 31
0.0
210
0.0
220
0.0
230
1.0
 40
0.5773502691896258
 41
3.742856870268578
 42
5.681921090500117
  0
ELLIPSE
  5
7E6E
330
7DE6
100
AcDbEntity
  8
0
100
AcDbEllipse
 10
-21.79421569734065
 20
59.67705111246731
 30
0.0
 11
1.249999999999999
 21
2.165063509461096
 31
0.0
210
0.0
220
0.0
230
1.0
 40
0.5773502691896258
 41
0.0
 42
6.283185307179586
  0
ENDBLK
  5
7DE8
330
7DE6
100
AcDbEntity
  8
0
100
AcDbBlockEnd
  0
ENDSEC
  0
SECTION
  2
ENTITIES
  0
INSERT
  5
7E6F
330
1F
100
AcDbEntity
  8
0
100
AcDbBlockReference
  2
SAE300_70_2-Front
 10
0.0
 20
0.0
 30
0.0
  0
INSERT
  5
7E70
330
1F
100
AcDbEntity
  8
0
100
AcDbBlockReference
  2
SAE300_70_2-Left
 10
111.6
 20
0.0
 30
0.0
  0
INSERT
  5
7E71
330
1F
100
AcDbEntity
  8
0
100
AcDbBlockReference
  2
SAE300_70_2-Right
 10
-111.6
 20
0.0
 30
0.0
  0
INSERT
  5
7E72
330
1F
100
AcDbEntity
  8
0
100
AcDbBlockReference
  2
SAE300_70_2-Top
 10
0.0
 20
-37.1
 30
0.0
  0
INSERT
  5
7E73
330
1F
100
AcDbEntity
  8
0
100
AcDbBlockReference
  2
SAE300_70_2-Bottom
 10
0.0
 20
150.1
 30
0.0
  0
INSERT
  5
7E74
330
1F
100
AcDbEntity
  8
0
100
AcDbBlockReference
  2
SAE300_70_2-ISO
 10
168.3960013660749
 20
-133.519397254215
 30
0.0
  0
MTEXT
  5
7E75
330
1F
100
AcDbEntity
  8
0
100
AcDbMText
 10
0.0
 20
-158.2
 30
0.0
 40
11.7
 41
0.0
 71
     5
 72
     5
  1
SAE300/70/2
 73
     1
 44
1.0
1001
ACAD
1000
MTEXTBEGIN
1070
    73
1070
     1
1070
    44
1040
1.0
1070
    74
1070
     0
1000
MTEXTEND
  0
ENDSEC
  0
SECTION
  2
OBJECTS
  0
DICTIONARY
  5
C
330
0
100
AcDbDictionary
281
     1
  3
ACAD_CIP_PREVIOUS_PRODUCT_INFO
350
216
  3
ACAD_COLOR
350
6B
  3
ACAD_DETAILVIEWSTYLE
350
21B
  3
ACAD_GROUP
350
D
  3
ACAD_LAYOUT
350
1A
  3
ACAD_MATERIAL
350
6A
  3
ACAD_MLEADERSTYLE
350
12D
  3
ACAD_MLINESTYLE
350
17
  3
ACAD_PLOTSETTINGS
350
19
  3
ACAD_PLOTSTYLENAME
350
E
  3
ACAD_SCALELIST
350
10C
  3
ACAD_SECTIONVIEWSTYLE
350
219
  3
ACAD_TABLESTYLE
350
7E
  3
ACAD_VISUALSTYLE
350
EF
  3
ACDB_RECOMPOSE_DATA
350
7F76
  3
AcDbVariableDictionary
350
5E
  3
DWGPROPS
350
7F77
  0
DICTIONARY
  5
7EC6
330
8
100
AcDbDictionary
280
     1
281
     1
  0
DICTIONARY
  5
1FF
330
2
100
AcDbDictionary
280
     1
281
     1
  3
ACAD_LAYERSTATES
360
200
  0
DICTIONARY
  5
13C
330
10
100
AcDbDictionary
280
     1
281
     1
  0
DICTIONARY
  5
1CE
330
1F
100
AcDbDictionary
280
     1
281
     1
  3
ACAD_LAYOUTSELFREF
360
7ECE
  0
DICTIONARY
  5
7E79
330
D2
100
AcDbDictionary
280
     1
281
     1
  3
ACAD_LAYOUTSELFREF
360
7ED7
  0
DICTIONARY
  5
7E7B
330
D6
100
AcDbDictionary
280
     1
281
     1
  3
ACAD_LAYOUTSELFREF
360
7EDA
  0
XRECORD
  5
216
102
{ACAD_REACTORS
330
C
102
}
330
C
100
AcDbXrecord
280
     1
300
ACD
300
2021
300
87393ACD_2021_0F
  0
DICTIONARY
  5
6B
102
{ACAD_REACTORS
330
C
102
}
330
C
100
AcDbDictionary
281
     1
  0
DICTIONARY
  5
21B
102
{ACAD_REACTORS
330
C
102
}
330
C
100
AcDbDictionary
281
     1
  3
Metric50
350
21C
  0
DICTIONARY
  5
D
102
{ACAD_REACTORS
330
C
102
}
330
C
100
AcDbDictionary
281
     1
  0
DICTIONARY
  5
1A
102
{ACAD_REACTORS
330
C
102
}
330
C
100
AcDbDictionary
281
     1
  3
Layout1
350
D3
  3
Layout2
350
D7
  3
Model
350
22
  0
DICTIONARY
  5
6A
102
{ACAD_REACTORS
330
C
102
}
330
C
100
AcDbDictionary
281
     1
  3
ByBlock
350
ED
  3
ByLayer
350
EC
  3
Global
350
EE
  0
DICTIONARY
  5
12D
102
{ACAD_REACTORS
330
C
102
}
330
C
100
AcDbDictionary
281
     1
  3
Standard
350
12E
  0
DICTIONARY
  5
17
102
{ACAD_REACTORS
330
C
102
}
330
C
100
AcDbDictionary
281
     1
  3
Standard
350
18
  0
DICTIONARY
  5
19
102
{ACAD_REACTORS
330
C
102
}
330
C
100
AcDbDictionary
281
     1
  0
ACDBDICTIONARYWDFLT
  5
E
102
{ACAD_REACTORS
330
C
102
}
330
C
100
AcDbDictionary
281
     1
  3
Normal
350
F
100
AcDbDictionaryWithDefault
340
F
  0
DICTIONARY
  5
10C
102
{ACAD_REACTORS
330
C
102
}
330
C
100
AcDbDictionary
281
     1
  3
A0
350
10D
  3
A1
350
1BE
  3
A2
350
1BF
  3
A3
350
1C0
  3
A4
350
1C1
  3
A5
350
1C2
  3
A6
350
1C3
  3
A7
350
1C4
  3
A8
350
1C5
  3
A9
350
1C6
  3
B0
350
1C7
  3
B1
350
1C8
  3
B2
350
1C9
  3
B3
350
1CA
  3
B4
350
1CB
  3
B5
350
1CC
  3
B6
350
1CD
  0
DICTIONARY
  5
219
102
{ACAD_REACTORS
330
C
102
}
330
C
100
AcDbDictionary
281
     1
  3
Metric50
350
21A
  0
DICTIONARY
  5
7E
102
{ACAD_REACTORS
330
C
102
}
330
C
100
AcDbDictionary
281
     1
  3
Standard
350
7F
  0
DICTIONARY
  5
EF
102
{ACAD_REACTORS
330
C
102
}
330
C
100
AcDbDictionary
281
     1
  3
2dWireframe
350
F5
  3
Basic
350
F4
  3
Brighten
350
FB
  3
ColorChange
350
FF
  3
Conceptual
350
F8
  3
Dim
350
FA
  3
EdgeColorOff
350
1E6
  3
Facepattern
350
FE
  3
Flat
350
F0
  3
FlatWithEdges
350
F1
  3
Gouraud
350
F2
  3
GouraudWithEdges
350
F3
  3
Hidden
350
F7
  3
JitterOff
350
1E4
  3
Linepattern
350
FD
  3
OverhangOff
350
1E5
  3
Realistic
350
F9
  3
Shaded
350
1F3
  3
Shaded with edges
350
1F2
  3
Shades of Gray
350
1EF
  3
Sketchy
350
1F0
  3
Thicken
350
FC
  3
Wireframe
350
F6
  3
X-Ray
350
1F1
  0
XRECORD
  5
7F76
102
{ACAD_REACTORS
330
C
102
}
330
C
100
AcDbXrecord
280
     1
 90
        1
330
7F
  0
DICTIONARY
  5
5E
102
{ACAD_REACTORS
330
C
102
}
330
C
100
AcDbDictionary
281
     1
  3
CANNOSCALE
350
146
  3
CENTEREXE
350
259
  3
CENTERLTYPEFILE
350
25A
  3
CMLEADERSTYLE
350
145
  3
CTABLESTYLE
350
84
  3
CVIEWDETAILSTYLE
350
227
  3
CVIEWSECTIONSTYLE
350
228
  3
DIMASSOC
350
5F
  3
HIDETEXT
350
63
  3
INDEXCTL
350
7F23
  3
LAYEREVAL
350
1AE
  3
LAYERNOTIFY
350
1AF
  3
LIGHTINGUNITS
350
7F21
  3
MSLTSCALE
350
7F20
  3
PSOLHEIGHT
350
7F73
  3
PSOLWIDTH
350
7F72
  3
SORTENTS
350
7F22
  3
XCLIPFRAME
350
7F74
  0
XRECORD
  5
7F77
102
{ACAD_REACTORS
330
C
102
}
330
C
100
AcDbXrecord
280
     1
  1
DWGPROPS COOKIE
  2

  3

  4

  6

  7

  8
truole
  9

300
=
301
=
302
=
303
=
304
=
305
=
306
=
307
=
308
=
309
=
 40
0.0076736111111111
 41
2460398.356956019
 42
2460398.374108797
  1

 90
        0
  0
DICTIONARY
  5
200
102
{ACAD_REACTORS
330
1FF
102
}
330
1FF
100
AcDbDictionary
281
     1
  0
XRECORD
  5
7ECE
102
{ACAD_REACTORS
330
1CE
102
}
330
1CE
100
AcDbXrecord
280
     1
340
1F
  0
XRECORD
  5
7ED7
102
{ACAD_REACTORS
330
7E79
102
}
330
7E79
100
AcDbXrecord
280
     1
340
D2
  0
XRECORD
  5
7EDA
102
{ACAD_REACTORS
330
7E7B
102
}
330
7E7B
100
AcDbXrecord
280
     1
340
D6
  0
ACDBDETAILVIEWSTYLE
  5
21C
102
{ACAD_XDICTIONARY
360
7FB6
102
}
102
{ACAD_REACTORS
330
21B
102
}
330
21B
100
AcDbModelDocViewStyle
 70
     0
  3
Metric50
290
     0
100
AcDbDetailViewStyle
 70
     0
 71
     0
 90
        3
 71
     1
340
11
 40
5.0
340
0
 40
5.0
300

 40
0.0
280
     1
 71
     2
340
16
 90
       25
 71
     3
340
11
 40
5.0
 90
        0
 40
15.0
 90
        1
300
%<\AcVar ViewDetailId>% (%<\AcVar ViewScale \f "%sn">%)
 71
     4
340
16
 90
       25
340
16
 90
       25
280
     0
  0
LAYOUT
  5
D3
102
{ACAD_XDICTIONARY
360
7F7B
102
}
102
{ACAD_REACTORS
330
1A
102
}
330
1A
100
AcDbPlotSettings
  1

  2
C:\Documents and Settings\basas\Application Data\Autodesk\AutoCAD 2005\R16.1\enu\plotters\Default Windows System Printer.pc3
  4

  6

 40
0.0
 41
0.0
 42
0.0
 43
0.0
 44
0.0
 45
0.0
 46
0.0
 47
0.0
 48
0.0
 49
0.0
140
0.0
141
0.0
142
1.0
143
1.0
 70
   688
 72
     0
 73
     0
 74
     5
  7

 75
    16
147
1.0
148
0.0
149
0.0
100
AcDbLayout
  1
Layout1
 70
     1
 71
     1
 10
0.0
 20
0.0
 11
12.0
 21
9.0
 12
0.0
 22
0.0
 32
0.0
 14
0.0
 24
0.0
 34
0.0
 15
0.0
 25
0.0
 35
0.0
146
0.0
 13
0.0
 23
0.0
 33
0.0
 16
1.0
 26
0.0
 36
0.0
 17
0.0
 27
1.0
 37
0.0
 76
     0
330
D2
  0
LAYOUT
  5
D7
102
{ACAD_XDICTIONARY
360
7F7D
102
}
102
{ACAD_REACTORS
330
1A
102
}
330
1A
100
AcDbPlotSettings
  1

  2
C:\Documents and Settings\basas\Application Data\Autodesk\AutoCAD 2005\R16.1\enu\plotters\Default Windows System Printer.pc3
  4

  6

 40
0.0
 41
0.0
 42
0.0
 43
0.0
 44
0.0
 45
0.0
 46
0.0
 47
0.0
 48
0.0
 49
0.0
140
0.0
141
0.0
142
1.0
143
1.0
 70
   688
 72
     0
 73
     0
 74
     5
  7

 75
    16
147
1.0
148
0.0
149
0.0
100
AcDbLayout
  1
Layout2
 70
     1
 71
     2
 10
0.0
 20
0.0
 11
12.0
 21
9.0
 12
0.0
 22
0.0
 32
0.0
 14
0.0
 24
0.0
 34
0.0
 15
0.0
 25
0.0
 35
0.0
146
0.0
 13
0.0
 23
0.0
 33
0.0
 16
1.0
 26
0.0
 36
0.0
 17
0.0
 27
1.0
 37
0.0
 76
     0
330
D6
  0
LAYOUT
  5
22
102
{ACAD_XDICTIONARY
360
7F78
102
}
102
{ACAD_REACTORS
330
1A
102
}
330
1A
100
AcDbPlotSettings
  1

  2
none_device
  4
ISO_A4_(210.00_x_297.00_MM)
  6

 40
7.5
 41
20.0
 42
7.5
 43
20.0
 44
210.0
 45
297.0
 46
11.54999923706054
 47
-13.65000009536743
 48
0.0
 49
0.0
140
0.0
141
0.0
142
1.0
143
8.704084754739808
 70
 11952
 72
     1
 73
     0
 74
     0
  7

 75
     0
147
0.1148885871608098
148
0.0
149
0.0
100
AcDbLayout
  1
Model
 70
     1
 71
     0
 10
0.0
 20
0.0
 11
12.0
 21
9.0
 12
0.0
 22
0.0
 32
0.0
 14
0.0
 24
0.0
 34
0.0
 15
0.0
 25
0.0
 35
0.0
146
0.0
 13
0.0
 23
0.0
 33
0.0
 16
1.0
 26
0.0
 36
0.0
 17
0.0
 27
1.0
 37
0.0
 76
     0
330
1F
331
EA
1001
ACAD_PSEXT
1000
None
1000
None
1000
Not applicable
1000
The layout will not be plotted unless a new plotter configuration name is selected.
1070
     0
  0
MATERIAL
  5
ED
102
{ACAD_XDICTIONARY
360
1F9
102
}
102
{ACAD_REACTORS
330
6A
102
}
330
6A
100
AcDbMaterial
  1
ByBlock
  0
MATERIAL
  5
EC
102
{ACAD_XDICTIONARY
360
1F7
102
}
102
{ACAD_REACTORS
330
6A
102
}
330
6A
100
AcDbMaterial
  1
ByLayer
  0
MATERIAL
  5
EE
102
{ACAD_XDICTIONARY
360
173
102
}
102
{ACAD_REACTORS
330
6A
102
}
330
6A
100
AcDbMaterial
  1
Global
 43
0.0007999999797903
 43
0.0
 43
0.0
 43
0.0
 43
0.0
 43
0.0007999999797903
 43
0.0
 43
0.0
 43
0.0
 43
0.0
 43
1.0
 43
0.0
 43
0.0
 43
0.0
 43
0.0
 43
1.0
 49
0.0007999999797903
 49
0.0
 49
0.0
 49
0.0
 49
0.0
 49
0.0007999999797903
 49
0.0
 49
0.0
 49
0.0
 49
0.0
 49
1.0
 49
0.0
 49
0.0
 49
0.0
 49
0.0
 49
1.0
142
0.0007999999797903
142
0.0
142
0.0
142
0.0
142
0.0
142
0.0007999999797903
142
0.0
142
0.0
142
0.0
142
0.0
142
1.0
142
0.0
142
0.0
142
0.0
142
0.0
142
1.0
144
0.0007999999797903
144
0.0
144
0.0
144
0.0
144
0.0
144
0.0007999999797903
144
0.0
144
0.0
144
0.0
144
0.0
144
1.0
144
0.0
144
0.0
144
0.0
144
0.0
144
1.0
1001
ACAD
1070
    -1
1070
     3
1070
     0
1000

1071
        0
1070
     0
  0
MLEADERSTYLE
  5
12E
102
{ACAD_XDICTIONARY
360
7FA2
102
}
102
{ACAD_REACTORS
330
12D
102
}
330
12D
100
AcDbMLeaderStyle
170
     2
171
     1
172
     0
 90
        2
 40
0.0
 41
0.0
173
     1
 91
-1056964608
340
14
 92
       -2
290
     1
 42
2.0
291
     1
 43
8.0
  3
Standard
 44
4.0
300

342
11
174
     1
178
     1
175
     1
176
     0
 93
-1056964608
 45
4.0
292
     0
297
     0
 46
4.0
 94
-1056964608
 47
1.0
 49
1.0
140
1.0
293
     1
141
0.0
294
     1
177
     0
142
1.0
295
     0
296
     0
143
3.75
1001
ACAD_MLEADERVER
1070
     2
  0
MLINESTYLE
  5
18
102
{ACAD_REACTORS
330
17
102
}
330
17
100
AcDbMlineStyle
  2
STANDARD
 70
     0
  3

 62
   256
 51
90.0
 52
90.0
 71
     2
 49
0.5
 62
   256
  6
BYLAYER
 49
-0.5
 62
   256
  6
BYLAYER
  0
ACDBPLACEHOLDER
  5
F
102
{ACAD_REACTORS
330
E
102
}
330
E
  0
SCALE
  5
10D
102
{ACAD_REACTORS
330
10C
102
}
330
10C
100
AcDbScale
 70
     0
300
1:1
140
1.0
141
1.0
290
     1
  0
SCALE
  5
1BE
102
{ACAD_REACTORS
330
10C
102
}
330
10C
100
AcDbScale
 70
     0
300
1:2
140
1.0
141
2.0
290
     0
  0
SCALE
  5
1BF
102
{ACAD_REACTORS
330
10C
102
}
330
10C
100
AcDbScale
 70
     0
300
1:4
140
1.0
141
4.0
290
     0
  0
SCALE
  5
1C0
102
{ACAD_REACTORS
330
10C
102
}
330
10C
100
AcDbScale
 70
     0
300
1:5
140
1.0
141
5.0
290
     0
  0
SCALE
  5
1C1
102
{ACAD_REACTORS
330
10C
102
}
330
10C
100
AcDbScale
 70
     0
300
1:8
140
1.0
141
8.0
290
     0
  0
SCALE
  5
1C2
102
{ACAD_REACTORS
330
10C
102
}
330
10C
100
AcDbScale
 70
     0
300
1:10
140
1.0
141
10.0
290
     0
  0
SCALE
  5
1C3
102
{ACAD_REACTORS
330
10C
102
}
330
10C
100
AcDbScale
 70
     0
300
1:16
140
1.0
141
16.0
290
     0
  0
SCALE
  5
1C4
102
{ACAD_REACTORS
330
10C
102
}
330
10C
100
AcDbScale
 70
     0
300
1:20
140
1.0
141
20.0
290
     0
  0
SCALE
  5
1C5
102
{ACAD_REACTORS
330
10C
102
}
330
10C
100
AcDbScale
 70
     0
300
1:30
140
1.0
141
30.0
290
     0
  0
SCALE
  5
1C6
102
{ACAD_REACTORS
330
10C
102
}
330
10C
100
AcDbScale
 70
     0
300
1:40
140
1.0
141
40.0
290
     0
  0
SCALE
  5
1C7
102
{ACAD_REACTORS
330
10C
102
}
330
10C
100
AcDbScale
 70
     0
300
1:50
140
1.0
141
50.0
290
     0
  0
SCALE
  5
1C8
102
{ACAD_REACTORS
330
10C
102
}
330
10C
100
AcDbScale
 70
     0
300
1:100
140
1.0
141
100.0
290
     0
  0
SCALE
  5
1C9
102
{ACAD_REACTORS
330
10C
102
}
330
10C
100
AcDbScale
 70
     0
300
2:1
140
2.0
141
1.0
290
     0
  0
SCALE
  5
1CA
102
{ACAD_REACTORS
330
10C
102
}
330
10C
100
AcDbScale
 70
     0
300
4:1
140
4.0
141
1.0
290
     0
  0
SCALE
  5
1CB
102
{ACAD_REACTORS
330
10C
102
}
330
10C
100
AcDbScale
 70
     0
300
8:1
140
8.0
141
1.0
290
     0
  0
SCALE
  5
1CC
102
{ACAD_REACTORS
330
10C
102
}
330
10C
100
AcDbScale
 70
     0
300
10:1
140
10.0
141
1.0
290
     0
  0
SCALE
  5
1CD
102
{ACAD_REACTORS
330
10C
102
}
330
10C
100
AcDbScale
 70
     0
300
100:1
140
100.0
141
1.0
290
     0
  0
ACDBSECTIONVIEWSTYLE
  5
21A
102
{ACAD_XDICTIONARY
360
7FB4
102
}
102
{ACAD_REACTORS
330
219
102
}
330
219
100
AcDbModelDocViewStyle
 70
     0
  3
Metric50
290
     0
100
AcDbSectionViewStyle
 70
     0
 71
     0
 90
      102
 71
     1
340
11
 40
5.0
340
0
340
0
 40
5.0
300
I, O, Q, S, X, Z
 40
10.0
 90
        0
 40
2.5
 90
        0
 71
     2
340
16
 90
       25
340
16
 90
       50
 40
5.0
 40
2.5
 40
5.0
 71
     3
340
11
 40
5.0
 90
        0
 40
15.0
 90
        1
300
%<\AcVar ViewSectionStartId>%-%<\AcVar ViewSectionEndId>% (%<\AcVar ViewScale \f "%sn">%)
 71
     4
300
ANSI31
 40
1.0
 90
        0
290
     0
290
     0
 90
        6
 40
0.0
 40
1.570796326794896
 40
0.2617993877991494
 40
1.308996938995747
 40
-0.2617993877991494
 40
1.832595714594046
  0
TABLESTYLE
  5
7F
102
{ACAD_XDICTIONARY
360
162
102
}
102
{ACAD_REACTORS
330
7E
102
}
330
7E
100
AcDbTableStyle
  3
Standard
 70
     0
 71
     0
 40
1.5
 41
1.5
280
     0
281
     0
  7
Standard
140
4.5
170
     2
 62
     0
 63
     7
283
     0
274
    -2
284
     1
 64
     0
275
    -2
285
     1
 65
     0
276
    -2
286
     1
 66
     0
277
    -2
287
     1
 67
     0
278
    -2
288
     1
 68
     0
279
    -2
289
     1
 69
     0
  7
Standard
140
6.0
170
     5
 62
     0
 63
     7
283
     0
274
    -2
284
     1
 64
     0
275
    -2
285
     1
 65
     0
276
    -2
286
     1
 66
     0
277
    -2
287
     1
 67
     0
278
    -2
288
     1
 68
     0
279
    -2
289
     1
 69
     0
  7
Standard
140
4.5
170
     5
 62
     0
 63
     7
283
     0
274
    -2
284
     1
 64
     0
275
    -2
285
     1
 65
     0
276
    -2
286
     1
 66
     0
277
    -2
287
     1
 67
     0
278
    -2
288
     1
 68
     0
279
    -2
289
     1
 69
     0
  0
VISUALSTYLE
  5
F5
102
{ACAD_XDICTIONARY
360
7F8C
102
}
102
{ACAD_REACTORS
330
EF
102
}
330
EF
100
AcDbVisualStyle
  2
2dWireframe
 70
     4
 71
     0
 72
     2
 73
     1
 90
        0
 40
-0.6
 41
-30.0
 62
     5
 63
     7
 74
     1
 91
        4
 64
     7
 65
   257
 75
     1
175
     1
 42
1.0
 92
        0
 66
   257
 43
1.0
 76
     1
 77
     6
 78
     2
 67
     7
 79
     5
170
     0
171
     0
290
     0
174
     0
 93
        1
 44
0.0
173
     0
291
     0
 45
0.0
1001
ACAD
1000
AcDbSavedByObjectVersion
1070
     0
  0
VISUALSTYLE
  5
F4
102
{ACAD_XDICTIONARY
360
7F8A
102
}
102
{ACAD_REACTORS
330
EF
102
}
330
EF
100
AcDbVisualStyle
  2
Basic
 70
     7
 71
     1
 72
     0
 73
     1
 90
        0
 40
-0.6
 41
-30.0
 62
     5
 63
     7
 74
     0
 91
        4
 64
     7
 65
   257
 75
     1
175
     1
 42
1.0
 92
        8
 66
     7
 43
1.0
 76
     1
 77
     6
 78
     2
 67
     7
 79
     5
170
     0
171
     0
290
     0
174
     0
 93
        1
 44
0.0
173
     0
291
     1
 45
0.0
1001
ACAD
1000
AcDbSavedByObjectVersion
1070
     0
  0
VISUALSTYLE
  5
FB
102
{ACAD_XDICTIONARY
360
7F98
102
}
102
{ACAD_REACTORS
330
EF
102
}
330
EF
100
AcDbVisualStyle
  2
Brighten
 70
    12
 71
     2
 72
     2
 73
     1
 90
        0
 40
-0.6
 41
-30.0
 62
     5
 63
     7
 74
     1
 91
        4
 64
     7
 65
   257
 75
     1
175
     1
 42
1.0
 92
        8
 66
     7
 43
1.0
 76
     1
 77
     6
 78
     2
 67
     7
 79
     5
170
     0
171
     0
290
     0
174
     0
 93
        1
 44
50.0
173
     0
291
     1
 45
0.0
1001
ACAD
1000
AcDbSavedByObjectVersion
1070
     0
  0
VISUALSTYLE
  5
FF
102
{ACAD_XDICTIONARY
360
7FA0
102
}
102
{ACAD_REACTORS
330
EF
102
}
330
EF
100
AcDbVisualStyle
  2
ColorChange
 70
    16
 71
     2
 72
     2
 73
     3
 90
        0
 40
-0.6
 41
-30.0
 62
     5
 63
     8
 74
     1
 91
        4
 64
     7
 65
   257
 75
     1
175
     1
 42
1.0
 92
        8
 66
     8
 43
1.0
 76
     1
 77
     6
 78
     2
 67
     7
 79
     5
170
     0
171
     0
290
     0
174
     0
 93
        1
 44
0.0
173
     0
291
     1
 45
0.0
1001
ACAD
1000
AcDbSavedByObjectVersion
1070
     0
  0
VISUALSTYLE
  5
F8
102
{ACAD_XDICTIONARY
360
7F92
102
}
102
{ACAD_REACTORS
330
EF
102
}
330
EF
100
AcDbVisualStyle
  2
Conceptual
 70
     9
 71
     3
 72
     2
 73
     1
 90
        0
 40
-0.6
 41
-30.0
 62
     5
 63
     7
 74
     2
 91
        2
 64
     7
 65
   257
 75
     1
175
     1
 42
40.0
 92
        8
 66
     7
 43
1.0
 76
     1
 77
     6
 78
     2
 67
     7
 79
     3
170
     0
171
     0
290
     0
174
     0
 93
        1
 44
0.0
173
     0
291
     0
 45
0.0
1001
ACAD
1000
AcDbSavedByObjectVersion
1070
     0
  0
VISUALSTYLE
  5
FA
102
{ACAD_XDICTIONARY
360
7F96
102
}
102
{ACAD_REACTORS
330
EF
102
}
330
EF
100
AcDbVisualStyle
  2
Dim
 70
    11
 71
     2
 72
     2
 73
     1
 90
        0
 40
-0.6
 41
-30.0
 62
     5
 63
     7
 74
     1
 91
        4
 64
     7
 65
   257
 75
     1
175
     1
 42
1.0
 92
        8
 66
     7
 43
1.0
 76
     1
 77
     6
 78
     2
 67
     7
 79
     5
170
     0
171
     0
290
     0
174
     0
 93
        1
 44
-50.0
173
     0
291
     1
 45
0.0
1001
ACAD
1000
AcDbSavedByObjectVersion
1070
     0
  0
VISUALSTYLE
  5
1E6
102
{ACAD_XDICTIONARY
360
7FA8
102
}
102
{ACAD_REACTORS
330
EF
102
}
330
EF
100
AcDbVisualStyle
  2
EdgeColorOff
 70
    22
 71
     2
 72
     2
 73
     0
 90
        0
 40
-0.6
 41
-30.0
 62
     5
 63
     7
 74
     1
 91
        4
 64
     7
 65
   257
 75
     1
175
     1
 42
1.0
 92
        8
 66
     7
 43
1.0
 76
     1
 77
     6
 78
     2
 67
     7
 79
     5
170
     0
171
     0
290
     0
174
     0
 93
        1
 44
0.0
173
     0
291
     1
 45
0.0
1001
ACAD
1000
AcDbSavedByObjectVersion
1070
     0
  0
VISUALSTYLE
  5
FE
102
{ACAD_XDICTIONARY
360
7F9E
102
}
102
{ACAD_REACTORS
330
EF
102
}
330
EF
100
AcDbVisualStyle
  2
Facepattern
 70
    15
 71
     2
 72
     2
 73
     1
 90
        0
 40
-0.6
 41
-30.0
 62
     5
 63
     7
 74
     1
 91
        4
 64
     7
 65
   257
 75
     1
175
     1
 42
1.0
 92
        8
 66
     7
 43
1.0
 76
     1
 77
     6
 78
     2
 67
     7
 79
     5
170
     0
171
     0
290
     0
174
     0
 93
        1
 44
0.0
173
     0
291
     1
 45
0.0
1001
ACAD
1000
AcDbSavedByObjectVersion
1070
     0
  0
VISUALSTYLE
  5
F0
102
{ACAD_XDICTIONARY
360
7F82
102
}
102
{ACAD_REACTORS
330
EF
102
}
330
EF
100
AcDbVisualStyle
  2
Flat
 70
     0
 71
     2
 72
     1
 73
     1
 90
        2
 40
-0.6
 41
30.0
 62
     5
 63
     7
 74
     0
 91
        0
 64
     7
 65
   257
 75
     1
175
     1
 42
1.0
 92
        8
 66
     7
 43
1.0
 76
     1
 77
     6
 78
     2
 67
     7
 79
     5
170
     0
171
     0
290
     0
174
     0
 93
       13
 44
0.0
173
     0
291
     1
 45
0.0
1001
ACAD
1000
AcDbSavedByObjectVersion
1070
     0
  0
VISUALSTYLE
  5
F1
102
{ACAD_XDICTIONARY
360
7F84
102
}
102
{ACAD_REACTORS
330
EF
102
}
330
EF
100
AcDbVisualStyle
  2
FlatWithEdges
 70
     1
 71
     2
 72
     1
 73
     1
 90
        2
 40
-0.6
 41
30.0
 62
     5
 63
     7
 74
     1
 91
        0
 64
     7
 65
   257
 75
     1
175
     1
 42
1.0
 92
        0
 66
   257
 43
1.0
 76
     1
 77
     6
 78
     2
 67
     7
 79
     5
170
     0
171
     0
290
     0
174
     0
 93
       13
 44
0.0
173
     0
291
     1
 45
0.0
1001
ACAD
1000
AcDbSavedByObjectVersion
1070
     0
  0
VISUALSTYLE
  5
F2
102
{ACAD_XDICTIONARY
360
7F86
102
}
102
{ACAD_REACTORS
330
EF
102
}
330
EF
100
AcDbVisualStyle
  2
Gouraud
 70
     2
 71
     2
 72
     2
 73
     1
 90
        2
 40
-0.6
 41
30.0
 62
     5
 63
     7
 74
     0
 91
        0
 64
     7
 65
   257
 75
     1
175
     1
 42
1.0
 92
        0
 66
     7
 43
1.0
 76
     1
 77
     6
 78
     2
 67
     7
 79
     5
170
     0
171
     0
290
     0
174
     0
 93
       13
 44
0.0
173
     0
291
     1
 45
0.0
1001
ACAD
1000
AcDbSavedByObjectVersion
1070
     0
  0
VISUALSTYLE
  5
F3
102
{ACAD_XDICTIONARY
360
7F88
102
}
102
{ACAD_REACTORS
330
EF
102
}
330
EF
100
AcDbVisualStyle
  2
GouraudWithEdges
 70
     3
 71
     2
 72
     2
 73
     1
 90
        2
 40
-0.6
 41
30.0
 62
     5
 63
     7
 74
     1
 91
        0
 64
     7
 65
   257
 75
     1
175
     1
 42
1.0
 92
        0
 66
   257
 43
1.0
 76
     1
 77
     6
 78
     2
 67
     7
 79
     5
170
     0
171
     0
290
     0
174
     0
 93
       13
 44
0.0
173
     0
291
     1
 45
0.0
1001
ACAD
1000
AcDbSavedByObjectVersion
1070
     0
  0
VISUALSTYLE
  5
F7
102
{ACAD_XDICTIONARY
360
7F90
102
}
102
{ACAD_REACTORS
330
EF
102
}
330
EF
100
AcDbVisualStyle
  2
Hidden
 70
     6
 71
     1
 72
     2
 73
     2
 90
        0
 40
-0.6
 41
-30.0
 62
     5
 63
     7
 74
     2
 91
        2
 64
     7
 65
   257
 75
     2
175
     1
 42
40.0
 92
        0
 66
   257
 43
1.0
 76
     1
 77
     6
 78
     2
 67
     7
 79
     3
170
     0
171
     0
290
     0
174
     0
 93
        1
 44
0.0
173
     0
291
     0
 45
0.0
1001
ACAD
1000
AcDbSavedByObjectVersion
1070
     0
  0
VISUALSTYLE
  5
1E4
102
{ACAD_XDICTIONARY
360
7FA4
102
}
102
{ACAD_REACTORS
330
EF
102
}
330
EF
100
AcDbVisualStyle
  2
JitterOff
 70
    20
 71
     2
 72
     2
 73
     0
 90
        0
 40
-0.6
 41
-30.0
 62
     5
 63
     7
 74
     1
 91
        4
 64
     7
 65
   257
 75
     1
175
     1
 42
1.0
 92
       10
 66
     7
 43
1.0
 76
     1
 77
     6
 78
     2
 67
     7
 79
     5
170
     0
171
     0
290
     0
174
     0
 93
        1
 44
0.0
173
     0
291
     1
 45
0.0
1001
ACAD
1000
AcDbSavedByObjectVersion
1070
     0
  0
VISUALSTYLE
  5
FD
102
{ACAD_XDICTIONARY
360
7F9C
102
}
102
{ACAD_REACTORS
330
EF
102
}
330
EF
100
AcDbVisualStyle
  2
Linepattern
 70
    14
 71
     2
 72
     2
 73
     1
 90
        0
 40
-0.6
 41
-30.0
 62
     5
 63
     7
 74
     1
 91
        4
 64
     7
 65
   257
 75
     7
175
     7
 42
1.0
 92
        8
 66
     7
 43
1.0
 76
     1
 77
     6
 78
     2
 67
     7
 79
     5
170
     0
171
     0
290
     0
174
     0
 93
        1
 44
0.0
173
     0
291
     1
 45
0.0
1001
ACAD
1000
AcDbSavedByObjectVersion
1070
     0
  0
VISUALSTYLE
  5
1E5
102
{ACAD_XDICTIONARY
360
7FA6
102
}
102
{ACAD_REACTORS
330
EF
102
}
330
EF
100
AcDbVisualStyle
  2
OverhangOff
 70
    21
 71
     2
 72
     2
 73
     0
 90
        0
 40
-0.6
 41
-30.0
 62
     5
 63
     7
 74
     1
 91
        4
 64
     7
 65
   257
 75
     1
175
     1
 42
1.0
 92
        9
 66
     7
 43
1.0
 76
     1
 77
     6
 78
     2
 67
     7
 79
     5
170
     0
171
     0
290
     0
174
     0
 93
        1
 44
0.0
173
     0
291
     1
 45
0.0
1001
ACAD
1000
AcDbSavedByObjectVersion
1070
     0
  0
VISUALSTYLE
  5
F9
102
{ACAD_XDICTIONARY
360
7F94
102
}
102
{ACAD_REACTORS
330
EF
102
}
330
EF
100
AcDbVisualStyle
  2
Realistic
 70
     8
 71
     2
 72
     2
 73
     0
 90
        2
 40
-0.6
 41
30.0
 62
     5
 63
     7
 74
     0
 91
        0
 64
     7
 65
   257
 75
     1
175
     1
 42
1.0
 92
        8
 66
   257
 43
1.0
 76
     1
 77
     6
 78
     2
 67
     7
 79
     3
170
     0
171
     0
290
     0
174
     0
 93
       13
 44
0.0
173
     0
291
     0
 45
0.0
1001
ACAD
1000
AcDbSavedByObjectVersion
1070
     0
  0
VISUALSTYLE
  5
1F3
102
{ACAD_XDICTIONARY
360
7FB2
102
}
102
{ACAD_REACTORS
330
EF
102
}
330
EF
100
AcDbVisualStyle
  2
Shaded
 70
    27
 71
     2
 72
     2
 73
     1
 90
        2
 40
-0.6
 41
30.0
 62
     5
 63
     7
 74
     0
 91
        4
 64
     7
 65
   257
 75
     1
175
     1
 42
1.0
 92
        8
 66
   257
 43
1.0
 76
     1
 77
     6
 78
     2
 67
     8
 79
     3
170
     0
171
     0
290
     0
174
     0
 93
        5
 44
0.0
173
     0
291
     0
 45
0.0
1001
ACAD
1000
AcDbSavedByObjectVersion
1070
     0
  0
VISUALSTYLE
  5
1F2
102
{ACAD_XDICTIONARY
360
7FB0
102
}
102
{ACAD_REACTORS
330
EF
102
}
330
EF
100
AcDbVisualStyle
  2
Shaded with edges
 70
    26
 71
     2
 72
     2
 73
     1
 90
        2
 40
-0.6
 41
30.0
 62
     5
 63
     7
 74
     1
 91
        2
 64
     7
 65
   257
 75
     2
175
     1
 42
1.0
 92
        8
 66
   257
 43
1.0
 76
     1
 77
     6
 78
     2
 67
     7
 79
     3
170
     0
171
     0
290
     0
174
     0
 93
        5
 44
0.0
173
     0
291
     0
 45
0.0
1001
ACAD
1000
AcDbSavedByObjectVersion
1070
     0
  0
VISUALSTYLE
  5
1EF
102
{ACAD_XDICTIONARY
360
7FAA
102
}
102
{ACAD_REACTORS
330
EF
102
}
330
EF
100
AcDbVisualStyle
  2
Shades of Gray
 70
    23
 71
     2
 72
     2
 73
     3
 90
        0
 40
-0.6
 41
-30.0
 62
     5
 63
     7
 74
     2
 91
        2
 64
     7
 65
     7
 75
     1
175
     1
 42
40.0
 92
        8
 66
     7
 43
1.0
 76
     1
 77
     6
 78
     2
 67
     7
 79
     3
170
     0
171
     0
290
     0
174
     0
 93
        1
 44
0.0
173
     0
291
     0
 45
0.0
1001
ACAD
1000
AcDbSavedByObjectVersion
1070
     0
  0
VISUALSTYLE
  5
1F0
102
{ACAD_XDICTIONARY
360
7FAC
102
}
102
{ACAD_REACTORS
330
EF
102
}
330
EF
100
AcDbVisualStyle
  2
Sketchy
 70
    24
 71
     1
 72
     2
 73
     2
 90
        0
 40
-0.6
 41
-30.0
 62
     5
 63
     7
 74
     2
 91
        2
 64
     7
 65
     7
 75
     1
175
     1
 42
40.0
 92
       11
 66
     7
 43
1.0
 76
     1
 77
     6
 78
     2
 67
     7
 79
     6
170
     0
171
     0
290
     0
174
     0
 93
        1
 44
0.0
173
     0
291
     0
 45
0.0
1001
ACAD
1000
AcDbSavedByObjectVersion
1070
     0
  0
VISUALSTYLE
  5
FC
102
{ACAD_XDICTIONARY
360
7F9A
102
}
102
{ACAD_REACTORS
330
EF
102
}
330
EF
100
AcDbVisualStyle
  2
Thicken
 70
    13
 71
     2
 72
     2
 73
     1
 90
        0
 40
-0.6
 41
-30.0
 62
     5
 63
     7
 74
     1
 91
        4
 64
     7
 65
   257
 75
     1
175
     1
 42
1.0
 92
       12
 66
     7
 43
1.0
 76
     1
 77
     6
 78
     2
 67
     7
 79
     5
170
     0
171
     0
290
     0
174
     0
 93
        1
 44
0.0
173
     0
291
     1
 45
0.0
1001
ACAD
1000
AcDbSavedByObjectVersion
1070
     0
  0
VISUALSTYLE
  5
F6
102
{ACAD_XDICTIONARY
360
7F8E
102
}
102
{ACAD_REACTORS
330
EF
102
}
330
EF
100
AcDbVisualStyle
  2
Wireframe
 70
     5
 71
     0
 72
     2
 73
     0
 90
        0
 40
-0.6
 41
-30.0
 62
     5
 63
     7
 74
     1
 91
        4
 64
     7
 65
   257
 75
     1
175
     1
 42
1.0
 92
        0
 66
   257
 43
1.0
 76
     1
 77
     6
 78
     2
 67
     7
 79
     3
170
     0
171
     0
290
     0
174
     0
 93
        1
 44
0.0
173
     0
291
     0
 45
0.0
1001
ACAD
1000
AcDbSavedByObjectVersion
1070
     0
  0
VISUALSTYLE
  5
1F1
102
{ACAD_XDICTIONARY
360
7FAE
102
}
102
{ACAD_REACTORS
330
EF
102
}
330
EF
100
AcDbVisualStyle
  2
X-Ray
 70
    25
 71
     2
 72
     2
 73
     1
 90
        1
 40
0.5
 41
-30.0
 62
     5
 63
     7
 74
     1
 91
        0
 64
     7
 65
   257
 75
     1
175
     1
 42
1.0
 92
        8
 66
     7
 43
1.0
 76
     1
 77
     6
 78
     2
 67
     7
 79
     3
170
     0
171
     0
290
     0
174
     0
 93
       13
 44
0.0
173
     0
291
     0
 45
0.0
1001
ACAD
1000
AcDbSavedByObjectVersion
1070
     0
  0
DICTIONARYVAR
  5
146
102
{ACAD_REACTORS
330
5E
102
}
330
5E
100
DictionaryVariables
280
     0
  1
1:1
  0
DICTIONARYVAR
  5
259
102
{ACAD_REACTORS
330
5E
102
}
330
5E
100
DictionaryVariables
280
     0
  1
3.500000
  0
DICTIONARYVAR
  5
25A
102
{ACAD_REACTORS
330
5E
102
}
330
5E
100
DictionaryVariables
280
     0
  1
acadiso.lin
  0
DICTIONARYVAR
  5
145
102
{ACAD_REACTORS
330
5E
102
}
330
5E
100
DictionaryVariables
280
     0
  1
STANDARD
  0
DICTIONARYVAR
  5
84
102
{ACAD_REACTORS
330
5E
102
}
330
5E
100
DictionaryVariables
280
     0
  1
STANDARD
  0
DICTIONARYVAR
  5
227
102
{ACAD_REACTORS
330
5E
102
}
330
5E
100
DictionaryVariables
280
     0
  1
Metric50
  0
DICTIONARYVAR
  5
228
102
{ACAD_REACTORS
330
5E
102
}
330
5E
100
DictionaryVariables
280
     0
  1
Metric50
  0
DICTIONARYVAR
  5
5F
102
{ACAD_REACTORS
330
5E
102
}
330
5E
100
DictionaryVariables
280
     0
  1
2
  0
DICTIONARYVAR
  5
63
102
{ACAD_REACTORS
330
5E
102
}
330
5E
100
DictionaryVariables
280
     0
  1
1
  0
DICTIONARYVAR
  5
7F23
102
{ACAD_REACTORS
330
5E
102
}
330
5E
100
DictionaryVariables
280
     0
  1
0
  0
DICTIONARYVAR
  5
1AE
102
{ACAD_REACTORS
330
5E
102
}
330
5E
100
DictionaryVariables
280
     0
  1
0
  0
DICTIONARYVAR
  5
1AF
102
{ACAD_REACTORS
330
5E
102
}
330
5E
100
DictionaryVariables
280
     0
  1
0
  0
DICTIONARYVAR
  5
7F21
102
{ACAD_REACTORS
330
5E
102
}
330
5E
100
DictionaryVariables
280
     0
  1
2
  0
DICTIONARYVAR
  5
7F20
102
{ACAD_REACTORS
330
5E
102
}
330
5E
100
DictionaryVariables
280
     0
  1
1
  0
DICTIONARYVAR
  5
7F73
102
{ACAD_REACTORS
330
5E
102
}
330
5E
100
DictionaryVariables
280
     0
  1
80.000000
  0
DICTIONARYVAR
  5
7F72
102
{ACAD_REACTORS
330
5E
102
}
330
5E
100
DictionaryVariables
280
     0
  1
5.000000
  0
DICTIONARYVAR
  5
7F22
102
{ACAD_REACTORS
330
5E
102
}
330
5E
100
DictionaryVariables
280
     0
  1
127
  0
DICTIONARYVAR
  5
7F74
102
{ACAD_REACTORS
330
5E
102
}
330
5E
100
DictionaryVariables
280
     0
  1
2
  0
DICTIONARY
  5
7FB6
330
21C
100
AcDbDictionary
280
     1
281
     1
  3
ACAD_XREC_ROUNDTRIP
360
7FB7
  0
DICTIONARY
  5
7F7B
330
D3
100
AcDbDictionary
280
     1
281
     1
  3
ACAD_XREC_ROUNDTRIP
360
7F7C
  0
DICTIONARY
  5
7F7D
330
D7
100
AcDbDictionary
280
     1
281
     1
  3
ACAD_XREC_ROUNDTRIP
360
7F7E
  0
DICTIONARY
  5
7F78
330
22
100
AcDbDictionary
280
     1
281
     1
  3
ACAD_XREC_ROUNDTRIP
360
7F79
  0
DICTIONARY
  5
1F9
330
ED
100
AcDbDictionary
280
     1
281
     1
  3
ACAD_XREC_ROUNDTRIP
360
7F80
  3
FBXASSET
360
1FA
  0
DICTIONARY
  5
1F7
330
EC
100
AcDbDictionary
280
     1
281
     1
  3
ACAD_XREC_ROUNDTRIP
360
7F7F
  3
FBXASSET
360
1F8
  0
DICTIONARY
  5
173
330
EE
100
AcDbDictionary
280
     1
281
     1
  3
ACAD_XREC_ROUNDTRIP
360
7F81
  3
BUMPTILE
360
175
  3
DIFFUSETILE
360
174
  3
FBXASSET
360
1FB
  3
OPACITYTILE
360
176
  3
REFLECTIONTILE
360
177
  0
DICTIONARY
  5
7FA2
330
12E
100
AcDbDictionary
280
     1
281
     1
  3
ACAD_XREC_ROUNDTRIP
360
7FA3
  0
DICTIONARY
  5
7FB4
330
21A
100
AcDbDictionary
280
     1
281
     1
  3
ACAD_XREC_ROUNDTRIP
360
7FB5
  0
DICTIONARY
  5
162
330
7F
100
AcDbDictionary
280
     1
281
     1
  3
ACAD_ROUNDTRIP_2008_TABLESTYLE_CELLSTYLEMAP
360
7F75
  3
ACAD_XREC_ROUNDTRIP
360
7F7A
  0
DICTIONARY
  5
7F8C
330
F5
100
AcDbDictionary
280
     1
281
     1
  3
ACAD_XREC_ROUNDTRIP
360
7F8D
  0
DICTIONARY
  5
7F8A
330
F4
100
AcDbDictionary
280
     1
281
     1
  3
ACAD_XREC_ROUNDTRIP
360
7F8B
  0
DICTIONARY
  5
7F98
330
FB
100
AcDbDictionary
280
     1
281
     1
  3
ACAD_XREC_ROUNDTRIP
360
7F99
  0
DICTIONARY
  5
7FA0
330
FF
100
AcDbDictionary
280
     1
281
     1
  3
ACAD_XREC_ROUNDTRIP
360
7FA1
  0
DICTIONARY
  5
7F92
330
F8
100
AcDbDictionary
280
     1
281
     1
  3
ACAD_XREC_ROUNDTRIP
360
7F93
  0
DICTIONARY
  5
7F96
330
FA
100
AcDbDictionary
280
     1
281
     1
  3
ACAD_XREC_ROUNDTRIP
360
7F97
  0
DICTIONARY
  5
7FA8
330
1E6
100
AcDbDictionary
280
     1
281
     1
  3
ACAD_XREC_ROUNDTRIP
360
7FA9
  0
DICTIONARY
  5
7F9E
330
FE
100
AcDbDictionary
280
     1
281
     1
  3
ACAD_XREC_ROUNDTRIP
360
7F9F
  0
DICTIONARY
  5
7F82
330
F0
100
AcDbDictionary
280
     1
281
     1
  3
ACAD_XREC_ROUNDTRIP
360
7F83
  0
DICTIONARY
  5
7F84
330
F1
100
AcDbDictionary
280
     1
281
     1
  3
ACAD_XREC_ROUNDTRIP
360
7F85
  0
DICTIONARY
  5
7F86
330
F2
100
AcDbDictionary
280
     1
281
     1
  3
ACAD_XREC_ROUNDTRIP
360
7F87
  0
DICTIONARY
  5
7F88
330
F3
100
AcDbDictionary
280
     1
281
     1
  3
ACAD_XREC_ROUNDTRIP
360
7F89
  0
DICTIONARY
  5
7F90
330
F7
100
AcDbDictionary
280
     1
281
     1
  3
ACAD_XREC_ROUNDTRIP
360
7F91
  0
DICTIONARY
  5
7FA4
330
1E4
100
AcDbDictionary
280
     1
281
     1
  3
ACAD_XREC_ROUNDTRIP
360
7FA5
  0
DICTIONARY
  5
7F9C
330
FD
100
AcDbDictionary
280
     1
281
     1
  3
ACAD_XREC_ROUNDTRIP
360
7F9D
  0
DICTIONARY
  5
7FA6
330
1E5
100
AcDbDictionary
280
     1
281
     1
  3
ACAD_XREC_ROUNDTRIP
360
7FA7
  0
DICTIONARY
  5
7F94
330
F9
100
AcDbDictionary
280
     1
281
     1
  3
ACAD_XREC_ROUNDTRIP
360
7F95
  0
DICTIONARY
  5
7FB2
330
1F3
100
AcDbDictionary
280
     1
281
     1
  3
ACAD_XREC_ROUNDTRIP
360
7FB3
  0
DICTIONARY
  5
7FB0
330
1F2
100
AcDbDictionary
280
     1
281
     1
  3
ACAD_XREC_ROUNDTRIP
360
7FB1
  0
DICTIONARY
  5
7FAA
330
1EF
100
AcDbDictionary
280
     1
281
     1
  3
ACAD_XREC_ROUNDTRIP
360
7FAB
  0
DICTIONARY
  5
7FAC
330
1F0
100
AcDbDictionary
280
     1
281
     1
  3
ACAD_XREC_ROUNDTRIP
360
7FAD
  0
DICTIONARY
  5
7F9A
330
FC
100
AcDbDictionary
280
     1
281
     1
  3
ACAD_XREC_ROUNDTRIP
360
7F9B
  0
DICTIONARY
  5
7F8E
330
F6
100
AcDbDictionary
280
     1
281
     1
  3
ACAD_XREC_ROUNDTRIP
360
7F8F
  0
DICTIONARY
  5
7FAE
330
1F1
100
AcDbDictionary
280
     1
281
     1
  3
ACAD_XREC_ROUNDTRIP
360
7FAF
  0
XRECORD
  5
7FB7
102
{ACAD_REACTORS
330
7FB6
102
}
330
7FB6
100
AcDbXrecord
280
     1
102
DISPLAYNAME
  1
Metric50
102
FLAGS
 90
        0
  0
XRECORD
  5
7F7C
102
{ACAD_REACTORS
330
7F7B
102
}
330
7F7B
100
AcDbXrecord
280
     1
102
SHADEPLOT
 70
     0
102
SHADEPLOTRESLEVEL
 70
     2
102
SHADEPLOTCUSTOMDPI
 70
   300
  0
XRECORD
  5
7F7E
102
{ACAD_REACTORS
330
7F7D
102
}
330
7F7D
100
AcDbXrecord
280
     1
102
SHADEPLOT
 70
     0
102
SHADEPLOTRESLEVEL
 70
     2
102
SHADEPLOTCUSTOMDPI
 70
   300
  0
XRECORD
  5
7F79
102
{ACAD_REACTORS
330
7F78
102
}
330
7F78
100
AcDbXrecord
280
     1
102
SHADEPLOT
 70
     0
102
SHADEPLOTRESLEVEL
 70
     2
102
SHADEPLOTCUSTOMDPI
 70
   300
  0
XRECORD
  5
7F80
102
{ACAD_REACTORS
330
1F9
102
}
330
1F9
100
AcDbXrecord
280
     1
102
MATERIAL
148
0.0
149
0.0
149
0.0
 93
        0
 94
       63
282
     0
 72
     1
 77
     1
171
     1
175
     1
179
     1
273
     0
  0
XRECORD
  5
1FA
102
{ACAD_REACTORS
330
1F9
102
}
330
1F9
100
AcDbXrecord
280
     1
 70
     1
 90
429727718
  1
D62C5603-E3A1-4AEA-B7FB-FE5D8D0755AF
310
504B03040A0000080000CC70623B3DEE336E79000000790000001B0000006175746F6465736B2D64657369676E2D7061636B6167652E786D6C3C3F786D6C2076657273696F6E3D22312E302220656E636F64696E673D227574662D3822203F3E3C666F726D6174733E3C666F726D61743E687474703A2F2F736368656D612E
310
6175746F6465736B2E636F6D2F64657369676E2D7061636B6167652F323030393C2F666F726D61743E3C2F666F726D6174733E504B0304140006080800CC70623BD486FD9CA0000000F4000000130000005B436F6E74656E745F54797065735D2E786D6C7D8EC10E82300C865F65E91D8A1E8C310C0EEA1BF002731658846E
310
D98AC1B77784ABF1D8FE5FBFBF75BBCE937A534CCEB38643598122B6FEE978D0B0485F9C41B54DDD7D022595594E1A469170414C76A4D9A4D207E29CF43ECE46F218070CC6BECC4078ACAA135ACF422C856C0E68EA1BF5669944DDD7BCDE7B1F8E415D77AECB980613C2E4AC91FC167A2B244592486606FC29C8FD7F045B9A
310
EF7053A7E60B504B0304140006080800CC70623B853B8169EB0000007C01000008000000636F72652E786D6C8D90416EC3201045AF62CDB6C206821CC7C244919D9CA01740401C94182C03558F5F9C3852BBEB6A467FFE9B197D7EFC9E1EC5975982F5AE035262288C535E5B377690E21535501C055FBC8FBF6C503839990E
310
5619041F179FE64D52DE45E362569DD7661365082642A11EB9E920A89B99642953CC8E702F67A9EE7234257977194EC9EAE275C4EABCCF5EAD5940D4AC6F0E35A568B8F43562CD7046CD199FD07E60174276A7BE677B5EADB0E0D14EEFFB6A31321A0D82627C4084204C3F096B71DD52F6819B16635EADF63F509AF53FA164
310
5DDCD1EDDD17164090FCC8732078B56691CB33A85CD7DCC40F504B0304140006080800CC70623B55019EA25F0000007C00000007000000636E782E786D6C4DCB3B0E80201045D1AD90E915ED2CF8AC45050C11660C8261F98AB1B07AC9C97D42D718D865D3E909258CFD00CCE24AC6E326A164D74DC0B4128928FF32603847
310
2BA13128B1252AC747C6BAB984FC68F0B87FE8960A5C09FE86CFB69FBA01504B0304140006080800CC70623BDBABAAF470010000D40300000C0000006662782F636F72652E786D6CC553D16E823014FD95A6AF4B694182CC941A83FA05FB810A9511A125A5257EFE2E82712ECEB8A7F100CD39F7F69E734AF9FADC366850B6
310
AF8DCE7018308C942E4C59EB2AC3DE1D498AD15A706B8CFB56869196ADCAF00863C12B6B7C374385D14E6907A836A59A41D9F7CA615434B0C8705F7CAA5606D23BA8E84F41278B93AC54100640439DE0BDB320004D43C63716C7C399D30917DCFBBA9CD9BA8469F5B156168B24CED3F7248AC8769F27244EB73B92EED8862C
310
B7F13E0C179B3C8F979C8ECD82BBBABDAA2BAC924E9558448CBD9330242CFA08E3154B5651FCC6D215639C8EE5774DBE2B5F6CF2B5768B68963BB5F5588420E442FC700B1139D4CB01F450C1E918227C2E09DF070D8140C84E1E9AAB8F1340832A9CB13130A5F1376A908D57309505ECF2A0DF179C4E9D30F5B239B87E3823
310
7A79C6F31DE1A8A5AEC08474B03C7837EAE4938639B44E5932B833D2C6B6B279CDC613877FA26EE21F4A2A4C63EC7F29A2F301D1F9F7A0E37D145F504B0304140006080800CC70623B9C113CC27E0000009D0000000B0000006662782F636E782E786D6C4DCCDF0A83201C86E15B91DFB94BFB330DD428C8FB886521330DA7
310
6397BF1A1DECE883878F57749FCDA1B7892F1BBC047A23808C7F84D9FA55424E0BE6803A256208E9EF06C84F9B91703228B1C690F78B66B34CD9A5439DF5CF0BFBF65E35BCA1B8D6A5C6F540381E886698B5741C695F9503EBA150A2F8958E3DC3EA0B504B0304140006080800CC70623B7DF2F77C2A010000120200003100
310
00006662782F41393633353835312D344632462D344230382D423046372D3739314545314133324237412F636F72652E786D6C8D51DB8EC22014FC15C2939B0D2DB4B45643319AE817EC0F6041255A68B86CFCFC856D4D76DF7CE190393373060EDB3DC707F856CE6B6B7A480A0C81328395DA5C7B18C3057510EC3873D686
310
3F34088C18550F330C39BB3A1BA7051AAC09CA84841A2BD5020AEF55806078A44B0FFD7053A328440C89E1EFC52486BBB8AA8214A99D789CF9E05200300FC927E4FB4D5B375D43103D5527440FB843077C5AA3F5861C8F645F5787F59E95B390B318B55CE45AA638FAA2957BD7248B390B7A7CC51F9C124149C82B8C378810
310
84AB2F42B7B8DD56F413775B8C5999E9FF4471926F8AA236A1AE96B8B3CC434E5839373893369E1FAF30EA395917409EB7F26AF8801C171837A4A6AC9C89E9F9C9B1A58BA30FD6A5EF5DDDCF894B9AD9B6A59C957943A9FCAE2FD5BC4DFE03504B0304140006080800CC70623BAD7543B64E01000033030000300000006662
310
782F41393633353835312D344632462D344230382D423046372D3739314545314133324237412F636E782E786D6CD593CD6EC32010845F0571AD6CE3D48AD20813A9873E410FBD12D82434182C7EAAE6EDBB2424CD25871E7B41D6EC30B3FA84F9E67BB2E40B4234DE8DB46F1925E094D7C6ED479AD3AE5951B2113C789FEE
310
6C943839C1488B4C05DF079FE72A69D8C96C13AAD6B8631503449F83828872B949AC57D26200B826A308D316B4064D6E46FCDA41C05550DC9E483A00797BFD207EFB092A45DE9514C1BBD22178396BD39D891265658C238DEA00936C654E5E433CB65A26D9F6EDB5EBC14EBF49A45CB856E66048291F6939A9A81BB5C89177
310
38143CA680F4AA299D66A042CEB3354A2684DC9D8D178FE0D9B8B41CAAD720F880EE7EF93C0C18769E099ECC04D5A102C8049A8A05632F4DDF376CF1DE0F6BB65C2F8627B65A33C6BB62177CEBBDAD973006829F89F22E814B54F4BC2BE347F8AA8F681390B50FA73F804400B5F542E796F19FF974E7F78DB802FE05E20750
310
4B0304140006080800CC70623BE75B7789680500003C100000340000006662782F41393633353835312D344632462D344230382D423046372D3739314545314133324237412F6F626A656374732E786D6CAD575B8F9B3818FD2B887D06C22499CB8AA1CA655245D5B455A356FB305264C061D8018C6C3393D95FBFC7600890
310
A4CD5EF210B0B1BFEBF98E3F7B1FF6596ABC522E1296DF9BAE3D320D9A872C4AF2F8DE2CE5CEBA358D0FBEC719939D65A691938CDE9B6ADAF4BD98B3B2D05311DD91329583D9D5FC0F438434A7A611A644887B5384CF34233629258BA878B12322891DEFF6B66BD70BFB62634E8AE781D082709A4B588AF91C528CDA28B73F
310
1C998EEF39EABBEFA97FBD6A7C7E9553F9D3D79FE442923C3C523610337627CB87ABE99D359D4CC6D6E4FACAB5E6ABF9D2726FC6A3C5F56271377BB88362213924694B38DD99FE47C48627A1E7D49F5A8BB5E1A74C0A599ED3B0F21F1E56366B89112D681E218F0915D0D6F17AD41FBA2A369DCF6335D62ABBD39779D5DDD1
310
11D4D8DE3CBB96B2E04FB8202E41051754A1AA8E8F76B4C6DFE810B580B1547F4B84911149794252234D024EF8BBE963A95AE27B3D310A9D5C215C7960FAEE415ED75694C6AFB17BCACA5D99A60A9AA65F217B0BFC53292ACB92BF283FAD0D3621576592CB5BED907C2FA8E9DF794E35E97BEA31BED21FEB401ABB94C44839
310
DCACBF0E1C5DA8DA5B2F4DFFD32AD86F543D9E565E7056502E157C00AD2671CD534549AB752FCA9CDA00677A313F04E51B22FF19E57B300579E3C97EB29F682D92935CEC18CF901B7B54FD8C51F362B56FC72FE0B3C1EAE335EDCCBF5AEC39ADB17DC238973F804BA5E6F6BFE7AF1FB32E523BE9F3BD571418E3631DCA4D48
310
5250CF639223210A9446CA30052EDF057BD35F8329C1ECD84552BF0DC8D18BE7BCE23BFE6BD960AB4A7DE79923A103BEBD80F911CBAA2C60DB19B01CF164A5583B772EE6D3FFA56666CBCDA74DC97724A48F9A58967497E489C4D979006FD7A05E227A1EBDD0F737C623387A9C844D3709995625106D157315F8B8392CD4E0
310
A0B9A720C4BE9829CEF37EA1E13111214D53925356365ADA634861B52519DD27A00AEB808EAF0628E6F435519D446F45CF2C9CF5214F0A15B2F6D06B79DA3EE3CBF7F56780D2F4E7EF73A0F5E5B02A38D07DC852C6B7C1FBB6664213E0C39E3EBA7FF4E1AD23EA2829407C85E586727488B751B2DB9502BC7B228A3FD68B6E
310
A65A22397E690AA8D158D7E404EC8CDA235CC3B7D1898680131CEC2CDF2638C65196279577750F15884AEE19F94199155B92B13297978469D4F8D358DF0AEF7631E28DC8F0D9F437D5D39A83B2231A1D52D543813A824EF8D44BCFF2FA6A31BD1E8DAD87F1CCB526B3879935BF59CDADD5C37479BB1CDD4CA7B3556B516589
310
EF352754B706114D9C885EC9131DE6EFEB43D99AFE2391C2F958179413D7CFEF6B1B6DB1E7600F00DE6E5C67454A339A4BA2E0FBA85ED26F045D454F463DBFCE484C2F90F2E5E3666003662ED8F755951A7D1BECD5B30B550B2785C8E7320B7292A4838DDA71BBC863ED7613CAF659337A3354231D4FF4A182A54904C2898C
310
98B28C4AD0CE056CCF332A80986E571EE9DBC305BB5FEB7E509220A58D25CF042D712A806AC0AD0C657FDEF80D2D9CEAA2EE4D1C76F60BFE74219A06527D6F82DF6412526107381E55E353090704D085B52408A8913C4ED159D79BDA71BB4BC506F4831350EB6F975CD22D69BF7AC49B91A2C0A9DDA3D5CA36AD20FC478E37
310
E61844E2352865EBCB61A275A65283CAAA9DD27703B4102F5AF51EF5F573B75CBB5AD38BC845F7A49F82A0966A49C2E3EA5EA0ECD326CD965F1DB402C6FA8B51A4658C5C5E2EC9E214602E55810345408596591009A82E7E7FFACA19EEA299B14A0081A705CB3296EBC14CDF658DCD336EA6D1136881AAEB87B81AB9EE53D5
310
F5EB8BC8362082DA24122F98680A4E7930C01A0079749CEA14382A0783E5EBA5A10F8C098456A03D6A4AEB6BB881E2513747552A5DB22C7EDAF83BD5528081A365F7FF06504B0304140006080000CC70623B000000000000000000000000350000006662782F41393633353835312D344632462D344230382D423046372D37
310
39314545314133324237412F76657274696365732E62696E504B0304140006080800CC70623BF270F1330600000004000000360000006662782F41393633353835312D344632462D344230382D423046372D3739314545314133324237412F747269616E676C65732E62696E636660600000504B0304140006080000CC7062
310
3B000000000000000000000000370000006662782F41393633353835312D344632462D344230382D423046372D3739314545314133324237412F617474726962757465732E62696E504B0304140006080800CC70623B08DA0BD19000000041010000360000006662782F41393633353835312D344632462D344230382D4230
310
46372D3739314545314133324237412F6469726563746F72792E786D6C858F410AC3201045AF22B36F53E9A60B35CBEEBAE80D244E44489C6234F4F835464A48035D0DF398FF9F8AF63D0E6CC63039F212F8F9020C7D47C6792B21C5FE7403D62A1188E2E60C98D7234A5830286103A55745067B9D86B8A3CF9C7F90C11DE6
310
07FB144396D7B6A82D282E9A152AD114D5EF2CB866EEE831B8EEA07A7BB5A8D7D61A2BAAEB7FD5F70921FF497D00504B0304140006080800CC70623BEDD1DC58FD000000A00100003B0000006662782F41393633353835312D344632462D344230382D423046372D3739314545314133324237412F7265736F75726365732F
310
636F72652E786D6C8D504B6E833010BD0A9A6D65B00922041947112427E8052C33A156828DFCA97AFC9A40A576D7CDCCE87D344F8F9FBFE667F689CE6B6B3A6039850C8DB2A336530731DC4903D95970676DF82583CCC8193B5861107C72362E3BA4AC096842428D1D7107A5F7182053CF7474E0D507CE32973124857FE48B
310
540F3961CEF244279DE03EB81420DB9EAC1384436FA353E879B1B182C7A8C75DA3C7F453DF353A1075D537A7BA6464B8F535A99AE14A9A2BBD90E350DD183B5CFABE3AF262350B1EF4FC9351399401471025A527C218A1E53BAB5A5AB765F5469B96525EACF23FA6B88CFF34456DC2A1DCE36E360F82A5202F42F062ED2BAD
310
579969AFDD8A6F504B010214000A0000080000CC70623B3DEE336E79000000790000001B00000000000000000000000000000000006175746F6465736B2D64657369676E2D7061636B6167652E786D6C504B01021400140006080800CC70623BD486FD9CA0000000F40000001300000000000000000000000000B20000005B
310
436F6E74656E745F54797065735D2E786D6C504B01021400140006080800CC70623B853B8169EB0000007C010000080000000000000000000000000083010000636F72652E786D6C504B01021400140006080800CC70623B55019EA25F0000007C000000070000000000000000000000000094020000636E782E786D6C504B
310
01021400140006080800CC70623BDBABAAF470010000D40300000C00000000000000000000000000180300006662782F636F72652E786D6C504B01021400140006080800CC70623B9C113CC27E0000009D0000000B00000000000000000000000000B20400006662782F636E782E786D6C504B01021400140006080800CC70
310
623B7DF2F77C2A010000120200003100000000000000000000000000590500006662782F41393633353835312D344632462D344230382D423046372D3739314545314133324237412F636F72652E786D6C504B01021400140006080800CC70623BAD7543B64E010000330300003000000000000000000000000000D2060000
310
6662782F41393633353835312D344632462D344230382D423046372D3739314545314133324237412F636E782E786D6C504B01021400140006080800CC70623BE75B7789680500003C10000034000000000000000000000000006E0800006662782F41393633353835312D344632462D344230382D423046372D3739314545
310
314133324237412F6F626A656374732E786D6C504B01021400140006080000CC70623B0000000000000000000000003500000000000000000000000000280E00006662782F41393633353835312D344632462D344230382D423046372D3739314545314133324237412F76657274696365732E62696E504B01021400140006
310
080800CC70623BF270F133060000000400000036000000000000000000000000007B0E00006662782F41393633353835312D344632462D344230382D423046372D3739314545314133324237412F747269616E676C65732E62696E504B01021400140006080000CC70623B0000000000000000000000003700000000000000
310
000000000000D50E00006662782F41393633353835312D344632462D344230382D423046372D3739314545314133324237412F617474726962757465732E62696E504B01021400140006080800CC70623B08DA0BD1900000004101000036000000000000000000000000002A0F00006662782F41393633353835312D344632
310
462D344230382D423046372D3739314545314133324237412F6469726563746F72792E786D6C504B01021400140006080800CC70623BEDD1DC58FD000000A00100003B000000000000000000000000000E1000006662782F41393633353835312D344632462D344230382D423046372D3739314545314133324237412F7265
310
736F75726365732F636F72652E786D6C504B0506000000000E000E0080040000641100000000
  0
XRECORD
  5
7F7F
102
{ACAD_REACTORS
330
1F7
102
}
330
1F7
100
AcDbXrecord
280
     1
102
MATERIAL
148
0.0
149
0.0
149
0.0
 93
        0
 94
       63
282
     0
 72
     1
 77
     1
171
     1
175
     1
179
     1
273
     0
  0
XRECORD
  5
1F8
102
{ACAD_REACTORS
330
1F7
102
}
330
1F7
100
AcDbXrecord
280
     1
 70
     1
 90
429727718
  1
30362254-06B7-45E0-A893-8CFA70E3D6BC
310
504B03040A0000080000CC70623B3DEE336E79000000790000001B0000006175746F6465736B2D64657369676E2D7061636B6167652E786D6C3C3F786D6C2076657273696F6E3D22312E302220656E636F64696E673D227574662D3822203F3E3C666F726D6174733E3C666F726D61743E687474703A2F2F736368656D612E
310
6175746F6465736B2E636F6D2F64657369676E2D7061636B6167652F323030393C2F666F726D61743E3C2F666F726D6174733E504B0304140006080800CC70623BD486FD9CA0000000F4000000130000005B436F6E74656E745F54797065735D2E786D6C7D8EC10E82300C865F65E91D8A1E8C310C0EEA1BF002731658846E
310
D98AC1B77784ABF1D8FE5FBFBF75BBCE937A534CCEB38643598122B6FEE978D0B0485F9C41B54DDD7D022595594E1A469170414C76A4D9A4D207E29CF43ECE46F218070CC6BECC4078ACAA135ACF422C856C0E68EA1BF5669944DDD7BCDE7B1F8E415D77AECB980613C2E4AC91FC167A2B244592486606FC29C8FD7F045B9A
310
EF7053A7E60B504B0304140006080800CC70623B1EC5D7A3EB0000007C01000008000000636F72652E786D6C8D90416EC3201045AF82665B6103C6756C6122AB4D4ED00B204C5C94182C03558F5F9C3852BBEB6A467FFE9B197D71FC9E6FE8CBACC17AD7032D0820E3B41FAD9B7A48F1820F808E52ACDEC75F36404ECDA687
310
4D0629A6D5A76597B477D1B89855E747B38B2A041301E95B6E7A08FAD3CCAA50296647B8168BD2573599823EBB0CA76447F43862C7BCCF5EAC59410E4DDD9C7973C2755553CCCFA4C603E3040F1565ED3B1FDE4E432BCA0D9622DAF9795FAF464533826484B498524CD807E51D79ED187F21878E10516EF63F505AC67F42C9
310
BA58B1FDDD071640D2FCC87D2045B96591CB3DA85CB7DCE40F504B0304140006080800CC70623B55019EA25F0000007C00000007000000636E782E786D6C4DCB3B0E80201045D1AD90E915ED2CF8AC45050C11660C8261F98AB1B07AC9C97D42D718D865D3E909258CFD00CCE24AC6E326A164D74DC0B4128928FF32603847
310
2BA13128B1252AC747C6BAB984FC68F0B87FE8960A5C09FE86CFB69FBA01504B0304140006080800CC70623B8C9102E971010000D40300000C0000006662782F636F72652E786D6CC5535B6E833010BC8AE5DF0A6C08340F1947A84D4ED00B38C6A128602363A31CBFCB234A53A551FA553EC09AD9F5CE8C31DB9E9B1AF5CA
310
7695D1198E428A91D2D214952E33ECDD315861B4E5CC1AE3BE9561A445A3323CC098B3D21ADFCE9034DA29ED00D5A6503328BA4E398C640D8B0C77F253352214DE4145770A5B214FA2546114020D759C75CE8200340D19DE981F0F6746269C33EFAB6266AB02A655C74A59CCF365BADC27CB5D902ED22848F6340DF238A141
310
BE88E2F57B92BFEDF23523433367AE6A2EEAA455C2A902F398D2751045018D3FA264435F3771F242571B4A1919CA6F9A7C5B3CD9E42BED16F12C776AEB308F40C848FC700B1139D4891EF410CEC810227CC6846F8386402064270EF5C5C709A05E49676C024C61FC95EA45ED154CA5211D1FF4FB8291A913A68E9B83EBBB33
310
E2A7673CDE118E5AE8124C0807CB8377834E366998436B950D7A7746DAD846D4CFD978E0F04FD455FC5D49D2D4C6FE9722321F10997F0F32DC47FE05504B0304140006080800CC70623BFFEA85907E0000009D0000000B0000006662782F636E782E786D6C4DCCD10A83201886E15B91FFDC95D95A811AB6F23E625948A6C3
310
E9D8E5AF46073BFAE0E1E365ED67B3E8ADC3CB78C7815C7240DA3DFC64DCC221C519D7805AC182F7F1EF06C88D9BE6703008B6049F9E274D7A1E938DBB5AE3D6131B2589BA0D3D965551E0B2EA732C9B9A624AAEB41E3A557677029960D9AFB4EF11165F504B0304140006080800CC70623B4FEEA4082C0100001202000031
310
0000006662782F39464131463745442D413632322D343644302D413938332D3331353338454246344243312F636F72652E786D6C8D515B6EC32010BC0AE2AB55850DD871ED0813254D72825EC00192A2C460F1A872FC42ED48ED5F7E00CDCECCCEB26C731F6FE05B39AFADE921293004CA082BB5B9F43086336A21D870E6AC
310
0D7F68109861543DCC30E4ECE26C9C164858139409093556AA051CBC570102714B8F1E7AF1A5C6A11862480C7F2DA6415C878B2A4891CA89C7990F2E050073937C42DE1DB7E4F87ED8A36D4329AA9B3D46DBAEAD504556557BD81DEBDD0761E52CE42C462D17B996298E3E6BE59E35C962CE821E1FF18553435012728A7187
310
0841987E927A8D9B35ADDF70BBC6989599FE4F1427F9A4286A132ABAC49D651EF234CD5CE04CDA78BA3DC2A8FB645D00B9DF8B57E215725C60BCA2A463E54C4CE327C7A65E1C7DB02E7DEFCBF594B864C5CA6CDBD49C957943E9FA5D5FBAF336F90F504B0304140006080800CC70623BAD7543B64E01000033030000300000
310
006662782F39464131463745442D413632322D343644302D413938332D3331353338454246344243312F636E782E786D6CD593CD6EC32010845F0571AD6CE3D48AD20813A9873E410FBD12D82434182C7EAAE6EDBB2424CD25871E7B41D6EC30B3FA84F9E67BB2E40B4234DE8DB46F1925E094D7C6ED479AD3AE5951B2113C
310
789FEE6C943839C1488B4C05DF079FE72A69D8C96C13AAD6B8631503449F83828872B949AC57D26200B826A308D316B4064D6E46FCDA41C05550DC9E483A00797BFD207EFB092A45DE9514C1BBD22178396BD39D891265658C238DEA00936C654E5E433CB65A26D9F6EDB5EBC14EBF49A45CB856E66048291F6939A9A81BB5
310
C8917738143CA680F4AA299D66A042CEB3354A2684DC9D8D178FE0D9B8B41CAAD720F880EE7EF93C0C18769E099ECC04D5A102C8049A8A05632F4DDF376CF1DE0F6BB65C2F8627B65A33C6BB62177CEBBDAD973006829F89F22E814B54F4BC2BE347F8AA8F681390B50FA73F804400B5F542E796F19FF974E7F78DB802FE05
310
E207504B0304140006080800CC70623B16AB87BA640500003C100000340000006662782F39464131463745442D413632322D343644302D413938332D3331353338454246344243312F6F626A656374732E786D6CAD575B6FA33818FD2B887DE6924B3BED8A326A92B68A663B534DD4D13E548A0C38942D60649B369D5FBFC7
310
600890A493BDE42160637FD7F31D7FF63E6FB3D478A55C242CBF3247B66B1A340F5994E4F19559CA8D75611A9F7D8F33263BCB4C232719BD32D5B4E97B316765A1A722BA21652A07B3B7B33F0D11D29C9A46981221AE4C113ED38CD8A4942CA2E2C58E882476BCD9DA23BB5ED8171B73523C0F841684D35CC252CCE79062D4
310
468DFA43D7747CCF51DF7D4FFDEB5593E3AB9CCA9FBEFE241792E4E19EB28198C968BAB8199F5D5A67D3E9C49A9E8F47D6EC76B6B0469F26EEFC7C3EBFBCBEB98462213924694B38DD98FE1D62C393D073EA4FADC5DAF04326852CCF6958F90F0F2B9BB5C48816348F90C7840A68EB78EDF68723159BCEE7891A6B95DDE9D3
310
BCEAEEE8086A6C6F9E5D4B59F0175C10A7A0820BAA5055C7473B5AE3CFDD452D602CD5DF12616444529E90D448938013FE6EFA58AA96F85E4F8C42275708571E98FE6827AF6B2B4AE3D7D83D64E5A64C53054DD3AF90BD06FEA9149565C94FCA0F6B834DC85599E4F2423B24DF0B6AFA979E534DFA9E7A4CC6FA631D486393
310
921829879BF5D781A373557BCB85E97FB90DB62B558F8795179C15944B051F40AB495CF35451D26A4727654E6D8033BD98EF82F21D91FF8AF2DD9982BCF1643BDD4EB516C9492E368C67C88DED563FC36D5EACF66DFF057C3658BDBFA69DF9578B3DA735B64F18C7F20770A9D45CFCF7FCF563D6456A277DBEF78A02637CA2
310
43B90A490AEAB94F72244481D24819A6C0E59B606BFA4B3025981DBB48EAB701D97BF19C577CC77F2D1B6C55A9EF3C732474C0B727303F625995056C3B02963D9EAC146BE78EC5FCEC7FA999EBC5EACBAAE41B12D27B4D2C0BBA49F244E2ECDC81B76B502F113D8F5EE8FB1BE3111CDD4FC2AA9B844CAB1288B68AB90A7CDC
310
1C166AB0D3DC5310625FCC14E779BFD0709F8890A629C9292B1B2DED31A4B0DA928CEE135085754027E3018A397D4D5427D15BD1330B677DC8934285AC3DF45A9EB68FF8F2B8FC0A509AFEECFD0FF2DE25CC6047F7214B195F07EFEB9A094D800F7BFAE8FED187B78EA8A3A400F115961BCAD1215E47C966530AF0EE8128FE
310
58CEBB996A8964FFA529A046635D9353B0336A8F700DDF46271A024E70B0B37C9DE01847591E54DED53D54202AB947E4076556AC49C6CA5C9E1226B7F1A7B1BE15DEED62C41B91E1B3E9AFAAA735036547343A925075041DF0A9979E893B391F8FCFA6967B3EFB644DCF6E5CEBFAE272625DCC6FAF3FB93793C5F90CE1EF57
310
407342756B10D1C489E8953CD1617E5CEECAD6F4EF8914CE5D5D504E5C3F1F9736DA62CFC11E00BCDDB8CC8A9466349744C1F75EBDA4DF09BA8A9E8C7A7E9991989E20E5DBDD6A6003664ED8F7A04A8DBE0DF6EAD9B9AA858342E47399053949D2C146EDB85DE4B176BB0965FBAC19BD19AA918E27FA50C1D22402E144464C
310
59462568E704B6E71915404CB72B8FF4EDE184DDAF753F284990D2C6926782963815403548A70C657FDEF80D2D9CEAA2AE4C1C76F60BFE74219A06527D6582DF6412526107381E55E353090704D085B52408D0933C4ED159D79BDA71BB4BC506F4831350EB6F979CD22D69BF7AC49B91A2C0A9DDA3D5CA36AD20FC478E37E6
310
1844E2352865EBCB6EA275A652E3836BE04EFB400BF1A2556F515F1FBB35B2AB35BD889C744FFA1004B5544B121E57F70215746DD2F5E2C1412B602CBF19455AC6C8E5E9922C4E01E65215385004546899059180EAFCF7A707CE7017CD8CDB0410789AB32C63B91E5CEBBBACB17AC6CD347A022D5075FD106377347AAABA7E
310
7D11590744509B44E205134DC1290F06580320F78E537D3D73540E06CB970B431F185308AD40BBD794D6D77003C5A36E8EAA54BA64597CD8F83BD552A080A365F7FF06504B0304140006080000CC70623B000000000000000000000000350000006662782F39464131463745442D413632322D343644302D413938332D3331
310
353338454246344243312F76657274696365732E62696E504B0304140006080800CC70623BF270F1330600000004000000360000006662782F39464131463745442D413632322D343644302D413938332D3331353338454246344243312F747269616E676C65732E62696E636660600000504B0304140006080000CC70623B
310
000000000000000000000000370000006662782F39464131463745442D413632322D343644302D413938332D3331353338454246344243312F617474726962757465732E62696E504B0304140006080800CC70623B08DA0BD19000000041010000360000006662782F39464131463745442D413632322D343644302D413938
310
332D3331353338454246344243312F6469726563746F72792E786D6C858F410AC3201045AF22B36F53E9A60B35CBEEBAE80D244E44489C6234F4F835464A48035D0DF398FF9F8AF63D0E6CC63039F212F8F9020C7D47C6792B21C5FE7403D62A1188E2E60C98D7234A5830286103A55745067B9D86B8A3CF9C7F90C11DE607
310
FB144396D7B6A82D282E9A152AD114D5EF2CB866EEE831B8EEA07A7BB5A8D7D61A2BAAEB7FD5F70921FF497D00504B0304140006080800CC70623B0D6EF93BFE000000A00100003B0000006662782F39464131463745442D413632322D343644302D413938332D3331353338454246344243312F7265736F75726365732F63
310
6F72652E786D6C8D50596E833010BD0A9ADFCA60B334011947A8694ED00B586642AC041B79A97AFC9A40A5F6AF3F33A3B7689E1E3F7DCD8FEC139DD7D6F4C0720A191A65476DA61E62B892236427C19DB5E1970C322367EC618541F0C9D9B8EC90B226A009093576C41D94DE63804C3DD2D18357379C652E63480A7FCF17A9
310
EE72C29CE5894E3AC17D702940B63D59270887DE46A7D0F36263058F518FBB468FE9A7BE6A7420864373B8D4873369AA8691FA421B3294352543C5CAF65C0F6FEF43CB8BD52C78D0F34F46E550061C419494B6843142CB0F5677F4B52BEB177AEC28E5C52AFF638ACBF84F53D42654E51E77B379102C05791282176B5F693D
310
CB4C7BED567C03504B010214000A0000080000CC70623B3DEE336E79000000790000001B00000000000000000000000000000000006175746F6465736B2D64657369676E2D7061636B6167652E786D6C504B01021400140006080800CC70623BD486FD9CA0000000F40000001300000000000000000000000000B20000005B
310
436F6E74656E745F54797065735D2E786D6C504B01021400140006080800CC70623B1EC5D7A3EB0000007C010000080000000000000000000000000083010000636F72652E786D6C504B01021400140006080800CC70623B55019EA25F0000007C000000070000000000000000000000000094020000636E782E786D6C504B
310
01021400140006080800CC70623B8C9102E971010000D40300000C00000000000000000000000000180300006662782F636F72652E786D6C504B01021400140006080800CC70623BFFEA85907E0000009D0000000B00000000000000000000000000B30400006662782F636E782E786D6C504B01021400140006080800CC70
310
623B4FEEA4082C0100001202000031000000000000000000000000005A0500006662782F39464131463745442D413632322D343644302D413938332D3331353338454246344243312F636F72652E786D6C504B01021400140006080800CC70623BAD7543B64E010000330300003000000000000000000000000000D5060000
310
6662782F39464131463745442D413632322D343644302D413938332D3331353338454246344243312F636E782E786D6C504B01021400140006080800CC70623B16AB87BA640500003C1000003400000000000000000000000000710800006662782F39464131463745442D413632322D343644302D413938332D3331353338
310
454246344243312F6F626A656374732E786D6C504B01021400140006080000CC70623B0000000000000000000000003500000000000000000000000000270E00006662782F39464131463745442D413632322D343644302D413938332D3331353338454246344243312F76657274696365732E62696E504B01021400140006
310
080800CC70623BF270F133060000000400000036000000000000000000000000007A0E00006662782F39464131463745442D413632322D343644302D413938332D3331353338454246344243312F747269616E676C65732E62696E504B01021400140006080000CC70623B0000000000000000000000003700000000000000
310
000000000000D40E00006662782F39464131463745442D413632322D343644302D413938332D3331353338454246344243312F617474726962757465732E62696E504B01021400140006080800CC70623B08DA0BD190000000410100003600000000000000000000000000290F00006662782F39464131463745442D413632
310
322D343644302D413938332D3331353338454246344243312F6469726563746F72792E786D6C504B01021400140006080800CC70623B0D6EF93BFE000000A00100003B000000000000000000000000000D1000006662782F39464131463745442D413632322D343644302D413938332D3331353338454246344243312F7265
310
736F75726365732F636F72652E786D6C504B0506000000000E000E0080040000641100000000
  0
XRECORD
  5
7F81
102
{ACAD_REACTORS
330
173
102
}
330
173
100
AcDbXrecord
280
     1
102
MATERIAL
148
0.0
149
0.0
149
0.0
 93
        0
 94
       63
282
     0
 72
     1
 77
     1
171
     1
175
     1
179
     1
273
     0
  0
XRECORD
  5
175
102
{ACAD_REACTORS
330
173
102
}
330
173
100
AcDbXrecord
280
     1
270
     1
271
     1
  0
XRECORD
  5
174
102
{ACAD_REACTORS
330
173
102
}
330
173
100
AcDbXrecord
280
     1
270
     1
271
     1
  0
XRECORD
  5
1FB
102
{ACAD_REACTORS
330
173
102
}
330
173
100
AcDbXrecord
280
     1
 70
     0
 90
1673772943
  1
ECE7A1D2-D628-4531-984C-D00F80459256
310
504B03040A0000080000CC70623B3DEE336E79000000790000001B0000006175746F6465736B2D64657369676E2D7061636B6167652E786D6C3C3F786D6C2076657273696F6E3D22312E302220656E636F64696E673D227574662D3822203F3E3C666F726D6174733E3C666F726D61743E687474703A2F2F736368656D612E
310
6175746F6465736B2E636F6D2F64657369676E2D7061636B6167652F323030393C2F666F726D61743E3C2F666F726D6174733E504B0304140006080800CC70623BD486FD9CA0000000F4000000130000005B436F6E74656E745F54797065735D2E786D6C7D8EC10E82300C865F65E91D8A1E8C310C0EEA1BF002731658846E
310
D98AC1B77784ABF1D8FE5FBFBF75BBCE937A534CCEB38643598122B6FEE978D0B0485F9C41B54DDD7D022595594E1A469170414C76A4D9A4D207E29CF43ECE46F218070CC6BECC4078ACAA135ACF422C856C0E68EA1BF5669944DDD7BCDE7B1F8E415D77AECB980613C2E4AC91FC167A2B244592486606FC29C8FD7F045B9A
310
EF7053A7E60B504B0304140006080800CC70623BD9DDAED0EC0000007C01000008000000636F72652E786D6C8D90416EC3201045AF82665B61836D9CD8C2444DD39CA01740405C94182C03558F5F9C3852BBEB6A467FFE9B197D7EF89E6EE8CB2CC17A37002D0820E394D7D68D03A478C17B4007C117EFE32F1B20272733C0
310
2A83E0E3E2D3BC49CABB685CCCAAF3DA6CA20CC14440EA969B0182FA34932C648AD911AEC52CD5558EA6A0CF2EC329598D1E47ACCEFBECC59A050463A7EA5833865FEBDD0E37353BE3EE8DBDE3F6786A48D375FBF6CC78B9C282473B3DEFABC5C86834888A900E538A49F5419B9EB47DD5BC907D4F082F57FB1F28CDFA9F50
310
B22ED6D5F6EE030B20687EE43E10BC5CB3C8E51E54AE6B6EE207504B0304140006080800CC70623B55019EA25F0000007C00000007000000636E782E786D6C4DCB3B0E80201045D1AD90E915ED2CF8AC45050C11660C8261F98AB1B07AC9C97D42D718D865D3E909258CFD00CCE24AC6E326A164D74DC0B4128928FF326038
310
472BA13128B1252AC747C6BAB984FC68F0B87FE8960A5C09FE86CFB69FBA01504B0304140006080800CC70623BA24EB22D72010000D40300000C0000006662782F636F72652E786D6CC5535B6E833010BC8AE5DF0A6C5E49888CA3A6694ED00B38E05014B091B1518EDFE511A5A9D228FD2A1F60CDEC7A67C6986DCE4D8D7A
310
69BA4AAB0C073EC548AA5C17952A33ECECD15B61B4E1CC686DBF9561A44423333CC098B3D268D7CE50AE9595CA02AA74216750749DB418E5352C32DCE59FB211BE70162ABA93DF8AFC244AE9073ED050C759670D0840D390E18DF9F1706664C23973AE2A66B62A605A75ACA4C13C4976E1364A12EF355A2EBD384AF65EFA96
310
BC7B8BED2EA6719AAE16FB8491A199335B351775B991C2CA02F390D2D40B028F861F41BCA68B7518BFD0D59A524686F29B26D7164F36B94AD9289CE54E6D1DE6010819891F6E21228B3AD1831EC219194284CF98F06DD01008846CC5A1BEF83801D4CBDC6A1303536877A57A513B0953A94FC707FDBE6064EA84A9E3E6E0FA
310
EE8CF0E9198F7784A316AA0413C2C2F2E0ECA0934D1AE6D05A69BCDE9E91D2A611F573361E38FC1375157F5752AE6B6DFE4B11990F88CCBF0719EE23FF02504B0304140006080800CC70623B408A7D3B7C0000009D0000000B0000006662782F636E782E786D6C4DCCD10A83201886E15B91FFDC552A92A0064DBC8F581632
310
D3703A76F9ABD1C18E3E78F878E5F0D9027ABBFCF2292AE86E2D20171F69F6715550CB827B40839639A5F2770314A7CD293819B45C73AAFB45B35BA61ACAA1C1C7E7855C58C15BC331339661262CC762340413D68D77DA5B42298546CBE6573AF60CEB2F504B0304140006080800CC70623B449FB9BD290100001202000031
310
0000006662782F36394639363044362D344446342D343946362D394244322D3234314243333846323333332F636F72652E786D6C8D515B6EC32010BC0AE22B55850D98B871848994463E412FE002495162B07854397EA176A4F62F3F2C9A9D991D587EB84F37F0AD7D30CEF6905418026DA553C65E7A98E219ED203808EE9D
310
8B7F6810D871D23D2C3014FCE25D9A57483A1BB58D19B54EE9151C43D0110279CB971E06F9A5A7B11A53CC8C70ADE6515EC78BAE4895DB992778883E0700CB907242D17643D7E2538BD869608875438BBAE38922CAC8F1BDD90DB4691A5E2F42C153326A951B95E398B3D1FE599322163C9AE9115F7A3D46ADA0A018778810
310
84E907617BDCEE297BC5BB3DC6BC2EF47FA234AB2745C9D8D8D035EE220B50105E2F0DC1954B9FB747187D9F9D8FA0CCDB042D5FA0C015C65B42DF78BD10F3F3B363CB56C7109DCFDFBBB97E662ED92EB62D13BC2E1BCAE5777DB9966D8A1F504B0304140006080800CC70623BAD7543B64E01000033030000300000006662
310
782F36394639363044362D344446342D343946362D394244322D3234314243333846323333332F636E782E786D6CD593CD6EC32010845F0571AD6CE3D48AD20813A9873E410FBD12D82434182C7EAAE6EDBB2424CD25871E7B41D6EC30B3FA84F9E67BB2E40B4234DE8DB46F1925E094D7C6ED479AD3AE5951B2113C789FEE
310
6C943839C1488B4C05DF079FE72A69D8C96C13AAD6B8631503449F83828872B949AC57D26200B826A308D316B4064D6E46FCDA41C05550DC9E483A00797BFD207EFB092A45DE9514C1BBD22178396BD39D891265658C238DEA00936C654E5E433CB65A26D9F6EDB5EBC14EBF49A45CB856E66048291F6939A9A81BB5C89177
310
38143CA680F4AA299D66A042CEB3354A2684DC9D8D178FE0D9B8B41CAAD720F880EE7EF93C0C18769E099ECC04D5A102C8049A8A05632F4DDF376CF1DE0F6BB65C2F8627B65A33C6BB62177CEBBDAD973006829F89F22E814B54F4BC2BE347F8AA8F681390B50FA73F804400B5F542E796F19FF974E7F78DB802FE05E20750
310
4B0304140006080800CC70623B8D05915C650500003B100000340000006662782F36394639363044362D344446342D343946362D394244322D3234314243333846323333332F6F626A656374732E786D6CAD575B6FA33814FE2B887D06429276DA1565D4266D158D3A339A6846FB502932E050B66023DB74D2FDF5FB190C01
310
9276B2973C046C8ECFF53B17071F77456EBD502133CEAE6CDF9DD81665314F32965ED995DA3A17B6F5310C04E7AA47665B8C14F4CAD6DB7618A48257A5D94AE89654B91AEDDEDDFC61C998326A5B714EA4BCB265FC440BE2924AF184CA6737218AB8E976E7FA6E4338649B0A523E8D98964450A6A029F619B8588D52FE7039
310
B1BD30F0F4F730D0FF866AF6369557DB33949F31A9088B0F848DD8CCFCF9F2767A76E99CCDE733677E3EF59D9BBB9BA5E37F984D16E78BC5E5F5ED25044B25C0C96822E8D60EEFE11B91C581D77CEA34368A1F5329E68CD1B8B61F16D63A1B8E092D294B10C78C4A48EB593D192E7DED9BDEE7995E1B91FDEDD3ACEA9FE831
310
6A756F9F7D4D79F4274C90A7A04248AA51D5F8C718DAE06FB2F75AC4796EBE65D22A88A22223B995679120E2D50E41AA49C260C046A35368846B0BECD0DFF3EBEB8AD4F835768F69B9ADF25C43D30E6B646F807FAA64AD59F61715C7A54127C4AACA98BA3006A9D792DAE165E0D59B61A01FB3A9F9D838D2DAE62445C86166
310
F37564E842E7DE6A69879FEEA2DD5AE7E371E1A5E025154AC307D06A03D73EB5978C58FFA4C8E9033066E0F3BD53BEC1F39F91BE7B55103791EDE6BBB991A2046172CB4581D8B893FA674DDA17A77B3B7C413D1B511FD2743BFF8A38F03A658705E3ADF8015C3A3417FF3D7E439FF591DA0B5F18BC20C1B8981957AE6392A3
310
F43C640C01D1A0B4728E2DD4F26DB4B3C3152A252A3B4E913CEC1C72F012782FF88EFF8637AA552DBEF76408E8A8DE9E50F9E1CB3A2DA0DB1B6039A893B56063DC5B3E3FFB5F72E67AB9FEB4AEC496C4F4C1149625DD662C53E89D7BF0F6151A046260D1337DFDC94502430F83B0EE07A130A224BCAD7DAE1D9FB6CD422FF6
310
920702629C4BB9AE79C12F243C6432A6794E18E5552BA56B431AAB5D91317302B2B071E86C3A42B1A02F999E24061403B5D0EB639195DA655DD3EBEAB4FB862DDF579F014AD0E73C22F99E28DA57FB98E75C6CA2D74D53086D600F4786E0FE3144B771A8A7B900F03594DB8A633CBC49B2EDB69228BB479CF863B5E807AAAB
310
23872F6DFEB4129B949CA33823F58830E86D65621E10047D9DB34D862E8EAC3C2ABC2F7B2C40D67CDFE01F5545B92105AF983AC54D93D69E56FB8E797F88913F898A9FEC705D3F9D1B54EC8426FB500D40A03BD0119B06E1B95DDC7EB8F6975367793EBD70E66733DFB9BC982F9CE564727731999F5D4ECFCE3B8D6A4DC2A0
310
6D50FD148437D110834A64C6CDDF57FBACB5C307A2A477DFE4939736CFEF2B175371E0E10CF0DD1D5C15654E0BCA14D1E87DD02FF93782A162C0A3D95F1524A52770F972BF1EE9809D13CE7DD599467F8ECE9ADD85CE85A34CD45355448C64F9E8A031DC2D596ACC6E5DD93D9B82DE2EF5CAF81363A8E47996A0DE24564A79
310
4115AACE09C55E14540231FDA13C319787134EBF34E3A022514E5B4D9E0826E25C02D5805B15ABE1BEF51B26383D445DD9E875EE33FE4C22DA16427D65A3BCA92CA6D28DD01DF5DC53330704308475351050232CCD31583787BA75774AFB06E5070DD0C8EF484E19968C5D83BA5B90B244D31E54D55A372320FE4786B7EA58
310
44E135AA5467CB7EA333A61683CC6A8C3257034C10CF46F40EF9F5BE59BE5BD30C3C72D235E95D10345C1D45445A5F0BB47E46A5EBE5570F9380B5FA629579952296A773720405982B9DE04011506178964401AA8BDF1FBF0A8EAB6861DD6580C0E38217056766716DAEB2D6FA0917D3E4116581EADB879C4E7CFFB11EFACD
310
3D641311495D92C8676CB409A72D18610D803CE8A626049E8EC1887CB5B44CC39883690DDA8399B4B9855B481E7D71D4A9D22F96E5BB73BF5793020C02137BF837504B0304140006080000CC70623B000000000000000000000000350000006662782F36394639363044362D344446342D343946362D394244322D32343142
310
43333846323333332F76657274696365732E62696E504B0304140006080800CC70623BF270F1330600000004000000360000006662782F36394639363044362D344446342D343946362D394244322D3234314243333846323333332F747269616E676C65732E62696E636660600000504B0304140006080000CC70623B0000
310
00000000000000000000370000006662782F36394639363044362D344446342D343946362D394244322D3234314243333846323333332F617474726962757465732E62696E504B0304140006080800CC70623B08DA0BD19000000041010000360000006662782F36394639363044362D344446342D343946362D394244322D
310
3234314243333846323333332F6469726563746F72792E786D6C858F410AC3201045AF22B36F53E9A60B35CBEEBAE80D244E44489C6234F4F835464A48035D0DF398FF9F8AF63D0E6CC63039F212F8F9020C7D47C6792B21C5FE7403D62A1188E2E60C98D7234A5830286103A55745067B9D86B8A3CF9C7F90C11DE607FB14
310
4396D7B6A82D282E9A152AD114D5EF2CB866EEE831B8EEA07A7BB5A8D7D61A2BAAEB7FD5F70921FF497D00504B0304140006080800CC70623BCA768048FE000000A00100003B0000006662782F36394639363044362D344446342D343946362D394244322D3234314243333846323333332F7265736F75726365732F636F72
310
652E786D6C8D50596E833010BD0A9ADFCA60D600328E9AA639412F609909B1126CE4A5EAF16B0295DABFFECC8CDEA2797AECF8353F924FB44E193D409E5248504B332A3D0D10FC95B4901C39B3C6F85F3248B49871801506CE266BC2B243D2688FDA47549B11775038871E12F988C7004EDE7016A9083E2ADC3D5D84BC8B09
310
D33C8D74D471E6BC8D0192EDC93A815B742658898E651BCB59086ADC356A8C3FD555A1055ED7E7E254D615792D0F075295F585746FF53B694EE78A565DD736979A65AB9933AFE69F8CD2A2F038022F28ED489E135A7CE4554F9BBEA85E68DB53CAB255FEC71496F19FA6A0B42F8B3DEE6673C0F318E4497096AD7DC5F52C33
310
EEB55BFE0D504B010214000A0000080000CC70623B3DEE336E79000000790000001B00000000000000000000000000000000006175746F6465736B2D64657369676E2D7061636B6167652E786D6C504B01021400140006080800CC70623BD486FD9CA0000000F40000001300000000000000000000000000B20000005B436F
310
6E74656E745F54797065735D2E786D6C504B01021400140006080800CC70623BD9DDAED0EC0000007C010000080000000000000000000000000083010000636F72652E786D6C504B01021400140006080800CC70623B55019EA25F0000007C000000070000000000000000000000000095020000636E782E786D6C504B0102
310
1400140006080800CC70623BA24EB22D72010000D40300000C00000000000000000000000000190300006662782F636F72652E786D6C504B01021400140006080800CC70623B408A7D3B7C0000009D0000000B00000000000000000000000000B50400006662782F636E782E786D6C504B01021400140006080800CC70623B
310
449FB9BD290100001202000031000000000000000000000000005A0500006662782F36394639363044362D344446342D343946362D394244322D3234314243333846323333332F636F72652E786D6C504B01021400140006080800CC70623BAD7543B64E010000330300003000000000000000000000000000D20600006662
310
782F36394639363044362D344446342D343946362D394244322D3234314243333846323333332F636E782E786D6C504B01021400140006080800CC70623B8D05915C650500003B10000034000000000000000000000000006E0800006662782F36394639363044362D344446342D343946362D394244322D32343142433338
310
46323333332F6F626A656374732E786D6C504B01021400140006080000CC70623B0000000000000000000000003500000000000000000000000000250E00006662782F36394639363044362D344446342D343946362D394244322D3234314243333846323333332F76657274696365732E62696E504B010214001400060808
310
00CC70623BF270F13306000000040000003600000000000000000000000000780E00006662782F36394639363044362D344446342D343946362D394244322D3234314243333846323333332F747269616E676C65732E62696E504B01021400140006080000CC70623B00000000000000000000000037000000000000000000
310
00000000D20E00006662782F36394639363044362D344446342D343946362D394244322D3234314243333846323333332F617474726962757465732E62696E504B01021400140006080800CC70623B08DA0BD190000000410100003600000000000000000000000000270F00006662782F36394639363044362D344446342D
310
343946362D394244322D3234314243333846323333332F6469726563746F72792E786D6C504B01021400140006080800CC70623BCA768048FE000000A00100003B000000000000000000000000000B1000006662782F36394639363044362D344446342D343946362D394244322D3234314243333846323333332F7265736F
310
75726365732F636F72652E786D6C504B0506000000000E000E0080040000621100000000
  0
XRECORD
  5
176
102
{ACAD_REACTORS
330
173
102
}
330
173
100
AcDbXrecord
280
     1
270
     1
271
     1
  0
XRECORD
  5
177
102
{ACAD_REACTORS
330
173
102
}
330
173
100
AcDbXrecord
280
     1
270
     1
271
     1
  0
XRECORD
  5
7FA3
102
{ACAD_REACTORS
330
7FA2
102
}
330
7FA2
100
AcDbXrecord
280
     1
102
ACAD_ROUNDTRIP_2012_MLEADER_STYLE
298
     1
  0
XRECORD
  5
7FB5
102
{ACAD_REACTORS
330
7FB4
102
}
330
7FB4
100
AcDbXrecord
280
     1
102
DISPLAYNAME
  1
Metric50
102
FLAGS
 90
        0
  0
CELLSTYLEMAP
  5
7F75
102
{ACAD_REACTORS
330
162
102
}
330
162
100
AcDbCellStyleMap
 90
        3
300
CELLSTYLE
  1
TABLEFORMAT_BEGIN
 90
        5
170
     1
 91
        0
 92
    32768
 62
   257
 93
        1
300
CONTENTFORMAT
  1
CONTENTFORMAT_BEGIN
 90
        0
 91
        0
 92
      512
 93
        0
300

 40
0.0
140
1.0
 94
        5
 62
     0
340
11
144
6.0
309
CONTENTFORMAT_END
171
     1
301
MARGIN
  1
CELLMARGIN_BEGIN
 40
1.5
 40
1.5
 40
1.5
 40
1.5
 40
4.5
 40
4.5
309
CELLMARGIN_END
 94
        6
 95
        1
302
GRIDFORMAT
  1
GRIDFORMAT_BEGIN
 90
        0
 91
        1
 62
     0
 92
       -2
340
14
 93
        0
 40
1.125
309
GRIDFORMAT_END
 95
        2
302
GRIDFORMAT
  1
GRIDFORMAT_BEGIN
 90
        0
 91
        1
 62
     0
 92
       -2
340
14
 93
        0
 40
1.125
309
GRIDFORMAT_END
 95
        4
302
GRIDFORMAT
  1
GRIDFORMAT_BEGIN
 90
        0
 91
        1
 62
     0
 92
       -2
340
14
 93
        0
 40
1.125
309
GRIDFORMAT_END
 95
        8
302
GRIDFORMAT
  1
GRIDFORMAT_BEGIN
 90
        0
 91
        1
 62
     0
 92
       -2
340
14
 93
        0
 40
1.125
309
GRIDFORMAT_END
 95
       16
302
GRIDFORMAT
  1
GRIDFORMAT_BEGIN
 90
        0
 91
        1
 62
     0
 92
       -2
340
14
 93
        0
 40
1.125
309
GRIDFORMAT_END
 95
       32
302
GRIDFORMAT
  1
GRIDFORMAT_BEGIN
 90
        0
 91
        1
 62
     0
 92
       -2
340
14
 93
        0
 40
1.125
309
GRIDFORMAT_END
309
TABLEFORMAT_END
  1
CELLSTYLE_BEGIN
 90
        1
 91
        1
300
_TITLE
309
CELLSTYLE_END
300
CELLSTYLE
  1
TABLEFORMAT_BEGIN
 90
        5
170
     1
 91
        0
 92
        0
 62
   257
 93
        1
300
CONTENTFORMAT
  1
CONTENTFORMAT_BEGIN
 90
        0
 91
        0
 92
      512
 93
        0
300

 40
0.0
140
1.0
 94
        5
 62
     0
340
11
144
4.5
309
CONTENTFORMAT_END
171
     1
301
MARGIN
  1
CELLMARGIN_BEGIN
 40
1.5
 40
1.5
 40
1.5
 40
1.5
 40
4.5
 40
4.5
309
CELLMARGIN_END
 94
        6
 95
        1
302
GRIDFORMAT
  1
GRIDFORMAT_BEGIN
 90
        0
 91
        1
 62
     0
 92
       -2
340
14
 93
        0
 40
1.125
309
GRIDFORMAT_END
 95
        2
302
GRIDFORMAT
  1
GRIDFORMAT_BEGIN
 90
        0
 91
        1
 62
     0
 92
       -2
340
14
 93
        0
 40
1.125
309
GRIDFORMAT_END
 95
        4
302
GRIDFORMAT
  1
GRIDFORMAT_BEGIN
 90
        0
 91
        1
 62
     0
 92
       -2
340
14
 93
        0
 40
1.125
309
GRIDFORMAT_END
 95
        8
302
GRIDFORMAT
  1
GRIDFORMAT_BEGIN
 90
        0
 91
        1
 62
     0
 92
       -2
340
14
 93
        0
 40
1.125
309
GRIDFORMAT_END
 95
       16
302
GRIDFORMAT
  1
GRIDFORMAT_BEGIN
 90
        0
 91
        1
 62
     0
 92
       -2
340
14
 93
        0
 40
1.125
309
GRIDFORMAT_END
 95
       32
302
GRIDFORMAT
  1
GRIDFORMAT_BEGIN
 90
        0
 91
        1
 62
     0
 92
       -2
340
14
 93
        0
 40
1.125
309
GRIDFORMAT_END
309
TABLEFORMAT_END
  1
CELLSTYLE_BEGIN
 90
        2
 91
        1
300
_HEADER
309
CELLSTYLE_END
300
CELLSTYLE
  1
TABLEFORMAT_BEGIN
 90
        5
170
     1
 91
        0
 92
        0
 62
   257
 93
        1
300
CONTENTFORMAT
  1
CONTENTFORMAT_BEGIN
 90
        0
 91
        0
 92
      512
 93
        0
300

 40
0.0
140
1.0
 94
        2
 62
     0
340
11
144
4.5
309
CONTENTFORMAT_END
171
     1
301
MARGIN
  1
CELLMARGIN_BEGIN
 40
1.5
 40
1.5
 40
1.5
 40
1.5
 40
4.5
 40
4.5
309
CELLMARGIN_END
 94
        6
 95
        1
302
GRIDFORMAT
  1
GRIDFORMAT_BEGIN
 90
        0
 91
        1
 62
     0
 92
       -2
340
14
 93
        0
 40
1.125
309
GRIDFORMAT_END
 95
        2
302
GRIDFORMAT
  1
GRIDFORMAT_BEGIN
 90
        0
 91
        1
 62
     0
 92
       -2
340
14
 93
        0
 40
1.125
309
GRIDFORMAT_END
 95
        4
302
GRIDFORMAT
  1
GRIDFORMAT_BEGIN
 90
        0
 91
        1
 62
     0
 92
       -2
340
14
 93
        0
 40
1.125
309
GRIDFORMAT_END
 95
        8
302
GRIDFORMAT
  1
GRIDFORMAT_BEGIN
 90
        0
 91
        1
 62
     0
 92
       -2
340
14
 93
        0
 40
1.125
309
GRIDFORMAT_END
 95
       16
302
GRIDFORMAT
  1
GRIDFORMAT_BEGIN
 90
        0
 91
        1
 62
     0
 92
       -2
340
14
 93
        0
 40
1.125
309
GRIDFORMAT_END
 95
       32
302
GRIDFORMAT
  1
GRIDFORMAT_BEGIN
 90
        0
 91
        1
 62
     0
 92
       -2
340
14
 93
        0
 40
1.125
309
GRIDFORMAT_END
309
TABLEFORMAT_END
  1
CELLSTYLE_BEGIN
 90
        3
 91
        2
300
_DATA
309
CELLSTYLE_END
  0
XRECORD
  5
7F7A
102
{ACAD_REACTORS
330
162
102
}
330
162
100
AcDbXrecord
280
     1
102
ACAD_ROUNDTRIP_PRE2007_TABLESTYLE
 90
      512
 91
        0
  1

 92
      512
 93
        0
  2

 94
      512
 95
        0
  3

  0
XRECORD
  5
7F8D
102
{ACAD_REACTORS
330
7F8C
102
}
330
7F8C
100
AcDbXrecord
280
     1
102
RTVSPost2010Prop28
280
     1
102
RTVSPost2010PropOp28
 70
     1
102
RTVSPost2010Prop29
280
     1
102
RTVSPost2010PropOp29
 70
     1
102
RTVSPost2010Prop30
280
     0
102
RTVSPost2010PropOp30
 70
     1
102
RTVSPost2010Prop31
280
     0
102
RTVSPost2010PropOp31
 70
     1
102
RTVSPost2010Prop32
280
     0
102
RTVSPost2010PropOp32
 70
     1
102
RTVSPost2010Prop33
280
     0
102
RTVSPost2010PropOp33
 70
     1
102
RTVSPost2010Prop34
280
     0
102
RTVSPost2010PropOp34
 70
     1
102
RTVSPost2010Prop35
280
     0
102
RTVSPost2010PropOp35
 70
     1
102
RTVSPost2010Prop36
280
     0
102
RTVSPost2010PropOp36
 70
     1
102
RTVSPost2010Prop37
 90
       50
102
RTVSPost2010PropOp37
 70
     1
102
RTVSPost2010Prop38
140
0.0
102
RTVSPost2010PropOp38
 70
     1
102
RTVSPost2010Prop39
140
1.0
102
RTVSPost2010PropOp39
 70
     1
102
RTVSPost2010Prop40
 90
        0
102
RTVSPost2010PropOp40
 70
     1
102
RTVSPost2010Prop41ColorIndex
 90
       18
102
RTVSPost2010Prop41ColorRGB
 90
        0
102
RTVSPost2010PropOp41
 70
     1
102
RTVSPost2010Prop42
 90
       50
102
RTVSPost2010PropOp42
 70
     1
102
RTVSPost2010Prop43
 90
        3
102
RTVSPost2010PropOp43
 70
     1
102
RTVSPost2010Prop44ColorIndex
 90
        5
102
RTVSPost2010Prop44ColorRGB
 90
      255
102
RTVSPost2010PropOp44
 70
     1
102
RTVSPost2010Prop45
280
     0
102
RTVSPost2010PropOp45
 70
     1
102
RTVSPost2010Prop46
 90
       50
102
RTVSPost2010PropOp46
 70
     1
102
RTVSPost2010Prop47
 90
       50
102
RTVSPost2010PropOp47
 70
     1
102
RTVSPost2010Prop48
 90
       50
102
RTVSPost2010PropOp48
 70
     1
102
RTVSPost2010Prop49
280
     0
102
RTVSPost2010PropOp49
 70
     1
102
RTVSPost2010Prop50
 90
       50
102
RTVSPost2010PropOp50
 70
     1
102
RTVSPost2010Prop51ColorIndex
 90
      256
102
RTVSPost2010Prop51ColorRGB
 90
-16777216
102
RTVSPost2010PropOp51
 70
     0
102
RTVSPost2010Prop52
140
1.0
102
RTVSPost2010PropOp52
 70
     0
102
RTVSPost2010Prop53
 90
        2
102
RTVSPost2010PropOp53
 70
     1
102
RTVSPost2010Prop54
  1
strokes_ogs.tif
102
RTVSPost2010PropOp54
 70
     1
102
RTVSPost2010Prop55
280
     0
102
RTVSPost2010PropOp55
 70
     1
102
RTVSPost2010Prop56
140
1.0
102
RTVSPost2010PropOp56
 70
     1
102
RTVSPost2010Prop57
140
1.0
102
RTVSPost2010PropOp57
 70
     1
102
RTVSPropertyOp0
 70
     1
102
RTVSPropertyOp1
 70
     1
102
RTVSPropertyOp2
 70
     1
102
RTVSPropertyOp3
 70
     1
102
RTVSPropertyOp4
 70
     1
102
RTVSPropertyOp5
 70
     1
102
RTVSPropertyOp6
 70
     1
102
RTVSPropertyOp7
 70
     1
102
RTVSPropertyOp8
 70
     1
102
RTVSPropertyOp9
 70
     1
102
RTVSPropertyOp10
 70
     1
102
RTVSPropertyOp11
 70
     1
102
RTVSPropertyOp12
 70
     1
102
RTVSPropertyOp13
 70
     1
102
RTVSPropertyOp14
 70
     1
102
RTVSPropertyOp15
 70
     1
102
RTVSPropertyOp16
 70
     1
102
RTVSPropertyOp17
 70
     1
102
RTVSPropertyOp18
 70
     1
102
RTVSPropertyOp19
 70
     1
102
RTVSPropertyOp20
 70
     1
102
RTVSPropertyOp21
 70
     1
102
RTVSPropertyOp22
 70
     1
102
RTVSPropertyOp23
 70
     1
102
RTVSPropertyOp24
 70
     1
102
RTVSPropertyOp25
 70
     1
102
RTVSPropertyOp26
 70
     1
102
RTVSPropertyOp27
 70
     1
102
RTVSPropertyOp28
 70
     1
102
RTVSPropertyOp29
 70
     1
102
RTVSPropertyOp30
 70
     1
102
RTVSPropertyOp31
 70
     1
102
RTVSPropertyOp32
 70
     1
102
RTVSPropertyOp33
 70
     1
102
RTVSPropertyOp34
 70
     1
102
RTVSPropertyOp35
 70
     1
102
RTVSPropertyOp36
 70
     1
102
RTVSPropertyOp37
 70
     1
102
RTVSPropertyOp38
 70
     1
102
RTVSPropertyOp39
 70
     1
102
RTVSPropertyOp40
 70
     1
102
RTVSPropertyOp41
 70
     1
102
RTVSPropertyOp42
 70
     1
102
RTVSPropertyOp43
 70
     1
102
RTVSPropertyOp44
 70
     1
102
RTVSPropertyOp45
 70
     1
102
RTVSPropertyOp46
 70
     1
102
RTVSPropertyOp47
 70
     1
102
RTVSPropertyOp48
 70
     1
102
RTVSPropertyOp49
 70
     1
102
RTVSPropertyOp50
 70
     1
102
RTVSPropertyOp51
 70
     0
102
RTVSPropertyOp52
 70
     0
102
RTVSPropertyOp53
 70
     1
102
RTVSPropertyOp54
 70
     1
102
RTVSPropertyOp55
 70
     1
102
RTVSPropertyOp56
 70
     1
102
RTVSPropertyOp57
 70
     1
102
RTVSPropertyOp58
 70
     1
102
RTVSPropertyOp59
 70
     1
102
RTVSPropertyOp60
 70
     1
102
RTVSPropertyOp61
 70
     1
102
RTVSPropertyOp62
 70
     1
  0
XRECORD
  5
7F8B
102
{ACAD_REACTORS
330
7F8A
102
}
330
7F8A
100
AcDbXrecord
280
     1
102
RTVSPost2010Prop28
280
     0
102
RTVSPost2010PropOp28
 70
     1
102
RTVSPost2010Prop29
280
     1
102
RTVSPost2010PropOp29
 70
     1
102
RTVSPost2010Prop30
280
     1
102
RTVSPost2010PropOp30
 70
     1
102
RTVSPost2010Prop31
280
     0
102
RTVSPost2010PropOp31
 70
     1
102
RTVSPost2010Prop32
280
     0
102
RTVSPost2010PropOp32
 70
     1
102
RTVSPost2010Prop33
280
     0
102
RTVSPost2010PropOp33
 70
     1
102
RTVSPost2010Prop34
280
     0
102
RTVSPost2010PropOp34
 70
     1
102
RTVSPost2010Prop35
280
     0
102
RTVSPost2010PropOp35
 70
     1
102
RTVSPost2010Prop36
280
     0
102
RTVSPost2010PropOp36
 70
     1
102
RTVSPost2010Prop37
 90
       50
102
RTVSPost2010PropOp37
 70
     1
102
RTVSPost2010Prop38
140
0.0
102
RTVSPost2010PropOp38
 70
     1
102
RTVSPost2010Prop39
140
1.0
102
RTVSPost2010PropOp39
 70
     1
102
RTVSPost2010Prop40
 90
        0
102
RTVSPost2010PropOp40
 70
     1
102
RTVSPost2010Prop41ColorIndex
 90
       18
102
RTVSPost2010Prop41ColorRGB
 90
        0
102
RTVSPost2010PropOp41
 70
     1
102
RTVSPost2010Prop42
 90
       50
102
RTVSPost2010PropOp42
 70
     1
102
RTVSPost2010Prop43
 90
        3
102
RTVSPost2010PropOp43
 70
     1
102
RTVSPost2010Prop44ColorIndex
 90
        5
102
RTVSPost2010Prop44ColorRGB
 90
      255
102
RTVSPost2010PropOp44
 70
     1
102
RTVSPost2010Prop45
280
     0
102
RTVSPost2010PropOp45
 70
     1
102
RTVSPost2010Prop46
 90
       50
102
RTVSPost2010PropOp46
 70
     1
102
RTVSPost2010Prop47
 90
       50
102
RTVSPost2010PropOp47
 70
     1
102
RTVSPost2010Prop48
 90
       50
102
RTVSPost2010PropOp48
 70
     1
102
RTVSPost2010Prop49
280
     0
102
RTVSPost2010PropOp49
 70
     1
102
RTVSPost2010Prop50
 90
       50
102
RTVSPost2010PropOp50
 70
     1
102
RTVSPost2010Prop51ColorIndex
 90
      256
102
RTVSPost2010Prop51ColorRGB
 90
-16777216
102
RTVSPost2010PropOp51
 70
     0
102
RTVSPost2010Prop52
140
1.0
102
RTVSPost2010PropOp52
 70
     0
102
RTVSPost2010Prop53
 90
        2
102
RTVSPost2010PropOp53
 70
     1
102
RTVSPost2010Prop54
  1
strokes_ogs.tif
102
RTVSPost2010PropOp54
 70
     1
102
RTVSPost2010Prop55
280
     0
102
RTVSPost2010PropOp55
 70
     1
102
RTVSPost2010Prop56
140
1.0
102
RTVSPost2010PropOp56
 70
     1
102
RTVSPost2010Prop57
140
1.0
102
RTVSPost2010PropOp57
 70
     1
102
RTVSPropertyOp0
 70
     1
102
RTVSPropertyOp1
 70
     1
102
RTVSPropertyOp2
 70
     1
102
RTVSPropertyOp3
 70
     1
102
RTVSPropertyOp4
 70
     1
102
RTVSPropertyOp5
 70
     1
102
RTVSPropertyOp6
 70
     1
102
RTVSPropertyOp7
 70
     1
102
RTVSPropertyOp8
 70
     1
102
RTVSPropertyOp9
 70
     1
102
RTVSPropertyOp10
 70
     1
102
RTVSPropertyOp11
 70
     1
102
RTVSPropertyOp12
 70
     1
102
RTVSPropertyOp13
 70
     1
102
RTVSPropertyOp14
 70
     1
102
RTVSPropertyOp15
 70
     1
102
RTVSPropertyOp16
 70
     1
102
RTVSPropertyOp17
 70
     1
102
RTVSPropertyOp18
 70
     1
102
RTVSPropertyOp19
 70
     1
102
RTVSPropertyOp20
 70
     1
102
RTVSPropertyOp21
 70
     1
102
RTVSPropertyOp22
 70
     1
102
RTVSPropertyOp23
 70
     1
102
RTVSPropertyOp24
 70
     1
102
RTVSPropertyOp25
 70
     1
102
RTVSPropertyOp26
 70
     1
102
RTVSPropertyOp27
 70
     1
102
RTVSPropertyOp28
 70
     1
102
RTVSPropertyOp29
 70
     1
102
RTVSPropertyOp30
 70
     1
102
RTVSPropertyOp31
 70
     1
102
RTVSPropertyOp32
 70
     1
102
RTVSPropertyOp33
 70
     1
102
RTVSPropertyOp34
 70
     1
102
RTVSPropertyOp35
 70
     1
102
RTVSPropertyOp36
 70
     1
102
RTVSPropertyOp37
 70
     1
102
RTVSPropertyOp38
 70
     1
102
RTVSPropertyOp39
 70
     1
102
RTVSPropertyOp40
 70
     1
102
RTVSPropertyOp41
 70
     1
102
RTVSPropertyOp42
 70
     1
102
RTVSPropertyOp43
 70
     1
102
RTVSPropertyOp44
 70
     1
102
RTVSPropertyOp45
 70
     1
102
RTVSPropertyOp46
 70
     1
102
RTVSPropertyOp47
 70
     1
102
RTVSPropertyOp48
 70
     1
102
RTVSPropertyOp49
 70
     1
102
RTVSPropertyOp50
 70
     1
102
RTVSPropertyOp51
 70
     0
102
RTVSPropertyOp52
 70
     0
102
RTVSPropertyOp53
 70
     1
102
RTVSPropertyOp54
 70
     1
102
RTVSPropertyOp55
 70
     1
102
RTVSPropertyOp56
 70
     1
102
RTVSPropertyOp57
 70
     1
102
RTVSPropertyOp58
 70
     1
102
RTVSPropertyOp59
 70
     1
102
RTVSPropertyOp60
 70
     1
102
RTVSPropertyOp61
 70
     1
102
RTVSPropertyOp62
 70
     1
  0
XRECORD
  5
7F99
102
{ACAD_REACTORS
330
7F98
102
}
330
7F98
100
AcDbXrecord
280
     1
102
RTVSPost2010Prop28
280
     0
102
RTVSPost2010PropOp28
 70
     1
102
RTVSPost2010Prop29
280
     1
102
RTVSPost2010PropOp29
 70
     1
102
RTVSPost2010Prop30
280
     1
102
RTVSPost2010PropOp30
 70
     1
102
RTVSPost2010Prop31
280
     0
102
RTVSPost2010PropOp31
 70
     1
102
RTVSPost2010Prop32
280
     0
102
RTVSPost2010PropOp32
 70
     1
102
RTVSPost2010Prop33
280
     0
102
RTVSPost2010PropOp33
 70
     1
102
RTVSPost2010Prop34
280
     0
102
RTVSPost2010PropOp34
 70
     1
102
RTVSPost2010Prop35
280
     0
102
RTVSPost2010PropOp35
 70
     1
102
RTVSPost2010Prop36
280
     0
102
RTVSPost2010PropOp36
 70
     1
102
RTVSPost2010Prop37
 90
       50
102
RTVSPost2010PropOp37
 70
     1
102
RTVSPost2010Prop38
140
0.0
102
RTVSPost2010PropOp38
 70
     1
102
RTVSPost2010Prop39
140
1.0
102
RTVSPost2010PropOp39
 70
     1
102
RTVSPost2010Prop40
 90
        0
102
RTVSPost2010PropOp40
 70
     1
102
RTVSPost2010Prop41ColorIndex
 90
       18
102
RTVSPost2010Prop41ColorRGB
 90
        0
102
RTVSPost2010PropOp41
 70
     1
102
RTVSPost2010Prop42
 90
       50
102
RTVSPost2010PropOp42
 70
     1
102
RTVSPost2010Prop43
 90
        3
102
RTVSPost2010PropOp43
 70
     1
102
RTVSPost2010Prop44ColorIndex
 90
        5
102
RTVSPost2010Prop44ColorRGB
 90
      255
102
RTVSPost2010PropOp44
 70
     1
102
RTVSPost2010Prop45
280
     0
102
RTVSPost2010PropOp45
 70
     1
102
RTVSPost2010Prop46
 90
       50
102
RTVSPost2010PropOp46
 70
     1
102
RTVSPost2010Prop47
 90
       50
102
RTVSPost2010PropOp47
 70
     1
102
RTVSPost2010Prop48
 90
       50
102
RTVSPost2010PropOp48
 70
     1
102
RTVSPost2010Prop49
280
     0
102
RTVSPost2010PropOp49
 70
     1
102
RTVSPost2010Prop50
 90
       50
102
RTVSPost2010PropOp50
 70
     1
102
RTVSPost2010Prop51ColorIndex
 90
      256
102
RTVSPost2010Prop51ColorRGB
 90
-16777216
102
RTVSPost2010PropOp51
 70
     0
102
RTVSPost2010Prop52
140
1.0
102
RTVSPost2010PropOp52
 70
     0
102
RTVSPost2010Prop53
 90
        2
102
RTVSPost2010PropOp53
 70
     1
102
RTVSPost2010Prop54
  1
strokes_ogs.tif
102
RTVSPost2010PropOp54
 70
     1
102
RTVSPost2010Prop55
280
     0
102
RTVSPost2010PropOp55
 70
     1
102
RTVSPost2010Prop56
140
1.0
102
RTVSPost2010PropOp56
 70
     1
102
RTVSPost2010Prop57
140
1.0
102
RTVSPost2010PropOp57
 70
     1
102
RTVSPropertyOp0
 70
     1
102
RTVSPropertyOp1
 70
     1
102
RTVSPropertyOp2
 70
     1
102
RTVSPropertyOp3
 70
     1
102
RTVSPropertyOp4
 70
     1
102
RTVSPropertyOp5
 70
     1
102
RTVSPropertyOp6
 70
     1
102
RTVSPropertyOp7
 70
     1
102
RTVSPropertyOp8
 70
     1
102
RTVSPropertyOp9
 70
     1
102
RTVSPropertyOp10
 70
     1
102
RTVSPropertyOp11
 70
     1
102
RTVSPropertyOp12
 70
     1
102
RTVSPropertyOp13
 70
     1
102
RTVSPropertyOp14
 70
     1
102
RTVSPropertyOp15
 70
     1
102
RTVSPropertyOp16
 70
     1
102
RTVSPropertyOp17
 70
     1
102
RTVSPropertyOp18
 70
     1
102
RTVSPropertyOp19
 70
     1
102
RTVSPropertyOp20
 70
     1
102
RTVSPropertyOp21
 70
     1
102
RTVSPropertyOp22
 70
     1
102
RTVSPropertyOp23
 70
     1
102
RTVSPropertyOp24
 70
     1
102
RTVSPropertyOp25
 70
     1
102
RTVSPropertyOp26
 70
     1
102
RTVSPropertyOp27
 70
     1
102
RTVSPropertyOp28
 70
     1
102
RTVSPropertyOp29
 70
     1
102
RTVSPropertyOp30
 70
     1
102
RTVSPropertyOp31
 70
     1
102
RTVSPropertyOp32
 70
     1
102
RTVSPropertyOp33
 70
     1
102
RTVSPropertyOp34
 70
     1
102
RTVSPropertyOp35
 70
     1
102
RTVSPropertyOp36
 70
     1
102
RTVSPropertyOp37
 70
     1
102
RTVSPropertyOp38
 70
     1
102
RTVSPropertyOp39
 70
     1
102
RTVSPropertyOp40
 70
     1
102
RTVSPropertyOp41
 70
     1
102
RTVSPropertyOp42
 70
     1
102
RTVSPropertyOp43
 70
     1
102
RTVSPropertyOp44
 70
     1
102
RTVSPropertyOp45
 70
     1
102
RTVSPropertyOp46
 70
     1
102
RTVSPropertyOp47
 70
     1
102
RTVSPropertyOp48
 70
     1
102
RTVSPropertyOp49
 70
     1
102
RTVSPropertyOp50
 70
     1
102
RTVSPropertyOp51
 70
     0
102
RTVSPropertyOp52
 70
     0
102
RTVSPropertyOp53
 70
     1
102
RTVSPropertyOp54
 70
     1
102
RTVSPropertyOp55
 70
     1
102
RTVSPropertyOp56
 70
     1
102
RTVSPropertyOp57
 70
     1
102
RTVSPropertyOp58
 70
     1
102
RTVSPropertyOp59
 70
     1
102
RTVSPropertyOp60
 70
     1
102
RTVSPropertyOp61
 70
     1
102
RTVSPropertyOp62
 70
     1
  0
XRECORD
  5
7FA1
102
{ACAD_REACTORS
330
7FA0
102
}
330
7FA0
100
AcDbXrecord
280
     1
102
RTVSPost2010Prop28
280
     0
102
RTVSPost2010PropOp28
 70
     1
102
RTVSPost2010Prop29
280
     1
102
RTVSPost2010PropOp29
 70
     1
102
RTVSPost2010Prop30
280
     1
102
RTVSPost2010PropOp30
 70
     1
102
RTVSPost2010Prop31
280
     0
102
RTVSPost2010PropOp31
 70
     1
102
RTVSPost2010Prop32
280
     0
102
RTVSPost2010PropOp32
 70
     1
102
RTVSPost2010Prop33
280
     0
102
RTVSPost2010PropOp33
 70
     1
102
RTVSPost2010Prop34
280
     0
102
RTVSPost2010PropOp34
 70
     1
102
RTVSPost2010Prop35
280
     0
102
RTVSPost2010PropOp35
 70
     1
102
RTVSPost2010Prop36
280
     0
102
RTVSPost2010PropOp36
 70
     1
102
RTVSPost2010Prop37
 90
       50
102
RTVSPost2010PropOp37
 70
     1
102
RTVSPost2010Prop38
140
0.0
102
RTVSPost2010PropOp38
 70
     1
102
RTVSPost2010Prop39
140
1.0
102
RTVSPost2010PropOp39
 70
     1
102
RTVSPost2010Prop40
 90
        0
102
RTVSPost2010PropOp40
 70
     1
102
RTVSPost2010Prop41ColorIndex
 90
       18
102
RTVSPost2010Prop41ColorRGB
 90
        0
102
RTVSPost2010PropOp41
 70
     1
102
RTVSPost2010Prop42
 90
       50
102
RTVSPost2010PropOp42
 70
     1
102
RTVSPost2010Prop43
 90
        3
102
RTVSPost2010PropOp43
 70
     1
102
RTVSPost2010Prop44ColorIndex
 90
        5
102
RTVSPost2010Prop44ColorRGB
 90
      255
102
RTVSPost2010PropOp44
 70
     1
102
RTVSPost2010Prop45
280
     0
102
RTVSPost2010PropOp45
 70
     1
102
RTVSPost2010Prop46
 90
       50
102
RTVSPost2010PropOp46
 70
     1
102
RTVSPost2010Prop47
 90
       50
102
RTVSPost2010PropOp47
 70
     1
102
RTVSPost2010Prop48
 90
       50
102
RTVSPost2010PropOp48
 70
     1
102
RTVSPost2010Prop49
280
     0
102
RTVSPost2010PropOp49
 70
     1
102
RTVSPost2010Prop50
 90
       50
102
RTVSPost2010PropOp50
 70
     1
102
RTVSPost2010Prop51ColorIndex
 90
      256
102
RTVSPost2010Prop51ColorRGB
 90
-16777216
102
RTVSPost2010PropOp51
 70
     0
102
RTVSPost2010Prop52
140
1.0
102
RTVSPost2010PropOp52
 70
     0
102
RTVSPost2010Prop53
 90
        2
102
RTVSPost2010PropOp53
 70
     1
102
RTVSPost2010Prop54
  1
strokes_ogs.tif
102
RTVSPost2010PropOp54
 70
     1
102
RTVSPost2010Prop55
280
     0
102
RTVSPost2010PropOp55
 70
     1
102
RTVSPost2010Prop56
140
1.0
102
RTVSPost2010PropOp56
 70
     1
102
RTVSPost2010Prop57
140
1.0
102
RTVSPost2010PropOp57
 70
     1
102
RTVSPropertyOp0
 70
     1
102
RTVSPropertyOp1
 70
     1
102
RTVSPropertyOp2
 70
     1
102
RTVSPropertyOp3
 70
     1
102
RTVSPropertyOp4
 70
     1
102
RTVSPropertyOp5
 70
     1
102
RTVSPropertyOp6
 70
     1
102
RTVSPropertyOp7
 70
     1
102
RTVSPropertyOp8
 70
     1
102
RTVSPropertyOp9
 70
     1
102
RTVSPropertyOp10
 70
     1
102
RTVSPropertyOp11
 70
     1
102
RTVSPropertyOp12
 70
     1
102
RTVSPropertyOp13
 70
     1
102
RTVSPropertyOp14
 70
     1
102
RTVSPropertyOp15
 70
     1
102
RTVSPropertyOp16
 70
     1
102
RTVSPropertyOp17
 70
     1
102
RTVSPropertyOp18
 70
     1
102
RTVSPropertyOp19
 70
     1
102
RTVSPropertyOp20
 70
     1
102
RTVSPropertyOp21
 70
     1
102
RTVSPropertyOp22
 70
     1
102
RTVSPropertyOp23
 70
     1
102
RTVSPropertyOp24
 70
     1
102
RTVSPropertyOp25
 70
     1
102
RTVSPropertyOp26
 70
     1
102
RTVSPropertyOp27
 70
     1
102
RTVSPropertyOp28
 70
     1
102
RTVSPropertyOp29
 70
     1
102
RTVSPropertyOp30
 70
     1
102
RTVSPropertyOp31
 70
     1
102
RTVSPropertyOp32
 70
     1
102
RTVSPropertyOp33
 70
     1
102
RTVSPropertyOp34
 70
     1
102
RTVSPropertyOp35
 70
     1
102
RTVSPropertyOp36
 70
     1
102
RTVSPropertyOp37
 70
     1
102
RTVSPropertyOp38
 70
     1
102
RTVSPropertyOp39
 70
     1
102
RTVSPropertyOp40
 70
     1
102
RTVSPropertyOp41
 70
     1
102
RTVSPropertyOp42
 70
     1
102
RTVSPropertyOp43
 70
     1
102
RTVSPropertyOp44
 70
     1
102
RTVSPropertyOp45
 70
     1
102
RTVSPropertyOp46
 70
     1
102
RTVSPropertyOp47
 70
     1
102
RTVSPropertyOp48
 70
     1
102
RTVSPropertyOp49
 70
     1
102
RTVSPropertyOp50
 70
     1
102
RTVSPropertyOp51
 70
     0
102
RTVSPropertyOp52
 70
     0
102
RTVSPropertyOp53
 70
     1
102
RTVSPropertyOp54
 70
     1
102
RTVSPropertyOp55
 70
     1
102
RTVSPropertyOp56
 70
     1
102
RTVSPropertyOp57
 70
     1
102
RTVSPropertyOp58
 70
     1
102
RTVSPropertyOp59
 70
     1
102
RTVSPropertyOp60
 70
     1
102
RTVSPropertyOp61
 70
     1
102
RTVSPropertyOp62
 70
     1
  0
XRECORD
  5
7F93
102
{ACAD_REACTORS
330
7F92
102
}
330
7F92
100
AcDbXrecord
280
     1
102
RTVSPost2010Prop28
280
     0
102
RTVSPost2010PropOp28
 70
     1
102
RTVSPost2010Prop29
280
     1
102
RTVSPost2010PropOp29
 70
     1
102
RTVSPost2010Prop30
280
     1
102
RTVSPost2010PropOp30
 70
     1
102
RTVSPost2010Prop31
280
     0
102
RTVSPost2010PropOp31
 70
     1
102
RTVSPost2010Prop32
280
     0
102
RTVSPost2010PropOp32
 70
     1
102
RTVSPost2010Prop33
280
     0
102
RTVSPost2010PropOp33
 70
     1
102
RTVSPost2010Prop34
280
     0
102
RTVSPost2010PropOp34
 70
     1
102
RTVSPost2010Prop35
280
     0
102
RTVSPost2010PropOp35
 70
     1
102
RTVSPost2010Prop36
280
     0
102
RTVSPost2010PropOp36
 70
     1
102
RTVSPost2010Prop37
 90
       50
102
RTVSPost2010PropOp37
 70
     1
102
RTVSPost2010Prop38
140
0.0
102
RTVSPost2010PropOp38
 70
     1
102
RTVSPost2010Prop39
140
1.0
102
RTVSPost2010PropOp39
 70
     1
102
RTVSPost2010Prop40
 90
        0
102
RTVSPost2010PropOp40
 70
     1
102
RTVSPost2010Prop41ColorIndex
 90
       18
102
RTVSPost2010Prop41ColorRGB
 90
        0
102
RTVSPost2010PropOp41
 70
     1
102
RTVSPost2010Prop42
 90
       50
102
RTVSPost2010PropOp42
 70
     1
102
RTVSPost2010Prop43
 90
        3
102
RTVSPost2010PropOp43
 70
     1
102
RTVSPost2010Prop44ColorIndex
 90
        5
102
RTVSPost2010Prop44ColorRGB
 90
      255
102
RTVSPost2010PropOp44
 70
     1
102
RTVSPost2010Prop45
280
     0
102
RTVSPost2010PropOp45
 70
     1
102
RTVSPost2010Prop46
 90
       50
102
RTVSPost2010PropOp46
 70
     1
102
RTVSPost2010Prop47
 90
       50
102
RTVSPost2010PropOp47
 70
     1
102
RTVSPost2010Prop48
 90
       50
102
RTVSPost2010PropOp48
 70
     1
102
RTVSPost2010Prop49
280
     0
102
RTVSPost2010PropOp49
 70
     1
102
RTVSPost2010Prop50
 90
       50
102
RTVSPost2010PropOp50
 70
     1
102
RTVSPost2010Prop51ColorIndex
 90
      256
102
RTVSPost2010Prop51ColorRGB
 90
-16777216
102
RTVSPost2010PropOp51
 70
     0
102
RTVSPost2010Prop52
140
1.0
102
RTVSPost2010PropOp52
 70
     0
102
RTVSPost2010Prop53
 90
        2
102
RTVSPost2010PropOp53
 70
     1
102
RTVSPost2010Prop54
  1
strokes_ogs.tif
102
RTVSPost2010PropOp54
 70
     1
102
RTVSPost2010Prop55
280
     0
102
RTVSPost2010PropOp55
 70
     1
102
RTVSPost2010Prop56
140
1.0
102
RTVSPost2010PropOp56
 70
     1
102
RTVSPost2010Prop57
140
1.0
102
RTVSPost2010PropOp57
 70
     1
102
RTVSPropertyOp0
 70
     1
102
RTVSPropertyOp1
 70
     1
102
RTVSPropertyOp2
 70
     1
102
RTVSPropertyOp3
 70
     1
102
RTVSPropertyOp4
 70
     1
102
RTVSPropertyOp5
 70
     1
102
RTVSPropertyOp6
 70
     1
102
RTVSPropertyOp7
 70
     1
102
RTVSPropertyOp8
 70
     1
102
RTVSPropertyOp9
 70
     1
102
RTVSPropertyOp10
 70
     1
102
RTVSPropertyOp11
 70
     1
102
RTVSPropertyOp12
 70
     1
102
RTVSPropertyOp13
 70
     1
102
RTVSPropertyOp14
 70
     1
102
RTVSPropertyOp15
 70
     1
102
RTVSPropertyOp16
 70
     1
102
RTVSPropertyOp17
 70
     1
102
RTVSPropertyOp18
 70
     1
102
RTVSPropertyOp19
 70
     1
102
RTVSPropertyOp20
 70
     1
102
RTVSPropertyOp21
 70
     1
102
RTVSPropertyOp22
 70
     1
102
RTVSPropertyOp23
 70
     1
102
RTVSPropertyOp24
 70
     1
102
RTVSPropertyOp25
 70
     1
102
RTVSPropertyOp26
 70
     1
102
RTVSPropertyOp27
 70
     1
102
RTVSPropertyOp28
 70
     1
102
RTVSPropertyOp29
 70
     1
102
RTVSPropertyOp30
 70
     1
102
RTVSPropertyOp31
 70
     1
102
RTVSPropertyOp32
 70
     1
102
RTVSPropertyOp33
 70
     1
102
RTVSPropertyOp34
 70
     1
102
RTVSPropertyOp35
 70
     1
102
RTVSPropertyOp36
 70
     1
102
RTVSPropertyOp37
 70
     1
102
RTVSPropertyOp38
 70
     1
102
RTVSPropertyOp39
 70
     1
102
RTVSPropertyOp40
 70
     1
102
RTVSPropertyOp41
 70
     1
102
RTVSPropertyOp42
 70
     1
102
RTVSPropertyOp43
 70
     1
102
RTVSPropertyOp44
 70
     1
102
RTVSPropertyOp45
 70
     1
102
RTVSPropertyOp46
 70
     1
102
RTVSPropertyOp47
 70
     1
102
RTVSPropertyOp48
 70
     1
102
RTVSPropertyOp49
 70
     1
102
RTVSPropertyOp50
 70
     1
102
RTVSPropertyOp51
 70
     0
102
RTVSPropertyOp52
 70
     0
102
RTVSPropertyOp53
 70
     1
102
RTVSPropertyOp54
 70
     1
102
RTVSPropertyOp55
 70
     1
102
RTVSPropertyOp56
 70
     1
102
RTVSPropertyOp57
 70
     1
102
RTVSPropertyOp58
 70
     1
102
RTVSPropertyOp59
 70
     1
102
RTVSPropertyOp60
 70
     1
102
RTVSPropertyOp61
 70
     1
102
RTVSPropertyOp62
 70
     1
  0
XRECORD
  5
7F97
102
{ACAD_REACTORS
330
7F96
102
}
330
7F96
100
AcDbXrecord
280
     1
102
RTVSPost2010Prop28
280
     0
102
RTVSPost2010PropOp28
 70
     1
102
RTVSPost2010Prop29
280
     1
102
RTVSPost2010PropOp29
 70
     1
102
RTVSPost2010Prop30
280
     1
102
RTVSPost2010PropOp30
 70
     1
102
RTVSPost2010Prop31
280
     0
102
RTVSPost2010PropOp31
 70
     1
102
RTVSPost2010Prop32
280
     0
102
RTVSPost2010PropOp32
 70
     1
102
RTVSPost2010Prop33
280
     0
102
RTVSPost2010PropOp33
 70
     1
102
RTVSPost2010Prop34
280
     0
102
RTVSPost2010PropOp34
 70
     1
102
RTVSPost2010Prop35
280
     0
102
RTVSPost2010PropOp35
 70
     1
102
RTVSPost2010Prop36
280
     0
102
RTVSPost2010PropOp36
 70
     1
102
RTVSPost2010Prop37
 90
       50
102
RTVSPost2010PropOp37
 70
     1
102
RTVSPost2010Prop38
140
0.0
102
RTVSPost2010PropOp38
 70
     1
102
RTVSPost2010Prop39
140
1.0
102
RTVSPost2010PropOp39
 70
     1
102
RTVSPost2010Prop40
 90
        0
102
RTVSPost2010PropOp40
 70
     1
102
RTVSPost2010Prop41ColorIndex
 90
       18
102
RTVSPost2010Prop41ColorRGB
 90
        0
102
RTVSPost2010PropOp41
 70
     1
102
RTVSPost2010Prop42
 90
       50
102
RTVSPost2010PropOp42
 70
     1
102
RTVSPost2010Prop43
 90
        3
102
RTVSPost2010PropOp43
 70
     1
102
RTVSPost2010Prop44ColorIndex
 90
        5
102
RTVSPost2010Prop44ColorRGB
 90
      255
102
RTVSPost2010PropOp44
 70
     1
102
RTVSPost2010Prop45
280
     0
102
RTVSPost2010PropOp45
 70
     1
102
RTVSPost2010Prop46
 90
       50
102
RTVSPost2010PropOp46
 70
     1
102
RTVSPost2010Prop47
 90
       50
102
RTVSPost2010PropOp47
 70
     1
102
RTVSPost2010Prop48
 90
       50
102
RTVSPost2010PropOp48
 70
     1
102
RTVSPost2010Prop49
280
     0
102
RTVSPost2010PropOp49
 70
     1
102
RTVSPost2010Prop50
 90
       50
102
RTVSPost2010PropOp50
 70
     1
102
RTVSPost2010Prop51ColorIndex
 90
      256
102
RTVSPost2010Prop51ColorRGB
 90
-16777216
102
RTVSPost2010PropOp51
 70
     0
102
RTVSPost2010Prop52
140
1.0
102
RTVSPost2010PropOp52
 70
     0
102
RTVSPost2010Prop53
 90
        2
102
RTVSPost2010PropOp53
 70
     1
102
RTVSPost2010Prop54
  1
strokes_ogs.tif
102
RTVSPost2010PropOp54
 70
     1
102
RTVSPost2010Prop55
280
     0
102
RTVSPost2010PropOp55
 70
     1
102
RTVSPost2010Prop56
140
1.0
102
RTVSPost2010PropOp56
 70
     1
102
RTVSPost2010Prop57
140
1.0
102
RTVSPost2010PropOp57
 70
     1
102
RTVSPropertyOp0
 70
     1
102
RTVSPropertyOp1
 70
     1
102
RTVSPropertyOp2
 70
     1
102
RTVSPropertyOp3
 70
     1
102
RTVSPropertyOp4
 70
     1
102
RTVSPropertyOp5
 70
     1
102
RTVSPropertyOp6
 70
     1
102
RTVSPropertyOp7
 70
     1
102
RTVSPropertyOp8
 70
     1
102
RTVSPropertyOp9
 70
     1
102
RTVSPropertyOp10
 70
     1
102
RTVSPropertyOp11
 70
     1
102
RTVSPropertyOp12
 70
     1
102
RTVSPropertyOp13
 70
     1
102
RTVSPropertyOp14
 70
     1
102
RTVSPropertyOp15
 70
     1
102
RTVSPropertyOp16
 70
     1
102
RTVSPropertyOp17
 70
     1
102
RTVSPropertyOp18
 70
     1
102
RTVSPropertyOp19
 70
     1
102
RTVSPropertyOp20
 70
     1
102
RTVSPropertyOp21
 70
     1
102
RTVSPropertyOp22
 70
     1
102
RTVSPropertyOp23
 70
     1
102
RTVSPropertyOp24
 70
     1
102
RTVSPropertyOp25
 70
     1
102
RTVSPropertyOp26
 70
     1
102
RTVSPropertyOp27
 70
     1
102
RTVSPropertyOp28
 70
     1
102
RTVSPropertyOp29
 70
     1
102
RTVSPropertyOp30
 70
     1
102
RTVSPropertyOp31
 70
     1
102
RTVSPropertyOp32
 70
     1
102
RTVSPropertyOp33
 70
     1
102
RTVSPropertyOp34
 70
     1
102
RTVSPropertyOp35
 70
     1
102
RTVSPropertyOp36
 70
     1
102
RTVSPropertyOp37
 70
     1
102
RTVSPropertyOp38
 70
     1
102
RTVSPropertyOp39
 70
     1
102
RTVSPropertyOp40
 70
     1
102
RTVSPropertyOp41
 70
     1
102
RTVSPropertyOp42
 70
     1
102
RTVSPropertyOp43
 70
     1
102
RTVSPropertyOp44
 70
     1
102
RTVSPropertyOp45
 70
     1
102
RTVSPropertyOp46
 70
     1
102
RTVSPropertyOp47
 70
     1
102
RTVSPropertyOp48
 70
     1
102
RTVSPropertyOp49
 70
     1
102
RTVSPropertyOp50
 70
     1
102
RTVSPropertyOp51
 70
     0
102
RTVSPropertyOp52
 70
     0
102
RTVSPropertyOp53
 70
     1
102
RTVSPropertyOp54
 70
     1
102
RTVSPropertyOp55
 70
     1
102
RTVSPropertyOp56
 70
     1
102
RTVSPropertyOp57
 70
     1
102
RTVSPropertyOp58
 70
     1
102
RTVSPropertyOp59
 70
     1
102
RTVSPropertyOp60
 70
     1
102
RTVSPropertyOp61
 70
     1
102
RTVSPropertyOp62
 70
     1
  0
XRECORD
  5
7FA9
102
{ACAD_REACTORS
330
7FA8
102
}
330
7FA8
100
AcDbXrecord
280
     1
102
RTVSPost2010Prop28
280
     0
102
RTVSPost2010PropOp28
 70
     1
102
RTVSPost2010Prop29
280
     1
102
RTVSPost2010PropOp29
 70
     1
102
RTVSPost2010Prop30
280
     1
102
RTVSPost2010PropOp30
 70
     1
102
RTVSPost2010Prop31
280
     0
102
RTVSPost2010PropOp31
 70
     1
102
RTVSPost2010Prop32
280
     0
102
RTVSPost2010PropOp32
 70
     1
102
RTVSPost2010Prop33
280
     0
102
RTVSPost2010PropOp33
 70
     1
102
RTVSPost2010Prop34
280
     0
102
RTVSPost2010PropOp34
 70
     1
102
RTVSPost2010Prop35
280
     0
102
RTVSPost2010PropOp35
 70
     1
102
RTVSPost2010Prop36
280
     0
102
RTVSPost2010PropOp36
 70
     1
102
RTVSPost2010Prop37
 90
       50
102
RTVSPost2010PropOp37
 70
     1
102
RTVSPost2010Prop38
140
0.0
102
RTVSPost2010PropOp38
 70
     1
102
RTVSPost2010Prop39
140
1.0
102
RTVSPost2010PropOp39
 70
     1
102
RTVSPost2010Prop40
 90
        0
102
RTVSPost2010PropOp40
 70
     1
102
RTVSPost2010Prop41ColorIndex
 90
       18
102
RTVSPost2010Prop41ColorRGB
 90
        0
102
RTVSPost2010PropOp41
 70
     1
102
RTVSPost2010Prop42
 90
       50
102
RTVSPost2010PropOp42
 70
     1
102
RTVSPost2010Prop43
 90
        3
102
RTVSPost2010PropOp43
 70
     1
102
RTVSPost2010Prop44ColorIndex
 90
        5
102
RTVSPost2010Prop44ColorRGB
 90
      255
102
RTVSPost2010PropOp44
 70
     1
102
RTVSPost2010Prop45
280
     0
102
RTVSPost2010PropOp45
 70
     1
102
RTVSPost2010Prop46
 90
       50
102
RTVSPost2010PropOp46
 70
     1
102
RTVSPost2010Prop47
 90
       50
102
RTVSPost2010PropOp47
 70
     1
102
RTVSPost2010Prop48
 90
       50
102
RTVSPost2010PropOp48
 70
     1
102
RTVSPost2010Prop49
280
     0
102
RTVSPost2010PropOp49
 70
     1
102
RTVSPost2010Prop50
 90
       50
102
RTVSPost2010PropOp50
 70
     1
102
RTVSPost2010Prop51ColorIndex
 90
      256
102
RTVSPost2010Prop51ColorRGB
 90
-16777216
102
RTVSPost2010PropOp51
 70
     0
102
RTVSPost2010Prop52
140
1.0
102
RTVSPost2010PropOp52
 70
     0
102
RTVSPost2010Prop53
 90
        2
102
RTVSPost2010PropOp53
 70
     1
102
RTVSPost2010Prop54
  1
strokes_ogs.tif
102
RTVSPost2010PropOp54
 70
     1
102
RTVSPost2010Prop55
280
     0
102
RTVSPost2010PropOp55
 70
     1
102
RTVSPost2010Prop56
140
1.0
102
RTVSPost2010PropOp56
 70
     1
102
RTVSPost2010Prop57
140
1.0
102
RTVSPost2010PropOp57
 70
     1
102
RTVSPropertyOp0
 70
     0
102
RTVSPropertyOp1
 70
     0
102
RTVSPropertyOp2
 70
     0
102
RTVSPropertyOp3
 70
     0
102
RTVSPropertyOp4
 70
     0
102
RTVSPropertyOp5
 70
     0
102
RTVSPropertyOp6
 70
     0
102
RTVSPropertyOp7
 70
     0
102
RTVSPropertyOp8
 70
     0
102
RTVSPropertyOp9
 70
     0
102
RTVSPropertyOp10
 70
     0
102
RTVSPropertyOp11
 70
     0
102
RTVSPropertyOp12
 70
     0
102
RTVSPropertyOp13
 70
     0
102
RTVSPropertyOp14
 70
     2
102
RTVSPropertyOp15
 70
     0
102
RTVSPropertyOp16
 70
     0
102
RTVSPropertyOp17
 70
     0
102
RTVSPropertyOp18
 70
     0
102
RTVSPropertyOp19
 70
     0
102
RTVSPropertyOp20
 70
     0
102
RTVSPropertyOp21
 70
     0
102
RTVSPropertyOp22
 70
     0
102
RTVSPropertyOp23
 70
     0
102
RTVSPropertyOp24
 70
     0
102
RTVSPropertyOp25
 70
     0
102
RTVSPropertyOp26
 70
     0
102
RTVSPropertyOp27
 70
     0
102
RTVSPropertyOp28
 70
     1
102
RTVSPropertyOp29
 70
     1
102
RTVSPropertyOp30
 70
     1
102
RTVSPropertyOp31
 70
     1
102
RTVSPropertyOp32
 70
     1
102
RTVSPropertyOp33
 70
     1
102
RTVSPropertyOp34
 70
     1
102
RTVSPropertyOp35
 70
     1
102
RTVSPropertyOp36
 70
     1
102
RTVSPropertyOp37
 70
     1
102
RTVSPropertyOp38
 70
     1
102
RTVSPropertyOp39
 70
     1
102
RTVSPropertyOp40
 70
     1
102
RTVSPropertyOp41
 70
     1
102
RTVSPropertyOp42
 70
     1
102
RTVSPropertyOp43
 70
     1
102
RTVSPropertyOp44
 70
     1
102
RTVSPropertyOp45
 70
     1
102
RTVSPropertyOp46
 70
     1
102
RTVSPropertyOp47
 70
     1
102
RTVSPropertyOp48
 70
     1
102
RTVSPropertyOp49
 70
     1
102
RTVSPropertyOp50
 70
     1
102
RTVSPropertyOp51
 70
     0
102
RTVSPropertyOp52
 70
     0
102
RTVSPropertyOp53
 70
     1
102
RTVSPropertyOp54
 70
     1
102
RTVSPropertyOp55
 70
     1
102
RTVSPropertyOp56
 70
     1
102
RTVSPropertyOp57
 70
     1
102
RTVSPropertyOp58
 70
     1
102
RTVSPropertyOp59
 70
     1
102
RTVSPropertyOp60
 70
     1
102
RTVSPropertyOp61
 70
     1
102
RTVSPropertyOp62
 70
     1
  0
XRECORD
  5
7F9F
102
{ACAD_REACTORS
330
7F9E
102
}
330
7F9E
100
AcDbXrecord
280
     1
102
RTVSPost2010Prop28
280
     0
102
RTVSPost2010PropOp28
 70
     1
102
RTVSPost2010Prop29
280
     1
102
RTVSPost2010PropOp29
 70
     1
102
RTVSPost2010Prop30
280
     1
102
RTVSPost2010PropOp30
 70
     1
102
RTVSPost2010Prop31
280
     0
102
RTVSPost2010PropOp31
 70
     1
102
RTVSPost2010Prop32
280
     0
102
RTVSPost2010PropOp32
 70
     1
102
RTVSPost2010Prop33
280
     0
102
RTVSPost2010PropOp33
 70
     1
102
RTVSPost2010Prop34
280
     0
102
RTVSPost2010PropOp34
 70
     1
102
RTVSPost2010Prop35
280
     0
102
RTVSPost2010PropOp35
 70
     1
102
RTVSPost2010Prop36
280
     0
102
RTVSPost2010PropOp36
 70
     1
102
RTVSPost2010Prop37
 90
       50
102
RTVSPost2010PropOp37
 70
     1
102
RTVSPost2010Prop38
140
0.0
102
RTVSPost2010PropOp38
 70
     1
102
RTVSPost2010Prop39
140
1.0
102
RTVSPost2010PropOp39
 70
     1
102
RTVSPost2010Prop40
 90
        0
102
RTVSPost2010PropOp40
 70
     1
102
RTVSPost2010Prop41ColorIndex
 90
       18
102
RTVSPost2010Prop41ColorRGB
 90
        0
102
RTVSPost2010PropOp41
 70
     1
102
RTVSPost2010Prop42
 90
       50
102
RTVSPost2010PropOp42
 70
     1
102
RTVSPost2010Prop43
 90
        3
102
RTVSPost2010PropOp43
 70
     1
102
RTVSPost2010Prop44ColorIndex
 90
        5
102
RTVSPost2010Prop44ColorRGB
 90
      255
102
RTVSPost2010PropOp44
 70
     1
102
RTVSPost2010Prop45
280
     0
102
RTVSPost2010PropOp45
 70
     1
102
RTVSPost2010Prop46
 90
       50
102
RTVSPost2010PropOp46
 70
     1
102
RTVSPost2010Prop47
 90
       50
102
RTVSPost2010PropOp47
 70
     1
102
RTVSPost2010Prop48
 90
       50
102
RTVSPost2010PropOp48
 70
     1
102
RTVSPost2010Prop49
280
     0
102
RTVSPost2010PropOp49
 70
     1
102
RTVSPost2010Prop50
 90
       50
102
RTVSPost2010PropOp50
 70
     1
102
RTVSPost2010Prop51ColorIndex
 90
      256
102
RTVSPost2010Prop51ColorRGB
 90
-16777216
102
RTVSPost2010PropOp51
 70
     0
102
RTVSPost2010Prop52
140
1.0
102
RTVSPost2010PropOp52
 70
     0
102
RTVSPost2010Prop53
 90
        2
102
RTVSPost2010PropOp53
 70
     1
102
RTVSPost2010Prop54
  1
strokes_ogs.tif
102
RTVSPost2010PropOp54
 70
     1
102
RTVSPost2010Prop55
280
     0
102
RTVSPost2010PropOp55
 70
     1
102
RTVSPost2010Prop56
140
1.0
102
RTVSPost2010PropOp56
 70
     1
102
RTVSPost2010Prop57
140
1.0
102
RTVSPost2010PropOp57
 70
     1
102
RTVSPropertyOp0
 70
     1
102
RTVSPropertyOp1
 70
     1
102
RTVSPropertyOp2
 70
     1
102
RTVSPropertyOp3
 70
     1
102
RTVSPropertyOp4
 70
     1
102
RTVSPropertyOp5
 70
     1
102
RTVSPropertyOp6
 70
     1
102
RTVSPropertyOp7
 70
     1
102
RTVSPropertyOp8
 70
     1
102
RTVSPropertyOp9
 70
     1
102
RTVSPropertyOp10
 70
     1
102
RTVSPropertyOp11
 70
     1
102
RTVSPropertyOp12
 70
     1
102
RTVSPropertyOp13
 70
     1
102
RTVSPropertyOp14
 70
     1
102
RTVSPropertyOp15
 70
     1
102
RTVSPropertyOp16
 70
     1
102
RTVSPropertyOp17
 70
     1
102
RTVSPropertyOp18
 70
     1
102
RTVSPropertyOp19
 70
     1
102
RTVSPropertyOp20
 70
     1
102
RTVSPropertyOp21
 70
     1
102
RTVSPropertyOp22
 70
     1
102
RTVSPropertyOp23
 70
     1
102
RTVSPropertyOp24
 70
     1
102
RTVSPropertyOp25
 70
     1
102
RTVSPropertyOp26
 70
     1
102
RTVSPropertyOp27
 70
     1
102
RTVSPropertyOp28
 70
     1
102
RTVSPropertyOp29
 70
     1
102
RTVSPropertyOp30
 70
     1
102
RTVSPropertyOp31
 70
     1
102
RTVSPropertyOp32
 70
     1
102
RTVSPropertyOp33
 70
     1
102
RTVSPropertyOp34
 70
     1
102
RTVSPropertyOp35
 70
     1
102
RTVSPropertyOp36
 70
     1
102
RTVSPropertyOp37
 70
     1
102
RTVSPropertyOp38
 70
     1
102
RTVSPropertyOp39
 70
     1
102
RTVSPropertyOp40
 70
     1
102
RTVSPropertyOp41
 70
     1
102
RTVSPropertyOp42
 70
     1
102
RTVSPropertyOp43
 70
     1
102
RTVSPropertyOp44
 70
     1
102
RTVSPropertyOp45
 70
     1
102
RTVSPropertyOp46
 70
     1
102
RTVSPropertyOp47
 70
     1
102
RTVSPropertyOp48
 70
     1
102
RTVSPropertyOp49
 70
     1
102
RTVSPropertyOp50
 70
     1
102
RTVSPropertyOp51
 70
     0
102
RTVSPropertyOp52
 70
     0
102
RTVSPropertyOp53
 70
     1
102
RTVSPropertyOp54
 70
     1
102
RTVSPropertyOp55
 70
     1
102
RTVSPropertyOp56
 70
     1
102
RTVSPropertyOp57
 70
     1
102
RTVSPropertyOp58
 70
     1
102
RTVSPropertyOp59
 70
     1
102
RTVSPropertyOp60
 70
     1
102
RTVSPropertyOp61
 70
     1
102
RTVSPropertyOp62
 70
     1
  0
XRECORD
  5
7F83
102
{ACAD_REACTORS
330
7F82
102
}
330
7F82
100
AcDbXrecord
280
     1
102
RTVSPost2010Prop28
280
     0
102
RTVSPost2010PropOp28
 70
     1
102
RTVSPost2010Prop29
280
     1
102
RTVSPost2010PropOp29
 70
     1
102
RTVSPost2010Prop30
280
     1
102
RTVSPost2010PropOp30
 70
     1
102
RTVSPost2010Prop31
280
     0
102
RTVSPost2010PropOp31
 70
     1
102
RTVSPost2010Prop32
280
     0
102
RTVSPost2010PropOp32
 70
     1
102
RTVSPost2010Prop33
280
     0
102
RTVSPost2010PropOp33
 70
     1
102
RTVSPost2010Prop34
280
     0
102
RTVSPost2010PropOp34
 70
     1
102
RTVSPost2010Prop35
280
     0
102
RTVSPost2010PropOp35
 70
     1
102
RTVSPost2010Prop36
280
     0
102
RTVSPost2010PropOp36
 70
     1
102
RTVSPost2010Prop37
 90
       50
102
RTVSPost2010PropOp37
 70
     1
102
RTVSPost2010Prop38
140
0.0
102
RTVSPost2010PropOp38
 70
     1
102
RTVSPost2010Prop39
140
1.0
102
RTVSPost2010PropOp39
 70
     1
102
RTVSPost2010Prop40
 90
        0
102
RTVSPost2010PropOp40
 70
     1
102
RTVSPost2010Prop41ColorIndex
 90
       18
102
RTVSPost2010Prop41ColorRGB
 90
        0
102
RTVSPost2010PropOp41
 70
     1
102
RTVSPost2010Prop42
 90
       50
102
RTVSPost2010PropOp42
 70
     1
102
RTVSPost2010Prop43
 90
        3
102
RTVSPost2010PropOp43
 70
     1
102
RTVSPost2010Prop44ColorIndex
 90
        5
102
RTVSPost2010Prop44ColorRGB
 90
      255
102
RTVSPost2010PropOp44
 70
     1
102
RTVSPost2010Prop45
280
     0
102
RTVSPost2010PropOp45
 70
     1
102
RTVSPost2010Prop46
 90
       50
102
RTVSPost2010PropOp46
 70
     1
102
RTVSPost2010Prop47
 90
       50
102
RTVSPost2010PropOp47
 70
     1
102
RTVSPost2010Prop48
 90
       50
102
RTVSPost2010PropOp48
 70
     1
102
RTVSPost2010Prop49
280
     0
102
RTVSPost2010PropOp49
 70
     1
102
RTVSPost2010Prop50
 90
       50
102
RTVSPost2010PropOp50
 70
     1
102
RTVSPost2010Prop51ColorIndex
 90
      256
102
RTVSPost2010Prop51ColorRGB
 90
-16777216
102
RTVSPost2010PropOp51
 70
     0
102
RTVSPost2010Prop52
140
1.0
102
RTVSPost2010PropOp52
 70
     0
102
RTVSPost2010Prop53
 90
        2
102
RTVSPost2010PropOp53
 70
     1
102
RTVSPost2010Prop54
  1
strokes_ogs.tif
102
RTVSPost2010PropOp54
 70
     1
102
RTVSPost2010Prop55
280
     0
102
RTVSPost2010PropOp55
 70
     1
102
RTVSPost2010Prop56
140
1.0
102
RTVSPost2010PropOp56
 70
     1
102
RTVSPost2010Prop57
140
1.0
102
RTVSPost2010PropOp57
 70
     1
102
RTVSPropertyOp0
 70
     1
102
RTVSPropertyOp1
 70
     1
102
RTVSPropertyOp2
 70
     1
102
RTVSPropertyOp3
 70
     1
102
RTVSPropertyOp4
 70
     1
102
RTVSPropertyOp5
 70
     1
102
RTVSPropertyOp6
 70
     1
102
RTVSPropertyOp7
 70
     1
102
RTVSPropertyOp8
 70
     1
102
RTVSPropertyOp9
 70
     1
102
RTVSPropertyOp10
 70
     1
102
RTVSPropertyOp11
 70
     1
102
RTVSPropertyOp12
 70
     1
102
RTVSPropertyOp13
 70
     1
102
RTVSPropertyOp14
 70
     1
102
RTVSPropertyOp15
 70
     1
102
RTVSPropertyOp16
 70
     1
102
RTVSPropertyOp17
 70
     1
102
RTVSPropertyOp18
 70
     1
102
RTVSPropertyOp19
 70
     1
102
RTVSPropertyOp20
 70
     1
102
RTVSPropertyOp21
 70
     1
102
RTVSPropertyOp22
 70
     1
102
RTVSPropertyOp23
 70
     1
102
RTVSPropertyOp24
 70
     1
102
RTVSPropertyOp25
 70
     1
102
RTVSPropertyOp26
 70
     1
102
RTVSPropertyOp27
 70
     1
102
RTVSPropertyOp28
 70
     1
102
RTVSPropertyOp29
 70
     1
102
RTVSPropertyOp30
 70
     1
102
RTVSPropertyOp31
 70
     1
102
RTVSPropertyOp32
 70
     1
102
RTVSPropertyOp33
 70
     1
102
RTVSPropertyOp34
 70
     1
102
RTVSPropertyOp35
 70
     1
102
RTVSPropertyOp36
 70
     1
102
RTVSPropertyOp37
 70
     1
102
RTVSPropertyOp38
 70
     1
102
RTVSPropertyOp39
 70
     1
102
RTVSPropertyOp40
 70
     1
102
RTVSPropertyOp41
 70
     1
102
RTVSPropertyOp42
 70
     1
102
RTVSPropertyOp43
 70
     1
102
RTVSPropertyOp44
 70
     1
102
RTVSPropertyOp45
 70
     1
102
RTVSPropertyOp46
 70
     1
102
RTVSPropertyOp47
 70
     1
102
RTVSPropertyOp48
 70
     1
102
RTVSPropertyOp49
 70
     1
102
RTVSPropertyOp50
 70
     1
102
RTVSPropertyOp51
 70
     0
102
RTVSPropertyOp52
 70
     0
102
RTVSPropertyOp53
 70
     1
102
RTVSPropertyOp54
 70
     1
102
RTVSPropertyOp55
 70
     1
102
RTVSPropertyOp56
 70
     1
102
RTVSPropertyOp57
 70
     1
102
RTVSPropertyOp58
 70
     1
102
RTVSPropertyOp59
 70
     1
102
RTVSPropertyOp60
 70
     1
102
RTVSPropertyOp61
 70
     1
102
RTVSPropertyOp62
 70
     1
  0
XRECORD
  5
7F85
102
{ACAD_REACTORS
330
7F84
102
}
330
7F84
100
AcDbXrecord
280
     1
102
RTVSPost2010Prop28
280
     0
102
RTVSPost2010PropOp28
 70
     1
102
RTVSPost2010Prop29
280
     1
102
RTVSPost2010PropOp29
 70
     1
102
RTVSPost2010Prop30
280
     1
102
RTVSPost2010PropOp30
 70
     1
102
RTVSPost2010Prop31
280
     0
102
RTVSPost2010PropOp31
 70
     1
102
RTVSPost2010Prop32
280
     0
102
RTVSPost2010PropOp32
 70
     1
102
RTVSPost2010Prop33
280
     0
102
RTVSPost2010PropOp33
 70
     1
102
RTVSPost2010Prop34
280
     0
102
RTVSPost2010PropOp34
 70
     1
102
RTVSPost2010Prop35
280
     0
102
RTVSPost2010PropOp35
 70
     1
102
RTVSPost2010Prop36
280
     0
102
RTVSPost2010PropOp36
 70
     1
102
RTVSPost2010Prop37
 90
       50
102
RTVSPost2010PropOp37
 70
     1
102
RTVSPost2010Prop38
140
0.0
102
RTVSPost2010PropOp38
 70
     1
102
RTVSPost2010Prop39
140
1.0
102
RTVSPost2010PropOp39
 70
     1
102
RTVSPost2010Prop40
 90
        0
102
RTVSPost2010PropOp40
 70
     1
102
RTVSPost2010Prop41ColorIndex
 90
       18
102
RTVSPost2010Prop41ColorRGB
 90
        0
102
RTVSPost2010PropOp41
 70
     1
102
RTVSPost2010Prop42
 90
       50
102
RTVSPost2010PropOp42
 70
     1
102
RTVSPost2010Prop43
 90
        3
102
RTVSPost2010PropOp43
 70
     1
102
RTVSPost2010Prop44ColorIndex
 90
        5
102
RTVSPost2010Prop44ColorRGB
 90
      255
102
RTVSPost2010PropOp44
 70
     1
102
RTVSPost2010Prop45
280
     0
102
RTVSPost2010PropOp45
 70
     1
102
RTVSPost2010Prop46
 90
       50
102
RTVSPost2010PropOp46
 70
     1
102
RTVSPost2010Prop47
 90
       50
102
RTVSPost2010PropOp47
 70
     1
102
RTVSPost2010Prop48
 90
       50
102
RTVSPost2010PropOp48
 70
     1
102
RTVSPost2010Prop49
280
     0
102
RTVSPost2010PropOp49
 70
     1
102
RTVSPost2010Prop50
 90
       50
102
RTVSPost2010PropOp50
 70
     1
102
RTVSPost2010Prop51ColorIndex
 90
      256
102
RTVSPost2010Prop51ColorRGB
 90
-16777216
102
RTVSPost2010PropOp51
 70
     0
102
RTVSPost2010Prop52
140
1.0
102
RTVSPost2010PropOp52
 70
     0
102
RTVSPost2010Prop53
 90
        2
102
RTVSPost2010PropOp53
 70
     1
102
RTVSPost2010Prop54
  1
strokes_ogs.tif
102
RTVSPost2010PropOp54
 70
     1
102
RTVSPost2010Prop55
280
     0
102
RTVSPost2010PropOp55
 70
     1
102
RTVSPost2010Prop56
140
1.0
102
RTVSPost2010PropOp56
 70
     1
102
RTVSPost2010Prop57
140
1.0
102
RTVSPost2010PropOp57
 70
     1
102
RTVSPropertyOp0
 70
     1
102
RTVSPropertyOp1
 70
     1
102
RTVSPropertyOp2
 70
     1
102
RTVSPropertyOp3
 70
     1
102
RTVSPropertyOp4
 70
     1
102
RTVSPropertyOp5
 70
     1
102
RTVSPropertyOp6
 70
     1
102
RTVSPropertyOp7
 70
     1
102
RTVSPropertyOp8
 70
     1
102
RTVSPropertyOp9
 70
     1
102
RTVSPropertyOp10
 70
     1
102
RTVSPropertyOp11
 70
     1
102
RTVSPropertyOp12
 70
     1
102
RTVSPropertyOp13
 70
     1
102
RTVSPropertyOp14
 70
     1
102
RTVSPropertyOp15
 70
     1
102
RTVSPropertyOp16
 70
     1
102
RTVSPropertyOp17
 70
     1
102
RTVSPropertyOp18
 70
     1
102
RTVSPropertyOp19
 70
     1
102
RTVSPropertyOp20
 70
     1
102
RTVSPropertyOp21
 70
     1
102
RTVSPropertyOp22
 70
     1
102
RTVSPropertyOp23
 70
     1
102
RTVSPropertyOp24
 70
     1
102
RTVSPropertyOp25
 70
     1
102
RTVSPropertyOp26
 70
     1
102
RTVSPropertyOp27
 70
     1
102
RTVSPropertyOp28
 70
     1
102
RTVSPropertyOp29
 70
     1
102
RTVSPropertyOp30
 70
     1
102
RTVSPropertyOp31
 70
     1
102
RTVSPropertyOp32
 70
     1
102
RTVSPropertyOp33
 70
     1
102
RTVSPropertyOp34
 70
     1
102
RTVSPropertyOp35
 70
     1
102
RTVSPropertyOp36
 70
     1
102
RTVSPropertyOp37
 70
     1
102
RTVSPropertyOp38
 70
     1
102
RTVSPropertyOp39
 70
     1
102
RTVSPropertyOp40
 70
     1
102
RTVSPropertyOp41
 70
     1
102
RTVSPropertyOp42
 70
     1
102
RTVSPropertyOp43
 70
     1
102
RTVSPropertyOp44
 70
     1
102
RTVSPropertyOp45
 70
     1
102
RTVSPropertyOp46
 70
     1
102
RTVSPropertyOp47
 70
     1
102
RTVSPropertyOp48
 70
     1
102
RTVSPropertyOp49
 70
     1
102
RTVSPropertyOp50
 70
     1
102
RTVSPropertyOp51
 70
     0
102
RTVSPropertyOp52
 70
     0
102
RTVSPropertyOp53
 70
     1
102
RTVSPropertyOp54
 70
     1
102
RTVSPropertyOp55
 70
     1
102
RTVSPropertyOp56
 70
     1
102
RTVSPropertyOp57
 70
     1
102
RTVSPropertyOp58
 70
     1
102
RTVSPropertyOp59
 70
     1
102
RTVSPropertyOp60
 70
     1
102
RTVSPropertyOp61
 70
     1
102
RTVSPropertyOp62
 70
     1
  0
XRECORD
  5
7F87
102
{ACAD_REACTORS
330
7F86
102
}
330
7F86
100
AcDbXrecord
280
     1
102
RTVSPost2010Prop28
280
     0
102
RTVSPost2010PropOp28
 70
     1
102
RTVSPost2010Prop29
280
     1
102
RTVSPost2010PropOp29
 70
     1
102
RTVSPost2010Prop30
280
     1
102
RTVSPost2010PropOp30
 70
     1
102
RTVSPost2010Prop31
280
     0
102
RTVSPost2010PropOp31
 70
     1
102
RTVSPost2010Prop32
280
     0
102
RTVSPost2010PropOp32
 70
     1
102
RTVSPost2010Prop33
280
     0
102
RTVSPost2010PropOp33
 70
     1
102
RTVSPost2010Prop34
280
     0
102
RTVSPost2010PropOp34
 70
     1
102
RTVSPost2010Prop35
280
     0
102
RTVSPost2010PropOp35
 70
     1
102
RTVSPost2010Prop36
280
     0
102
RTVSPost2010PropOp36
 70
     1
102
RTVSPost2010Prop37
 90
       50
102
RTVSPost2010PropOp37
 70
     1
102
RTVSPost2010Prop38
140
0.0
102
RTVSPost2010PropOp38
 70
     1
102
RTVSPost2010Prop39
140
1.0
102
RTVSPost2010PropOp39
 70
     1
102
RTVSPost2010Prop40
 90
        0
102
RTVSPost2010PropOp40
 70
     1
102
RTVSPost2010Prop41ColorIndex
 90
       18
102
RTVSPost2010Prop41ColorRGB
 90
        0
102
RTVSPost2010PropOp41
 70
     1
102
RTVSPost2010Prop42
 90
       50
102
RTVSPost2010PropOp42
 70
     1
102
RTVSPost2010Prop43
 90
        3
102
RTVSPost2010PropOp43
 70
     1
102
RTVSPost2010Prop44ColorIndex
 90
        5
102
RTVSPost2010Prop44ColorRGB
 90
      255
102
RTVSPost2010PropOp44
 70
     1
102
RTVSPost2010Prop45
280
     0
102
RTVSPost2010PropOp45
 70
     1
102
RTVSPost2010Prop46
 90
       50
102
RTVSPost2010PropOp46
 70
     1
102
RTVSPost2010Prop47
 90
       50
102
RTVSPost2010PropOp47
 70
     1
102
RTVSPost2010Prop48
 90
       50
102
RTVSPost2010PropOp48
 70
     1
102
RTVSPost2010Prop49
280
     0
102
RTVSPost2010PropOp49
 70
     1
102
RTVSPost2010Prop50
 90
       50
102
RTVSPost2010PropOp50
 70
     1
102
RTVSPost2010Prop51ColorIndex
 90
      256
102
RTVSPost2010Prop51ColorRGB
 90
-16777216
102
RTVSPost2010PropOp51
 70
     0
102
RTVSPost2010Prop52
140
1.0
102
RTVSPost2010PropOp52
 70
     0
102
RTVSPost2010Prop53
 90
        2
102
RTVSPost2010PropOp53
 70
     1
102
RTVSPost2010Prop54
  1
strokes_ogs.tif
102
RTVSPost2010PropOp54
 70
     1
102
RTVSPost2010Prop55
280
     0
102
RTVSPost2010PropOp55
 70
     1
102
RTVSPost2010Prop56
140
1.0
102
RTVSPost2010PropOp56
 70
     1
102
RTVSPost2010Prop57
140
1.0
102
RTVSPost2010PropOp57
 70
     1
102
RTVSPropertyOp0
 70
     1
102
RTVSPropertyOp1
 70
     1
102
RTVSPropertyOp2
 70
     1
102
RTVSPropertyOp3
 70
     1
102
RTVSPropertyOp4
 70
     1
102
RTVSPropertyOp5
 70
     1
102
RTVSPropertyOp6
 70
     1
102
RTVSPropertyOp7
 70
     1
102
RTVSPropertyOp8
 70
     1
102
RTVSPropertyOp9
 70
     1
102
RTVSPropertyOp10
 70
     1
102
RTVSPropertyOp11
 70
     1
102
RTVSPropertyOp12
 70
     1
102
RTVSPropertyOp13
 70
     1
102
RTVSPropertyOp14
 70
     1
102
RTVSPropertyOp15
 70
     1
102
RTVSPropertyOp16
 70
     1
102
RTVSPropertyOp17
 70
     1
102
RTVSPropertyOp18
 70
     1
102
RTVSPropertyOp19
 70
     1
102
RTVSPropertyOp20
 70
     1
102
RTVSPropertyOp21
 70
     1
102
RTVSPropertyOp22
 70
     1
102
RTVSPropertyOp23
 70
     1
102
RTVSPropertyOp24
 70
     1
102
RTVSPropertyOp25
 70
     1
102
RTVSPropertyOp26
 70
     1
102
RTVSPropertyOp27
 70
     1
102
RTVSPropertyOp28
 70
     1
102
RTVSPropertyOp29
 70
     1
102
RTVSPropertyOp30
 70
     1
102
RTVSPropertyOp31
 70
     1
102
RTVSPropertyOp32
 70
     1
102
RTVSPropertyOp33
 70
     1
102
RTVSPropertyOp34
 70
     1
102
RTVSPropertyOp35
 70
     1
102
RTVSPropertyOp36
 70
     1
102
RTVSPropertyOp37
 70
     1
102
RTVSPropertyOp38
 70
     1
102
RTVSPropertyOp39
 70
     1
102
RTVSPropertyOp40
 70
     1
102
RTVSPropertyOp41
 70
     1
102
RTVSPropertyOp42
 70
     1
102
RTVSPropertyOp43
 70
     1
102
RTVSPropertyOp44
 70
     1
102
RTVSPropertyOp45
 70
     1
102
RTVSPropertyOp46
 70
     1
102
RTVSPropertyOp47
 70
     1
102
RTVSPropertyOp48
 70
     1
102
RTVSPropertyOp49
 70
     1
102
RTVSPropertyOp50
 70
     1
102
RTVSPropertyOp51
 70
     0
102
RTVSPropertyOp52
 70
     0
102
RTVSPropertyOp53
 70
     1
102
RTVSPropertyOp54
 70
     1
102
RTVSPropertyOp55
 70
     1
102
RTVSPropertyOp56
 70
     1
102
RTVSPropertyOp57
 70
     1
102
RTVSPropertyOp58
 70
     1
102
RTVSPropertyOp59
 70
     1
102
RTVSPropertyOp60
 70
     1
102
RTVSPropertyOp61
 70
     1
102
RTVSPropertyOp62
 70
     1
  0
XRECORD
  5
7F89
102
{ACAD_REACTORS
330
7F88
102
}
330
7F88
100
AcDbXrecord
280
     1
102
RTVSPost2010Prop28
280
     0
102
RTVSPost2010PropOp28
 70
     1
102
RTVSPost2010Prop29
280
     1
102
RTVSPost2010PropOp29
 70
     1
102
RTVSPost2010Prop30
280
     1
102
RTVSPost2010PropOp30
 70
     1
102
RTVSPost2010Prop31
280
     0
102
RTVSPost2010PropOp31
 70
     1
102
RTVSPost2010Prop32
280
     0
102
RTVSPost2010PropOp32
 70
     1
102
RTVSPost2010Prop33
280
     0
102
RTVSPost2010PropOp33
 70
     1
102
RTVSPost2010Prop34
280
     0
102
RTVSPost2010PropOp34
 70
     1
102
RTVSPost2010Prop35
280
     0
102
RTVSPost2010PropOp35
 70
     1
102
RTVSPost2010Prop36
280
     0
102
RTVSPost2010PropOp36
 70
     1
102
RTVSPost2010Prop37
 90
       50
102
RTVSPost2010PropOp37
 70
     1
102
RTVSPost2010Prop38
140
0.0
102
RTVSPost2010PropOp38
 70
     1
102
RTVSPost2010Prop39
140
1.0
102
RTVSPost2010PropOp39
 70
     1
102
RTVSPost2010Prop40
 90
        0
102
RTVSPost2010PropOp40
 70
     1
102
RTVSPost2010Prop41ColorIndex
 90
       18
102
RTVSPost2010Prop41ColorRGB
 90
        0
102
RTVSPost2010PropOp41
 70
     1
102
RTVSPost2010Prop42
 90
       50
102
RTVSPost2010PropOp42
 70
     1
102
RTVSPost2010Prop43
 90
        3
102
RTVSPost2010PropOp43
 70
     1
102
RTVSPost2010Prop44ColorIndex
 90
        5
102
RTVSPost2010Prop44ColorRGB
 90
      255
102
RTVSPost2010PropOp44
 70
     1
102
RTVSPost2010Prop45
280
     0
102
RTVSPost2010PropOp45
 70
     1
102
RTVSPost2010Prop46
 90
       50
102
RTVSPost2010PropOp46
 70
     1
102
RTVSPost2010Prop47
 90
       50
102
RTVSPost2010PropOp47
 70
     1
102
RTVSPost2010Prop48
 90
       50
102
RTVSPost2010PropOp48
 70
     1
102
RTVSPost2010Prop49
280
     0
102
RTVSPost2010PropOp49
 70
     1
102
RTVSPost2010Prop50
 90
       50
102
RTVSPost2010PropOp50
 70
     1
102
RTVSPost2010Prop51ColorIndex
 90
      256
102
RTVSPost2010Prop51ColorRGB
 90
-16777216
102
RTVSPost2010PropOp51
 70
     0
102
RTVSPost2010Prop52
140
1.0
102
RTVSPost2010PropOp52
 70
     0
102
RTVSPost2010Prop53
 90
        2
102
RTVSPost2010PropOp53
 70
     1
102
RTVSPost2010Prop54
  1
strokes_ogs.tif
102
RTVSPost2010PropOp54
 70
     1
102
RTVSPost2010Prop55
280
     0
102
RTVSPost2010PropOp55
 70
     1
102
RTVSPost2010Prop56
140
1.0
102
RTVSPost2010PropOp56
 70
     1
102
RTVSPost2010Prop57
140
1.0
102
RTVSPost2010PropOp57
 70
     1
102
RTVSPropertyOp0
 70
     1
102
RTVSPropertyOp1
 70
     1
102
RTVSPropertyOp2
 70
     1
102
RTVSPropertyOp3
 70
     1
102
RTVSPropertyOp4
 70
     1
102
RTVSPropertyOp5
 70
     1
102
RTVSPropertyOp6
 70
     1
102
RTVSPropertyOp7
 70
     1
102
RTVSPropertyOp8
 70
     1
102
RTVSPropertyOp9
 70
     1
102
RTVSPropertyOp10
 70
     1
102
RTVSPropertyOp11
 70
     1
102
RTVSPropertyOp12
 70
     1
102
RTVSPropertyOp13
 70
     1
102
RTVSPropertyOp14
 70
     1
102
RTVSPropertyOp15
 70
     1
102
RTVSPropertyOp16
 70
     1
102
RTVSPropertyOp17
 70
     1
102
RTVSPropertyOp18
 70
     1
102
RTVSPropertyOp19
 70
     1
102
RTVSPropertyOp20
 70
     1
102
RTVSPropertyOp21
 70
     1
102
RTVSPropertyOp22
 70
     1
102
RTVSPropertyOp23
 70
     1
102
RTVSPropertyOp24
 70
     1
102
RTVSPropertyOp25
 70
     1
102
RTVSPropertyOp26
 70
     1
102
RTVSPropertyOp27
 70
     1
102
RTVSPropertyOp28
 70
     1
102
RTVSPropertyOp29
 70
     1
102
RTVSPropertyOp30
 70
     1
102
RTVSPropertyOp31
 70
     1
102
RTVSPropertyOp32
 70
     1
102
RTVSPropertyOp33
 70
     1
102
RTVSPropertyOp34
 70
     1
102
RTVSPropertyOp35
 70
     1
102
RTVSPropertyOp36
 70
     1
102
RTVSPropertyOp37
 70
     1
102
RTVSPropertyOp38
 70
     1
102
RTVSPropertyOp39
 70
     1
102
RTVSPropertyOp40
 70
     1
102
RTVSPropertyOp41
 70
     1
102
RTVSPropertyOp42
 70
     1
102
RTVSPropertyOp43
 70
     1
102
RTVSPropertyOp44
 70
     1
102
RTVSPropertyOp45
 70
     1
102
RTVSPropertyOp46
 70
     1
102
RTVSPropertyOp47
 70
     1
102
RTVSPropertyOp48
 70
     1
102
RTVSPropertyOp49
 70
     1
102
RTVSPropertyOp50
 70
     1
102
RTVSPropertyOp51
 70
     0
102
RTVSPropertyOp52
 70
     0
102
RTVSPropertyOp53
 70
     1
102
RTVSPropertyOp54
 70
     1
102
RTVSPropertyOp55
 70
     1
102
RTVSPropertyOp56
 70
     1
102
RTVSPropertyOp57
 70
     1
102
RTVSPropertyOp58
 70
     1
102
RTVSPropertyOp59
 70
     1
102
RTVSPropertyOp60
 70
     1
102
RTVSPropertyOp61
 70
     1
102
RTVSPropertyOp62
 70
     1
  0
XRECORD
  5
7F91
102
{ACAD_REACTORS
330
7F90
102
}
330
7F90
100
AcDbXrecord
280
     1
102
RTVSPost2010Prop28
280
     0
102
RTVSPost2010PropOp28
 70
     1
102
RTVSPost2010Prop29
280
     1
102
RTVSPost2010PropOp29
 70
     1
102
RTVSPost2010Prop30
280
     1
102
RTVSPost2010PropOp30
 70
     1
102
RTVSPost2010Prop31
280
     0
102
RTVSPost2010PropOp31
 70
     1
102
RTVSPost2010Prop32
280
     0
102
RTVSPost2010PropOp32
 70
     1
102
RTVSPost2010Prop33
280
     0
102
RTVSPost2010PropOp33
 70
     1
102
RTVSPost2010Prop34
280
     0
102
RTVSPost2010PropOp34
 70
     1
102
RTVSPost2010Prop35
280
     0
102
RTVSPost2010PropOp35
 70
     1
102
RTVSPost2010Prop36
280
     0
102
RTVSPost2010PropOp36
 70
     1
102
RTVSPost2010Prop37
 90
       50
102
RTVSPost2010PropOp37
 70
     1
102
RTVSPost2010Prop38
140
0.0
102
RTVSPost2010PropOp38
 70
     1
102
RTVSPost2010Prop39
140
1.0
102
RTVSPost2010PropOp39
 70
     1
102
RTVSPost2010Prop40
 90
        0
102
RTVSPost2010PropOp40
 70
     1
102
RTVSPost2010Prop41ColorIndex
 90
       18
102
RTVSPost2010Prop41ColorRGB
 90
        0
102
RTVSPost2010PropOp41
 70
     1
102
RTVSPost2010Prop42
 90
       50
102
RTVSPost2010PropOp42
 70
     1
102
RTVSPost2010Prop43
 90
        3
102
RTVSPost2010PropOp43
 70
     1
102
RTVSPost2010Prop44ColorIndex
 90
        5
102
RTVSPost2010Prop44ColorRGB
 90
      255
102
RTVSPost2010PropOp44
 70
     1
102
RTVSPost2010Prop45
280
     0
102
RTVSPost2010PropOp45
 70
     1
102
RTVSPost2010Prop46
 90
       50
102
RTVSPost2010PropOp46
 70
     1
102
RTVSPost2010Prop47
 90
       50
102
RTVSPost2010PropOp47
 70
     1
102
RTVSPost2010Prop48
 90
       50
102
RTVSPost2010PropOp48
 70
     1
102
RTVSPost2010Prop49
280
     0
102
RTVSPost2010PropOp49
 70
     1
102
RTVSPost2010Prop50
 90
       50
102
RTVSPost2010PropOp50
 70
     1
102
RTVSPost2010Prop51ColorIndex
 90
      256
102
RTVSPost2010Prop51ColorRGB
 90
-16777216
102
RTVSPost2010PropOp51
 70
     0
102
RTVSPost2010Prop52
140
1.0
102
RTVSPost2010PropOp52
 70
     0
102
RTVSPost2010Prop53
 90
        2
102
RTVSPost2010PropOp53
 70
     1
102
RTVSPost2010Prop54
  1
strokes_ogs.tif
102
RTVSPost2010PropOp54
 70
     1
102
RTVSPost2010Prop55
280
     0
102
RTVSPost2010PropOp55
 70
     1
102
RTVSPost2010Prop56
140
1.0
102
RTVSPost2010PropOp56
 70
     1
102
RTVSPost2010Prop57
140
1.0
102
RTVSPost2010PropOp57
 70
     1
102
RTVSPropertyOp0
 70
     1
102
RTVSPropertyOp1
 70
     1
102
RTVSPropertyOp2
 70
     1
102
RTVSPropertyOp3
 70
     1
102
RTVSPropertyOp4
 70
     1
102
RTVSPropertyOp5
 70
     1
102
RTVSPropertyOp6
 70
     1
102
RTVSPropertyOp7
 70
     1
102
RTVSPropertyOp8
 70
     1
102
RTVSPropertyOp9
 70
     1
102
RTVSPropertyOp10
 70
     1
102
RTVSPropertyOp11
 70
     1
102
RTVSPropertyOp12
 70
     1
102
RTVSPropertyOp13
 70
     1
102
RTVSPropertyOp14
 70
     1
102
RTVSPropertyOp15
 70
     1
102
RTVSPropertyOp16
 70
     1
102
RTVSPropertyOp17
 70
     1
102
RTVSPropertyOp18
 70
     1
102
RTVSPropertyOp19
 70
     1
102
RTVSPropertyOp20
 70
     1
102
RTVSPropertyOp21
 70
     1
102
RTVSPropertyOp22
 70
     1
102
RTVSPropertyOp23
 70
     1
102
RTVSPropertyOp24
 70
     1
102
RTVSPropertyOp25
 70
     1
102
RTVSPropertyOp26
 70
     1
102
RTVSPropertyOp27
 70
     1
102
RTVSPropertyOp28
 70
     1
102
RTVSPropertyOp29
 70
     1
102
RTVSPropertyOp30
 70
     1
102
RTVSPropertyOp31
 70
     1
102
RTVSPropertyOp32
 70
     1
102
RTVSPropertyOp33
 70
     1
102
RTVSPropertyOp34
 70
     1
102
RTVSPropertyOp35
 70
     1
102
RTVSPropertyOp36
 70
     1
102
RTVSPropertyOp37
 70
     1
102
RTVSPropertyOp38
 70
     1
102
RTVSPropertyOp39
 70
     1
102
RTVSPropertyOp40
 70
     1
102
RTVSPropertyOp41
 70
     1
102
RTVSPropertyOp42
 70
     1
102
RTVSPropertyOp43
 70
     1
102
RTVSPropertyOp44
 70
     1
102
RTVSPropertyOp45
 70
     1
102
RTVSPropertyOp46
 70
     1
102
RTVSPropertyOp47
 70
     1
102
RTVSPropertyOp48
 70
     1
102
RTVSPropertyOp49
 70
     1
102
RTVSPropertyOp50
 70
     1
102
RTVSPropertyOp51
 70
     0
102
RTVSPropertyOp52
 70
     0
102
RTVSPropertyOp53
 70
     1
102
RTVSPropertyOp54
 70
     1
102
RTVSPropertyOp55
 70
     1
102
RTVSPropertyOp56
 70
     1
102
RTVSPropertyOp57
 70
     1
102
RTVSPropertyOp58
 70
     1
102
RTVSPropertyOp59
 70
     1
102
RTVSPropertyOp60
 70
     1
102
RTVSPropertyOp61
 70
     1
102
RTVSPropertyOp62
 70
     1
  0
XRECORD
  5
7FA5
102
{ACAD_REACTORS
330
7FA4
102
}
330
7FA4
100
AcDbXrecord
280
     1
102
RTVSPost2010Prop28
280
     0
102
RTVSPost2010PropOp28
 70
     1
102
RTVSPost2010Prop29
280
     1
102
RTVSPost2010PropOp29
 70
     1
102
RTVSPost2010Prop30
280
     1
102
RTVSPost2010PropOp30
 70
     1
102
RTVSPost2010Prop31
280
     0
102
RTVSPost2010PropOp31
 70
     1
102
RTVSPost2010Prop32
280
     0
102
RTVSPost2010PropOp32
 70
     1
102
RTVSPost2010Prop33
280
     0
102
RTVSPost2010PropOp33
 70
     1
102
RTVSPost2010Prop34
280
     0
102
RTVSPost2010PropOp34
 70
     1
102
RTVSPost2010Prop35
280
     0
102
RTVSPost2010PropOp35
 70
     1
102
RTVSPost2010Prop36
280
     0
102
RTVSPost2010PropOp36
 70
     1
102
RTVSPost2010Prop37
 90
       50
102
RTVSPost2010PropOp37
 70
     1
102
RTVSPost2010Prop38
140
0.0
102
RTVSPost2010PropOp38
 70
     1
102
RTVSPost2010Prop39
140
1.0
102
RTVSPost2010PropOp39
 70
     1
102
RTVSPost2010Prop40
 90
        0
102
RTVSPost2010PropOp40
 70
     1
102
RTVSPost2010Prop41ColorIndex
 90
       18
102
RTVSPost2010Prop41ColorRGB
 90
        0
102
RTVSPost2010PropOp41
 70
     1
102
RTVSPost2010Prop42
 90
       50
102
RTVSPost2010PropOp42
 70
     1
102
RTVSPost2010Prop43
 90
        3
102
RTVSPost2010PropOp43
 70
     1
102
RTVSPost2010Prop44ColorIndex
 90
        5
102
RTVSPost2010Prop44ColorRGB
 90
      255
102
RTVSPost2010PropOp44
 70
     1
102
RTVSPost2010Prop45
280
     0
102
RTVSPost2010PropOp45
 70
     1
102
RTVSPost2010Prop46
 90
       50
102
RTVSPost2010PropOp46
 70
     1
102
RTVSPost2010Prop47
 90
       50
102
RTVSPost2010PropOp47
 70
     1
102
RTVSPost2010Prop48
 90
       50
102
RTVSPost2010PropOp48
 70
     1
102
RTVSPost2010Prop49
280
     0
102
RTVSPost2010PropOp49
 70
     1
102
RTVSPost2010Prop50
 90
       50
102
RTVSPost2010PropOp50
 70
     1
102
RTVSPost2010Prop51ColorIndex
 90
      256
102
RTVSPost2010Prop51ColorRGB
 90
-16777216
102
RTVSPost2010PropOp51
 70
     0
102
RTVSPost2010Prop52
140
1.0
102
RTVSPost2010PropOp52
 70
     0
102
RTVSPost2010Prop53
 90
        2
102
RTVSPost2010PropOp53
 70
     1
102
RTVSPost2010Prop54
  1
strokes_ogs.tif
102
RTVSPost2010PropOp54
 70
     1
102
RTVSPost2010Prop55
280
     0
102
RTVSPost2010PropOp55
 70
     1
102
RTVSPost2010Prop56
140
1.0
102
RTVSPost2010PropOp56
 70
     1
102
RTVSPost2010Prop57
140
1.0
102
RTVSPost2010PropOp57
 70
     1
102
RTVSPropertyOp0
 70
     0
102
RTVSPropertyOp1
 70
     0
102
RTVSPropertyOp2
 70
     0
102
RTVSPropertyOp3
 70
     0
102
RTVSPropertyOp4
 70
     0
102
RTVSPropertyOp5
 70
     0
102
RTVSPropertyOp6
 70
     0
102
RTVSPropertyOp7
 70
     0
102
RTVSPropertyOp8
 70
     0
102
RTVSPropertyOp9
 70
     0
102
RTVSPropertyOp10
 70
     0
102
RTVSPropertyOp11
 70
     0
102
RTVSPropertyOp12
 70
     0
102
RTVSPropertyOp13
 70
     0
102
RTVSPropertyOp14
 70
     2
102
RTVSPropertyOp15
 70
     0
102
RTVSPropertyOp16
 70
     0
102
RTVSPropertyOp17
 70
     0
102
RTVSPropertyOp18
 70
     0
102
RTVSPropertyOp19
 70
     0
102
RTVSPropertyOp20
 70
     0
102
RTVSPropertyOp21
 70
     0
102
RTVSPropertyOp22
 70
     0
102
RTVSPropertyOp23
 70
     0
102
RTVSPropertyOp24
 70
     0
102
RTVSPropertyOp25
 70
     0
102
RTVSPropertyOp26
 70
     0
102
RTVSPropertyOp27
 70
     0
102
RTVSPropertyOp28
 70
     1
102
RTVSPropertyOp29
 70
     1
102
RTVSPropertyOp30
 70
     1
102
RTVSPropertyOp31
 70
     1
102
RTVSPropertyOp32
 70
     1
102
RTVSPropertyOp33
 70
     1
102
RTVSPropertyOp34
 70
     1
102
RTVSPropertyOp35
 70
     1
102
RTVSPropertyOp36
 70
     1
102
RTVSPropertyOp37
 70
     1
102
RTVSPropertyOp38
 70
     1
102
RTVSPropertyOp39
 70
     1
102
RTVSPropertyOp40
 70
     1
102
RTVSPropertyOp41
 70
     1
102
RTVSPropertyOp42
 70
     1
102
RTVSPropertyOp43
 70
     1
102
RTVSPropertyOp44
 70
     1
102
RTVSPropertyOp45
 70
     1
102
RTVSPropertyOp46
 70
     1
102
RTVSPropertyOp47
 70
     1
102
RTVSPropertyOp48
 70
     1
102
RTVSPropertyOp49
 70
     1
102
RTVSPropertyOp50
 70
     1
102
RTVSPropertyOp51
 70
     0
102
RTVSPropertyOp52
 70
     0
102
RTVSPropertyOp53
 70
     1
102
RTVSPropertyOp54
 70
     1
102
RTVSPropertyOp55
 70
     1
102
RTVSPropertyOp56
 70
     1
102
RTVSPropertyOp57
 70
     1
102
RTVSPropertyOp58
 70
     1
102
RTVSPropertyOp59
 70
     1
102
RTVSPropertyOp60
 70
     1
102
RTVSPropertyOp61
 70
     1
102
RTVSPropertyOp62
 70
     1
  0
XRECORD
  5
7F9D
102
{ACAD_REACTORS
330
7F9C
102
}
330
7F9C
100
AcDbXrecord
280
     1
102
RTVSPost2010Prop28
280
     0
102
RTVSPost2010PropOp28
 70
     1
102
RTVSPost2010Prop29
280
     1
102
RTVSPost2010PropOp29
 70
     1
102
RTVSPost2010Prop30
280
     1
102
RTVSPost2010PropOp30
 70
     1
102
RTVSPost2010Prop31
280
     0
102
RTVSPost2010PropOp31
 70
     1
102
RTVSPost2010Prop32
280
     0
102
RTVSPost2010PropOp32
 70
     1
102
RTVSPost2010Prop33
280
     0
102
RTVSPost2010PropOp33
 70
     1
102
RTVSPost2010Prop34
280
     0
102
RTVSPost2010PropOp34
 70
     1
102
RTVSPost2010Prop35
280
     0
102
RTVSPost2010PropOp35
 70
     1
102
RTVSPost2010Prop36
280
     0
102
RTVSPost2010PropOp36
 70
     1
102
RTVSPost2010Prop37
 90
       50
102
RTVSPost2010PropOp37
 70
     1
102
RTVSPost2010Prop38
140
0.0
102
RTVSPost2010PropOp38
 70
     1
102
RTVSPost2010Prop39
140
1.0
102
RTVSPost2010PropOp39
 70
     1
102
RTVSPost2010Prop40
 90
        0
102
RTVSPost2010PropOp40
 70
     1
102
RTVSPost2010Prop41ColorIndex
 90
       18
102
RTVSPost2010Prop41ColorRGB
 90
        0
102
RTVSPost2010PropOp41
 70
     1
102
RTVSPost2010Prop42
 90
       50
102
RTVSPost2010PropOp42
 70
     1
102
RTVSPost2010Prop43
 90
        3
102
RTVSPost2010PropOp43
 70
     1
102
RTVSPost2010Prop44ColorIndex
 90
        5
102
RTVSPost2010Prop44ColorRGB
 90
      255
102
RTVSPost2010PropOp44
 70
     1
102
RTVSPost2010Prop45
280
     0
102
RTVSPost2010PropOp45
 70
     1
102
RTVSPost2010Prop46
 90
       50
102
RTVSPost2010PropOp46
 70
     1
102
RTVSPost2010Prop47
 90
       50
102
RTVSPost2010PropOp47
 70
     1
102
RTVSPost2010Prop48
 90
       50
102
RTVSPost2010PropOp48
 70
     1
102
RTVSPost2010Prop49
280
     0
102
RTVSPost2010PropOp49
 70
     1
102
RTVSPost2010Prop50
 90
       50
102
RTVSPost2010PropOp50
 70
     1
102
RTVSPost2010Prop51ColorIndex
 90
      256
102
RTVSPost2010Prop51ColorRGB
 90
-16777216
102
RTVSPost2010PropOp51
 70
     0
102
RTVSPost2010Prop52
140
1.0
102
RTVSPost2010PropOp52
 70
     0
102
RTVSPost2010Prop53
 90
        2
102
RTVSPost2010PropOp53
 70
     1
102
RTVSPost2010Prop54
  1
strokes_ogs.tif
102
RTVSPost2010PropOp54
 70
     1
102
RTVSPost2010Prop55
280
     0
102
RTVSPost2010PropOp55
 70
     1
102
RTVSPost2010Prop56
140
1.0
102
RTVSPost2010PropOp56
 70
     1
102
RTVSPost2010Prop57
140
1.0
102
RTVSPost2010PropOp57
 70
     1
102
RTVSPropertyOp0
 70
     1
102
RTVSPropertyOp1
 70
     1
102
RTVSPropertyOp2
 70
     1
102
RTVSPropertyOp3
 70
     1
102
RTVSPropertyOp4
 70
     1
102
RTVSPropertyOp5
 70
     1
102
RTVSPropertyOp6
 70
     1
102
RTVSPropertyOp7
 70
     1
102
RTVSPropertyOp8
 70
     1
102
RTVSPropertyOp9
 70
     1
102
RTVSPropertyOp10
 70
     1
102
RTVSPropertyOp11
 70
     1
102
RTVSPropertyOp12
 70
     1
102
RTVSPropertyOp13
 70
     1
102
RTVSPropertyOp14
 70
     1
102
RTVSPropertyOp15
 70
     1
102
RTVSPropertyOp16
 70
     1
102
RTVSPropertyOp17
 70
     1
102
RTVSPropertyOp18
 70
     1
102
RTVSPropertyOp19
 70
     1
102
RTVSPropertyOp20
 70
     1
102
RTVSPropertyOp21
 70
     1
102
RTVSPropertyOp22
 70
     1
102
RTVSPropertyOp23
 70
     1
102
RTVSPropertyOp24
 70
     1
102
RTVSPropertyOp25
 70
     1
102
RTVSPropertyOp26
 70
     1
102
RTVSPropertyOp27
 70
     1
102
RTVSPropertyOp28
 70
     1
102
RTVSPropertyOp29
 70
     1
102
RTVSPropertyOp30
 70
     1
102
RTVSPropertyOp31
 70
     1
102
RTVSPropertyOp32
 70
     1
102
RTVSPropertyOp33
 70
     1
102
RTVSPropertyOp34
 70
     1
102
RTVSPropertyOp35
 70
     1
102
RTVSPropertyOp36
 70
     1
102
RTVSPropertyOp37
 70
     1
102
RTVSPropertyOp38
 70
     1
102
RTVSPropertyOp39
 70
     1
102
RTVSPropertyOp40
 70
     1
102
RTVSPropertyOp41
 70
     1
102
RTVSPropertyOp42
 70
     1
102
RTVSPropertyOp43
 70
     1
102
RTVSPropertyOp44
 70
     1
102
RTVSPropertyOp45
 70
     1
102
RTVSPropertyOp46
 70
     1
102
RTVSPropertyOp47
 70
     1
102
RTVSPropertyOp48
 70
     1
102
RTVSPropertyOp49
 70
     1
102
RTVSPropertyOp50
 70
     1
102
RTVSPropertyOp51
 70
     0
102
RTVSPropertyOp52
 70
     0
102
RTVSPropertyOp53
 70
     1
102
RTVSPropertyOp54
 70
     1
102
RTVSPropertyOp55
 70
     1
102
RTVSPropertyOp56
 70
     1
102
RTVSPropertyOp57
 70
     1
102
RTVSPropertyOp58
 70
     1
102
RTVSPropertyOp59
 70
     1
102
RTVSPropertyOp60
 70
     1
102
RTVSPropertyOp61
 70
     1
102
RTVSPropertyOp62
 70
     1
  0
XRECORD
  5
7FA7
102
{ACAD_REACTORS
330
7FA6
102
}
330
7FA6
100
AcDbXrecord
280
     1
102
RTVSPost2010Prop28
280
     0
102
RTVSPost2010PropOp28
 70
     1
102
RTVSPost2010Prop29
280
     1
102
RTVSPost2010PropOp29
 70
     1
102
RTVSPost2010Prop30
280
     1
102
RTVSPost2010PropOp30
 70
     1
102
RTVSPost2010Prop31
280
     0
102
RTVSPost2010PropOp31
 70
     1
102
RTVSPost2010Prop32
280
     0
102
RTVSPost2010PropOp32
 70
     1
102
RTVSPost2010Prop33
280
     0
102
RTVSPost2010PropOp33
 70
     1
102
RTVSPost2010Prop34
280
     0
102
RTVSPost2010PropOp34
 70
     1
102
RTVSPost2010Prop35
280
     0
102
RTVSPost2010PropOp35
 70
     1
102
RTVSPost2010Prop36
280
     0
102
RTVSPost2010PropOp36
 70
     1
102
RTVSPost2010Prop37
 90
       50
102
RTVSPost2010PropOp37
 70
     1
102
RTVSPost2010Prop38
140
0.0
102
RTVSPost2010PropOp38
 70
     1
102
RTVSPost2010Prop39
140
1.0
102
RTVSPost2010PropOp39
 70
     1
102
RTVSPost2010Prop40
 90
        0
102
RTVSPost2010PropOp40
 70
     1
102
RTVSPost2010Prop41ColorIndex
 90
       18
102
RTVSPost2010Prop41ColorRGB
 90
        0
102
RTVSPost2010PropOp41
 70
     1
102
RTVSPost2010Prop42
 90
       50
102
RTVSPost2010PropOp42
 70
     1
102
RTVSPost2010Prop43
 90
        3
102
RTVSPost2010PropOp43
 70
     1
102
RTVSPost2010Prop44ColorIndex
 90
        5
102
RTVSPost2010Prop44ColorRGB
 90
      255
102
RTVSPost2010PropOp44
 70
     1
102
RTVSPost2010Prop45
280
     0
102
RTVSPost2010PropOp45
 70
     1
102
RTVSPost2010Prop46
 90
       50
102
RTVSPost2010PropOp46
 70
     1
102
RTVSPost2010Prop47
 90
       50
102
RTVSPost2010PropOp47
 70
     1
102
RTVSPost2010Prop48
 90
       50
102
RTVSPost2010PropOp48
 70
     1
102
RTVSPost2010Prop49
280
     0
102
RTVSPost2010PropOp49
 70
     1
102
RTVSPost2010Prop50
 90
       50
102
RTVSPost2010PropOp50
 70
     1
102
RTVSPost2010Prop51ColorIndex
 90
      256
102
RTVSPost2010Prop51ColorRGB
 90
-16777216
102
RTVSPost2010PropOp51
 70
     0
102
RTVSPost2010Prop52
140
1.0
102
RTVSPost2010PropOp52
 70
     0
102
RTVSPost2010Prop53
 90
        2
102
RTVSPost2010PropOp53
 70
     1
102
RTVSPost2010Prop54
  1
strokes_ogs.tif
102
RTVSPost2010PropOp54
 70
     1
102
RTVSPost2010Prop55
280
     0
102
RTVSPost2010PropOp55
 70
     1
102
RTVSPost2010Prop56
140
1.0
102
RTVSPost2010PropOp56
 70
     1
102
RTVSPost2010Prop57
140
1.0
102
RTVSPost2010PropOp57
 70
     1
102
RTVSPropertyOp0
 70
     0
102
RTVSPropertyOp1
 70
     0
102
RTVSPropertyOp2
 70
     0
102
RTVSPropertyOp3
 70
     0
102
RTVSPropertyOp4
 70
     0
102
RTVSPropertyOp5
 70
     0
102
RTVSPropertyOp6
 70
     0
102
RTVSPropertyOp7
 70
     0
102
RTVSPropertyOp8
 70
     0
102
RTVSPropertyOp9
 70
     0
102
RTVSPropertyOp10
 70
     0
102
RTVSPropertyOp11
 70
     0
102
RTVSPropertyOp12
 70
     0
102
RTVSPropertyOp13
 70
     0
102
RTVSPropertyOp14
 70
     2
102
RTVSPropertyOp15
 70
     0
102
RTVSPropertyOp16
 70
     0
102
RTVSPropertyOp17
 70
     0
102
RTVSPropertyOp18
 70
     0
102
RTVSPropertyOp19
 70
     0
102
RTVSPropertyOp20
 70
     0
102
RTVSPropertyOp21
 70
     0
102
RTVSPropertyOp22
 70
     0
102
RTVSPropertyOp23
 70
     0
102
RTVSPropertyOp24
 70
     0
102
RTVSPropertyOp25
 70
     0
102
RTVSPropertyOp26
 70
     0
102
RTVSPropertyOp27
 70
     0
102
RTVSPropertyOp28
 70
     1
102
RTVSPropertyOp29
 70
     1
102
RTVSPropertyOp30
 70
     1
102
RTVSPropertyOp31
 70
     1
102
RTVSPropertyOp32
 70
     1
102
RTVSPropertyOp33
 70
     1
102
RTVSPropertyOp34
 70
     1
102
RTVSPropertyOp35
 70
     1
102
RTVSPropertyOp36
 70
     1
102
RTVSPropertyOp37
 70
     1
102
RTVSPropertyOp38
 70
     1
102
RTVSPropertyOp39
 70
     1
102
RTVSPropertyOp40
 70
     1
102
RTVSPropertyOp41
 70
     1
102
RTVSPropertyOp42
 70
     1
102
RTVSPropertyOp43
 70
     1
102
RTVSPropertyOp44
 70
     1
102
RTVSPropertyOp45
 70
     1
102
RTVSPropertyOp46
 70
     1
102
RTVSPropertyOp47
 70
     1
102
RTVSPropertyOp48
 70
     1
102
RTVSPropertyOp49
 70
     1
102
RTVSPropertyOp50
 70
     1
102
RTVSPropertyOp51
 70
     0
102
RTVSPropertyOp52
 70
     0
102
RTVSPropertyOp53
 70
     1
102
RTVSPropertyOp54
 70
     1
102
RTVSPropertyOp55
 70
     1
102
RTVSPropertyOp56
 70
     1
102
RTVSPropertyOp57
 70
     1
102
RTVSPropertyOp58
 70
     1
102
RTVSPropertyOp59
 70
     1
102
RTVSPropertyOp60
 70
     1
102
RTVSPropertyOp61
 70
     1
102
RTVSPropertyOp62
 70
     1
  0
XRECORD
  5
7F95
102
{ACAD_REACTORS
330
7F94
102
}
330
7F94
100
AcDbXrecord
280
     1
102
RTVSPost2010Prop28
280
     0
102
RTVSPost2010PropOp28
 70
     1
102
RTVSPost2010Prop29
280
     1
102
RTVSPost2010PropOp29
 70
     1
102
RTVSPost2010Prop30
280
     1
102
RTVSPost2010PropOp30
 70
     1
102
RTVSPost2010Prop31
280
     0
102
RTVSPost2010PropOp31
 70
     1
102
RTVSPost2010Prop32
280
     0
102
RTVSPost2010PropOp32
 70
     1
102
RTVSPost2010Prop33
280
     0
102
RTVSPost2010PropOp33
 70
     1
102
RTVSPost2010Prop34
280
     0
102
RTVSPost2010PropOp34
 70
     1
102
RTVSPost2010Prop35
280
     0
102
RTVSPost2010PropOp35
 70
     1
102
RTVSPost2010Prop36
280
     0
102
RTVSPost2010PropOp36
 70
     1
102
RTVSPost2010Prop37
 90
       50
102
RTVSPost2010PropOp37
 70
     1
102
RTVSPost2010Prop38
140
0.0
102
RTVSPost2010PropOp38
 70
     1
102
RTVSPost2010Prop39
140
1.0
102
RTVSPost2010PropOp39
 70
     1
102
RTVSPost2010Prop40
 90
        0
102
RTVSPost2010PropOp40
 70
     1
102
RTVSPost2010Prop41ColorIndex
 90
       18
102
RTVSPost2010Prop41ColorRGB
 90
        0
102
RTVSPost2010PropOp41
 70
     1
102
RTVSPost2010Prop42
 90
       50
102
RTVSPost2010PropOp42
 70
     1
102
RTVSPost2010Prop43
 90
        3
102
RTVSPost2010PropOp43
 70
     1
102
RTVSPost2010Prop44ColorIndex
 90
        5
102
RTVSPost2010Prop44ColorRGB
 90
      255
102
RTVSPost2010PropOp44
 70
     1
102
RTVSPost2010Prop45
280
     0
102
RTVSPost2010PropOp45
 70
     1
102
RTVSPost2010Prop46
 90
       50
102
RTVSPost2010PropOp46
 70
     1
102
RTVSPost2010Prop47
 90
       50
102
RTVSPost2010PropOp47
 70
     1
102
RTVSPost2010Prop48
 90
       50
102
RTVSPost2010PropOp48
 70
     1
102
RTVSPost2010Prop49
280
     0
102
RTVSPost2010PropOp49
 70
     1
102
RTVSPost2010Prop50
 90
       50
102
RTVSPost2010PropOp50
 70
     1
102
RTVSPost2010Prop51ColorIndex
 90
      256
102
RTVSPost2010Prop51ColorRGB
 90
-16777216
102
RTVSPost2010PropOp51
 70
     0
102
RTVSPost2010Prop52
140
1.0
102
RTVSPost2010PropOp52
 70
     0
102
RTVSPost2010Prop53
 90
        2
102
RTVSPost2010PropOp53
 70
     1
102
RTVSPost2010Prop54
  1
strokes_ogs.tif
102
RTVSPost2010PropOp54
 70
     1
102
RTVSPost2010Prop55
280
     0
102
RTVSPost2010PropOp55
 70
     1
102
RTVSPost2010Prop56
140
1.0
102
RTVSPost2010PropOp56
 70
     1
102
RTVSPost2010Prop57
140
1.0
102
RTVSPost2010PropOp57
 70
     1
102
RTVSPropertyOp0
 70
     1
102
RTVSPropertyOp1
 70
     1
102
RTVSPropertyOp2
 70
     1
102
RTVSPropertyOp3
 70
     1
102
RTVSPropertyOp4
 70
     1
102
RTVSPropertyOp5
 70
     1
102
RTVSPropertyOp6
 70
     1
102
RTVSPropertyOp7
 70
     1
102
RTVSPropertyOp8
 70
     1
102
RTVSPropertyOp9
 70
     1
102
RTVSPropertyOp10
 70
     1
102
RTVSPropertyOp11
 70
     1
102
RTVSPropertyOp12
 70
     1
102
RTVSPropertyOp13
 70
     1
102
RTVSPropertyOp14
 70
     1
102
RTVSPropertyOp15
 70
     1
102
RTVSPropertyOp16
 70
     1
102
RTVSPropertyOp17
 70
     1
102
RTVSPropertyOp18
 70
     1
102
RTVSPropertyOp19
 70
     1
102
RTVSPropertyOp20
 70
     1
102
RTVSPropertyOp21
 70
     1
102
RTVSPropertyOp22
 70
     1
102
RTVSPropertyOp23
 70
     1
102
RTVSPropertyOp24
 70
     1
102
RTVSPropertyOp25
 70
     1
102
RTVSPropertyOp26
 70
     1
102
RTVSPropertyOp27
 70
     1
102
RTVSPropertyOp28
 70
     1
102
RTVSPropertyOp29
 70
     1
102
RTVSPropertyOp30
 70
     1
102
RTVSPropertyOp31
 70
     1
102
RTVSPropertyOp32
 70
     1
102
RTVSPropertyOp33
 70
     1
102
RTVSPropertyOp34
 70
     1
102
RTVSPropertyOp35
 70
     1
102
RTVSPropertyOp36
 70
     1
102
RTVSPropertyOp37
 70
     1
102
RTVSPropertyOp38
 70
     1
102
RTVSPropertyOp39
 70
     1
102
RTVSPropertyOp40
 70
     1
102
RTVSPropertyOp41
 70
     1
102
RTVSPropertyOp42
 70
     1
102
RTVSPropertyOp43
 70
     1
102
RTVSPropertyOp44
 70
     1
102
RTVSPropertyOp45
 70
     1
102
RTVSPropertyOp46
 70
     1
102
RTVSPropertyOp47
 70
     1
102
RTVSPropertyOp48
 70
     1
102
RTVSPropertyOp49
 70
     1
102
RTVSPropertyOp50
 70
     1
102
RTVSPropertyOp51
 70
     0
102
RTVSPropertyOp52
 70
     0
102
RTVSPropertyOp53
 70
     1
102
RTVSPropertyOp54
 70
     1
102
RTVSPropertyOp55
 70
     1
102
RTVSPropertyOp56
 70
     1
102
RTVSPropertyOp57
 70
     1
102
RTVSPropertyOp58
 70
     1
102
RTVSPropertyOp59
 70
     1
102
RTVSPropertyOp60
 70
     1
102
RTVSPropertyOp61
 70
     1
102
RTVSPropertyOp62
 70
     1
  0
XRECORD
  5
7FB3
102
{ACAD_REACTORS
330
7FB2
102
}
330
7FB2
100
AcDbXrecord
280
     1
102
RTVSPost2010Prop28
280
     0
102
RTVSPost2010PropOp28
 70
     1
102
RTVSPost2010Prop29
280
     1
102
RTVSPost2010PropOp29
 70
     1
102
RTVSPost2010Prop30
280
     1
102
RTVSPost2010PropOp30
 70
     1
102
RTVSPost2010Prop31
280
     0
102
RTVSPost2010PropOp31
 70
     1
102
RTVSPost2010Prop32
280
     0
102
RTVSPost2010PropOp32
 70
     1
102
RTVSPost2010Prop33
280
     0
102
RTVSPost2010PropOp33
 70
     1
102
RTVSPost2010Prop34
280
     0
102
RTVSPost2010PropOp34
 70
     1
102
RTVSPost2010Prop35
280
     0
102
RTVSPost2010PropOp35
 70
     1
102
RTVSPost2010Prop36
280
     0
102
RTVSPost2010PropOp36
 70
     1
102
RTVSPost2010Prop37
 90
       50
102
RTVSPost2010PropOp37
 70
     1
102
RTVSPost2010Prop38
140
0.0
102
RTVSPost2010PropOp38
 70
     1
102
RTVSPost2010Prop39
140
1.0
102
RTVSPost2010PropOp39
 70
     1
102
RTVSPost2010Prop40
 90
        0
102
RTVSPost2010PropOp40
 70
     1
102
RTVSPost2010Prop41ColorIndex
 90
       18
102
RTVSPost2010Prop41ColorRGB
 90
        0
102
RTVSPost2010PropOp41
 70
     1
102
RTVSPost2010Prop42
 90
       50
102
RTVSPost2010PropOp42
 70
     1
102
RTVSPost2010Prop43
 90
        3
102
RTVSPost2010PropOp43
 70
     1
102
RTVSPost2010Prop44ColorIndex
 90
        5
102
RTVSPost2010Prop44ColorRGB
 90
      255
102
RTVSPost2010PropOp44
 70
     1
102
RTVSPost2010Prop45
280
     0
102
RTVSPost2010PropOp45
 70
     1
102
RTVSPost2010Prop46
 90
       50
102
RTVSPost2010PropOp46
 70
     1
102
RTVSPost2010Prop47
 90
       50
102
RTVSPost2010PropOp47
 70
     1
102
RTVSPost2010Prop48
 90
       50
102
RTVSPost2010PropOp48
 70
     1
102
RTVSPost2010Prop49
280
     0
102
RTVSPost2010PropOp49
 70
     1
102
RTVSPost2010Prop50
 90
       50
102
RTVSPost2010PropOp50
 70
     1
102
RTVSPost2010Prop51ColorIndex
 90
      256
102
RTVSPost2010Prop51ColorRGB
 90
-16777216
102
RTVSPost2010PropOp51
 70
     0
102
RTVSPost2010Prop52
140
1.0
102
RTVSPost2010PropOp52
 70
     0
102
RTVSPost2010Prop53
 90
        2
102
RTVSPost2010PropOp53
 70
     1
102
RTVSPost2010Prop54
  1
strokes_ogs.tif
102
RTVSPost2010PropOp54
 70
     1
102
RTVSPost2010Prop55
280
     0
102
RTVSPost2010PropOp55
 70
     1
102
RTVSPost2010Prop56
140
1.0
102
RTVSPost2010PropOp56
 70
     1
102
RTVSPost2010Prop57
140
1.0
102
RTVSPost2010PropOp57
 70
     1
102
RTVSPropertyOp0
 70
     1
102
RTVSPropertyOp1
 70
     1
102
RTVSPropertyOp2
 70
     1
102
RTVSPropertyOp3
 70
     1
102
RTVSPropertyOp4
 70
     1
102
RTVSPropertyOp5
 70
     1
102
RTVSPropertyOp6
 70
     1
102
RTVSPropertyOp7
 70
     1
102
RTVSPropertyOp8
 70
     1
102
RTVSPropertyOp9
 70
     1
102
RTVSPropertyOp10
 70
     1
102
RTVSPropertyOp11
 70
     1
102
RTVSPropertyOp12
 70
     1
102
RTVSPropertyOp13
 70
     1
102
RTVSPropertyOp14
 70
     1
102
RTVSPropertyOp15
 70
     1
102
RTVSPropertyOp16
 70
     1
102
RTVSPropertyOp17
 70
     1
102
RTVSPropertyOp18
 70
     1
102
RTVSPropertyOp19
 70
     1
102
RTVSPropertyOp20
 70
     1
102
RTVSPropertyOp21
 70
     1
102
RTVSPropertyOp22
 70
     1
102
RTVSPropertyOp23
 70
     1
102
RTVSPropertyOp24
 70
     1
102
RTVSPropertyOp25
 70
     1
102
RTVSPropertyOp26
 70
     1
102
RTVSPropertyOp27
 70
     1
102
RTVSPropertyOp28
 70
     1
102
RTVSPropertyOp29
 70
     1
102
RTVSPropertyOp30
 70
     1
102
RTVSPropertyOp31
 70
     1
102
RTVSPropertyOp32
 70
     1
102
RTVSPropertyOp33
 70
     1
102
RTVSPropertyOp34
 70
     1
102
RTVSPropertyOp35
 70
     1
102
RTVSPropertyOp36
 70
     1
102
RTVSPropertyOp37
 70
     1
102
RTVSPropertyOp38
 70
     1
102
RTVSPropertyOp39
 70
     1
102
RTVSPropertyOp40
 70
     1
102
RTVSPropertyOp41
 70
     1
102
RTVSPropertyOp42
 70
     1
102
RTVSPropertyOp43
 70
     1
102
RTVSPropertyOp44
 70
     1
102
RTVSPropertyOp45
 70
     1
102
RTVSPropertyOp46
 70
     1
102
RTVSPropertyOp47
 70
     1
102
RTVSPropertyOp48
 70
     1
102
RTVSPropertyOp49
 70
     1
102
RTVSPropertyOp50
 70
     1
102
RTVSPropertyOp51
 70
     0
102
RTVSPropertyOp52
 70
     0
102
RTVSPropertyOp53
 70
     1
102
RTVSPropertyOp54
 70
     1
102
RTVSPropertyOp55
 70
     1
102
RTVSPropertyOp56
 70
     1
102
RTVSPropertyOp57
 70
     1
102
RTVSPropertyOp58
 70
     1
102
RTVSPropertyOp59
 70
     1
102
RTVSPropertyOp60
 70
     1
102
RTVSPropertyOp61
 70
     1
102
RTVSPropertyOp62
 70
     1
  0
XRECORD
  5
7FB1
102
{ACAD_REACTORS
330
7FB0
102
}
330
7FB0
100
AcDbXrecord
280
     1
102
RTVSPost2010Prop28
280
     0
102
RTVSPost2010PropOp28
 70
     1
102
RTVSPost2010Prop29
280
     1
102
RTVSPost2010PropOp29
 70
     1
102
RTVSPost2010Prop30
280
     1
102
RTVSPost2010PropOp30
 70
     1
102
RTVSPost2010Prop31
280
     0
102
RTVSPost2010PropOp31
 70
     1
102
RTVSPost2010Prop32
280
     0
102
RTVSPost2010PropOp32
 70
     1
102
RTVSPost2010Prop33
280
     0
102
RTVSPost2010PropOp33
 70
     1
102
RTVSPost2010Prop34
280
     0
102
RTVSPost2010PropOp34
 70
     1
102
RTVSPost2010Prop35
280
     0
102
RTVSPost2010PropOp35
 70
     1
102
RTVSPost2010Prop36
280
     0
102
RTVSPost2010PropOp36
 70
     1
102
RTVSPost2010Prop37
 90
       50
102
RTVSPost2010PropOp37
 70
     1
102
RTVSPost2010Prop38
140
0.0
102
RTVSPost2010PropOp38
 70
     1
102
RTVSPost2010Prop39
140
1.0
102
RTVSPost2010PropOp39
 70
     1
102
RTVSPost2010Prop40
 90
        0
102
RTVSPost2010PropOp40
 70
     1
102
RTVSPost2010Prop41ColorIndex
 90
       18
102
RTVSPost2010Prop41ColorRGB
 90
        0
102
RTVSPost2010PropOp41
 70
     1
102
RTVSPost2010Prop42
 90
       50
102
RTVSPost2010PropOp42
 70
     1
102
RTVSPost2010Prop43
 90
        3
102
RTVSPost2010PropOp43
 70
     1
102
RTVSPost2010Prop44ColorIndex
 90
        5
102
RTVSPost2010Prop44ColorRGB
 90
      255
102
RTVSPost2010PropOp44
 70
     1
102
RTVSPost2010Prop45
280
     0
102
RTVSPost2010PropOp45
 70
     1
102
RTVSPost2010Prop46
 90
       50
102
RTVSPost2010PropOp46
 70
     1
102
RTVSPost2010Prop47
 90
       50
102
RTVSPost2010PropOp47
 70
     1
102
RTVSPost2010Prop48
 90
       50
102
RTVSPost2010PropOp48
 70
     1
102
RTVSPost2010Prop49
280
     0
102
RTVSPost2010PropOp49
 70
     1
102
RTVSPost2010Prop50
 90
       50
102
RTVSPost2010PropOp50
 70
     1
102
RTVSPost2010Prop51ColorIndex
 90
      256
102
RTVSPost2010Prop51ColorRGB
 90
-16777216
102
RTVSPost2010PropOp51
 70
     0
102
RTVSPost2010Prop52
140
1.0
102
RTVSPost2010PropOp52
 70
     0
102
RTVSPost2010Prop53
 90
        2
102
RTVSPost2010PropOp53
 70
     1
102
RTVSPost2010Prop54
  1
strokes_ogs.tif
102
RTVSPost2010PropOp54
 70
     1
102
RTVSPost2010Prop55
280
     0
102
RTVSPost2010PropOp55
 70
     1
102
RTVSPost2010Prop56
140
1.0
102
RTVSPost2010PropOp56
 70
     1
102
RTVSPost2010Prop57
140
1.0
102
RTVSPost2010PropOp57
 70
     1
102
RTVSPropertyOp0
 70
     1
102
RTVSPropertyOp1
 70
     1
102
RTVSPropertyOp2
 70
     1
102
RTVSPropertyOp3
 70
     1
102
RTVSPropertyOp4
 70
     1
102
RTVSPropertyOp5
 70
     1
102
RTVSPropertyOp6
 70
     1
102
RTVSPropertyOp7
 70
     1
102
RTVSPropertyOp8
 70
     1
102
RTVSPropertyOp9
 70
     1
102
RTVSPropertyOp10
 70
     1
102
RTVSPropertyOp11
 70
     1
102
RTVSPropertyOp12
 70
     1
102
RTVSPropertyOp13
 70
     1
102
RTVSPropertyOp14
 70
     1
102
RTVSPropertyOp15
 70
     1
102
RTVSPropertyOp16
 70
     1
102
RTVSPropertyOp17
 70
     1
102
RTVSPropertyOp18
 70
     1
102
RTVSPropertyOp19
 70
     1
102
RTVSPropertyOp20
 70
     1
102
RTVSPropertyOp21
 70
     1
102
RTVSPropertyOp22
 70
     1
102
RTVSPropertyOp23
 70
     1
102
RTVSPropertyOp24
 70
     1
102
RTVSPropertyOp25
 70
     1
102
RTVSPropertyOp26
 70
     1
102
RTVSPropertyOp27
 70
     1
102
RTVSPropertyOp28
 70
     1
102
RTVSPropertyOp29
 70
     1
102
RTVSPropertyOp30
 70
     1
102
RTVSPropertyOp31
 70
     1
102
RTVSPropertyOp32
 70
     1
102
RTVSPropertyOp33
 70
     1
102
RTVSPropertyOp34
 70
     1
102
RTVSPropertyOp35
 70
     1
102
RTVSPropertyOp36
 70
     1
102
RTVSPropertyOp37
 70
     1
102
RTVSPropertyOp38
 70
     1
102
RTVSPropertyOp39
 70
     1
102
RTVSPropertyOp40
 70
     1
102
RTVSPropertyOp41
 70
     1
102
RTVSPropertyOp42
 70
     1
102
RTVSPropertyOp43
 70
     1
102
RTVSPropertyOp44
 70
     1
102
RTVSPropertyOp45
 70
     1
102
RTVSPropertyOp46
 70
     1
102
RTVSPropertyOp47
 70
     1
102
RTVSPropertyOp48
 70
     1
102
RTVSPropertyOp49
 70
     1
102
RTVSPropertyOp50
 70
     1
102
RTVSPropertyOp51
 70
     0
102
RTVSPropertyOp52
 70
     0
102
RTVSPropertyOp53
 70
     1
102
RTVSPropertyOp54
 70
     1
102
RTVSPropertyOp55
 70
     1
102
RTVSPropertyOp56
 70
     1
102
RTVSPropertyOp57
 70
     1
102
RTVSPropertyOp58
 70
     1
102
RTVSPropertyOp59
 70
     1
102
RTVSPropertyOp60
 70
     1
102
RTVSPropertyOp61
 70
     1
102
RTVSPropertyOp62
 70
     1
  0
XRECORD
  5
7FAB
102
{ACAD_REACTORS
330
7FAA
102
}
330
7FAA
100
AcDbXrecord
280
     1
102
RTVSPost2010Prop28
280
     0
102
RTVSPost2010PropOp28
 70
     1
102
RTVSPost2010Prop29
280
     1
102
RTVSPost2010PropOp29
 70
     1
102
RTVSPost2010Prop30
280
     1
102
RTVSPost2010PropOp30
 70
     1
102
RTVSPost2010Prop31
280
     0
102
RTVSPost2010PropOp31
 70
     1
102
RTVSPost2010Prop32
280
     0
102
RTVSPost2010PropOp32
 70
     1
102
RTVSPost2010Prop33
280
     0
102
RTVSPost2010PropOp33
 70
     1
102
RTVSPost2010Prop34
280
     0
102
RTVSPost2010PropOp34
 70
     1
102
RTVSPost2010Prop35
280
     0
102
RTVSPost2010PropOp35
 70
     1
102
RTVSPost2010Prop36
280
     0
102
RTVSPost2010PropOp36
 70
     1
102
RTVSPost2010Prop37
 90
       50
102
RTVSPost2010PropOp37
 70
     1
102
RTVSPost2010Prop38
140
0.0
102
RTVSPost2010PropOp38
 70
     1
102
RTVSPost2010Prop39
140
1.0
102
RTVSPost2010PropOp39
 70
     1
102
RTVSPost2010Prop40
 90
        0
102
RTVSPost2010PropOp40
 70
     1
102
RTVSPost2010Prop41ColorIndex
 90
       18
102
RTVSPost2010Prop41ColorRGB
 90
        0
102
RTVSPost2010PropOp41
 70
     1
102
RTVSPost2010Prop42
 90
       50
102
RTVSPost2010PropOp42
 70
     1
102
RTVSPost2010Prop43
 90
        3
102
RTVSPost2010PropOp43
 70
     1
102
RTVSPost2010Prop44ColorIndex
 90
        5
102
RTVSPost2010Prop44ColorRGB
 90
      255
102
RTVSPost2010PropOp44
 70
     1
102
RTVSPost2010Prop45
280
     0
102
RTVSPost2010PropOp45
 70
     1
102
RTVSPost2010Prop46
 90
       50
102
RTVSPost2010PropOp46
 70
     1
102
RTVSPost2010Prop47
 90
       50
102
RTVSPost2010PropOp47
 70
     1
102
RTVSPost2010Prop48
 90
       50
102
RTVSPost2010PropOp48
 70
     1
102
RTVSPost2010Prop49
280
     0
102
RTVSPost2010PropOp49
 70
     1
102
RTVSPost2010Prop50
 90
       50
102
RTVSPost2010PropOp50
 70
     1
102
RTVSPost2010Prop51ColorIndex
 90
      256
102
RTVSPost2010Prop51ColorRGB
 90
-16777216
102
RTVSPost2010PropOp51
 70
     0
102
RTVSPost2010Prop52
140
1.0
102
RTVSPost2010PropOp52
 70
     0
102
RTVSPost2010Prop53
 90
        2
102
RTVSPost2010PropOp53
 70
     1
102
RTVSPost2010Prop54
  1
strokes_ogs.tif
102
RTVSPost2010PropOp54
 70
     1
102
RTVSPost2010Prop55
280
     0
102
RTVSPost2010PropOp55
 70
     1
102
RTVSPost2010Prop56
140
1.0
102
RTVSPost2010PropOp56
 70
     1
102
RTVSPost2010Prop57
140
1.0
102
RTVSPost2010PropOp57
 70
     1
102
RTVSPropertyOp0
 70
     1
102
RTVSPropertyOp1
 70
     1
102
RTVSPropertyOp2
 70
     1
102
RTVSPropertyOp3
 70
     1
102
RTVSPropertyOp4
 70
     1
102
RTVSPropertyOp5
 70
     1
102
RTVSPropertyOp6
 70
     1
102
RTVSPropertyOp7
 70
     1
102
RTVSPropertyOp8
 70
     1
102
RTVSPropertyOp9
 70
     1
102
RTVSPropertyOp10
 70
     1
102
RTVSPropertyOp11
 70
     1
102
RTVSPropertyOp12
 70
     1
102
RTVSPropertyOp13
 70
     1
102
RTVSPropertyOp14
 70
     1
102
RTVSPropertyOp15
 70
     1
102
RTVSPropertyOp16
 70
     1
102
RTVSPropertyOp17
 70
     1
102
RTVSPropertyOp18
 70
     1
102
RTVSPropertyOp19
 70
     1
102
RTVSPropertyOp20
 70
     1
102
RTVSPropertyOp21
 70
     1
102
RTVSPropertyOp22
 70
     1
102
RTVSPropertyOp23
 70
     1
102
RTVSPropertyOp24
 70
     1
102
RTVSPropertyOp25
 70
     1
102
RTVSPropertyOp26
 70
     1
102
RTVSPropertyOp27
 70
     1
102
RTVSPropertyOp28
 70
     1
102
RTVSPropertyOp29
 70
     1
102
RTVSPropertyOp30
 70
     1
102
RTVSPropertyOp31
 70
     1
102
RTVSPropertyOp32
 70
     1
102
RTVSPropertyOp33
 70
     1
102
RTVSPropertyOp34
 70
     1
102
RTVSPropertyOp35
 70
     1
102
RTVSPropertyOp36
 70
     1
102
RTVSPropertyOp37
 70
     1
102
RTVSPropertyOp38
 70
     1
102
RTVSPropertyOp39
 70
     1
102
RTVSPropertyOp40
 70
     1
102
RTVSPropertyOp41
 70
     1
102
RTVSPropertyOp42
 70
     1
102
RTVSPropertyOp43
 70
     1
102
RTVSPropertyOp44
 70
     1
102
RTVSPropertyOp45
 70
     1
102
RTVSPropertyOp46
 70
     1
102
RTVSPropertyOp47
 70
     1
102
RTVSPropertyOp48
 70
     1
102
RTVSPropertyOp49
 70
     1
102
RTVSPropertyOp50
 70
     1
102
RTVSPropertyOp51
 70
     0
102
RTVSPropertyOp52
 70
     0
102
RTVSPropertyOp53
 70
     1
102
RTVSPropertyOp54
 70
     1
102
RTVSPropertyOp55
 70
     1
102
RTVSPropertyOp56
 70
     1
102
RTVSPropertyOp57
 70
     1
102
RTVSPropertyOp58
 70
     1
102
RTVSPropertyOp59
 70
     1
102
RTVSPropertyOp60
 70
     1
102
RTVSPropertyOp61
 70
     1
102
RTVSPropertyOp62
 70
     1
  0
XRECORD
  5
7FAD
102
{ACAD_REACTORS
330
7FAC
102
}
330
7FAC
100
AcDbXrecord
280
     1
102
RTVSPost2010Prop28
280
     0
102
RTVSPost2010PropOp28
 70
     1
102
RTVSPost2010Prop29
280
     1
102
RTVSPost2010PropOp29
 70
     1
102
RTVSPost2010Prop30
280
     1
102
RTVSPost2010PropOp30
 70
     1
102
RTVSPost2010Prop31
280
     0
102
RTVSPost2010PropOp31
 70
     1
102
RTVSPost2010Prop32
280
     0
102
RTVSPost2010PropOp32
 70
     1
102
RTVSPost2010Prop33
280
     0
102
RTVSPost2010PropOp33
 70
     1
102
RTVSPost2010Prop34
280
     0
102
RTVSPost2010PropOp34
 70
     1
102
RTVSPost2010Prop35
280
     0
102
RTVSPost2010PropOp35
 70
     1
102
RTVSPost2010Prop36
280
     0
102
RTVSPost2010PropOp36
 70
     1
102
RTVSPost2010Prop37
 90
       50
102
RTVSPost2010PropOp37
 70
     1
102
RTVSPost2010Prop38
140
0.0
102
RTVSPost2010PropOp38
 70
     1
102
RTVSPost2010Prop39
140
1.0
102
RTVSPost2010PropOp39
 70
     1
102
RTVSPost2010Prop40
 90
        0
102
RTVSPost2010PropOp40
 70
     1
102
RTVSPost2010Prop41ColorIndex
 90
       18
102
RTVSPost2010Prop41ColorRGB
 90
        0
102
RTVSPost2010PropOp41
 70
     1
102
RTVSPost2010Prop42
 90
       50
102
RTVSPost2010PropOp42
 70
     1
102
RTVSPost2010Prop43
 90
        3
102
RTVSPost2010PropOp43
 70
     1
102
RTVSPost2010Prop44ColorIndex
 90
        5
102
RTVSPost2010Prop44ColorRGB
 90
      255
102
RTVSPost2010PropOp44
 70
     1
102
RTVSPost2010Prop45
280
     0
102
RTVSPost2010PropOp45
 70
     1
102
RTVSPost2010Prop46
 90
       50
102
RTVSPost2010PropOp46
 70
     1
102
RTVSPost2010Prop47
 90
       50
102
RTVSPost2010PropOp47
 70
     1
102
RTVSPost2010Prop48
 90
       50
102
RTVSPost2010PropOp48
 70
     1
102
RTVSPost2010Prop49
280
     0
102
RTVSPost2010PropOp49
 70
     1
102
RTVSPost2010Prop50
 90
       50
102
RTVSPost2010PropOp50
 70
     1
102
RTVSPost2010Prop51ColorIndex
 90
      256
102
RTVSPost2010Prop51ColorRGB
 90
-16777216
102
RTVSPost2010PropOp51
 70
     0
102
RTVSPost2010Prop52
140
1.0
102
RTVSPost2010PropOp52
 70
     0
102
RTVSPost2010Prop53
 90
        2
102
RTVSPost2010PropOp53
 70
     1
102
RTVSPost2010Prop54
  1
strokes_ogs.tif
102
RTVSPost2010PropOp54
 70
     1
102
RTVSPost2010Prop55
280
     0
102
RTVSPost2010PropOp55
 70
     1
102
RTVSPost2010Prop56
140
1.0
102
RTVSPost2010PropOp56
 70
     1
102
RTVSPost2010Prop57
140
1.0
102
RTVSPost2010PropOp57
 70
     1
102
RTVSPropertyOp0
 70
     1
102
RTVSPropertyOp1
 70
     1
102
RTVSPropertyOp2
 70
     1
102
RTVSPropertyOp3
 70
     1
102
RTVSPropertyOp4
 70
     1
102
RTVSPropertyOp5
 70
     1
102
RTVSPropertyOp6
 70
     1
102
RTVSPropertyOp7
 70
     1
102
RTVSPropertyOp8
 70
     1
102
RTVSPropertyOp9
 70
     1
102
RTVSPropertyOp10
 70
     1
102
RTVSPropertyOp11
 70
     1
102
RTVSPropertyOp12
 70
     1
102
RTVSPropertyOp13
 70
     1
102
RTVSPropertyOp14
 70
     1
102
RTVSPropertyOp15
 70
     1
102
RTVSPropertyOp16
 70
     1
102
RTVSPropertyOp17
 70
     1
102
RTVSPropertyOp18
 70
     1
102
RTVSPropertyOp19
 70
     1
102
RTVSPropertyOp20
 70
     1
102
RTVSPropertyOp21
 70
     1
102
RTVSPropertyOp22
 70
     1
102
RTVSPropertyOp23
 70
     1
102
RTVSPropertyOp24
 70
     1
102
RTVSPropertyOp25
 70
     1
102
RTVSPropertyOp26
 70
     1
102
RTVSPropertyOp27
 70
     1
102
RTVSPropertyOp28
 70
     1
102
RTVSPropertyOp29
 70
     1
102
RTVSPropertyOp30
 70
     1
102
RTVSPropertyOp31
 70
     1
102
RTVSPropertyOp32
 70
     1
102
RTVSPropertyOp33
 70
     1
102
RTVSPropertyOp34
 70
     1
102
RTVSPropertyOp35
 70
     1
102
RTVSPropertyOp36
 70
     1
102
RTVSPropertyOp37
 70
     1
102
RTVSPropertyOp38
 70
     1
102
RTVSPropertyOp39
 70
     1
102
RTVSPropertyOp40
 70
     1
102
RTVSPropertyOp41
 70
     1
102
RTVSPropertyOp42
 70
     1
102
RTVSPropertyOp43
 70
     1
102
RTVSPropertyOp44
 70
     1
102
RTVSPropertyOp45
 70
     1
102
RTVSPropertyOp46
 70
     1
102
RTVSPropertyOp47
 70
     1
102
RTVSPropertyOp48
 70
     1
102
RTVSPropertyOp49
 70
     1
102
RTVSPropertyOp50
 70
     1
102
RTVSPropertyOp51
 70
     0
102
RTVSPropertyOp52
 70
     0
102
RTVSPropertyOp53
 70
     1
102
RTVSPropertyOp54
 70
     1
102
RTVSPropertyOp55
 70
     1
102
RTVSPropertyOp56
 70
     1
102
RTVSPropertyOp57
 70
     1
102
RTVSPropertyOp58
 70
     1
102
RTVSPropertyOp59
 70
     1
102
RTVSPropertyOp60
 70
     1
102
RTVSPropertyOp61
 70
     1
102
RTVSPropertyOp62
 70
     1
  0
XRECORD
  5
7F9B
102
{ACAD_REACTORS
330
7F9A
102
}
330
7F9A
100
AcDbXrecord
280
     1
102
RTVSPost2010Prop28
280
     0
102
RTVSPost2010PropOp28
 70
     1
102
RTVSPost2010Prop29
280
     1
102
RTVSPost2010PropOp29
 70
     1
102
RTVSPost2010Prop30
280
     1
102
RTVSPost2010PropOp30
 70
     1
102
RTVSPost2010Prop31
280
     0
102
RTVSPost2010PropOp31
 70
     1
102
RTVSPost2010Prop32
280
     0
102
RTVSPost2010PropOp32
 70
     1
102
RTVSPost2010Prop33
280
     0
102
RTVSPost2010PropOp33
 70
     1
102
RTVSPost2010Prop34
280
     0
102
RTVSPost2010PropOp34
 70
     1
102
RTVSPost2010Prop35
280
     0
102
RTVSPost2010PropOp35
 70
     1
102
RTVSPost2010Prop36
280
     0
102
RTVSPost2010PropOp36
 70
     1
102
RTVSPost2010Prop37
 90
       50
102
RTVSPost2010PropOp37
 70
     1
102
RTVSPost2010Prop38
140
0.0
102
RTVSPost2010PropOp38
 70
     1
102
RTVSPost2010Prop39
140
1.0
102
RTVSPost2010PropOp39
 70
     1
102
RTVSPost2010Prop40
 90
        0
102
RTVSPost2010PropOp40
 70
     1
102
RTVSPost2010Prop41ColorIndex
 90
       18
102
RTVSPost2010Prop41ColorRGB
 90
        0
102
RTVSPost2010PropOp41
 70
     1
102
RTVSPost2010Prop42
 90
       50
102
RTVSPost2010PropOp42
 70
     1
102
RTVSPost2010Prop43
 90
        3
102
RTVSPost2010PropOp43
 70
     1
102
RTVSPost2010Prop44ColorIndex
 90
        5
102
RTVSPost2010Prop44ColorRGB
 90
      255
102
RTVSPost2010PropOp44
 70
     1
102
RTVSPost2010Prop45
280
     0
102
RTVSPost2010PropOp45
 70
     1
102
RTVSPost2010Prop46
 90
       50
102
RTVSPost2010PropOp46
 70
     1
102
RTVSPost2010Prop47
 90
       50
102
RTVSPost2010PropOp47
 70
     1
102
RTVSPost2010Prop48
 90
       50
102
RTVSPost2010PropOp48
 70
     1
102
RTVSPost2010Prop49
280
     0
102
RTVSPost2010PropOp49
 70
     1
102
RTVSPost2010Prop50
 90
       50
102
RTVSPost2010PropOp50
 70
     1
102
RTVSPost2010Prop51ColorIndex
 90
      256
102
RTVSPost2010Prop51ColorRGB
 90
-16777216
102
RTVSPost2010PropOp51
 70
     0
102
RTVSPost2010Prop52
140
1.0
102
RTVSPost2010PropOp52
 70
     0
102
RTVSPost2010Prop53
 90
        2
102
RTVSPost2010PropOp53
 70
     1
102
RTVSPost2010Prop54
  1
strokes_ogs.tif
102
RTVSPost2010PropOp54
 70
     1
102
RTVSPost2010Prop55
280
     0
102
RTVSPost2010PropOp55
 70
     1
102
RTVSPost2010Prop56
140
1.0
102
RTVSPost2010PropOp56
 70
     1
102
RTVSPost2010Prop57
140
1.0
102
RTVSPost2010PropOp57
 70
     1
102
RTVSPropertyOp0
 70
     1
102
RTVSPropertyOp1
 70
     1
102
RTVSPropertyOp2
 70
     1
102
RTVSPropertyOp3
 70
     1
102
RTVSPropertyOp4
 70
     1
102
RTVSPropertyOp5
 70
     1
102
RTVSPropertyOp6
 70
     1
102
RTVSPropertyOp7
 70
     1
102
RTVSPropertyOp8
 70
     1
102
RTVSPropertyOp9
 70
     1
102
RTVSPropertyOp10
 70
     1
102
RTVSPropertyOp11
 70
     1
102
RTVSPropertyOp12
 70
     1
102
RTVSPropertyOp13
 70
     1
102
RTVSPropertyOp14
 70
     1
102
RTVSPropertyOp15
 70
     1
102
RTVSPropertyOp16
 70
     1
102
RTVSPropertyOp17
 70
     1
102
RTVSPropertyOp18
 70
     1
102
RTVSPropertyOp19
 70
     1
102
RTVSPropertyOp20
 70
     1
102
RTVSPropertyOp21
 70
     1
102
RTVSPropertyOp22
 70
     1
102
RTVSPropertyOp23
 70
     1
102
RTVSPropertyOp24
 70
     1
102
RTVSPropertyOp25
 70
     1
102
RTVSPropertyOp26
 70
     1
102
RTVSPropertyOp27
 70
     1
102
RTVSPropertyOp28
 70
     1
102
RTVSPropertyOp29
 70
     1
102
RTVSPropertyOp30
 70
     1
102
RTVSPropertyOp31
 70
     1
102
RTVSPropertyOp32
 70
     1
102
RTVSPropertyOp33
 70
     1
102
RTVSPropertyOp34
 70
     1
102
RTVSPropertyOp35
 70
     1
102
RTVSPropertyOp36
 70
     1
102
RTVSPropertyOp37
 70
     1
102
RTVSPropertyOp38
 70
     1
102
RTVSPropertyOp39
 70
     1
102
RTVSPropertyOp40
 70
     1
102
RTVSPropertyOp41
 70
     1
102
RTVSPropertyOp42
 70
     1
102
RTVSPropertyOp43
 70
     1
102
RTVSPropertyOp44
 70
     1
102
RTVSPropertyOp45
 70
     1
102
RTVSPropertyOp46
 70
     1
102
RTVSPropertyOp47
 70
     1
102
RTVSPropertyOp48
 70
     1
102
RTVSPropertyOp49
 70
     1
102
RTVSPropertyOp50
 70
     1
102
RTVSPropertyOp51
 70
     0
102
RTVSPropertyOp52
 70
     0
102
RTVSPropertyOp53
 70
     1
102
RTVSPropertyOp54
 70
     1
102
RTVSPropertyOp55
 70
     1
102
RTVSPropertyOp56
 70
     1
102
RTVSPropertyOp57
 70
     1
102
RTVSPropertyOp58
 70
     1
102
RTVSPropertyOp59
 70
     1
102
RTVSPropertyOp60
 70
     1
102
RTVSPropertyOp61
 70
     1
102
RTVSPropertyOp62
 70
     1
  0
XRECORD
  5
7F8F
102
{ACAD_REACTORS
330
7F8E
102
}
330
7F8E
100
AcDbXrecord
280
     1
102
RTVSPost2010Prop28
280
     0
102
RTVSPost2010PropOp28
 70
     1
102
RTVSPost2010Prop29
280
     1
102
RTVSPost2010PropOp29
 70
     1
102
RTVSPost2010Prop30
280
     1
102
RTVSPost2010PropOp30
 70
     1
102
RTVSPost2010Prop31
280
     0
102
RTVSPost2010PropOp31
 70
     1
102
RTVSPost2010Prop32
280
     0
102
RTVSPost2010PropOp32
 70
     1
102
RTVSPost2010Prop33
280
     0
102
RTVSPost2010PropOp33
 70
     1
102
RTVSPost2010Prop34
280
     0
102
RTVSPost2010PropOp34
 70
     1
102
RTVSPost2010Prop35
280
     0
102
RTVSPost2010PropOp35
 70
     1
102
RTVSPost2010Prop36
280
     0
102
RTVSPost2010PropOp36
 70
     1
102
RTVSPost2010Prop37
 90
       50
102
RTVSPost2010PropOp37
 70
     1
102
RTVSPost2010Prop38
140
0.0
102
RTVSPost2010PropOp38
 70
     1
102
RTVSPost2010Prop39
140
1.0
102
RTVSPost2010PropOp39
 70
     1
102
RTVSPost2010Prop40
 90
        0
102
RTVSPost2010PropOp40
 70
     1
102
RTVSPost2010Prop41ColorIndex
 90
       18
102
RTVSPost2010Prop41ColorRGB
 90
        0
102
RTVSPost2010PropOp41
 70
     1
102
RTVSPost2010Prop42
 90
       50
102
RTVSPost2010PropOp42
 70
     1
102
RTVSPost2010Prop43
 90
        3
102
RTVSPost2010PropOp43
 70
     1
102
RTVSPost2010Prop44ColorIndex
 90
        5
102
RTVSPost2010Prop44ColorRGB
 90
      255
102
RTVSPost2010PropOp44
 70
     1
102
RTVSPost2010Prop45
280
     0
102
RTVSPost2010PropOp45
 70
     1
102
RTVSPost2010Prop46
 90
       50
102
RTVSPost2010PropOp46
 70
     1
102
RTVSPost2010Prop47
 90
       50
102
RTVSPost2010PropOp47
 70
     1
102
RTVSPost2010Prop48
 90
       50
102
RTVSPost2010PropOp48
 70
     1
102
RTVSPost2010Prop49
280
     0
102
RTVSPost2010PropOp49
 70
     1
102
RTVSPost2010Prop50
 90
       50
102
RTVSPost2010PropOp50
 70
     1
102
RTVSPost2010Prop51ColorIndex
 90
      256
102
RTVSPost2010Prop51ColorRGB
 90
-16777216
102
RTVSPost2010PropOp51
 70
     0
102
RTVSPost2010Prop52
140
1.0
102
RTVSPost2010PropOp52
 70
     0
102
RTVSPost2010Prop53
 90
        2
102
RTVSPost2010PropOp53
 70
     1
102
RTVSPost2010Prop54
  1
strokes_ogs.tif
102
RTVSPost2010PropOp54
 70
     1
102
RTVSPost2010Prop55
280
     0
102
RTVSPost2010PropOp55
 70
     1
102
RTVSPost2010Prop56
140
1.0
102
RTVSPost2010PropOp56
 70
     1
102
RTVSPost2010Prop57
140
1.0
102
RTVSPost2010PropOp57
 70
     1
102
RTVSPropertyOp0
 70
     1
102
RTVSPropertyOp1
 70
     1
102
RTVSPropertyOp2
 70
     1
102
RTVSPropertyOp3
 70
     1
102
RTVSPropertyOp4
 70
     1
102
RTVSPropertyOp5
 70
     1
102
RTVSPropertyOp6
 70
     1
102
RTVSPropertyOp7
 70
     1
102
RTVSPropertyOp8
 70
     1
102
RTVSPropertyOp9
 70
     1
102
RTVSPropertyOp10
 70
     1
102
RTVSPropertyOp11
 70
     1
102
RTVSPropertyOp12
 70
     1
102
RTVSPropertyOp13
 70
     1
102
RTVSPropertyOp14
 70
     1
102
RTVSPropertyOp15
 70
     1
102
RTVSPropertyOp16
 70
     1
102
RTVSPropertyOp17
 70
     1
102
RTVSPropertyOp18
 70
     1
102
RTVSPropertyOp19
 70
     1
102
RTVSPropertyOp20
 70
     1
102
RTVSPropertyOp21
 70
     1
102
RTVSPropertyOp22
 70
     1
102
RTVSPropertyOp23
 70
     1
102
RTVSPropertyOp24
 70
     1
102
RTVSPropertyOp25
 70
     1
102
RTVSPropertyOp26
 70
     1
102
RTVSPropertyOp27
 70
     1
102
RTVSPropertyOp28
 70
     1
102
RTVSPropertyOp29
 70
     1
102
RTVSPropertyOp30
 70
     1
102
RTVSPropertyOp31
 70
     1
102
RTVSPropertyOp32
 70
     1
102
RTVSPropertyOp33
 70
     1
102
RTVSPropertyOp34
 70
     1
102
RTVSPropertyOp35
 70
     1
102
RTVSPropertyOp36
 70
     1
102
RTVSPropertyOp37
 70
     1
102
RTVSPropertyOp38
 70
     1
102
RTVSPropertyOp39
 70
     1
102
RTVSPropertyOp40
 70
     1
102
RTVSPropertyOp41
 70
     1
102
RTVSPropertyOp42
 70
     1
102
RTVSPropertyOp43
 70
     1
102
RTVSPropertyOp44
 70
     1
102
RTVSPropertyOp45
 70
     1
102
RTVSPropertyOp46
 70
     1
102
RTVSPropertyOp47
 70
     1
102
RTVSPropertyOp48
 70
     1
102
RTVSPropertyOp49
 70
     1
102
RTVSPropertyOp50
 70
     1
102
RTVSPropertyOp51
 70
     0
102
RTVSPropertyOp52
 70
     0
102
RTVSPropertyOp53
 70
     1
102
RTVSPropertyOp54
 70
     1
102
RTVSPropertyOp55
 70
     1
102
RTVSPropertyOp56
 70
     1
102
RTVSPropertyOp57
 70
     1
102
RTVSPropertyOp58
 70
     1
102
RTVSPropertyOp59
 70
     1
102
RTVSPropertyOp60
 70
     1
102
RTVSPropertyOp61
 70
     1
102
RTVSPropertyOp62
 70
     1
  0
XRECORD
  5
7FAF
102
{ACAD_REACTORS
330
7FAE
102
}
330
7FAE
100
AcDbXrecord
280
     1
102
RTVSPost2010Prop28
280
     0
102
RTVSPost2010PropOp28
 70
     1
102
RTVSPost2010Prop29
280
     1
102
RTVSPost2010PropOp29
 70
     1
102
RTVSPost2010Prop30
280
     1
102
RTVSPost2010PropOp30
 70
     1
102
RTVSPost2010Prop31
280
     0
102
RTVSPost2010PropOp31
 70
     1
102
RTVSPost2010Prop32
280
     0
102
RTVSPost2010PropOp32
 70
     1
102
RTVSPost2010Prop33
280
     0
102
RTVSPost2010PropOp33
 70
     1
102
RTVSPost2010Prop34
280
     0
102
RTVSPost2010PropOp34
 70
     1
102
RTVSPost2010Prop35
280
     0
102
RTVSPost2010PropOp35
 70
     1
102
RTVSPost2010Prop36
280
     0
102
RTVSPost2010PropOp36
 70
     1
102
RTVSPost2010Prop37
 90
       50
102
RTVSPost2010PropOp37
 70
     1
102
RTVSPost2010Prop38
140
0.0
102
RTVSPost2010PropOp38
 70
     1
102
RTVSPost2010Prop39
140
1.0
102
RTVSPost2010PropOp39
 70
     1
102
RTVSPost2010Prop40
 90
        0
102
RTVSPost2010PropOp40
 70
     1
102
RTVSPost2010Prop41ColorIndex
 90
       18
102
RTVSPost2010Prop41ColorRGB
 90
        0
102
RTVSPost2010PropOp41
 70
     1
102
RTVSPost2010Prop42
 90
       50
102
RTVSPost2010PropOp42
 70
     1
102
RTVSPost2010Prop43
 90
        3
102
RTVSPost2010PropOp43
 70
     1
102
RTVSPost2010Prop44ColorIndex
 90
        5
102
RTVSPost2010Prop44ColorRGB
 90
      255
102
RTVSPost2010PropOp44
 70
     1
102
RTVSPost2010Prop45
280
     0
102
RTVSPost2010PropOp45
 70
     1
102
RTVSPost2010Prop46
 90
       50
102
RTVSPost2010PropOp46
 70
     1
102
RTVSPost2010Prop47
 90
       50
102
RTVSPost2010PropOp47
 70
     1
102
RTVSPost2010Prop48
 90
       50
102
RTVSPost2010PropOp48
 70
     1
102
RTVSPost2010Prop49
280
     0
102
RTVSPost2010PropOp49
 70
     1
102
RTVSPost2010Prop50
 90
       50
102
RTVSPost2010PropOp50
 70
     1
102
RTVSPost2010Prop51ColorIndex
 90
      256
102
RTVSPost2010Prop51ColorRGB
 90
-16777216
102
RTVSPost2010PropOp51
 70
     0
102
RTVSPost2010Prop52
140
1.0
102
RTVSPost2010PropOp52
 70
     0
102
RTVSPost2010Prop53
 90
        2
102
RTVSPost2010PropOp53
 70
     1
102
RTVSPost2010Prop54
  1
strokes_ogs.tif
102
RTVSPost2010PropOp54
 70
     1
102
RTVSPost2010Prop55
280
     0
102
RTVSPost2010PropOp55
 70
     1
102
RTVSPost2010Prop56
140
1.0
102
RTVSPost2010PropOp56
 70
     1
102
RTVSPost2010Prop57
140
1.0
102
RTVSPost2010PropOp57
 70
     1
102
RTVSPropertyOp0
 70
     1
102
RTVSPropertyOp1
 70
     1
102
RTVSPropertyOp2
 70
     1
102
RTVSPropertyOp3
 70
     1
102
RTVSPropertyOp4
 70
     1
102
RTVSPropertyOp5
 70
     1
102
RTVSPropertyOp6
 70
     1
102
RTVSPropertyOp7
 70
     1
102
RTVSPropertyOp8
 70
     1
102
RTVSPropertyOp9
 70
     1
102
RTVSPropertyOp10
 70
     1
102
RTVSPropertyOp11
 70
     1
102
RTVSPropertyOp12
 70
     1
102
RTVSPropertyOp13
 70
     1
102
RTVSPropertyOp14
 70
     1
102
RTVSPropertyOp15
 70
     1
102
RTVSPropertyOp16
 70
     1
102
RTVSPropertyOp17
 70
     1
102
RTVSPropertyOp18
 70
     1
102
RTVSPropertyOp19
 70
     1
102
RTVSPropertyOp20
 70
     1
102
RTVSPropertyOp21
 70
     1
102
RTVSPropertyOp22
 70
     1
102
RTVSPropertyOp23
 70
     1
102
RTVSPropertyOp24
 70
     1
102
RTVSPropertyOp25
 70
     1
102
RTVSPropertyOp26
 70
     1
102
RTVSPropertyOp27
 70
     1
102
RTVSPropertyOp28
 70
     1
102
RTVSPropertyOp29
 70
     1
102
RTVSPropertyOp30
 70
     1
102
RTVSPropertyOp31
 70
     1
102
RTVSPropertyOp32
 70
     1
102
RTVSPropertyOp33
 70
     1
102
RTVSPropertyOp34
 70
     1
102
RTVSPropertyOp35
 70
     1
102
RTVSPropertyOp36
 70
     1
102
RTVSPropertyOp37
 70
     1
102
RTVSPropertyOp38
 70
     1
102
RTVSPropertyOp39
 70
     1
102
RTVSPropertyOp40
 70
     1
102
RTVSPropertyOp41
 70
     1
102
RTVSPropertyOp42
 70
     1
102
RTVSPropertyOp43
 70
     1
102
RTVSPropertyOp44
 70
     1
102
RTVSPropertyOp45
 70
     1
102
RTVSPropertyOp46
 70
     1
102
RTVSPropertyOp47
 70
     1
102
RTVSPropertyOp48
 70
     1
102
RTVSPropertyOp49
 70
     1
102
RTVSPropertyOp50
 70
     1
102
RTVSPropertyOp51
 70
     0
102
RTVSPropertyOp52
 70
     0
102
RTVSPropertyOp53
 70
     1
102
RTVSPropertyOp54
 70
     1
102
RTVSPropertyOp55
 70
     1
102
RTVSPropertyOp56
 70
     1
102
RTVSPropertyOp57
 70
     1
102
RTVSPropertyOp58
 70
     1
102
RTVSPropertyOp59
 70
     1
102
RTVSPropertyOp60
 70
     1
102
RTVSPropertyOp61
 70
     1
102
RTVSPropertyOp62
 70
     1
  0
ENDSEC
  0
EOF
