  0
SECTION
  2
HEADER
  9
$ACADVER
  1
AC1015
  9
$ACADMAINTVER
 70
    18
  9
$DWGCODEPAGE
  3
ANSI_1252
  9
$INSBASE
 10
0.0
 20
0.0
 30
0.0
  9
$EXTMIN
 10
-201.5020744520031
 20
-236.0736690169127
 30
-0.0015258207003583
  9
$EXTMAX
 10
252.3294075209758
 20
266.0111395714468
 30
0.0000000349246037
  9
$LIMMIN
 10
0.0
 20
0.0
  9
$LIMMAX
 10
420.0
 20
297.0
  9
$ORTHOMODE
 70
     0
  9
$REGENMODE
 70
     1
  9
$FILLMODE
 70
     1
  9
$QTEXTMODE
 70
     0
  9
$MIRRTEXT
 70
     0
  9
$LTSCALE
 40
1.0
  9
$ATTMODE
 70
     1
  9
$TEXTSIZE
 40
2.5
  9
$TRACEWID
 40
1.0
  9
$TEXTSTYLE
  7
Standard
  9
$CLAYER
  8
0
  9
$CELTYPE
  6
ByLayer
  9
$CECOLOR
 62
   256
  9
$CELTSCALE
 40
1.0
  9
$DISPSILH
 70
     0
  9
$DIMSCALE
 40
1.0
  9
$DIMASZ
 40
2.5
  9
$DIMEXO
 40
0.625
  9
$DIMDLI
 40
3.75
  9
$DIMRND
 40
0.0
  9
$DIMDLE
 40
0.0
  9
$DIMEXE
 40
1.25
  9
$DIMTP
 40
0.0
  9
$DIMTM
 40
0.0
  9
$DIMTXT
 40
2.5
  9
$DIMCEN
 40
2.5
  9
$DIMTSZ
 40
0.0
  9
$DIMTOL
 70
     0
  9
$DIMLIM
 70
     0
  9
$DIMTIH
 70
     0
  9
$DIMTOH
 70
     0
  9
$DIMSE1
 70
     0
  9
$DIMSE2
 70
     0
  9
$DIMTAD
 70
     1
  9
$DIMZIN
 70
     8
  9
$DIMBLK
  1

  9
$DIMASO
 70
     1
  9
$DIMSHO
 70
     1
  9
$DIMPOST
  1

  9
$DIMAPOST
  1

  9
$DIMALT
 70
     0
  9
$DIMALTD
 70
     3
  9
$DIMALTF
 40
0.03937007874016
  9
$DIMLFAC
 40
1.0
  9
$DIMTOFL
 70
     1
  9
$DIMTVP
 40
0.0
  9
$DIMTIX
 70
     0
  9
$DIMSOXD
 70
     0
  9
$DIMSAH
 70
     0
  9
$DIMBLK1
  1

  9
$DIMBLK2
  1

  9
$DIMSTYLE
  2
ISO-25
  9
$DIMCLRD
 70
     0
  9
$DIMCLRE
 70
     0
  9
$DIMCLRT
 70
     0
  9
$DIMTFAC
 40
1.0
  9
$DIMGAP
 40
0.625
  9
$DIMJUST
 70
     0
  9
$DIMSD1
 70
     0
  9
$DIMSD2
 70
     0
  9
$DIMTOLJ
 70
     0
  9
$DIMTZIN
 70
     8
  9
$DIMALTZ
 70
     0
  9
$DIMALTTZ
 70
     0
  9
$DIMUPT
 70
     0
  9
$DIMDEC
 70
     2
  9
$DIMTDEC
 70
     2
  9
$DIMALTU
 70
     2
  9
$DIMALTTD
 70
     3
  9
$DIMTXSTY
  7
Standard
  9
$DIMAUNIT
 70
     0
  9
$DIMADEC
 70
     0
  9
$DIMALTRND
 40
0.0
  9
$DIMAZIN
 70
     0
  9
$DIMDSEP
 70
    44
  9
$DIMATFIT
 70
     3
  9
$DIMFRAC
 70
     0
  9
$DIMLDRBLK
  1

  9
$DIMLUNIT
 70
     2
  9
$DIMLWD
 70
    -2
  9
$DIMLWE
 70
    -2
  9
$DIMTMOVE
 70
     0
  9
$LUNITS
 70
     2
  9
$LUPREC
 70
     4
  9
$SKETCHINC
 40
1.0
  9
$FILLETRAD
 40
0.0
  9
$AUNITS
 70
     0
  9
$AUPREC
 70
     0
  9
$MENU
  1
.
  9
$ELEVATION
 40
0.0
  9
$PELEVATION
 40
0.0
  9
$THICKNESS
 40
0.0
  9
$LIMCHECK
 70
     0
  9
$CHAMFERA
 40
0.0
  9
$CHAMFERB
 40
0.0
  9
$CHAMFERC
 40
0.0
  9
$CHAMFERD
 40
0.0
  9
$SKPOLY
 70
     0
  9
$TDCREATE
 40
2460398.356956019
  9
$TDUCREATE
 40
2460398.065289352
  9
$TDUPDATE
 40
2460398.374548611
  9
$TDUUPDATE
 40
2460398.082881944
  9
$TDINDWG
 40
0.0077546296
  9
$TDUSRTIMER
 40
0.0077546296
  9
$USRTIMER
 70
     1
  9
$ANGBASE
 50
0.0
  9
$ANGDIR
 70
     0
  9
$PDMODE
 70
     0
  9
$PDSIZE
 40
0.0
  9
$PLINEWID
 40
0.0
  9
$SPLFRAME
 70
     0
  9
$SPLINETYPE
 70
     6
  9
$SPLINESEGS
 70
     8
  9
$HANDSEED
  5
8CCF
  9
$SURFTAB1
 70
     6
  9
$SURFTAB2
 70
     6
  9
$SURFTYPE
 70
     6
  9
$SURFU
 70
     6
  9
$SURFV
 70
     6
  9
$UCSBASE
  2

  9
$UCSNAME
  2

  9
$UCSORG
 10
0.0
 20
0.0
 30
0.0
  9
$UCSXDIR
 10
1.0
 20
0.0
 30
0.0
  9
$UCSYDIR
 10
0.0
 20
1.0
 30
0.0
  9
$UCSORTHOREF
  2

  9
$UCSORTHOVIEW
 70
     0
  9
$UCSORGTOP
 10
0.0
 20
0.0
 30
0.0
  9
$UCSORGBOTTOM
 10
0.0
 20
0.0
 30
0.0
  9
$UCSORGLEFT
 10
0.0
 20
0.0
 30
0.0
  9
$UCSORGRIGHT
 10
0.0
 20
0.0
 30
0.0
  9
$UCSORGFRONT
 10
0.0
 20
0.0
 30
0.0
  9
$UCSORGBACK
 10
0.0
 20
0.0
 30
0.0
  9
$PUCSBASE
  2

  9
$PUCSNAME
  2

  9
$PUCSORG
 10
0.0
 20
0.0
 30
0.0
  9
$PUCSXDIR
 10
1.0
 20
0.0
 30
0.0
  9
$PUCSYDIR
 10
0.0
 20
1.0
 30
0.0
  9
$PUCSORTHOREF
  2

  9
$PUCSORTHOVIEW
 70
     0
  9
$PUCSORGTOP
 10
0.0
 20
0.0
 30
0.0
  9
$PUCSORGBOTTOM
 10
0.0
 20
0.0
 30
0.0
  9
$PUCSORGLEFT
 10
0.0
 20
0.0
 30
0.0
  9
$PUCSORGRIGHT
 10
0.0
 20
0.0
 30
0.0
  9
$PUCSORGFRONT
 10
0.0
 20
0.0
 30
0.0
  9
$PUCSORGBACK
 10
0.0
 20
0.0
 30
0.0
  9
$USERI1
 70
     0
  9
$USERI2
 70
     0
  9
$USERI3
 70
     0
  9
$USERI4
 70
     0
  9
$USERI5
 70
     0
  9
$USERR1
 40
0.0
  9
$USERR2
 40
0.0
  9
$USERR3
 40
0.0
  9
$USERR4
 40
0.0
  9
$USERR5
 40
0.0
  9
$WORLDVIEW
 70
     1
  9
$SHADEDGE
 70
     3
  9
$SHADEDIF
 70
    70
  9
$TILEMODE
 70
     1
  9
$MAXACTVP
 70
    48
  9
$PINSBASE
 10
0.0
 20
0.0
 30
0.0
  9
$PLIMCHECK
 70
     0
  9
$PEXTMIN
 10
0.0
 20
0.0
 30
0.0
  9
$PEXTMAX
 10
0.0
 20
0.0
 30
0.0
  9
$PLIMMIN
 10
0.0
 20
0.0
  9
$PLIMMAX
 10
12.0
 20
9.0
  9
$UNITMODE
 70
     0
  9
$VISRETAIN
 70
     1
  9
$PLINEGEN
 70
     0
  9
$PSLTSCALE
 70
     1
  9
$TREEDEPTH
 70
  3020
  9
$CMLSTYLE
  2
Standard
  9
$CMLJUST
 70
     0
  9
$CMLSCALE
 40
20.0
  9
$PROXYGRAPHICS
 70
     1
  9
$MEASUREMENT
 70
     1
  9
$CELWEIGHT
370
    -1
  9
$ENDCAPS
280
     0
  9
$JOINSTYLE
280
     0
  9
$LWDISPLAY
290
     0
  9
$INSUNITS
 70
     4
  9
$HYPERLINKBASE
  1

  9
$STYLESHEET
  1

  9
$XEDIT
290
     1
  9
$CEPSNTYPE
380
     0
  9
$PSTYLEMODE
290
     1
  9
$FINGERPRINTGUID
  2
{6C1266EE-7BC1-BF4A-B059-A6E7702B10CE}
  9
$VERSIONGUID
  2
{76FE89F3-1274-9344-9529-D45DBB8A1289}
  9
$EXTNAMES
290
     1
  9
$PSVPSCALE
 40
0.0
  9
$OLESTARTUP
290
     0
  0
ENDSEC
  0
SECTION
  2
CLASSES
  0
CLASS
  1
ACDBDICTIONARYWDFLT
  2
AcDbDictionaryWithDefault
  3
ObjectDBX Classes
 90
        0
280
     0
281
     0
  0
CLASS
  1
ACDBPLACEHOLDER
  2
AcDbPlaceHolder
  3
ObjectDBX Classes
 90
        0
280
     0
281
     0
  0
CLASS
  1
LAYOUT
  2
AcDbLayout
  3
ObjectDBX Classes
 90
        0
280
     0
281
     0
  0
CLASS
  1
DICTIONARYVAR
  2
AcDbDictionaryVar
  3
ObjectDBX Classes
 90
        0
280
     0
281
     0
  0
CLASS
  1
TABLESTYLE
  2
AcDbTableStyle
  3
ObjectDBX Classes
 90
     4095
280
     0
281
     0
  0
CLASS
  1
MATERIAL
  2
AcDbMaterial
  3
ObjectDBX Classes
 90
     1153
280
     0
281
     0
  0
CLASS
  1
VISUALSTYLE
  2
AcDbVisualStyle
  3
ObjectDBX Classes
 90
     4095
280
     0
281
     0
  0
CLASS
  1
SCALE
  2
AcDbScale
  3
ObjectDBX Classes
 90
     1153
280
     0
281
     0
  0
CLASS
  1
MLEADERSTYLE
  2
AcDbMLeaderStyle
  3
ACDB_MLEADERSTYLE_CLASS
 90
     4095
280
     0
281
     0
  0
CLASS
  1
CELLSTYLEMAP
  2
AcDbCellStyleMap
  3
ObjectDBX Classes
 90
     1152
280
     0
281
     0
  0
CLASS
  1
EXACXREFPANELOBJECT
  2
ExAcXREFPanelObject
  3
EXAC_ESW
 90
    33793
280
     0
281
     0
  0
CLASS
  1
NPOCOLLECTION
  2
AcDbImpNonPersistentObjectsCollection
  3
ObjectDBX Classes
 90
    33921
280
     0
281
     0
  0
CLASS
  1
LAYER_INDEX
  2
AcDbLayerIndex
  3
ObjectDBX Classes
 90
    32768
280
     0
281
     0
  0
CLASS
  1
SPATIAL_INDEX
  2
AcDbSpatialIndex
  3
ObjectDBX Classes
 90
    32768
280
     0
281
     0
  0
CLASS
  1
IDBUFFER
  2
AcDbIdBuffer
  3
ObjectDBX Classes
 90
    32768
280
     0
281
     0
  0
CLASS
  1
ACDBSECTIONVIEWSTYLE
  2
AcDbSectionViewStyle
  3
ObjectDBX Classes
 90
     1025
280
     0
281
     0
  0
CLASS
  1
ACDBDETAILVIEWSTYLE
  2
AcDbDetailViewStyle
  3
ObjectDBX Classes
 90
     1025
280
     0
281
     0
  0
CLASS
  1
XRECORD
  2
AcDbXrecord
  3
ObjectDBX Classes
 90
        0
280
     0
281
     0
  0
ENDSEC
  0
SECTION
  2
TABLES
  0
TABLE
  2
VPORT
  5
8
102
{ACAD_XDICTIONARY
360
8BDD
102
}
330
0
100
AcDbSymbolTable
 70
     1
  0
VPORT
  5
EA
330
8
100
AcDbSymbolTableRecord
100
AcDbViewportTableRecord
  2
*Active
 70
     0
 10
0.0
 20
0.0
 11
1.0
 21
1.0
 12
25.41366653448637
 22
14.96873527726708
 13
0.0
 23
0.0
 14
10.0
 24
10.0
 15
10.0
 25
10.0
 16
0.0
 26
0.0
 36
1.0
 17
0.0
 27
0.0
 37
0.0
 40
533.9216933434683
 41
0.9846153846153848
 42
50.0
 43
0.0
 44
0.0
 50
0.0
 51
0.0
 71
     0
 72
  1000
 73
     1
 74
     3
 75
     0
 76
     1
 77
     0
 78
     0
281
     0
 65
     1
110
0.0
120
0.0
130
0.0
111
1.0
121
0.0
131
0.0
112
0.0
122
1.0
132
0.0
 79
     0
146
0.0
1001
ACAD_NAV_VCDISPLAY
1070
     3
  0
ENDTAB
  0
TABLE
  2
LTYPE
  5
5
330
0
100
AcDbSymbolTable
 70
     1
  0
LTYPE
  5
14
330
5
100
AcDbSymbolTableRecord
100
AcDbLinetypeTableRecord
  2
ByBlock
 70
     0
  3

 72
    65
 73
     0
 40
0.0
  0
LTYPE
  5
15
330
5
100
AcDbSymbolTableRecord
100
AcDbLinetypeTableRecord
  2
ByLayer
 70
     0
  3

 72
    65
 73
     0
 40
0.0
  0
LTYPE
  5
16
330
5
100
AcDbSymbolTableRecord
100
AcDbLinetypeTableRecord
  2
Continuous
 70
     0
  3
Solid line
 72
    65
 73
     0
 40
0.0
  0
ENDTAB
  0
TABLE
  2
LAYER
  5
2
102
{ACAD_XDICTIONARY
360
1FF
102
}
330
0
100
AcDbSymbolTable
 70
     1
  0
LAYER
  5
10
102
{ACAD_XDICTIONARY
360
13C
102
}
330
2
100
AcDbSymbolTableRecord
100
AcDbLayerTableRecord
  2
0
 70
     0
 62
     7
  6
Continuous
370
    -3
390
F
  0
ENDTAB
  0
TABLE
  2
STYLE
  5
3
330
0
100
AcDbSymbolTable
 70
     1
  0
STYLE
  5
11
330
3
100
AcDbSymbolTableRecord
100
AcDbTextStyleTableRecord
  2
Standard
 70
     0
 40
0.0
 41
1.0
 50
0.0
 71
     0
 42
2.5
  3
arial.ttf
  4

1001
ACAD
1000
Arial
1071
       34
  0
ENDTAB
  0
TABLE
  2
VIEW
  5
6
330
0
100
AcDbSymbolTable
 70
     0
  0
ENDTAB
  0
TABLE
  2
UCS
  5
7
330
0
100
AcDbSymbolTable
 70
     0
  0
ENDTAB
  0
TABLE
  2
APPID
  5
9
330
0
100
AcDbSymbolTable
 70
     8
  0
APPID
  5
12
330
9
100
AcDbSymbolTableRecord
100
AcDbRegAppTableRecord
  2
ACAD
 70
     0
  0
APPID
  5
9E
330
9
100
AcDbSymbolTableRecord
100
AcDbRegAppTableRecord
  2
ACAD_PSEXT
 70
     0
  0
APPID
  5
133
330
9
100
AcDbSymbolTableRecord
100
AcDbRegAppTableRecord
  2
AcadAnnoPO
 70
     0
  0
APPID
  5
134
330
9
100
AcDbSymbolTableRecord
100
AcDbRegAppTableRecord
  2
AcadAnnotative
 70
     0
  0
APPID
  5
135
330
9
100
AcDbSymbolTableRecord
100
AcDbRegAppTableRecord
  2
ACAD_DSTYLE_DIMJAG
 70
     0
  0
APPID
  5
136
330
9
100
AcDbSymbolTableRecord
100
AcDbRegAppTableRecord
  2
ACAD_DSTYLE_DIMTALN
 70
     0
  0
APPID
  5
165
330
9
100
AcDbSymbolTableRecord
100
AcDbRegAppTableRecord
  2
ACAD_MLEADERVER
 70
     0
  0
APPID
  5
217
330
9
100
AcDbSymbolTableRecord
100
AcDbRegAppTableRecord
  2
ACAD_NAV_VCDISPLAY
 70
     0
  0
ENDTAB
  0
TABLE
  2
DIMSTYLE
  5
A
330
0
100
AcDbSymbolTable
 70
     1
100
AcDbDimStyleTable
 71
     0
  0
DIMSTYLE
105
27
330
A
100
AcDbSymbolTableRecord
100
AcDbDimStyleTableRecord
  2
ISO-25
 70
     0
 41
2.5
 42
0.625
 43
3.75
 44
1.25
 73
     0
 74
     0
 77
     1
 78
     8
140
2.5
141
2.5
143
0.03937007874016
147
0.625
171
     3
172
     1
271
     2
272
     2
274
     3
278
    44
283
     0
284
     8
340
11
  0
ENDTAB
  0
TABLE
  2
BLOCK_RECORD
  5
1
330
0
100
AcDbSymbolTable
 70
     7
  0
BLOCK_RECORD
  5
1F
102
{ACAD_XDICTIONARY
360
1CE
102
}
330
1
100
AcDbSymbolTableRecord
100
AcDbBlockTableRecord
  2
*Model_Space
340
22
  0
BLOCK_RECORD
  5
D2
102
{ACAD_XDICTIONARY
360
8B90
102
}
330
1
100
AcDbSymbolTableRecord
100
AcDbBlockTableRecord
  2
*Paper_Space
340
D3
  0
BLOCK_RECORD
  5
D6
102
{ACAD_XDICTIONARY
360
8B92
102
}
330
1
100
AcDbSymbolTableRecord
100
AcDbBlockTableRecord
  2
*Paper_Space0
340
D7
  0
BLOCK_RECORD
  5
8A0E
330
1
100
AcDbSymbolTableRecord
100
AcDbBlockTableRecord
  2
SAE340_64_2-Front
340
0
102
{BLKREFS
331
8B86
102
}
  0
BLOCK_RECORD
  5
8A62
330
1
100
AcDbSymbolTableRecord
100
AcDbBlockTableRecord
  2
SAE340_64_2-Left
340
0
102
{BLKREFS
331
8B87
102
}
  0
BLOCK_RECORD
  5
8A83
330
1
100
AcDbSymbolTableRecord
100
AcDbBlockTableRecord
  2
SAE340_64_2-Right
340
0
102
{BLKREFS
331
8B88
102
}
  0
BLOCK_RECORD
  5
8AA4
330
1
100
AcDbSymbolTableRecord
100
AcDbBlockTableRecord
  2
SAE340_64_2-Top
340
0
102
{BLKREFS
331
8B89
102
}
  0
BLOCK_RECORD
  5
8AD1
330
1
100
AcDbSymbolTableRecord
100
AcDbBlockTableRecord
  2
SAE340_64_2-Bottom
340
0
102
{BLKREFS
331
8B8A
102
}
  0
BLOCK_RECORD
  5
8AF5
330
1
100
AcDbSymbolTableRecord
100
AcDbBlockTableRecord
  2
SAE340_64_2-ISO
340
0
102
{BLKREFS
331
8B8B
102
}
  0
ENDTAB
  0
ENDSEC
  0
SECTION
  2
BLOCKS
  0
BLOCK
  5
20
330
1F
100
AcDbEntity
  8
0
100
AcDbBlockBegin
  2
*Model_Space
 70
     0
 10
0.0
 20
0.0
 30
0.0
  3
*Model_Space
  1

  0
ENDBLK
  5
21
330
1F
100
AcDbEntity
  8
0
100
AcDbBlockEnd
  0
BLOCK
  5
D4
330
D2
100
AcDbEntity
 67
     1
  8
0
100
AcDbBlockBegin
  2
*Paper_Space
 70
     0
 10
0.0
 20
0.0
 30
0.0
  3
*Paper_Space
  1

  0
ENDBLK
  5
D5
330
D2
100
AcDbEntity
 67
     1
  8
0
100
AcDbBlockEnd
  0
BLOCK
  5
D8
330
D6
100
AcDbEntity
 67
     1
  8
0
100
AcDbBlockBegin
  2
*Paper_Space0
 70
     0
 10
0.0
 20
0.0
 30
0.0
  3
*Paper_Space0
  1

  0
ENDBLK
  5
D9
330
D6
100
AcDbEntity
 67
     1
  8
0
100
AcDbBlockEnd
  0
BLOCK
  5
8A0F
330
8A0E
100
AcDbEntity
  8
0
100
AcDbBlockBegin
  2
SAE340_64_2-Front
 70
     0
 10
0.0
 20
0.0
 30
0.0
  3
SAE340_64_2-Front
  1

  0
SPLINE
  5
8A11
330
8A0E
100
AcDbEntity
  8
0
100
AcDbSpline
210
0.0
220
0.0
230
1.0
 70
     8
 71
     3
 72
    17
 73
    13
 74
     0
 42
0.000000001
 43
0.0000000001
 40
0.0
 40
0.0
 40
0.0
 40
0.0
 40
0.3704689058681346
 40
0.3704689058681346
 40
0.3704689058681346
 40
0.7029757053306487
 40
0.7029757053306487
 40
0.7029757053306487
 40
0.9335813790882429
 40
0.9335813790882429
 40
0.9335813790882429
 40
0.9938185929498207
 40
0.9938185929498207
 40
0.9938185929498207
 40
0.9938185929498207
 10
36.60606060606065
 20
10.56250000000003
 30
0.0
 10
36.25310981611538
 20
10.27455844103394
 30
0.0
 10
35.80994835339229
 20
10.04087523495629
 30
0.0
 10
35.38299606376927
 20
9.78869659270642
 30
0.0
 10
34.9997937569169
 20
9.562358803220917
 30
0.0
 10
34.63742190751005
 20
9.323328298082863
 30
0.0
 10
34.37998709144399
 20
9.017091696103795
 30
0.0
 10
34.20144659451721
 20
8.804705368838387
 30
0.0
 10
34.07197149374584
 20
8.55383081506153
 30
0.0
 10
34.02188707330124
 20
8.265752257156805
 30
0.0
 10
34.00880436854253
 20
8.190502375318759
 30
0.0
 10
34.00144745145286
 20
8.114462899895645
 30
0.0
 10
34.00019299677366
 20
8.027222381075191
 30
0.0
  0
LINE
  5
8A12
330
8A0E
100
AcDbEntity
  8
0
100
AcDbLine
 10
36.00000000000001
 20
10.56249999999998
 30
0.0
 11
36.55691948255125
 21
10.56249999999998
 31
0.0
  0
LINE
  5
8A13
330
8A0E
100
AcDbEntity
  8
0
100
AcDbLine
 10
35.92566083936376
 20
10.56249999999998
 30
0.0
 11
36.0
 21
10.56249999999998
 31
0.0
  0
LINE
  5
8A14
330
8A0E
100
AcDbEntity
  8
0
100
AcDbLine
 10
34.00000000000001
 20
10.56249999999998
 30
0.0
 11
35.92566083936375
 21
10.56249999999998
 31
0.0
  0
LINE
  5
8A15
330
8A0E
100
AcDbEntity
  8
0
100
AcDbLine
 10
34.0000087716686
 20
8.000141517025857
 30
0.0
 11
34.00000776398948
 21
8.000037655018322
 31
0.0
  0
SPLINE
  5
8A16
330
8A0E
100
AcDbEntity
  8
0
100
AcDbSpline
210
0.0
220
0.0
230
1.0
 70
     8
 71
     3
 72
    10
 73
     6
 74
     0
 42
0.000000001
 43
0.0000000001
 40
0.0148011536103827
 40
0.0148011536103827
 40
0.0148011536103827
 40
0.0148011536103827
 40
0.0171749157067663
 40
0.0171749157067663
 40
0.0184199763623657
 40
0.0184199763623657
 40
0.0184199763623657
 40
0.0184199763623657
 10
34.0003854862622
 20
8.029854887307262
 30
0.0
 10
34.00029023221037
 20
8.023479085535326
 30
0.0
 10
34.00020711898873
 20
8.016943911746905
 30
0.0
 10
34.00010254081215
 20
8.006922961970929
 30
0.0
 10
34.00007042308973
 20
8.003461430004335
 30
0.0
 10
34.00004220846259
 20
7.999999663350595
 30
0.0
  0
SPLINE
  5
8A17
330
8A0E
100
AcDbEntity
  8
0
100
AcDbSpline
210
0.0
220
0.0
230
1.0
 70
     8
 71
     3
 72
    10
 73
     6
 74
     0
 42
0.000000001
 43
0.0000000001
 40
0.0040569453817327
 40
0.0040569453817327
 40
0.0040569453817327
 40
0.0040569453817327
 40
0.0078413142279753
 40
0.0078413142279753
 40
0.0123972692470014
 40
0.0123972692470014
 40
0.0123972692470014
 40
0.0123972692470014
 10
34.00001991426296
 20
8.002877770566611
 30
0.0
 10
34.00001991426286
 20
8.002877770554517
 30
0.0
 10
34.0000141883753
 20
8.002096435287569
 30
0.0
 10
34.00000547994707
 20
8.000735792579368
 30
0.0
 10
34.00000316260094
 20
8.000286006561966
 30
0.0
 10
34.00000179639031
 20
7.999999991598915
 30
0.0
  0
SPLINE
  5
8A18
330
8A0E
100
AcDbEntity
  8
0
100
AcDbSpline
210
0.0
220
0.0
230
1.0
 70
     8
 71
     3
 72
     8
 73
     4
 74
     0
 42
0.000000001
 43
0.0000000001
 40
0.0
 40
0.0
 40
0.0
 40
0.0
 40
0.0015511722947076
 40
0.0015511722947076
 40
0.0015511722947076
 40
0.0015511722947076
 10
31.99955984654371
 20
8.000001116154054
 30
0.0
 10
31.99956565327769
 20
8.004468810978753
 30
0.0
 10
31.99957076641537
 20
8.008847082581771
 30
0.0
 10
31.99957512909042
 20
8.013075913228567
 30
0.0
  0
SPLINE
  5
8A19
330
8A0E
100
AcDbEntity
  8
0
100
AcDbSpline
210
0.0
220
0.0
230
1.0
 70
     8
 71
     3
 72
    16
 73
    12
 74
     0
 42
0.000000001
 43
0.0000000001
 40
0.0
 40
0.0
 40
0.0
 40
0.0
 40
0.0021186811704896
 40
0.0021186811704896
 40
0.0037963488500351
 40
0.0037963488500351
 40
0.0060490110196428
 40
0.0060490110196428
 40
0.0082160740748695
 40
0.0082160740748695
 40
0.0100715168753027
 40
0.0100715168753027
 40
0.0100715168753027
 40
0.0100715168753027
 10
31.99977770285768
 20
7.999996711300786
 30
0.0
 10
31.99967060184438
 20
8.006962620954816
 30
0.0
 10
31.99956026411874
 20
8.014064376952322
 30
0.0
 10
31.99936153534853
 20
8.026708140802981
 30
0.0
 10
31.99927271948971
 20
8.032305707943207
 30
0.0
 10
31.99907108313902
 20
8.044902488073343
 30
0.0
 10
31.99895813017026
 20
8.05187273935512
 30
0.0
 10
31.99876083666373
 20
8.063950031865878
 30
0.0
 10
31.9986733896059
 20
8.069253598397386
 30
0.0
 10
31.99853375467228
 20
8.077668221269242
 30
0.0
 10
31.99847718644888
 20
8.081052338129568
 30
0.0
 10
31.99842789893664
 20
8.083983497753306
 30
0.0
  0
SPLINE
  5
8A1A
330
8A0E
100
AcDbEntity
  8
0
100
AcDbSpline
210
0.0
220
0.0
230
1.0
 70
     8
 71
     3
 72
    34
 73
    30
 74
     0
 42
0.000000001
 43
0.0000000001
 40
0.0018826910041366
 40
0.0018826910041366
 40
0.0018826910041366
 40
0.0018826910041366
 40
0.0067931669891501
 40
0.0067931669891501
 40
0.0148581762680555
 40
0.0148581762680555
 40
0.0216571624687438
 40
0.0216571624687438
 40
0.0241181605825837
 40
0.0241181605825837
 40
0.0262721351160525
 40
0.0262721351160525
 40
0.029118397469616
 40
0.029118397469616
 40
0.0315307617278034
 40
0.0315307617278034
 40
0.034650620913612
 40
0.034650620913612
 40
0.0395925192848985
 40
0.0395925192848985
 40
0.0489047040356317
 40
0.0489047040356317
 40
0.0719038373427385
 40
0.0719038373427385
 40
0.1414749579105834
 40
0.1414749579105834
 40
0.2235343191656073
 40
0.2235343191656073
 40
0.2662176350873919
 40
0.2662176350873919
 40
0.2662176350873919
 40
0.2662176350873919
 10
31.99993408575548
 20
8.003821543007072
 30
0.0
 10
31.99986408235874
 20
8.00784010262949
 30
0.0
 10
31.99976229507078
 20
8.013587989002097
 30
0.0
 10
31.99943617609187
 20
8.031500952529746
 30
0.0
 10
31.9991737909707
 20
8.045479057630601
 30
0.0
 10
31.99862147508124
 20
8.074128516620165
 30
0.0
 10
31.99834195422389
 20
8.088369787893043
 30
0.0
 10
31.99789287056328
 20
8.111299852381192
 30
0.0
 10
31.99776556978374
 20
8.117807838654769
 30
0.0
 10
31.99751102761061
 20
8.130921371892721
 30
0.0
 10
31.99738418371773
 20
8.137495995151679
 30
0.0
 10
31.99708160720986
 20
8.15339172506936
 30
0.0
 10
31.99689912594405
 20
8.163147598071745
 30
0.0
 10
31.99658164288933
 20
8.180631640741443
 30
0.0
 10
31.9964405407958
 20
8.188607623546523
 30
0.0
 10
31.99613963834398
 20
8.206133284930759
 30
0.0
 10
31.99598354352548
 20
8.215623066487356
 30
0.0
 10
31.99561575572575
 20
8.238972558263698
 30
0.0
 10
31.9954213308438
 20
8.252352929417369
 30
0.0
 10
31.99492632777846
 20
8.289080360369741
 30
0.0
 10
31.99467887913346
 20
8.311076629093015
 30
0.0
 10
31.99397377070941
 20
8.384835454684683
 30
0.0
 10
31.9937307580242
 20
8.433251287382448
 30
0.0
 10
31.99330496971994
 20
8.635245135315406
 30
0.0
 10
31.99455225589169
 20
8.81157714810763
 30
0.0
 10
31.99793365453974
 20
9.233028524826952
 30
0.0
 10
31.99943798485087
 20
9.488416505624519
 30
0.0
 10
31.99998708512247
 20
9.892407453780419
 30
0.0
 10
31.99998191116105
 20
10.03407841407226
 30
0.0
 10
31.99998937018707
 20
10.17586272152095
 30
0.0
  0
SPLINE
  5
8A1B
330
8A0E
100
AcDbEntity
  8
0
100
AcDbSpline
210
0.0
220
0.0
230
1.0
 70
     8
 71
     3
 72
    12
 73
     8
 74
     0
 42
0.000000001
 43
0.0000000001
 40
0.0
 40
0.0
 40
0.0
 40
0.0
 40
0.0030437042989477
 40
0.0030437042989477
 40
0.0059481041540214
 40
0.0059481041540214
 40
0.0077014641315482
 40
0.0077014641315482
 40
0.0077014641315482
 40
0.0077014641315482
 10
31.99994095221152
 20
7.999999879470824
 30
0.0
 10
31.9999287981997
 20
8.006961280067276
 30
0.0
 10
31.99991751862588
 20
8.012749014287544
 30
0.0
 10
31.99989988569936
 20
8.020868019036495
 30
0.0
 10
31.99989321745708
 20
8.023454764357341
 30
0.0
 10
31.99988738789273
 20
8.025581684042059
 30
0.0
 10
31.99988625762895
 20
8.025943676548084
 30
0.0
 10
31.99988625762899
 20
8.025943676530992
 30
0.0
  0
LINE
  5
8A1C
330
8A0E
100
AcDbEntity
  8
0
100
AcDbLine
 10
29.99999999999999
 20
-2.0
 30
0.0
 11
-29.99999999999998
 21
-2.000000000000003
 31
0.0
  0
LINE
  5
8A1D
330
8A0E
100
AcDbEntity
  8
0
100
AcDbLine
 10
-29.99999999999998
 20
0.0
 30
0.0
 11
29.99999999999998
 21
0.0
 31
0.0
  0
LINE
  5
8A1E
330
8A0E
100
AcDbEntity
  8
0
100
AcDbLine
 10
-35.92566083936375
 20
10.56249999999998
 30
0.0
 11
-34.00000000000001
 21
10.56249999999998
 31
0.0
  0
LINE
  5
8A1F
330
8A0E
100
AcDbEntity
  8
0
100
AcDbLine
 10
-36.0
 20
10.56249999999998
 30
0.0
 11
-35.92566083936375
 21
10.56249999999998
 31
0.0
  0
LINE
  5
8A20
330
8A0E
100
AcDbEntity
  8
0
100
AcDbLine
 10
-36.55691948255125
 20
10.56249999999998
 30
0.0
 11
-36.00000000000001
 21
10.56249999999998
 31
0.0
  0
SPLINE
  5
8A21
330
8A0E
100
AcDbEntity
  8
0
100
AcDbSpline
210
0.0
220
0.0
230
1.0
 70
     8
 71
     3
 72
    17
 73
    13
 74
     0
 42
0.000000001
 43
0.0000000001
 40
0.0
 40
0.0
 40
0.0
 40
0.0
 40
0.3704689058681346
 40
0.3704689058681346
 40
0.3704689058681346
 40
0.7029757053306487
 40
0.7029757053306487
 40
0.7029757053306487
 40
0.9335813790882429
 40
0.9335813790882429
 40
0.9335813790882429
 40
0.9938185929506069
 40
0.9938185929506069
 40
0.9938185929506069
 40
0.9938185929506069
 10
-36.60606060606065
 20
10.56250000000003
 30
0.0
 10
-36.25310981611538
 20
10.27455844103394
 30
0.0
 10
-35.80994835339229
 20
10.04087523495629
 30
0.0
 10
-35.38299606376927
 20
9.78869659270642
 30
0.0
 10
-34.9997937569169
 20
9.562358803220917
 30
0.0
 10
-34.63742190751005
 20
9.323328298082863
 30
0.0
 10
-34.37998709144399
 20
9.017091696103795
 30
0.0
 10
-34.20144659451721
 20
8.804705368838387
 30
0.0
 10
-34.07197149374584
 20
8.55383081506153
 30
0.0
 10
-34.02188707330124
 20
8.265752257156805
 30
0.0
 10
-34.00880436854236
 20
8.190502375317777
 30
0.0
 10
-34.00144745145266
 20
8.114462899893659
 30
0.0
 10
-34.00019299677361
 20
8.027222381071776
 30
0.0
  0
SPLINE
  5
8A22
330
8A0E
100
AcDbEntity
  8
0
100
AcDbSpline
210
0.0
220
0.0
230
1.0
 70
     8
 71
     3
 72
     8
 73
     4
 74
     0
 42
0.000000001
 43
0.0000000001
 40
0.0195591542954298
 40
0.0195591542954298
 40
0.0195591542954298
 40
0.0195591542954298
 40
0.0211163332932589
 40
0.0211163332932589
 40
0.0211163332932589
 40
0.0211163332932589
 10
-31.99957522649601
 20
8.013077869606764
 30
0.0
 10
-31.99957087708057
 20
8.008861733100294
 30
0.0
 10
-31.99956567554107
 20
8.004485930208991
 30
0.0
 10
-31.99955984630368
 20
8.000000931476659
 30
0.0
  0
SPLINE
  5
8A23
330
8A0E
100
AcDbEntity
  8
0
100
AcDbSpline
210
0.0
220
0.0
230
1.0
 70
     8
 71
     3
 72
    16
 73
    12
 74
     0
 42
0.000000001
 43
0.0000000001
 40
0.032855148947273
 40
0.032855148947273
 40
0.032855148947273
 40
0.032855148947273
 40
0.0346121774666784
 40
0.0346121774666784
 40
0.0362943945910052
 40
0.0362943945910052
 40
0.0388726384058233
 40
0.0388726384058233
 40
0.0410449516653132
 40
0.0410449516653132
 40
0.0429128462523131
 40
0.0429128462523131
 40
0.0429128462523131
 40
0.0429128462523131
 10
-31.99842867933487
 20
8.083937095945049
 30
0.0
 10
-31.99847544363719
 20
8.081155839222992
 30
0.0
 10
-31.99852869183453
 20
8.077970899752839
 30
0.0
 10
-31.9986466552527
 20
8.070866631242884
 30
0.0
 10
-31.99871142252617
 20
8.066945869256219
 30
0.0
 10
-31.99889097008382
 20
8.056002937430987
 30
0.0
 10
-31.99901757407804
 20
8.048221826679961
 30
0.0
 10
-31.99925928458784
 20
8.033159353535626
 30
0.0
 10
-31.99937543013559
 20
8.025840271141834
 30
0.0
 10
-31.99958650204185
 20
8.012374788470426
 30
0.0
 10
-31.99968327876622
 20
8.006138106671373
 30
0.0
 10
-31.9997777023257
 20
7.999996745900873
 30
0.0
  0
SPLINE
  5
8A24
330
8A0E
100
AcDbEntity
  8
0
100
AcDbSpline
210
0.0
220
0.0
230
1.0
 70
     8
 71
     3
 72
    12
 73
     8
 74
     0
 42
0.000000001
 43
0.0000000001
 40
0.0138055033846959
 40
0.0138055033846959
 40
0.0138055033846959
 40
0.0138055033846959
 40
0.0169840864499358
 40
0.0169840864499358
 40
0.0189304896074162
 40
0.0189304896074162
 40
0.0215081521999052
 40
0.0215081521999052
 40
0.0215081521999052
 40
0.0215081521999052
 10
-31.99988625762902
 20
8.025943676530154
 30
0.0
 10
-31.99988625767153
 20
8.02594366283168
 30
0.0
 10
-31.9998900944419
 20
8.024723691323256
 30
0.0
 10
-31.99990126112052
 20
8.020165325035637
 30
0.0
 10
-31.99990666453869
 20
8.017817814217213
 30
0.0
 10
-31.99992101920991
 20
8.010952301260429
 30
0.0
 10
-31.99993065918648
 20
8.005895370907415
 30
0.0
 10
-31.99994095221742
 20
7.999999876091319
 30
0.0
  0
SPLINE
  5
8A25
330
8A0E
100
AcDbEntity
  8
0
100
AcDbSpline
210
0.0
220
0.0
230
1.0
 70
     8
 71
     3
 72
    30
 73
    26
 74
     0
 42
0.000000001
 43
0.0000000001
 40
0.0
 40
0.0
 40
0.0
 40
0.0
 40
0.0655519174381458
 40
0.0655519174381458
 40
0.1471090821199149
 40
0.1471090821199149
 40
0.1864921616637865
 40
0.1864921616637865
 40
0.2244293778154796
 40
0.2244293778154796
 40
0.2339028686264765
 40
0.2339028686264765
 40
0.2360480835357128
 40
0.2360480835357128
 40
0.2376820831859799
 40
0.2376820831859799
 40
0.239318705014437
 40
0.239318705014437
 40
0.2426426045450131
 40
0.2426426045450131
 40
0.2492713511112702
 40
0.2492713511112702
 40
0.2559211531684134
 40
0.2559211531684134
 40
0.2643743842954219
 40
0.2643743842954219
 40
0.2643743842954219
 40
0.2643743842954219
 10
-31.99998937031419
 20
10.17586513774912
 30
0.0
 10
-31.9999779145683
 20
9.95811650530695
 30
0.0
 10
-31.9999749977044
 20
9.739549705279401
 30
0.0
 10
-31.99847085417023
 20
9.277657536054926
 30
0.0
 10
-31.99618385908222
 20
9.036327677398439
 30
0.0
 10
-31.99399784618413
 20
8.720346121326706
 30
0.0
 10
-31.99356180811372
 20
8.624105509296764
 30
0.0
 10
-31.9935752526853
 20
8.451200465385323
 30
0.0
 10
-31.9938540018852
 20
8.37643606971924
 30
0.0
 10
-31.99531499383911
 20
8.259125123626787
 30
0.0
 10
-31.99568024104623
 20
8.233631344446388
 30
0.0
 10
-31.99628324925528
 20
8.197710544985508
 30
0.0
 10
-31.99640194862946
 20
8.190833201792113
 30
0.0
 10
-31.99662080656418
 20
8.178478763059079
 30
0.0
 10
-31.99671936624224
 20
8.173017900580457
 30
0.0
 10
-31.99691928538062
 20
8.162117909660043
 30
0.0
 10
-31.997021615405
 20
8.156626220542197
 30
0.0
 10
-31.99732646209843
 20
8.140457816251613
 30
0.0
 10
-31.99752714706849
 20
8.130072015859365
 30
0.0
 10
-31.99806276928646
 20
8.10255026835037
 30
0.0
 10
-31.99835962486523
 20
8.087517477927031
 30
0.0
 10
-31.99889077353598
 20
8.060223933665271
 30
0.0
 10
-31.99912912124637
 20
8.047792936998348
 30
0.0
 10
-31.99959882886004
 20
8.022725230169406
 30
0.0
 10
-31.99981357975701
 20
8.010704580586111
 30
0.0
 10
-31.99993418558881
 20
8.003808261659422
 30
0.0
  0
SPLINE
  5
8A26
330
8A0E
100
AcDbEntity
  8
0
100
AcDbSpline
210
0.0
220
0.0
230
1.0
 70
     8
 71
     3
 72
    16
 73
    12
 74
     0
 42
0.000000001
 43
0.0000000001
 40
0.0004163505046913
 40
0.0004163505046913
 40
0.0004163505046913
 40
0.0004163505046913
 40
0.0035138910009392
 40
0.0035138910009392
 40
0.0059267043978548
 40
0.0059267043978548
 40
0.0066158865471437
 40
0.0066158865471437
 40
0.0070441724343198
 40
0.0070441724343198
 40
0.0073037898287033
 40
0.0073037898287033
 40
0.0073037898287033
 40
0.0073037898287033
 10
-34.00002338564629
 20
8.003899534302084
 30
0.0
 10
-34.00005233626567
 20
8.013553156563876
 30
0.0
 10
-34.00011399930443
 20
8.023110541357024
 30
0.0
 10
-34.00028055584676
 20
8.039472372740917
 30
0.0
 10
-34.00037745351558
 20
8.046657541583792
 30
0.0
 10
-34.00049894014997
 20
8.054209505431353
 30
0.0
 10
-34.00052569650585
 20
8.055783874787119
 30
0.0
 10
-34.00056042089494
 20
8.05776410526384
 30
0.0
 10
-34.00057174405697
 20
8.058392196313244
 30
0.0
 10
-34.00058222695014
 20
8.058969177056427
 30
0.0
 10
-34.00058444760355
 20
8.059089953326179
 30
0.0
 10
-34.00058444767501
 20
8.059089957219629
 30
0.0
  0
SPLINE
  5
8A27
330
8A0E
100
AcDbEntity
  8
0
100
AcDbSpline
210
0.0
220
0.0
230
1.0
 70
     8
 71
     3
 72
    16
 73
    12
 74
     0
 42
0.000000001
 43
0.0000000001
 40
0.0
 40
0.0
 40
0.0
 40
0.0
 40
0.004824558764109
 40
0.004824558764109
 40
0.0084632884944737
 40
0.0084632884944737
 40
0.0094798804163324
 40
0.0094798804163324
 40
0.0099662893209384
 40
0.0099662893209384
 40
0.010023458740389
 40
0.010023458740389
 40
0.010023458740389
 40
0.010023458740389
 10
-34.00004220846257
 20
7.999999663350592
 30
0.0
 10
-34.00015153898074
 20
8.013413866564748
 30
0.0
 10
-34.00032268955188
 20
8.026871415337078
 30
0.0
 10
-34.00070285066961
 20
8.048904627152911
 30
0.0
 10
-34.00090173278155
 20
8.058241256425894
 30
0.0
 10
-34.00111304294892
 20
8.067128836786627
 30
0.0
 10
-34.00115674471967
 20
8.068897877458834
 30
0.0
 10
-34.00119778520401
 20
8.070536337722579
 30
0.0
 10
-34.00120726678726
 20
8.07091044348072
 30
0.0
 10
-34.00120931527889
 20
8.070991340089557
 30
0.0
 10
-34.00120942614336
 20
8.070995716842336
 30
0.0
 10
-34.00120942614083
 20
8.070995716742279
 30
0.0
  0
SPLINE
  5
8A28
330
8A0E
100
AcDbEntity
  8
0
100
AcDbSpline
210
0.0
220
0.0
230
1.0
 70
     8
 71
     3
 72
    38
 73
    34
 74
     0
 42
0.000000001
 43
0.0000000001
 40
0.000005999187286
 40
0.000005999187286
 40
0.000005999187286
 40
0.000005999187286
 40
0.0029918282690895
 40
0.0029918282690895
 40
0.0074782331662874
 40
0.0074782331662874
 40
0.0106273982229011
 40
0.0106273982229011
 40
0.0128214365552894
 40
0.0128214365552894
 40
0.0142987307373356
 40
0.0142987307373356
 40
0.0158295088488784
 40
0.0158295088488784
 40
0.0169257867748572
 40
0.0169257867748572
 40
0.0178303058560334
 40
0.0178303058560334
 40
0.0187015938678684
 40
0.0187015938678684
 40
0.0209039604451182
 40
0.0209039604451182
 40
0.0275148204797609
 40
0.0275148204797609
 40
0.0309698963157849
 40
0.0309698963157849
 40
0.0344376975673812
 40
0.0344376975673812
 40
0.0366921532360865
 40
0.0366921532360865
 40
0.0382082661094534
 40
0.0382082661094534
 40
0.0386471327321809
 40
0.0386471327321809
 40
0.0386471327321809
 40
0.0386471327321809
 10
-34.00000776398828
 20
8.000037655357132
 30
0.0
 10
-34.00006843658277
 20
8.006299411275604
 30
0.0
 10
-34.00015500592517
 20
8.013911653285809
 30
0.0
 10
-34.00042636939898
 20
8.033285516548609
 30
0.0
 10
-34.0006407129611
 20
8.045426194138684
 30
0.0
 10
-34.00106908090243
 20
8.065146269942671
 30
0.0
 10
-34.00126489515392
 20
8.073067241491672
 30
0.0
 10
-34.00160491217388
 20
8.085483103632425
 30
0.0
 10
-34.0017575435769
 20
8.090631185469982
 30
0.0
 10
-34.00195012348071
 20
8.096835193644922
 30
0.0
 10
-34.00200684021654
 20
8.09858713517748
 30
0.0
 10
-34.00208009522444
 20
8.100836344248364
 30
0.0
 10
-34.00209397696257
 20
8.101254175292286
 30
0.0
 10
-34.00214119216912
 20
8.102670953953518
 30
0.0
 10
-34.00217347113058
 20
8.103644041305571
 30
0.0
 10
-34.0022934275375
 20
8.107139402058505
 30
0.0
 10
-34.00236897928744
 20
8.109305980043352
 30
0.0
 10
-34.0025330796821
 20
8.113863399466398
 30
0.0
 10
-34.002622018238
 20
8.116272996956915
 30
0.0
 10
-34.00295071961537
 20
8.12492041533145
 30
0.0
 10
-34.00321423066618
 20
8.131405298177048
 30
0.0
 10
-34.00433752766749
 20
8.157152068956321
 30
0.0
 10
-34.00535544998347
 20
8.176371445215066
 30
0.0
 10
-34.00701467741512
 20
8.202987603980924
 30
0.0
 10
-34.0076060074247
 20
8.211707844990135
 30
0.0
 10
-34.00875385404318
 20
8.227545086853035
 30
0.0
 10
-34.00931844540727
 20
8.234755357994995
 30
0.0
 10
-34.01008265342486
 20
8.244083554301365
 30
0.0
 10
-34.01034295449523
 20
8.247132593298431
 30
0.0
 10
-34.01063819359996
 20
8.250535968155693
 30
0.0
 10
-34.01071963532799
 20
8.251454677441026
 30
0.0
 10
-34.01075796693283
 20
8.251886284065534
 30
0.0
 10
-34.01076237535387
 20
8.25193571320632
 30
0.0
 10
-34.01076237536272
 20
8.251935713305542
 30
0.0
  0
SPLINE
  5
8A29
330
8A0E
100
AcDbEntity
  8
0
100
AcDbSpline
210
0.0
220
0.0
230
1.0
 70
     8
 71
     3
 72
     8
 73
     4
 74
     0
 42
0.000000001
 43
0.0000000001
 40
0.0
 40
0.0
 40
0.0
 40
0.0
 40
0.008326233234675
 40
0.008326233234675
 40
0.008326233234675
 40
0.008326233234675
 10
-34.00000179639031
 20
7.999999991598917
 30
0.0
 10
-34.00000429320785
 20
8.000522698095576
 30
0.0
 10
-34.00001991412053
 20
8.002877751989997
 30
0.0
 10
-34.00001991426294
 20
8.002877770563298
 30
0.0
  0
ARC
  5
8A2A
330
8A0E
100
AcDbEntity
  8
0
100
AcDbCircle
 10
-29.99999999999998
 20
2.0
 30
0.0
 40
4.000000000000003
100
AcDbArc
 50
180.0
 51
270.0
  0
ARC
  5
8A2B
330
8A0E
100
AcDbEntity
  8
0
100
AcDbCircle
 10
-29.99999999999998
 20
2.0
 30
0.0
 40
2.000000000000001
100
AcDbArc
 50
180.0
 51
270.0
  0
ARC
  5
8A2C
330
8A0E
100
AcDbEntity
  8
0
100
AcDbCircle
 10
29.99999999999998
 20
2.0
 30
0.0
 40
4.000000000000003
100
AcDbArc
 50
270.0
 51
0.0
  0
LINE
  5
8A2D
330
8A0E
100
AcDbEntity
  8
0
100
AcDbLine
 10
36.60606060606069
 20
10.56249999999998
 30
0.0
 11
73.50000000000005
 21
40.99999999999997
 31
0.0
  0
LINE
  5
8A2E
330
8A0E
100
AcDbEntity
  8
0
100
AcDbLine
 10
31.99999999999999
 20
8.000000000000007
 30
0.0
 11
32.0
 21
40.99999999999997
 31
0.0
  0
LINE
  5
8A2F
330
8A0E
100
AcDbEntity
  8
0
100
AcDbLine
 10
33.99999999999999
 20
8.000000000000007
 30
0.0
 11
31.99999999999999
 21
8.000000000000007
 31
0.0
  0
LINE
  5
8A30
330
8A0E
100
AcDbEntity
  8
0
100
AcDbLine
 10
34.0
 20
40.99999999999997
 30
0.0
 11
33.99999999999999
 21
8.000000000000007
 31
0.0
  0
LINE
  5
8A31
330
8A0E
100
AcDbEntity
  8
0
100
AcDbLine
 10
34.0
 20
40.99999999999997
 30
0.0
 11
32.0
 21
40.99999999999997
 31
0.0
  0
LINE
  5
8A32
330
8A0E
100
AcDbEntity
  8
0
100
AcDbLine
 10
32.0
 20
40.99999999999997
 30
0.0
 11
32.0
 21
138.0
 31
0.0
  0
LINE
  5
8A33
330
8A0E
100
AcDbEntity
  8
0
100
AcDbLine
 10
34.0
 20
138.0
 30
0.0
 11
34.0
 21
40.99999999999997
 31
0.0
  0
LINE
  5
8A34
330
8A0E
100
AcDbEntity
  8
0
100
AcDbLine
 10
32.0
 20
138.0
 30
0.0
 11
34.0
 21
138.0
 31
0.0
  0
LINE
  5
8A35
330
8A0E
100
AcDbEntity
  8
0
100
AcDbLine
 10
33.99999999999999
 20
8.000000000000007
 30
0.0
 11
33.99999999999999
 21
2.0
 31
0.0
  0
LINE
  5
8A36
330
8A0E
100
AcDbEntity
  8
0
100
AcDbLine
 10
31.99999999999999
 20
2.0
 30
0.0
 11
31.99999999999999
 21
8.000000000000007
 31
0.0
  0
ARC
  5
8A37
330
8A0E
100
AcDbEntity
  8
0
100
AcDbCircle
 10
29.99999999999998
 20
2.0
 30
0.0
 40
2.000000000000001
100
AcDbArc
 50
270.0
 51
0.0
  0
LINE
  5
8A38
330
8A0E
100
AcDbEntity
  8
0
100
AcDbLine
 10
36.0
 20
138.0
 30
0.0
 11
34.0
 21
138.0
 31
0.0
  0
LINE
  5
8A39
330
8A0E
100
AcDbEntity
  8
0
100
AcDbLine
 10
73.50000000000005
 20
40.99999999999997
 30
0.0
 11
73.5
 21
138.0
 31
0.0
  0
LINE
  5
8A3A
330
8A0E
100
AcDbEntity
  8
0
100
AcDbLine
 10
73.5
 20
138.0
 30
0.0
 11
36.0
 21
138.0
 31
0.0
  0
CIRCLE
  5
8A3B
330
8A0E
100
AcDbEntity
  8
0
100
AcDbCircle
 10
54.0
 20
118.0
 30
0.0
 40
6.5
  0
CIRCLE
  5
8A3C
330
8A0E
100
AcDbEntity
  8
0
100
AcDbCircle
 10
65.0
 20
123.0
 30
0.0
 40
2.5
  0
LINE
  5
8A3D
330
8A0E
100
AcDbEntity
  8
0
100
AcDbLine
 10
-73.50000000000005
 20
40.99999999999997
 30
0.0
 11
-36.60606060606069
 21
10.56249999999998
 31
0.0
  0
LINE
  5
8A3E
330
8A0E
100
AcDbEntity
  8
0
100
AcDbLine
 10
-32.0
 20
40.99999999999997
 30
0.0
 11
-31.99999999999999
 21
8.000000000000007
 31
0.0
  0
LINE
  5
8A3F
330
8A0E
100
AcDbEntity
  8
0
100
AcDbLine
 10
-34.0
 20
40.99999999999997
 30
0.0
 11
-32.0
 21
40.99999999999997
 31
0.0
  0
LINE
  5
8A40
330
8A0E
100
AcDbEntity
  8
0
100
AcDbLine
 10
-33.99999999999999
 20
8.000000000000007
 30
0.0
 11
-34.0
 21
40.99999999999997
 31
0.0
  0
LINE
  5
8A41
330
8A0E
100
AcDbEntity
  8
0
100
AcDbLine
 10
-31.99999999999999
 20
8.000000000000007
 30
0.0
 11
-33.99999999999999
 21
8.000000000000007
 31
0.0
  0
LINE
  5
8A42
330
8A0E
100
AcDbEntity
  8
0
100
AcDbLine
 10
-32.0
 20
138.0
 30
0.0
 11
-32.0
 21
40.99999999999997
 31
0.0
  0
LINE
  5
8A43
330
8A0E
100
AcDbEntity
  8
0
100
AcDbLine
 10
-34.0
 20
138.0
 30
0.0
 11
-32.0
 21
138.0
 31
0.0
  0
LINE
  5
8A44
330
8A0E
100
AcDbEntity
  8
0
100
AcDbLine
 10
-34.0
 20
40.99999999999997
 30
0.0
 11
-34.0
 21
138.0
 31
0.0
  0
CIRCLE
  5
8A45
330
8A0E
100
AcDbEntity
  8
0
100
AcDbCircle
 10
-54.0
 20
48.0
 30
0.0
 40
6.5
  0
CIRCLE
  5
8A46
330
8A0E
100
AcDbEntity
  8
0
100
AcDbCircle
 10
54.0
 20
48.0
 30
0.0
 40
6.5
  0
CIRCLE
  5
8A47
330
8A0E
100
AcDbEntity
  8
0
100
AcDbCircle
 10
-54.0
 20
118.0
 30
0.0
 40
6.5
  0
CIRCLE
  5
8A48
330
8A0E
100
AcDbEntity
  8
0
100
AcDbCircle
 10
-43.0
 20
33.00000000000001
 30
0.0
 40
2.5
  0
CIRCLE
  5
8A49
330
8A0E
100
AcDbEntity
  8
0
100
AcDbCircle
 10
-43.0
 20
53.0
 30
0.0
 40
2.5
  0
CIRCLE
  5
8A4A
330
8A0E
100
AcDbEntity
  8
0
100
AcDbCircle
 10
-43.0
 20
73.0
 30
0.0
 40
2.5
  0
CIRCLE
  5
8A4B
330
8A0E
100
AcDbEntity
  8
0
100
AcDbCircle
 10
-43.0
 20
93.0
 30
0.0
 40
2.5
  0
CIRCLE
  5
8A4C
330
8A0E
100
AcDbEntity
  8
0
100
AcDbCircle
 10
-43.0
 20
113.0
 30
0.0
 40
2.5
  0
CIRCLE
  5
8A4D
330
8A0E
100
AcDbEntity
  8
0
100
AcDbCircle
 10
43.0
 20
33.00000000000001
 30
0.0
 40
2.5
  0
CIRCLE
  5
8A4E
330
8A0E
100
AcDbEntity
  8
0
100
AcDbCircle
 10
43.0
 20
53.0
 30
0.0
 40
2.5
  0
CIRCLE
  5
8A4F
330
8A0E
100
AcDbEntity
  8
0
100
AcDbCircle
 10
43.0
 20
73.0
 30
0.0
 40
2.5
  0
CIRCLE
  5
8A50
330
8A0E
100
AcDbEntity
  8
0
100
AcDbCircle
 10
43.0
 20
93.0
 30
0.0
 40
2.5
  0
CIRCLE
  5
8A51
330
8A0E
100
AcDbEntity
  8
0
100
AcDbCircle
 10
43.0
 20
113.0
 30
0.0
 40
2.5
  0
CIRCLE
  5
8A52
330
8A0E
100
AcDbEntity
  8
0
100
AcDbCircle
 10
-43.0
 20
133.0
 30
0.0
 40
2.5
  0
CIRCLE
  5
8A53
330
8A0E
100
AcDbEntity
  8
0
100
AcDbCircle
 10
43.0
 20
133.0
 30
0.0
 40
2.5
  0
CIRCLE
  5
8A54
330
8A0E
100
AcDbEntity
  8
0
100
AcDbCircle
 10
-65.0
 20
43.0
 30
0.0
 40
2.5
  0
CIRCLE
  5
8A55
330
8A0E
100
AcDbEntity
  8
0
100
AcDbCircle
 10
-65.0
 20
63.0
 30
0.0
 40
2.5
  0
CIRCLE
  5
8A56
330
8A0E
100
AcDbEntity
  8
0
100
AcDbCircle
 10
-65.0
 20
83.0
 30
0.0
 40
2.5
  0
CIRCLE
  5
8A57
330
8A0E
100
AcDbEntity
  8
0
100
AcDbCircle
 10
-65.0
 20
103.0
 30
0.0
 40
2.5
  0
CIRCLE
  5
8A58
330
8A0E
100
AcDbEntity
  8
0
100
AcDbCircle
 10
65.0
 20
43.0
 30
0.0
 40
2.5
  0
CIRCLE
  5
8A59
330
8A0E
100
AcDbEntity
  8
0
100
AcDbCircle
 10
65.0
 20
63.0
 30
0.0
 40
2.5
  0
CIRCLE
  5
8A5A
330
8A0E
100
AcDbEntity
  8
0
100
AcDbCircle
 10
65.0
 20
83.0
 30
0.0
 40
2.5
  0
CIRCLE
  5
8A5B
330
8A0E
100
AcDbEntity
  8
0
100
AcDbCircle
 10
65.0
 20
103.0
 30
0.0
 40
2.5
  0
CIRCLE
  5
8A5C
330
8A0E
100
AcDbEntity
  8
0
100
AcDbCircle
 10
-65.0
 20
123.0
 30
0.0
 40
2.5
  0
LINE
  5
8A5D
330
8A0E
100
AcDbEntity
  8
0
100
AcDbLine
 10
-73.5
 20
138.0
 30
0.0
 11
-36.0
 21
138.0
 31
0.0
  0
LINE
  5
8A5E
330
8A0E
100
AcDbEntity
  8
0
100
AcDbLine
 10
-73.50000000000005
 20
40.99999999999997
 30
0.0
 11
-73.5
 21
138.0
 31
0.0
  0
LINE
  5
8A5F
330
8A0E
100
AcDbEntity
  8
0
100
AcDbLine
 10
-31.99999999999999
 20
2.0
 30
0.0
 11
-31.99999999999999
 21
8.000000000000007
 31
0.0
  0
LINE
  5
8A60
330
8A0E
100
AcDbEntity
  8
0
100
AcDbLine
 10
-33.99999999999999
 20
8.000000000000007
 30
0.0
 11
-33.99999999999999
 21
2.0
 31
0.0
  0
LINE
  5
8A61
330
8A0E
100
AcDbEntity
  8
0
100
AcDbLine
 10
-36.0
 20
138.0
 30
0.0
 11
-34.0
 21
138.0
 31
0.0
  0
ENDBLK
  5
8A10
330
8A0E
100
AcDbEntity
  8
0
100
AcDbBlockEnd
  0
BLOCK
  5
8A63
330
8A62
100
AcDbEntity
  8
0
100
AcDbBlockBegin
  2
SAE340_64_2-Left
 70
     0
 10
0.0
 20
0.0
 30
0.0
  3
SAE340_64_2-Left
  1

  0
LINE
  5
8A65
330
8A62
100
AcDbEntity
  8
0
100
AcDbLine
 10
1.999999999999999
 20
-2.0
 30
0.0
 11
86.00000000000001
 21
-2.000000000000003
 31
0.0
  0
LINE
  5
8A66
330
8A62
100
AcDbEntity
  8
0
100
AcDbLine
 10
2.000000000000004
 20
2.000000000000004
 30
0.0
 11
1.999999999999999
 21
-1.999999999999999
 31
0.0
  0
LINE
  5
8A67
330
8A62
100
AcDbEntity
  8
0
100
AcDbLine
 10
86.00000000000001
 20
-2.000000000000003
 30
0.0
 11
86.00000000000001
 21
2.0
 31
0.0
  0
SPLINE
  5
8A68
330
8A62
100
AcDbEntity
  8
0
100
AcDbSpline
210
0.0
220
0.0
230
1.0
 70
     8
 71
     3
 72
    17
 73
    13
 74
     0
 42
0.000000001
 43
0.0000000001
 40
-0.9642391866710969
 40
-0.9642391866710969
 40
-0.9642391866710969
 40
-0.9642391866710969
 40
-0.7907552673954156
 40
-0.7907552673954156
 40
-0.7907552673954156
 40
-0.3883396848828926
 40
-0.3883396848828926
 40
-0.3883396848828926
 40
-0.105318420607489
 40
-0.105318420607489
 40
-0.105318420607489
 40
0.0
 40
0.0
 40
0.0
 40
0.0
 10
1.991418259918973
 20
8.238698859642681
 30
0.0
 10
1.966312612900985
 20
8.607550871063484
 30
0.0
 10
1.88791538527999
 20
8.89349071917306
 30
0.0
 10
1.773393535468579
 20
9.100144724257424
 30
0.0
 10
1.507747145332343
 20
9.579502074389804
 30
0.0
 10
1.05207725979944
 20
9.695819395128875
 30
0.0
 10
0.6711423121877487
 20
9.822723403242545
 30
0.0
 10
0.4032285057526048
 20
9.91197574430175
 30
0.0
 10
0.1693290542264545
 20
10.01102292128119
 30
0.0
 10
0.0606817918217082
 20
10.23987558699851
 30
0.0
 10
0.0202517622651279
 20
10.32503668387534
 30
0.0
 10
0.0000166268648463
 20
10.43287618702385
 30
0.0
 10
0.0000000000000006
 20
10.5625
 30
0.0
  0
LINE
  5
8A69
330
8A62
100
AcDbEntity
  8
0
100
AcDbLine
 10
2.000000000000011
 20
10.56249999999998
 30
0.0
 11
2.001382055220195
 21
10.56249999999998
 31
0.0
  0
SPLINE
  5
8A6A
330
8A62
100
AcDbEntity
  8
0
100
AcDbSpline
210
0.0
220
0.0
230
1.0
 70
     8
 71
     3
 72
    17
 73
    13
 74
     0
 42
0.000000001
 43
0.0000000001
 40
0.0
 40
0.0
 40
0.0
 40
0.0
 40
0.3704689058681346
 40
0.3704689058681346
 40
0.3704689058681346
 40
0.7029757053306487
 40
0.7029757053306487
 40
0.7029757053306487
 40
0.9335813790882429
 40
0.9335813790882429
 40
0.9335813790882429
 40
1.0
 40
1.0
 40
1.0
 40
1.0
 10
2.000000000000011
 20
10.56250000000003
 30
0.0
 10
2.000006377019322
 20
10.27455844103394
 30
0.0
 10
2.000465619612757
 20
10.04087523495629
 30
0.0
 10
1.999851137318859
 20
9.78869659270642
 30
0.0
 10
1.999299621287057
 20
9.562358803220917
 30
0.0
 10
2.000043886462053
 20
9.323328298082863
 30
0.0
 10
2.000290307240823
 20
9.017091696103795
 30
0.0
 10
2.000461209098493
 20
8.804705368838387
 30
0.0
 10
2.000344409457487
 20
8.55383081506153
 30
0.0
 10
2.000001688218381
 20
8.265752257156805
 30
0.0
 10
1.999902978279082
 20
8.182780402134744
 30
0.0
 10
2.000565701782092
 20
8.09884858616378
 30
0.0
 10
2.00000000000013
 20
8.000000000008014
 30
0.0
  0
LINE
  5
8A6B
330
8A62
100
AcDbEntity
  8
0
100
AcDbLine
 10
0.0
 20
10.56249999999998
 30
0.0
 11
2.00000000000001
 21
10.56249999999998
 31
0.0
  0
SPLINE
  5
8A6C
330
8A62
100
AcDbEntity
  8
0
100
AcDbSpline
210
0.0
220
0.0
230
1.0
 70
     8
 71
     3
 72
    10
 73
     6
 74
     0
 42
0.000000001
 43
0.0000000001
 40
0.0
 40
0.0
 40
0.0
 40
0.0
 40
0.0050447020526672
 40
0.0050447020526672
 40
0.0085295656007725
 40
0.0085295656007725
 40
0.0085295656007725
 40
0.0085295656007725
 10
1.999900822933405
 20
8.000000144882703
 30
0.0
 10
1.999917130800663
 20
8.009489680363305
 30
0.0
 10
1.999894675346205
 20
8.016796556592703
 30
0.0
 10
1.999860226913956
 20
8.024201023935686
 30
0.0
 10
1.999847236260164
 20
8.025893500439359
 30
0.0
 10
1.999847236395085
 20
8.025893482260787
 30
0.0
  0
SPLINE
  5
8A6D
330
8A62
100
AcDbEntity
  8
0
100
AcDbSpline
210
0.0
220
0.0
230
1.0
 70
     8
 71
     3
 72
    10
 73
     6
 74
     0
 42
0.000000001
 43
0.0000000001
 40
0.0024765694664528
 40
0.0024765694664528
 40
0.0024765694664528
 40
0.0024765694664528
 40
0.0072954549548542
 40
0.0072954549548542
 40
0.008810169375758
 40
0.008810169375758
 40
0.008810169375758
 40
0.008810169375758
 10
1.999904719055317
 20
8.008203379712266
 30
0.0
 10
1.999848531803736
 20
8.013351333459244
 30
0.0
 10
1.999790292669039
 20
8.017902469614595
 30
0.0
 10
1.999755200236399
 20
8.020506547587759
 30
0.0
 10
1.99975020330025
 20
8.020867839437539
 30
0.0
 10
1.999750203295005
 20
8.020867839818325
 30
0.0
  0
SPLINE
  5
8A6E
330
8A62
100
AcDbEntity
  8
0
100
AcDbSpline
210
0.0
220
0.0
230
1.0
 70
     8
 71
     3
 72
    32
 73
    28
 74
     0
 42
0.000000001
 43
0.0000000001
 40
0.0018001225512613
 40
0.0018001225512613
 40
0.0018001225512613
 40
0.0018001225512613
 40
0.0049362173661531
 40
0.0049362173661531
 40
0.0136075453340356
 40
0.0136075453340356
 40
0.0157017063774816
 40
0.0157017063774816
 40
0.0187307323840947
 40
0.0187307323840947
 40
0.0214823019778271
 40
0.0214823019778271
 40
0.0252519500334432
 40
0.0252519500334432
 40
0.0315875432217575
 40
0.0315875432217575
 40
0.0456644161097163
 40
0.0456644161097163
 40
0.0667732379524005
 40
0.0667732379524005
 40
0.0825165684753401
 40
0.0825165684753401
 40
0.096673059851858
 40
0.096673059851858
 40
0.1029028077153557
 40
0.1029028077153557
 40
0.1065920357017751
 40
0.1065920357017751
 40
0.1065920357017751
 40
0.1065920357017751
 10
1.999906247788319
 20
8.007988571236907
 30
0.0
 10
1.999844678117467
 20
8.013091470564202
 30
0.0
 10
1.999769518746314
 20
8.01880950406122
 30
0.0
 10
1.999447828837821
 20
8.040639247528618
 30
0.0
 10
1.999163921220874
 20
8.056947626147703
 30
0.0
 10
1.998493513234504
 20
8.085020636057837
 30
0.0
 10
1.998344337742054
 20
8.090952025254265
 30
0.0
 10
1.997931874870002
 20
8.106334456042782
 30
0.0
 10
1.997640548520347
 20
8.116381746794143
 30
0.0
 10
1.997035115426425
 20
8.135546037061182
 30
0.0
 10
1.996720979237731
 20
8.144830952148796
 30
0.0
 10
1.995945012577959
 20
8.166360172878322
 30
0.0
 10
1.995465610122471
 20
8.178613397940159
 30
0.0
 10
1.994126232480463
 20
8.210520100449596
 30
0.0
 10
1.993220590492421
 20
8.229789422268517
 30
0.0
 10
1.990080783420737
 20
8.290462129854265
 30
0.0
 10
1.987547905460911
 20
8.330762883004229
 30
0.0
 10
1.980029006322018
 20
8.43019732696495
 30
0.0
 10
1.974401036155325
 20
8.48869773675864
 30
0.0
 10
1.962499623709524
 20
8.585445791587664
 30
0.0
 10
1.956677293759794
 20
8.625344433953415
 30
0.0
 10
1.945516041836336
 20
8.691677922743574
 30
0.0
 10
1.940045049352115
 20
8.719650302701465
 30
0.0
 10
1.934901777277844
 20
8.744370609112227
 30
0.0
 10
1.933704313903078
 20
8.749876652545125
 30
0.0
 10
1.932673978576996
 20
8.754577175856359
 30
0.0
 10
1.932477075509969
 20
8.755459761992653
 30
0.0
 10
1.932477075508433
 20
8.755459761999555
 30
0.0
  0
LINE
  5
8A6F
330
8A62
100
AcDbEntity
  8
0
100
AcDbLine
 10
2.000000000000004
 20
2.000000000000003
 30
0.0
 11
2.000000000000004
 21
8.000000000000007
 31
0.0
  0
LINE
  5
8A70
330
8A62
100
AcDbEntity
  8
0
100
AcDbLine
 10
1.999999999999997
 20
40.99999999999997
 30
0.0
 11
2.00000000000001
 21
10.56249999999998
 31
0.0
  0
LINE
  5
8A71
330
8A62
100
AcDbEntity
  8
0
100
AcDbLine
 10
0.0
 20
40.99999999999997
 30
0.0
 11
1.999999999999997
 21
40.99999999999997
 31
0.0
  0
LINE
  5
8A72
330
8A62
100
AcDbEntity
  8
0
100
AcDbLine
 10
0.0
 20
10.56249999999998
 30
0.0
 11
0.0
 21
40.99999999999997
 31
0.0
  0
LINE
  5
8A73
330
8A62
100
AcDbEntity
  8
0
100
AcDbLine
 10
86.00000000000003
 20
8.000000000000007
 30
0.0
 11
46.00000000000003
 21
40.99999999999997
 31
0.0
  0
LINE
  5
8A74
330
8A62
100
AcDbEntity
  8
0
100
AcDbLine
 10
46.00000000000003
 20
40.99999999999997
 30
0.0
 11
46.00000000000001
 21
138.0
 31
0.0
  0
LINE
  5
8A75
330
8A62
100
AcDbEntity
  8
0
100
AcDbLine
 10
1.999999999999997
 20
40.99999999999997
 30
0.0
 11
2.000000000000023
 21
138.0
 31
0.0
  0
LINE
  5
8A76
330
8A62
100
AcDbEntity
  8
0
100
AcDbLine
 10
86.00000000000003
 20
8.000000000000007
 30
0.0
 11
86.00000000000001
 21
2.0
 31
0.0
  0
LINE
  5
8A77
330
8A62
100
AcDbEntity
  8
0
100
AcDbLine
 10
4.000000000000003
 20
138.0
 30
0.0
 11
46.00000000000001
 21
138.0
 31
0.0
  0
LINE
  5
8A78
330
8A62
100
AcDbEntity
  8
0
100
AcDbLine
 10
0.0
 20
138.0
 30
0.0
 11
2.000000000000023
 21
138.0
 31
0.0
  0
LINE
  5
8A79
330
8A62
100
AcDbEntity
  8
0
100
AcDbLine
 10
0.0
 20
40.99999999999997
 30
0.0
 11
0.0
 21
138.0
 31
0.0
  0
LINE
  5
8A7A
330
8A62
100
AcDbEntity
  8
0
100
AcDbLine
 10
2.000000000000006
 20
138.0
 30
0.0
 11
4.000000000000003
 21
138.0
 31
0.0
  0
CIRCLE
  5
8A7B
330
8A62
100
AcDbEntity
  8
0
100
AcDbCircle
 10
38.50000000000001
 20
33.00000000000001
 30
0.0
 40
2.5
  0
CIRCLE
  5
8A7C
330
8A62
100
AcDbEntity
  8
0
100
AcDbCircle
 10
38.50000000000001
 20
53.0
 30
0.0
 40
2.5
  0
CIRCLE
  5
8A7D
330
8A62
100
AcDbEntity
  8
0
100
AcDbCircle
 10
38.50000000000001
 20
73.0
 30
0.0
 40
2.5
  0
CIRCLE
  5
8A7E
330
8A62
100
AcDbEntity
  8
0
100
AcDbCircle
 10
38.50000000000001
 20
93.0
 30
0.0
 40
2.5
  0
CIRCLE
  5
8A7F
330
8A62
100
AcDbEntity
  8
0
100
AcDbCircle
 10
38.50000000000001
 20
113.0
 30
0.0
 40
2.5
  0
CIRCLE
  5
8A80
330
8A62
100
AcDbEntity
  8
0
100
AcDbCircle
 10
38.50000000000001
 20
133.0
 30
0.0
 40
2.5
  0
SPLINE
  5
8A81
330
8A62
100
AcDbEntity
  8
0
100
AcDbSpline
210
0.0
220
0.0
230
1.0
 70
     8
 71
     3
 72
     8
 73
     4
 74
     0
 42
0.000000001
 43
0.0000000001
 40
0.0
 40
0.0
 40
0.0
 40
0.0
 40
0.0015188446843556
 40
0.0015188446843556
 40
0.0015188446843556
 40
0.0015188446843556
 10
1.999900956415584
 20
8.000078269464514
 30
0.0
 10
1.99990580316567
 20
8.002931567382567
 30
0.0
 10
1.999907127091367
 20
8.005585603486478
 30
0.0
 10
1.999906099361832
 20
8.008023910968599
 30
0.0
  0
SPLINE
  5
8A82
330
8A62
100
AcDbEntity
  8
0
100
AcDbSpline
210
0.0
220
0.0
230
1.0
 70
     8
 71
     3
 72
    20
 73
    16
 74
     0
 42
0.000000001
 43
0.0000000001
 40
0.0017997288585922
 40
0.0017997288585922
 40
0.0017997288585922
 40
0.0017997288585922
 40
0.0049367400790506
 40
0.0049367400790506
 40
0.0136098041325997
 40
0.0136098041325997
 40
0.0157024875815798
 40
0.0157024875815798
 40
0.018730747319196
 40
0.018730747319196
 40
0.0214824226389622
 40
0.0214824226389622
 40
0.0252523477689023
 40
0.0252523477689023
 40
0.0305682323706197
 40
0.0305682323706197
 40
0.0305682323706197
 40
0.0305682323706197
 10
1.999906247913699
 20
8.007988561133153
 30
0.0
 10
1.999844660328947
 20
8.013092945165857
 30
0.0
 10
1.999769475257478
 20
8.018812781296167
 30
0.0
 10
1.999447688724142
 20
8.040647853458951
 30
0.0
 10
1.999163708909607
 20
8.056959861624187
 30
0.0
 10
1.998493054209201
 20
8.085039048463702
 30
0.0
 10
1.998343946176184
 20
8.090967054567943
 30
0.0
 10
1.997931607345881
 20
8.106343815430415
 30
0.0
 10
1.997640337094949
 20
8.116388667770817
 30
0.0
 10
1.997034956676789
 20
8.135550854328888
 30
0.0
 10
1.996720801651792
 20
8.14483610122526
 30
0.0
 10
1.995944774392637
 20
8.166366477099836
 30
0.0
 10
1.995465327983012
 20
8.17862048223716
 30
0.0
 10
1.99426104413877
 20
8.207308099888972
 30
0.0
 10
1.993510226842536
 20
8.223567516329895
 30
0.0
 10
1.992710896852767
 20
8.239500349528659
 30
0.0
  0
ENDBLK
  5
8A64
330
8A62
100
AcDbEntity
  8
0
100
AcDbBlockEnd
  0
BLOCK
  5
8A84
330
8A83
100
AcDbEntity
  8
0
100
AcDbBlockBegin
  2
SAE340_64_2-Right
 70
     0
 10
0.0
 20
0.0
 30
0.0
  3
SAE340_64_2-Right
  1

  0
SPLINE
  5
8A86
330
8A83
100
AcDbEntity
  8
0
100
AcDbSpline
210
0.0
220
0.0
230
1.0
 70
     8
 71
     3
 72
    17
 73
    13
 74
     0
 42
0.000000001
 43
0.0000000001
 40
0.0
 40
0.0
 40
0.0
 40
0.0
 40
0.3704689058681346
 40
0.3704689058681346
 40
0.3704689058681346
 40
0.7029757053306487
 40
0.7029757053306487
 40
0.7029757053306487
 40
0.9335813790882429
 40
0.9335813790882429
 40
0.9335813790882429
 40
1.0
 40
1.0
 40
1.0
 40
1.0
 10
-2.000000000000011
 20
10.56250000000003
 30
0.0
 10
-2.000006377019322
 20
10.27455844103394
 30
0.0
 10
-2.000465619612757
 20
10.04087523495629
 30
0.0
 10
-1.999851137318859
 20
9.78869659270642
 30
0.0
 10
-1.999299621287057
 20
9.562358803220917
 30
0.0
 10
-2.000043886462053
 20
9.323328298082863
 30
0.0
 10
-2.000290307240823
 20
9.017091696103795
 30
0.0
 10
-2.000461209098493
 20
8.804705368838387
 30
0.0
 10
-2.000344409457487
 20
8.55383081506153
 30
0.0
 10
-2.000001688218381
 20
8.265752257156805
 30
0.0
 10
-1.999902978279082
 20
8.182780402134744
 30
0.0
 10
-2.000565701782092
 20
8.09884858616378
 30
0.0
 10
-2.00000000000013
 20
8.000000000008014
 30
0.0
  0
LINE
  5
8A87
330
8A83
100
AcDbEntity
  8
0
100
AcDbLine
 10
-2.001382055220195
 20
10.56249999999998
 30
0.0
 11
-2.000000000000011
 21
10.56249999999998
 31
0.0
  0
SPLINE
  5
8A88
330
8A83
100
AcDbEntity
  8
0
100
AcDbSpline
210
0.0
220
0.0
230
1.0
 70
     8
 71
     3
 72
    17
 73
    13
 74
     0
 42
0.000000001
 43
0.0000000001
 40
-0.9642391866710967
 40
-0.9642391866710967
 40
-0.9642391866710967
 40
-0.9642391866710967
 40
-0.7907552673954156
 40
-0.7907552673954156
 40
-0.7907552673954156
 40
-0.3883396848828926
 40
-0.3883396848828926
 40
-0.3883396848828926
 40
-0.105318420607489
 40
-0.105318420607489
 40
-0.105318420607489
 40
0.0
 40
0.0
 40
0.0
 40
0.0
 10
-1.991418259918972
 20
8.238698859642681
 30
0.0
 10
-1.966312612900984
 20
8.607550871063484
 30
0.0
 10
-1.88791538527999
 20
8.89349071917306
 30
0.0
 10
-1.773393535468579
 20
9.100144724257424
 30
0.0
 10
-1.507747145332343
 20
9.579502074389804
 30
0.0
 10
-1.05207725979944
 20
9.695819395128875
 30
0.0
 10
-0.6711423121877487
 20
9.822723403242545
 30
0.0
 10
-0.4032285057526048
 20
9.91197574430175
 30
0.0
 10
-0.1693290542264545
 20
10.01102292128119
 30
0.0
 10
-0.0606817918217082
 20
10.23987558699851
 30
0.0
 10
-0.0202517622651279
 20
10.32503668387534
 30
0.0
 10
-0.0000166268648463
 20
10.43287618702385
 30
0.0
 10
-0.0000000000000006
 20
10.5625
 30
0.0
  0
LINE
  5
8A89
330
8A83
100
AcDbEntity
  8
0
100
AcDbLine
 10
-2.00000000000001
 20
10.56249999999998
 30
0.0
 11
0.0
 21
10.56249999999998
 31
0.0
  0
SPLINE
  5
8A8A
330
8A83
100
AcDbEntity
  8
0
100
AcDbSpline
210
0.0
220
0.0
230
1.0
 70
     8
 71
     3
 72
    12
 73
     8
 74
     0
 42
0.000000001
 43
0.0000000001
 40
0.0084641832910693
 40
0.0084641832910693
 40
0.0084641832910693
 40
0.0084641832910693
 40
0.0101930109079195
 40
0.0101930109079195
 40
0.014176383790324
 40
0.014176383790324
 40
0.0170057172606272
 40
0.0170057172606272
 40
0.0170057172606272
 40
0.0170057172606272
 10
-1.999847236395084
 20
8.025893482260963
 30
0.0
 10
-1.999847236383333
 20
8.025893483844129
 30
0.0
 10
-1.999850315353986
 20
8.02548329263228
 30
0.0
 10
-1.999866456171205
 20
8.022911176956149
 30
0.0
 10
-1.999887626994892
 20
8.019128506036638
 30
0.0
 10
-1.999906952061128
 20
8.010007215792185
 30
0.0
 10
-1.999909985036075
 20
8.005393448418271
 30
0.0
 10
-1.999900956415584
 20
8.000078269464513
 30
0.0
  0
SPLINE
  5
8A8B
330
8A83
100
AcDbEntity
  8
0
100
AcDbSpline
210
0.0
220
0.0
230
1.0
 70
     8
 71
     3
 72
    10
 73
     6
 74
     0
 42
0.000000001
 43
0.0000000001
 40
0.0072545016189358
 40
0.0072545016189358
 40
0.0072545016189358
 40
0.0072545016189358
 40
0.0102247145753075
 40
0.0102247145753075
 40
0.013587981815809
 40
0.013587981815809
 40
0.013587981815809
 40
0.013587981815809
 10
-1.99975020329501
 20
8.020867839817981
 30
0.0
 10
-1.999750203292368
 20
8.020867840009714
 30
0.0
 10
-1.999769298059849
 20
8.019495320172172
 30
0.0
 10
-1.999826681333628
 20
8.015049762367034
 30
0.0
 10
-1.999866331419466
 20
8.011769997875855
 30
0.0
 10
-1.999905409029137
 20
8.008189653198552
 30
0.0
  0
SPLINE
  5
8A8C
330
8A83
100
AcDbEntity
  8
0
100
AcDbSpline
210
0.0
220
0.0
230
1.0
 70
     8
 71
     3
 72
    34
 73
    30
 74
     0
 42
0.000000001
 43
0.0000000001
 40
0.1053754949973807
 40
0.1053754949973807
 40
0.1053754949973807
 40
0.1053754949973807
 40
0.1111723089850632
 40
0.1111723089850632
 40
0.1193670926282181
 40
0.1193670926282181
 40
0.1286007943536158
 40
0.1286007943536158
 40
0.1423496856078959
 40
0.1423496856078959
 40
0.1679067027151338
 40
0.1679067027151338
 40
0.1792553313314215
 40
0.1792553313314215
 40
0.187667734013313
 40
0.187667734013313
 40
0.1911359866876031
 40
0.1911359866876031
 40
0.19393693373095
 40
0.19393693373095
 40
0.1956509774105418
 40
0.1956509774105418
 40
0.1984134339982809
 40
0.1984134339982809
 40
0.2013121438941399
 40
0.2013121438941399
 40
0.2062003270170474
 40
0.2062003270170474
 40
0.2102046203460632
 40
0.2102046203460632
 40
0.2102046203460632
 40
0.2102046203460632
 10
-1.932477075508485
 20
8.755459761999324
 30
0.0
 10
-1.93247707551579
 20
8.755459761966488
 30
0.0
 10
-1.932976092922131
 20
8.753231061885118
 30
0.0
 10
-1.935216995117623
 20
8.742862398934605
 30
0.0
 10
-1.937416247424092
 20
8.732494337402926
 30
0.0
 10
-1.942940759897804
 20
8.704568174219193
 30
0.0
 10
-1.946384864783191
 20
8.686154798365921
 30
0.0
 10
-1.954950416627975
 20
8.636031509313333
 30
0.0
 10
-1.960109682787893
 20
8.601960236064588
 30
0.0
 10
-1.973355848811988
 20
8.50062453251259
 30
0.0
 10
-1.98027039786695
 20
8.429563460236877
 30
0.0
 10
-1.987879887217424
 20
8.324855474888776
 30
0.0
 10
-1.98991848625885
 20
8.292267981513971
 30
0.0
 10
-1.993041130760367
 20
8.233939344126653
 30
0.0
 10
-1.994247356366426
 20
8.208414730857828
 30
0.0
 10
-1.995785045227166
 20
8.170461147065942
 30
0.0
 10
-1.996216631948234
 20
8.159061621428149
 30
0.0
 10
-1.996945058566323
 20
8.138258026416671
 30
0.0
 10
-1.997255688665325
 20
8.128767690290313
 30
0.0
 10
-1.99770733308932
 20
8.113948405307091
 30
0.0
 10
-1.997868937319216
 20
8.108386756340168
 30
0.0
 10
-1.998254765392238
 20
8.094495129408032
 30
0.0
 10
-1.998459929810547
 20
8.086441728009091
 30
0.0
 10
-1.998810749333596
 20
8.071720345259988
 30
0.0
 10
-1.998958007609418
 20
8.064962909953486
 30
0.0
 10
-1.999301382377123
 20
8.048123311083077
 30
0.0
 10
-1.999467571054809
 20
8.038670931594786
 30
0.0
 10
-1.999727304797706
 20
8.021949710644419
 30
0.0
 10
-1.999827814940741
 20
8.014474767571668
 30
0.0
 10
-1.999906392617046
 20
8.007962243369245
 30
0.0
  0
LINE
  5
8A8D
330
8A83
100
AcDbEntity
  8
0
100
AcDbLine
 10
-1.999999999999999
 20
-2.0
 30
0.0
 11
-86.00000000000001
 21
-2.0
 31
0.0
  0
LINE
  5
8A8E
330
8A83
100
AcDbEntity
  8
0
100
AcDbLine
 10
-2.000000000000004
 20
2.000000000000003
 30
0.0
 11
-2.000000000000004
 21
8.000000000000007
 31
0.0
  0
LINE
  5
8A8F
330
8A83
100
AcDbEntity
  8
0
100
AcDbLine
 10
-2.000000000000004
 20
2.000000000000004
 30
0.0
 11
-1.999999999999999
 21
-1.999999999999999
 31
0.0
  0
LINE
  5
8A90
330
8A83
100
AcDbEntity
  8
0
100
AcDbLine
 10
-86.00000000000001
 20
-2.000000000000003
 30
0.0
 11
-86.00000000000001
 21
2.0
 31
0.0
  0
LINE
  5
8A91
330
8A83
100
AcDbEntity
  8
0
100
AcDbLine
 10
0.0
 20
40.99999999999997
 30
0.0
 11
0.0
 21
10.56249999999998
 31
0.0
  0
LINE
  5
8A92
330
8A83
100
AcDbEntity
  8
0
100
AcDbLine
 10
-1.999999999999997
 20
40.99999999999997
 30
0.0
 11
0.0
 21
40.99999999999997
 31
0.0
  0
LINE
  5
8A93
330
8A83
100
AcDbEntity
  8
0
100
AcDbLine
 10
-2.00000000000001
 20
10.56249999999998
 30
0.0
 11
-1.999999999999997
 21
40.99999999999997
 31
0.0
  0
LINE
  5
8A94
330
8A83
100
AcDbEntity
  8
0
100
AcDbLine
 10
0.0
 20
40.99999999999997
 30
0.0
 11
0.0
 21
138.0
 31
0.0
  0
CIRCLE
  5
8A95
330
8A83
100
AcDbEntity
  8
0
100
AcDbCircle
 10
-38.50000000000002
 20
123.0
 30
0.0
 40
2.5
  0
LINE
  5
8A96
330
8A83
100
AcDbEntity
  8
0
100
AcDbLine
 10
-46.00000000000003
 20
40.99999999999997
 30
0.0
 11
-86.00000000000003
 21
8.000000000000007
 31
0.0
  0
LINE
  5
8A97
330
8A83
100
AcDbEntity
  8
0
100
AcDbLine
 10
-46.00000000000001
 20
138.0
 30
0.0
 11
-46.00000000000003
 21
40.99999999999997
 31
0.0
  0
LINE
  5
8A98
330
8A83
100
AcDbEntity
  8
0
100
AcDbLine
 10
-86.00000000000003
 20
8.000000000000007
 30
0.0
 11
-86.00000000000001
 21
2.0
 31
0.0
  0
LINE
  5
8A99
330
8A83
100
AcDbEntity
  8
0
100
AcDbLine
 10
-4.000000000000003
 20
138.0
 30
0.0
 11
-46.00000000000001
 21
138.0
 31
0.0
  0
LINE
  5
8A9A
330
8A83
100
AcDbEntity
  8
0
100
AcDbLine
 10
-2.000000000000006
 20
138.0
 30
0.0
 11
-4.000000000000003
 21
138.0
 31
0.0
  0
LINE
  5
8A9B
330
8A83
100
AcDbEntity
  8
0
100
AcDbLine
 10
0.0
 20
138.0
 30
0.0
 11
-2.000000000000023
 21
138.0
 31
0.0
  0
LINE
  5
8A9C
330
8A83
100
AcDbEntity
  8
0
100
AcDbLine
 10
-1.999999999999997
 20
40.99999999999997
 30
0.0
 11
-2.000000000000023
 21
138.0
 31
0.0
  0
CIRCLE
  5
8A9D
330
8A83
100
AcDbEntity
  8
0
100
AcDbCircle
 10
-38.50000000000002
 20
22.99999999999999
 30
0.0
 40
2.5
  0
CIRCLE
  5
8A9E
330
8A83
100
AcDbEntity
  8
0
100
AcDbCircle
 10
-38.50000000000002
 20
42.99999999999998
 30
0.0
 40
2.5
  0
CIRCLE
  5
8A9F
330
8A83
100
AcDbEntity
  8
0
100
AcDbCircle
 10
-38.50000000000002
 20
62.99999999999998
 30
0.0
 40
2.5
  0
CIRCLE
  5
8AA0
330
8A83
100
AcDbEntity
  8
0
100
AcDbCircle
 10
-38.50000000000002
 20
82.99999999999998
 30
0.0
 40
2.5
  0
CIRCLE
  5
8AA1
330
8A83
100
AcDbEntity
  8
0
100
AcDbCircle
 10
-38.50000000000002
 20
103.0
 30
0.0
 40
2.5
  0
SPLINE
  5
8AA2
330
8A83
100
AcDbEntity
  8
0
100
AcDbSpline
210
0.0
220
0.0
230
1.0
 70
     8
 71
     3
 72
     8
 73
     4
 74
     0
 42
0.000000001
 43
0.0000000001
 40
0.0154774323743053
 40
0.0154774323743053
 40
0.0154774323743053
 40
0.0154774323743053
 40
0.0170131228442758
 40
0.0170131228442758
 40
0.0170131228442758
 40
0.0170131228442758
 10
-1.99990615623419
 20
8.008027112113101
 30
0.0
 10
-1.999907191337913
 20
8.005571309231104
 30
0.0
 10
-1.999905787317041
 20
8.002888915924044
 30
0.0
 10
-1.999900822933402
 20
8.00000014488269
 30
0.0
  0
SPLINE
  5
8AA3
330
8A83
100
AcDbEntity
  8
0
100
AcDbSpline
210
0.0
220
0.0
230
1.0
 70
     8
 71
     3
 72
    22
 73
    18
 74
     0
 42
0.000000001
 43
0.0000000001
 40
0.1814128588972137
 40
0.1814128588972137
 40
0.1814128588972137
 40
0.1814128588972137
 40
0.1876667329354738
 40
0.1876667329354738
 40
0.1911355808236742
 40
0.1911355808236742
 40
0.1939366894001039
 40
0.1939366894001039
 40
0.1956507311923765
 40
0.1956507311923765
 40
0.1984131758518122
 40
0.1984131758518122
 40
0.2013119070253905
 40
0.2013119070253905
 40
0.2062001880865486
 40
0.2062001880865486
 40
0.210204290944165
 40
0.210204290944165
 40
0.210204290944165
 40
0.210204290944165
 10
-1.992710550863982
 20
8.239514228130971
 30
0.0
 10
-1.99365263867776
 20
8.220735840997194
 30
0.0
 10
-1.994526452925957
 20
8.201525485649657
 30
0.0
 10
-1.995784866998943
 20
8.170465834923229
 30
0.0
 10
-1.996216533544959
 20
8.159064389338322
 30
0.0
 10
-1.99694505038614
 20
8.138258294316305
 30
0.0
 10
-1.997255698979436
 20
8.128767391898056
 30
0.0
 10
-1.997707356691578
 20
8.113947606374004
 30
0.0
 10
-1.997868959590539
 20
8.10838597816086
 30
0.0
 10
-1.99825478329418
 20
8.094494446664491
 30
0.0
 10
-1.998459944786861
 20
8.086441126440631
 30
0.0
 10
-1.998810761836698
 20
8.07171979238592
 30
0.0
 10
-1.998958019727238
 20
8.064962345665993
 30
0.0
 10
-1.999301396579755
 20
8.048122563991173
 30
0.0
 10
-1.999467586724772
 20
8.038670025582344
 30
0.0
 10
-1.999727313970527
 20
8.021949035902471
 30
0.0
 10
-1.999827818611832
 20
8.014474443640381
 30
0.0
 10
-1.99990639260929
 20
8.00796222434106
 30
0.0
  0
ENDBLK
  5
8A85
330
8A83
100
AcDbEntity
  8
0
100
AcDbBlockEnd
  0
BLOCK
  5
8AA5
330
8AA4
100
AcDbEntity
  8
0
100
AcDbBlockBegin
  2
SAE340_64_2-Top
 70
     0
 10
0.0
 20
0.0
 30
0.0
  3
SAE340_64_2-Top
  1

  0
LINE
  5
8AA7
330
8AA4
100
AcDbEntity
  8
0
100
AcDbLine
 10
32.00000000000001
 20
-2.000000000000002
 30
0.0
 11
32.00000000000001
 21
-2.069004766165071
 31
0.0
  0
SPLINE
  5
8AA8
330
8AA4
100
AcDbEntity
  8
0
100
AcDbSpline
210
0.0
220
0.0
230
1.0
 70
     8
 71
     3
 72
    11
 73
     7
 74
     0
 42
0.000000001
 43
0.0000000001
 40
-1.0
 40
-1.0
 40
-1.0
 40
-1.0
 40
-0.7907552673954156
 40
-0.7907552673954156
 40
-0.7907552673954156
 40
-0.6535033875453205
 40
-0.6535033875453205
 40
-0.6535033875453205
 40
-0.6535033875453205
 10
32.00000000000001
 20
-1.999999999999963
 30
0.0
 10
32.00001724877415
 20
-1.997098202773992
 30
0.0
 10
32.13515725660305
 20
-1.911522152467897
 30
0.0
 10
32.36463729125271
 20
-1.773393535468579
 30
0.0
 10
32.51516230448327
 20
-1.682789523084303
 30
0.0
 10
32.70501487259736
 20
-1.570080316905882
 30
0.0
 10
32.92229672437011
 20
-1.445770536744872
 30
0.0
  0
SPLINE
  5
8AA9
330
8AA4
100
AcDbEntity
  8
0
100
AcDbSpline
210
0.0
220
0.0
230
1.0
 70
     8
 71
     3
 72
    10
 73
     6
 74
     0
 42
0.000000001
 43
0.0000000001
 40
0.0
 40
0.0
 40
0.0
 40
0.0
 40
0.0670584162347128
 40
0.0670584162347128
 40
0.1015857294879387
 40
0.1015857294879387
 40
0.1015857294879387
 40
0.1015857294879387
 10
36.58980804090458
 20
-2.000030232669518
 30
0.0
 10
36.39154521973537
 20
-2.00029711947987
 30
0.0
 10
36.18834991724919
 20
-2.001422490699223
 30
0.0
 10
35.87453551240273
 20
-2.013511332964657
 30
0.0
 10
35.76446343915124
 20
-2.019552871705779
 30
0.0
 10
35.6527493020778
 20
-2.030278825412541
 30
0.0
  0
SPLINE
  5
8AAA
330
8AA4
100
AcDbEntity
  8
0
100
AcDbSpline
210
0.0
220
0.0
230
1.0
 70
     8
 71
     3
 72
    10
 73
     6
 74
     0
 42
0.000000001
 43
0.0000000001
 40
0.0589313022226059
 40
0.0589313022226059
 40
0.0589313022226059
 40
0.0589313022226059
 40
0.0599779860426078
 40
0.0599779860426078
 40
0.0663268531678604
 40
0.0663268531678604
 40
0.0663268531678604
 40
0.0663268531678604
 10
34.00026149195257
 20
-3.967645940211441
 30
0.0
 10
34.0002433683346
 20
-3.969383514664004
 30
0.0
 10
34.00022834572116
 20
-3.970951905477607
 30
0.0
 10
34.0001258922765
 20
-3.981754123474923
 30
0.0
 10
34.00006999202751
 20
-3.989563038503977
 30
0.0
 10
34.00002531920677
 20
-4.000000108971985
 30
0.0
  0
SPLINE
  5
8AAB
330
8AA4
100
AcDbEntity
  8
0
100
AcDbSpline
210
0.0
220
0.0
230
1.0
 70
     8
 71
     3
 72
    28
 73
    24
 74
     0
 42
0.000000001
 43
0.0000000001
 40
0.0059924015538622
 40
0.0059924015538622
 40
0.0059924015538622
 40
0.0059924015538622
 40
0.0060018371648527
 40
0.0060018371648527
 40
0.0060343727834
 40
0.0060343727834
 40
0.0061001207433872
 40
0.0061001207433872
 40
0.0063665707871538
 40
0.0063665707871538
 40
0.0733612139850456
 40
0.0733612139850456
 40
0.1461778015665782
 40
0.1461778015665782
 40
0.1822197238565065
 40
0.1822197238565065
 40
0.2005090932274053
 40
0.2005090932274053
 40
0.20989377155503
 40
0.20989377155503
 40
0.2150065170399579
 40
0.2150065170399579
 40
0.2204217705194443
 40
0.2204217705194443
 40
0.2204217705194443
 40
0.2204217705194443
 10
31.9999668355028
 20
-3.998262424361572
 30
0.0
 10
31.99996641655117
 20
-3.998238325618558
 30
0.0
 10
31.99996598700295
 20
-3.998213616202303
 30
0.0
 10
31.99996402986379
 20
-3.998101027682634
 30
0.0
 10
31.99996237785743
 20
-3.998005977102297
 30
0.0
 10
31.99995717536188
 20
-3.997706581310218
 30
0.0
 10
31.99995334670769
 20
-3.997486162438174
 30
0.0
 10
31.99993419783905
 20
-3.996383240236283
 30
0.0
 10
31.99991873423779
 20
-3.995490969552624
 30
0.0
 10
31.99618179690967
 20
-3.779498028130765
 30
0.0
 10
31.99444382733107
 20
-3.585310074406588
 30
0.0
 10
31.99316940706365
 20
-3.164116813883616
 30
0.0
 10
31.993755198149
 20
-2.938044522954557
 30
0.0
 10
31.99572386801707
 20
-2.597038390680626
 30
0.0
 10
31.99651060782971
 20
-2.485243288868783
 30
0.0
 10
31.99791998614556
 20
-2.319629688237477
 30
0.0
 10
31.99852173122213
 20
-2.262940869603897
 30
0.0
 10
31.99923838905358
 20
-2.180972732329697
 30
0.0
 10
31.99942028499449
 20
-2.15399269815644
 30
0.0
 10
31.99955633678028
 20
-2.117588850800204
 30
0.0
 10
31.99957946480179
 20
-2.105610803304545
 30
0.0
 10
31.99959432353666
 20
-2.084188232523424
 30
0.0
 10
31.99958391144496
 20
-2.074632504593493
 30
0.0
 10
31.99957228829786
 20
-2.069004766165071
 30
0.0
  0
SPLINE
  5
8AAC
330
8AA4
100
AcDbEntity
  8
0
100
AcDbSpline
210
0.0
220
0.0
230
1.0
 70
     8
 71
     3
 72
    12
 73
     8
 74
     0
 42
0.000000001
 43
0.0000000001
 40
0.0
 40
0.0
 40
0.0
 40
0.0
 40
0.0073680638622243
 40
0.0073680638622243
 40
0.0094714794564703
 40
0.0094714794564703
 40
0.0106892344323989
 40
0.0106892344323989
 40
0.0106892344323989
 40
0.0106892344323989
 10
31.99996053853822
 20
-3.999985503002882
 30
0.0
 10
32.00000120689113
 20
-3.988738678361497
 30
0.0
 10
32.00005705426699
 20
-3.976817397475351
 30
0.0
 10
32.00011475911483
 20
-3.96682907303919
 30
0.0
 10
32.00012596496214
 20
-3.965004429898657
 30
0.0
 10
32.00013624741454
 20
-3.963340749419521
 30
0.0
 10
32.00013843227593
 20
-3.962989239745928
 30
0.0
 10
32.00013843227588
 20
-3.962989239754028
 30
0.0
  0
LINE
  5
8AAD
330
8AA4
100
AcDbEntity
  8
0
100
AcDbLine
 10
-32.00000000000001
 20
-2.000000000000002
 30
0.0
 11
-32.00000000000001
 21
-2.06900470560963
 31
0.0
  0
SPLINE
  5
8AAE
330
8AA4
100
AcDbEntity
  8
0
100
AcDbSpline
210
0.0
220
0.0
230
1.0
 70
     8
 71
     3
 72
    11
 73
     7
 74
     0
 42
0.000000001
 43
0.0000000001
 40
-1.0
 40
-1.0
 40
-1.0
 40
-1.0
 40
-0.7907552673954156
 40
-0.7907552673954156
 40
-0.7907552673954156
 40
-0.6535033875453205
 40
-0.6535033875453205
 40
-0.6535033875453205
 40
-0.6535033875453205
 10
-32.00000000000001
 20
-1.999999999999963
 30
0.0
 10
-32.00001724877415
 20
-1.997098202773992
 30
0.0
 10
-32.13515725660305
 20
-1.911522152467897
 30
0.0
 10
-32.36463729125271
 20
-1.773393535468579
 30
0.0
 10
-32.51516230448327
 20
-1.682789523084303
 30
0.0
 10
-32.70501487259736
 20
-1.570080316905882
 30
0.0
 10
-32.92229672437011
 20
-1.445770536744872
 30
0.0
  0
SPLINE
  5
8AAF
330
8AA4
100
AcDbEntity
  8
0
100
AcDbSpline
210
0.0
220
0.0
230
1.0
 70
     8
 71
     3
 72
    40
 73
    36
 74
     0
 42
0.000000001
 43
0.0000000001
 40
0.0
 40
0.0
 40
0.0
 40
0.0
 40
0.0038040499162893
 40
0.0038040499162893
 40
0.0084789016188234
 40
0.0084789016188234
 40
0.0158054029160276
 40
0.0158054029160276
 40
0.0259999622793644
 40
0.0259999622793644
 40
0.0495202757937338
 40
0.0495202757937338
 40
0.1201091818212881
 40
0.1201091818212881
 40
0.1773320816925967
 40
0.1773320816925967
 40
0.1996781211883813
 40
0.1996781211883813
 40
0.2080566082866492
 40
0.2080566082866492
 40
0.2111984990151462
 40
0.2111984990151462
 40
0.2135549672537938
 40
0.2135549672537938
 40
0.2139968625774137
 40
0.2139968625774137
 40
0.2143291853552413
 40
0.2143291853552413
 40
0.2143839365951374
 40
0.2143839365951374
 40
0.2144312385333659
 40
0.2144312385333659
 40
0.214478814187475
 40
0.214478814187475
 40
0.2144971871650932
 40
0.2144971871650932
 40
0.2144971871650932
 40
0.2144971871650932
 10
-31.99957228817279
 20
-2.06900470560963
 30
0.0
 10
-31.99958045307799
 20
-2.072957999623593
 30
0.0
 10
-31.9995882547591
 20
-2.078880967625331
 30
0.0
 10
-31.99959053795572
 20
-2.094285239511108
 30
0.0
 10
-31.99958182819016
 20
-2.1044026574872
 30
0.0
 10
-31.99951287463196
 20
-2.132562427984414
 30
0.0
 10
-31.99942216875163
 20
-2.152170324796941
 30
0.0
 10
-31.99908018801063
 20
-2.201628991132003
 30
0.0
 10
-31.99878019992532
 20
-2.23265605992117
 30
0.0
 10
-31.99777929259163
 20
-2.335147309836775
 30
0.0
 10
-31.997163269574
 20
-2.406780524503552
 30
0.0
 10
-31.99498748802014
 20
-2.695959311653206
 30
0.0
 10
-31.99378543133616
 20
-2.921293604610654
 30
0.0
 10
-31.99344333187934
 20
-3.312931146225666
 30
0.0
 10
-31.99387949287284
 20
-3.483492609471527
 30
0.0
 10
-31.99604595818372
 20
-3.724030491897814
 30
0.0
 10
-31.99683104558078
 20
-3.79214610932089
 30
0.0
 10
-31.99816315498754
 20
-3.886554720835398
 30
0.0
 10
-31.99855176760238
 20
-3.912363635112516
 30
0.0
 10
-31.99911998621913
 20
-3.947920648130835
 30
0.0
 10
-31.99927840492968
 20
-3.957624518108733
 30
0.0
 10
-31.99956182446392
 20
-3.974629664180114
 30
0.0
 10
-31.99968491546607
 20
-3.981904275974395
 30
0.0
 10
-31.99983507521866
 20
-3.990646170654951
 30
0.0
 10
-31.99985892057713
 20
-3.992030556893515
 30
0.0
 10
-31.99990137756434
 20
-3.9944884921287
 30
0.0
 10
-31.99991995178228
 20
-3.995561583585587
 30
0.0
 10
-31.9999422677624
 20
-3.996847950598785
 30
0.0
 10
-31.99994545045376
 20
-3.997031344784032
 30
0.0
 10
-31.99995134152033
 20
-3.997370678558604
 30
0.0
 10
-31.9999540786789
 20
-3.997528292235731
 30
0.0
 10
-31.99995936468558
 20
-3.997832585359978
 30
0.0
 10
-31.99996195059359
 20
-3.997981396749946
 30
0.0
 10
-31.99996515795854
 20
-3.998165925104857
 30
0.0
 10
-31.99996601676336
 20
-3.998215329170959
 30
0.0
 10
-31.99996683550314
 20
-3.9982624242695
 30
0.0
  0
SPLINE
  5
8AB0
330
8AA4
100
AcDbEntity
  8
0
100
AcDbSpline
210
0.0
220
0.0
230
1.0
 70
     8
 71
     3
 72
    14
 73
    10
 74
     0
 42
0.000000001
 43
0.0000000001
 40
0.0077865624782531
 40
0.0077865624782531
 40
0.0077865624782531
 40
0.0077865624782531
 40
0.0083990090709364
 40
0.0083990090709364
 40
0.0105262714176073
 40
0.0105262714176073
 40
0.0138670533695672
 40
0.0138670533695672
 40
0.0184825667673045
 40
0.0184825667673045
 40
0.0184825667673045
 40
0.0184825667673045
 10
-32.00013843227591
 20
-3.96298923975209
 30
0.0
 10
-32.00013843227587
 20
-3.962989239757337
 30
0.0
 10
-32.00013788267034
 20
-3.96307822944965
 30
0.0
 10
-32.00013329603652
 20
-3.96381799509058
 30
0.0
 10
-32.00012391975974
 20
-3.965318220340154
 30
0.0
 10
-32.00009360823511
 20
-3.970431384684448
 30
0.0
 10
-32.0000695542013
 20
-3.974747388177002
 30
0.0
 10
-32.00001537908772
 20
-3.985824176903806
 30
0.0
 10
-31.99998596655579
 20
-3.992952356550287
 30
0.0
 10
-31.99996049456942
 20
-3.999997663461109
 30
0.0
  0
SPLINE
  5
8AB1
330
8AA4
100
AcDbEntity
  8
0
100
AcDbSpline
210
0.0
220
0.0
230
1.0
 70
     8
 71
     3
 72
    10
 73
     6
 74
     0
 42
0.000000001
 43
0.0000000001
 40
0.0
 40
0.0
 40
0.0
 40
0.0
 40
0.0049906877975951
 40
0.0049906877975951
 40
0.0073950152865289
 40
0.0073950152865289
 40
0.0073950152865289
 40
0.0073950152865289
 10
-34.00002531920676
 20
-4.000000108971981
 30
0.0
 10
-34.00006043540889
 20
-3.991795785396871
 30
0.0
 10
-34.00010543803958
 20
-3.985044489123948
 30
0.0
 10
-34.00019029816772
 20
-3.974913319912739
 30
0.0
 10
-34.00022128444451
 20
-3.971546284461073
 30
0.0
 10
-34.00026242521152
 20
-3.967601975672204
 30
0.0
  0
SPLINE
  5
8AB2
330
8AA4
100
AcDbEntity
  8
0
100
AcDbSpline
210
0.0
220
0.0
230
1.0
 70
     8
 71
     3
 72
    12
 73
     8
 74
     0
 42
0.000000001
 43
0.0000000001
 40
0.1006407255260216
 40
0.1006407255260216
 40
0.1006407255260216
 40
0.1006407255260216
 40
0.1211256635490058
 40
0.1211256635490058
 40
0.1784064189529994
 40
0.1784064189529994
 40
0.2023979344807727
 40
0.2023979344807727
 40
0.2023979344807727
 40
0.2023979344807727
 10
-35.65225355623969
 20
-2.030463909734714
 30
0.0
 10
-35.71837693381372
 20
-2.024115238887097
 30
0.0
 10
-35.7837612466556
 20
-2.019390814223507
 30
0.0
 10
-36.02830126558758
 20
-2.005407957725887
 30
0.0
 10
-36.20098786196606
 20
-2.002606029119201
 30
0.0
 10
-36.44720089235904
 20
-2.000365144870554
 30
0.0
 10
-36.51887547464602
 20
-2.000125716866945
 30
0.0
 10
-36.58980804090305
 20
-2.00003023266952
 30
0.0
  0
LINE
  5
8AB3
330
8AA4
100
AcDbEntity
  8
0
100
AcDbLine
 10
-32.00000000000001
 20
-2.000000000000002
 30
0.0
 11
-30.00000000000001
 21
-1.999999999999999
 31
0.0
  0
LINE
  5
8AB4
330
8AA4
100
AcDbEntity
  8
0
100
AcDbLine
 10
-31.99999999999999
 20
-86.00000000000001
 30
0.0
 11
-29.99999999999998
 21
-86.00000000000001
 31
0.0
  0
LINE
  5
8AB5
330
8AA4
100
AcDbEntity
  8
0
100
AcDbLine
 10
30.00000000000002
 20
-1.999999999999999
 30
0.0
 11
-30.00000000000002
 21
-1.999999999999999
 31
0.0
  0
LINE
  5
8AB6
330
8AA4
100
AcDbEntity
  8
0
100
AcDbLine
 10
-29.99999999999998
 20
-86.00000000000001
 30
0.0
 11
29.99999999999998
 21
-86.00000000000001
 31
0.0
  0
CIRCLE
  5
8AB7
330
8AA4
100
AcDbEntity
  8
0
100
AcDbCircle
 10
0.0
 20
-47.99999999999998
 30
0.0
 40
2.5
  0
CIRCLE
  5
8AB8
330
8AA4
100
AcDbEntity
  8
0
100
AcDbCircle
 10
0.0
 20
-67.99999999999998
 30
0.0
 40
2.5
  0
LINE
  5
8AB9
330
8AA4
100
AcDbEntity
  8
0
100
AcDbLine
 10
32.00000000000001
 20
-2.000000000000002
 30
0.0
 11
30.00000000000001
 21
-1.999999999999999
 31
0.0
  0
LINE
  5
8ABA
330
8AA4
100
AcDbEntity
  8
0
100
AcDbLine
 10
36.0
 20
0.0
 30
0.0
 11
73.5
 21
0.0
 31
0.0
  0
ARC
  5
8ABB
330
8AA4
100
AcDbEntity
  8
0
100
AcDbCircle
 10
36.0
 20
-4.000000000000004
 30
0.0
 40
3.999999999999999
100
AcDbArc
 50
90.00000000000012
 51
180.0
  0
LINE
  5
8ABC
330
8AA4
100
AcDbEntity
  8
0
100
AcDbLine
 10
31.99999999999999
 20
-86.00000000000003
 30
0.0
 11
32.0
 21
-46.00000000000003
 31
0.0
  0
LINE
  5
8ABD
330
8AA4
100
AcDbEntity
  8
0
100
AcDbLine
 10
33.99999999999999
 20
-86.00000000000003
 30
0.0
 11
31.99999999999999
 21
-86.00000000000003
 31
0.0
  0
LINE
  5
8ABE
330
8AA4
100
AcDbEntity
  8
0
100
AcDbLine
 10
34.0
 20
-46.00000000000003
 30
0.0
 11
33.99999999999999
 21
-86.00000000000003
 31
0.0
  0
LINE
  5
8ABF
330
8AA4
100
AcDbEntity
  8
0
100
AcDbLine
 10
32.0
 20
-46.00000000000001
 30
0.0
 11
34.0
 21
-46.00000000000001
 31
0.0
  0
LINE
  5
8AC0
330
8AA4
100
AcDbEntity
  8
0
100
AcDbLine
 10
34.0
 20
-4.000000000000003
 30
0.0
 11
34.0
 21
-46.00000000000001
 31
0.0
  0
LINE
  5
8AC1
330
8AA4
100
AcDbEntity
  8
0
100
AcDbLine
 10
32.0
 20
-46.00000000000001
 30
0.0
 11
32.0
 21
-4.000000000000003
 31
0.0
  0
LINE
  5
8AC2
330
8AA4
100
AcDbEntity
  8
0
100
AcDbLine
 10
31.99999999999999
 20
-86.00000000000001
 30
0.0
 11
29.99999999999998
 21
-86.00000000000001
 31
0.0
  0
ARC
  5
8AC3
330
8AA4
100
AcDbEntity
  8
0
100
AcDbCircle
 10
36.0
 20
-4.000000000000004
 30
0.0
 40
1.999999999999997
100
AcDbArc
 50
90.00000000000026
 51
180.0
  0
LINE
  5
8AC4
330
8AA4
100
AcDbEntity
  8
0
100
AcDbLine
 10
73.5
 20
0.0
 30
0.0
 11
73.5
 21
-2.000000000000023
 31
0.0
  0
LINE
  5
8AC5
330
8AA4
100
AcDbEntity
  8
0
100
AcDbLine
 10
73.5
 20
-2.000000000000023
 30
0.0
 11
36.0
 21
-2.000000000000006
 31
0.0
  0
LINE
  5
8AC6
330
8AA4
100
AcDbEntity
  8
0
100
AcDbLine
 10
-73.5
 20
-2.000000000000023
 30
0.0
 11
-36.0
 21
-2.000000000000006
 31
0.0
  0
LINE
  5
8AC7
330
8AA4
100
AcDbEntity
  8
0
100
AcDbLine
 10
-32.0
 20
-46.00000000000001
 30
0.0
 11
-32.0
 21
-4.000000000000003
 31
0.0
  0
LINE
  5
8AC8
330
8AA4
100
AcDbEntity
  8
0
100
AcDbLine
 10
-34.0
 20
-4.000000000000003
 30
0.0
 11
-34.0
 21
-46.00000000000001
 31
0.0
  0
LINE
  5
8AC9
330
8AA4
100
AcDbEntity
  8
0
100
AcDbLine
 10
-36.0
 20
0.0
 30
0.0
 11
-73.5
 21
0.0
 31
0.0
  0
LINE
  5
8ACA
330
8AA4
100
AcDbEntity
  8
0
100
AcDbLine
 10
-73.5
 20
0.0
 30
0.0
 11
-73.5
 21
-2.000000000000023
 31
0.0
  0
ARC
  5
8ACB
330
8AA4
100
AcDbEntity
  8
0
100
AcDbCircle
 10
-36.0
 20
-4.000000000000004
 30
0.0
 40
1.999999999999997
100
AcDbArc
 50
0.0
 51
89.99999999999975
  0
ARC
  5
8ACC
330
8AA4
100
AcDbEntity
  8
0
100
AcDbCircle
 10
-36.0
 20
-4.000000000000004
 30
0.0
 40
3.999999999999999
100
AcDbArc
 50
0.0
 51
89.99999999999987
  0
LINE
  5
8ACD
330
8AA4
100
AcDbEntity
  8
0
100
AcDbLine
 10
-32.0
 20
-46.00000000000003
 30
0.0
 11
-31.99999999999999
 21
-86.00000000000003
 31
0.0
  0
LINE
  5
8ACE
330
8AA4
100
AcDbEntity
  8
0
100
AcDbLine
 10
-33.99999999999999
 20
-86.00000000000003
 30
0.0
 11
-34.0
 21
-46.00000000000003
 31
0.0
  0
LINE
  5
8ACF
330
8AA4
100
AcDbEntity
  8
0
100
AcDbLine
 10
-31.99999999999999
 20
-86.00000000000003
 30
0.0
 11
-33.99999999999999
 21
-86.00000000000003
 31
0.0
  0
LINE
  5
8AD0
330
8AA4
100
AcDbEntity
  8
0
100
AcDbLine
 10
-34.0
 20
-46.00000000000001
 30
0.0
 11
-32.0
 21
-46.00000000000001
 31
0.0
  0
ENDBLK
  5
8AA6
330
8AA4
100
AcDbEntity
  8
0
100
AcDbBlockEnd
  0
BLOCK
  5
8AD2
330
8AD1
100
AcDbEntity
  8
0
100
AcDbBlockBegin
  2
SAE340_64_2-Bottom
 70
     0
 10
0.0
 20
0.0
 30
0.0
  3
SAE340_64_2-Bottom
  1

  0
SPLINE
  5
8AD4
330
8AD1
100
AcDbEntity
  8
0
100
AcDbSpline
210
0.0
220
0.0
230
1.0
 70
     8
 71
     3
 72
    17
 73
    13
 74
     0
 42
0.000000001
 43
0.0000000001
 40
0.0
 40
0.0
 40
0.0
 40
0.0
 40
0.3704689058681346
 40
0.3704689058681346
 40
0.3704689058681346
 40
0.7029757053306487
 40
0.7029757053306487
 40
0.7029757053306487
 40
0.9335813790882429
 40
0.9335813790882429
 40
0.9335813790882429
 40
1.0
 40
1.0
 40
1.0
 40
1.0
 10
36.60606060606065
 20
2.000000000000011
 30
0.0
 10
36.25310981611538
 20
2.000006377019322
 30
0.0
 10
35.80994835339229
 20
2.000465619612757
 30
0.0
 10
35.38299606376927
 20
1.999851137318859
 30
0.0
 10
34.9997937569169
 20
1.999299621287057
 30
0.0
 10
34.63742190751005
 20
2.000043886462053
 30
0.0
 10
34.37998709144399
 20
2.000290307240823
 30
0.0
 10
34.20144659451721
 20
2.000461209098493
 30
0.0
 10
34.07197149374584
 20
2.000344409457487
 30
0.0
 10
34.02188707330124
 20
2.000001688218381
 30
0.0
 10
34.00746185088199
 20
1.999902978279082
 30
0.0
 10
33.99999784581295
 20
2.000565701782092
 30
0.0
 10
34.00000000001911
 20
2.00000000000013
 30
0.0
  0
ARC
  5
8AD5
330
8AD1
100
AcDbEntity
  8
0
100
AcDbCircle
 10
36.0
 20
4.000000000000004
 30
0.0
 40
1.999999999999992
100
AcDbArc
 50
180.1766999799471
 51
259.98410493511
  0
ARC
  5
8AD6
330
8AD1
100
AcDbEntity
  8
0
100
AcDbCircle
 10
36.0
 20
4.000000000000004
 30
0.0
 40
3.999999999999994
100
AcDbArc
 50
219.6735598722844
 51
270.0
  0
LINE
  5
8AD7
330
8AD1
100
AcDbEntity
  8
0
100
AcDbLine
 10
36.60606060606068
 20
0.0
 30
0.0
 11
36.00000000000001
 21
0.0
 31
0.0
  0
SPLINE
  5
8AD8
330
8AD1
100
AcDbEntity
  8
0
100
AcDbSpline
210
0.0
220
0.0
230
1.0
 70
     8
 71
     3
 72
    17
 73
    13
 74
     0
 42
0.000000001
 43
0.0000000001
 40
-1.0
 40
-1.0
 40
-1.0
 40
-1.0
 40
-0.7907552673954156
 40
-0.7907552673954156
 40
-0.7907552673954156
 40
-0.3883396848828926
 40
-0.3883396848828926
 40
-0.3883396848828926
 40
-0.105318420607489
 40
-0.105318420607489
 40
-0.105318420607489
 40
0.0
 40
0.0
 40
0.0
 40
0.0
 10
32.00000000000001
 20
1.999999999999963
 30
0.0
 10
32.00001724877415
 20
1.997098202773992
 30
0.0
 10
32.13515725660305
 20
1.911522152467897
 30
0.0
 10
32.36463729125271
 20
1.773393535468579
 30
0.0
 10
32.80596903073808
 20
1.507747145332343
 30
0.0
 10
33.58537332972991
 20
1.05207725979944
 30
0.0
 10
34.40296616527445
 20
0.6711423121877487
 30
0.0
 10
34.97798405233931
 20
0.4032285057526048
 30
0.0
 10
35.57892350314762
 20
0.1693290542264545
 30
0.0
 10
36.08259362672004
 20
0.0606817918217082
 30
0.0
 10
36.270020327882
 20
0.0202517622651279
 30
0.0
 10
36.44467332043365
 20
0.0000166268648463
 30
0.0
 10
36.60606060606067
 20
0.0000000000000006
 30
0.0
  0
LINE
  5
8AD9
330
8AD1
100
AcDbEntity
  8
0
100
AcDbLine
 10
36.60606060606068
 20
2.00000000000001
 30
0.0
 11
36.60606060606068
 21
0.0
 31
0.0
  0
SPLINE
  5
8ADA
330
8AD1
100
AcDbEntity
  8
0
100
AcDbSpline
210
0.0
220
0.0
230
1.0
 70
     8
 71
     3
 72
    28
 73
    24
 74
     0
 42
0.000000001
 43
0.0000000001
 40
0.0690822590119033
 40
0.0690822590119033
 40
0.0690822590119033
 40
0.0690822590119033
 40
0.0695373376945789
 40
0.0695373376945789
 40
0.0705592775770387
 40
0.0705592775770387
 40
0.0715813611851412
 40
0.0715813611851412
 40
0.0725991042097535
 40
0.0725991042097535
 40
0.0746451822654574
 40
0.0746451822654574
 40
0.0787297326831606
 40
0.0787297326831606
 40
0.0838653754384303
 40
0.0838653754384303
 40
0.0955614324957844
 40
0.0955614324957844
 40
0.1211256635465861
 40
0.1211256635465861
 40
0.1784064189485907
 40
0.1784064189485907
 40
0.1798465075926702
 40
0.1798465075926702
 40
0.1798465075926702
 40
0.1798465075926702
 10
35.36371670695546
 20
2.070841470802832
 30
0.0
 10
35.36371670696342
 20
2.070841470801219
 30
0.0
 10
35.36380214744621
 20
2.070824147944716
 30
0.0
 10
35.36438361946002
 20
2.070706910031253
 30
0.0
 10
35.36528572235129
 20
2.070525432049183
 30
0.0
 10
35.36805655518956
 20
2.069975659406718
 30
0.0
 10
35.36994902274866
 20
2.069602926366523
 30
0.0
 10
35.37436619550457
 20
2.068744968898675
 30
0.0
 10
35.37691522268311
 20
2.068255027857921
 30
0.0
 10
35.38509412283126
 20
2.066704419210843
 30
0.0
 10
35.39131852210744
 20
2.06555221682984
 30
0.0
 10
35.41032146366659
 20
2.062130588048152
 30
0.0
 10
35.42381689207476
 20
2.059823029340464
 30
0.0
 10
35.45405151580526
 20
2.054909058545919
 30
0.0
 10
35.47106069529194
 20
2.052318623663539
 30
0.0
 10
35.5265061913847
 20
2.044365323488559
 30
0.0
 10
35.5649245435613
 20
2.039625143307107
 30
0.0
 10
35.68595330091516
 20
2.026494701271574
 30
0.0
 10
35.76778903114202
 20
2.02030410930921
 30
0.0
 10
36.02830126555902
 20
2.005407957726857
 30
0.0
 10
36.20098786193157
 20
2.002606029119845
 30
0.0
 10
36.37888170929308
 20
2.000986945353519
 30
0.0
 10
36.38323776591286
 20
2.000948997469852
 30
0.0
 10
36.38759632902843
 20
2.000912033595442
 30
0.0
  0
SPLINE
  5
8ADB
330
8AD1
100
AcDbEntity
  8
0
100
AcDbSpline
210
0.0
220
0.0
230
1.0
 70
     8
 71
     3
 72
    30
 73
    26
 74
     0
 42
0.000000001
 43
0.0000000001
 40
0.0
 40
0.0
 40
0.0
 40
0.0
 40
0.0049906877938015
 40
0.0049906877938015
 40
0.0087372355436364
 40
0.0087372355436364
 40
0.0097952253289646
 40
0.0097952253289646
 40
0.0104899688862627
 40
0.0104899688862627
 40
0.0114835377072582
 40
0.0114835377072582
 40
0.0123917508482788
 40
0.0123917508482788
 40
0.0135259377054771
 40
0.0135259377054771
 40
0.0151743813896933
 40
0.0151743813896933
 40
0.0177233275665647
 40
0.0177233275665647
 40
0.021477752973492
 40
0.021477752973492
 40
0.0261198062324494
 40
0.0261198062324494
 40
0.0306018019528528
 40
0.0306018019528528
 40
0.0306018019528528
 40
0.0306018019528528
 10
34.00002531920677
 20
4.000000108971985
 30
0.0
 10
34.00006043540888
 20
3.991795785401722
 30
0.0
 10
34.00010543803948
 20
3.985044489139803
 30
0.0
 10
34.00020570056748
 20
3.973074478496443
 30
0.0
 10
34.00025216704968
 20
3.96802020715921
 30
0.0
 10
34.00037082766794
 20
3.958018887356457
 30
0.0
 10
34.00040161077257
 20
3.955539561711369
 30
0.0
 10
34.00046347754174
 20
3.950898298740697
 30
0.0
 10
34.00049113795149
 20
3.948899178047343
 30
0.0
 10
34.00056545828595
 20
3.943776693780599
 30
0.0
 10
34.00061636412927
 20
3.940467859702743
 30
0.0
 10
34.0007203317749
 20
3.934149189315428
 30
0.0
 10
34.00077372345927
 20
3.93107968311299
 30
0.0
 10
34.00089659629724
 20
3.924378860179622
 30
0.0
 10
34.00096786688436
 20
3.920734150613496
 30
0.0
 10
34.00114460638677
 20
3.912180966696907
 30
0.0
 10
34.00125249030006
 20
3.907368438329977
 30
0.0
 10
34.00152755708012
 20
3.895853857622748
 30
0.0
 10
34.00169749325488
 20
3.889446306502972
 30
0.0
 10
34.00210476727363
 20
3.875140055335791
 30
0.0
 10
34.00233985502957
 20
3.867834575427865
 30
0.0
 10
34.00278976724815
 20
3.85466901305926
 30
0.0
 10
34.00298851216972
 20
3.84946762912751
 30
0.0
 10
34.00322997974674
 20
3.843272573699319
 30
0.0
 10
34.0032809978525
 20
3.84205725130769
 30
0.0
 10
34.00328099785193
 20
3.842057251321667
 30
0.0
  0
SPLINE
  5
8ADC
330
8AD1
100
AcDbEntity
  8
0
100
AcDbSpline
210
0.0
220
0.0
230
1.0
 70
     8
 71
     3
 72
     8
 73
     4
 74
     0
 42
0.000000001
 43
0.0000000001
 40
0.0
 40
0.0
 40
0.0
 40
0.0
 40
0.0004151367487313
 40
0.0004151367487313
 40
0.0004151367487313
 40
0.0004151367487313
 10
34.00002109558388
 20
4.000000267145734
 30
0.0
 10
34.00001411393832
 20
3.999222903658587
 30
0.0
 10
34.00000714111357
 20
3.998428973611862
 30
0.0
 10
34.00000008478673
 20
3.997615301483822
 30
0.0
  0
CIRCLE
  5
8ADD
330
8AD1
100
AcDbEntity
  8
0
100
AcDbCircle
 10
0.0
 20
67.99999999999998
 30
0.0
 40
2.5
  0
CIRCLE
  5
8ADE
330
8AD1
100
AcDbEntity
  8
0
100
AcDbCircle
 10
0.0
 20
47.99999999999998
 30
0.0
 40
2.5
  0
LINE
  5
8ADF
330
8AD1
100
AcDbEntity
  8
0
100
AcDbLine
 10
30.00000000000002
 20
1.999999999999999
 30
0.0
 11
-30.00000000000002
 21
1.999999999999999
 31
0.0
  0
LINE
  5
8AE0
330
8AD1
100
AcDbEntity
  8
0
100
AcDbLine
 10
29.99999999999999
 20
86.00000000000001
 30
0.0
 11
-29.99999999999998
 21
86.00000000000001
 31
0.0
  0
SPLINE
  5
8AE1
330
8AD1
100
AcDbEntity
  8
0
100
AcDbSpline
210
0.0
220
0.0
230
1.0
 70
     8
 71
     3
 72
    17
 73
    13
 74
     0
 42
0.000000001
 43
0.0000000001
 40
-1.0
 40
-1.0
 40
-1.0
 40
-1.0
 40
-0.7907552673954156
 40
-0.7907552673954156
 40
-0.7907552673954156
 40
-0.3883396848828926
 40
-0.3883396848828926
 40
-0.3883396848828926
 40
-0.105318420607489
 40
-0.105318420607489
 40
-0.105318420607489
 40
0.0
 40
0.0
 40
0.0
 40
0.0
 10
-32.00000000000001
 20
1.999999999999963
 30
0.0
 10
-32.00001724877415
 20
1.997098202773992
 30
0.0
 10
-32.13515725660305
 20
1.911522152467897
 30
0.0
 10
-32.36463729125271
 20
1.773393535468579
 30
0.0
 10
-32.80596903073808
 20
1.507747145332343
 30
0.0
 10
-33.58537332972991
 20
1.05207725979944
 30
0.0
 10
-34.40296616527445
 20
0.6711423121877487
 30
0.0
 10
-34.97798405233931
 20
0.4032285057526048
 30
0.0
 10
-35.57892350314762
 20
0.1693290542264545
 30
0.0
 10
-36.08259362672004
 20
0.0606817918217082
 30
0.0
 10
-36.270020327882
 20
0.0202517622651279
 30
0.0
 10
-36.44467332043365
 20
0.0000166268648463
 30
0.0
 10
-36.60606060606067
 20
0.0000000000000006
 30
0.0
  0
LINE
  5
8AE2
330
8AD1
100
AcDbEntity
  8
0
100
AcDbLine
 10
-36.00000000000001
 20
0.0
 30
0.0
 11
-36.60606060606068
 21
0.0
 31
0.0
  0
ARC
  5
8AE3
330
8AD1
100
AcDbEntity
  8
0
100
AcDbCircle
 10
-36.0
 20
4.000000000000004
 30
0.0
 40
3.999999999999994
100
AcDbArc
 50
270.0
 51
320.3264401277156
  0
ARC
  5
8AE4
330
8AD1
100
AcDbEntity
  8
0
100
AcDbCircle
 10
-36.0
 20
4.000000000000004
 30
0.0
 40
1.999999999999992
100
AcDbArc
 50
280.0158950648897
 51
359.8269243556482
  0
SPLINE
  5
8AE5
330
8AD1
100
AcDbEntity
  8
0
100
AcDbSpline
210
0.0
220
0.0
230
1.0
 70
     8
 71
     3
 72
    17
 73
    13
 74
     0
 42
0.000000001
 43
0.0000000001
 40
0.0
 40
0.0
 40
0.0
 40
0.0
 40
0.3704689058681346
 40
0.3704689058681346
 40
0.3704689058681346
 40
0.7029757053306487
 40
0.7029757053306487
 40
0.7029757053306487
 40
0.9335813790882429
 40
0.9335813790882429
 40
0.9335813790882429
 40
1.0
 40
1.0
 40
1.0
 40
1.0
 10
-36.60606060606065
 20
2.000000000000011
 30
0.0
 10
-36.25310981611538
 20
2.000006377019322
 30
0.0
 10
-35.80994835339229
 20
2.000465619612757
 30
0.0
 10
-35.38299606376927
 20
1.999851137318859
 30
0.0
 10
-34.9997937569169
 20
1.999299621287057
 30
0.0
 10
-34.63742190751005
 20
2.000043886462053
 30
0.0
 10
-34.37998709144399
 20
2.000290307240823
 30
0.0
 10
-34.20144659451721
 20
2.000461209098493
 30
0.0
 10
-34.07197149374584
 20
2.000344409457487
 30
0.0
 10
-34.02188707330124
 20
2.000001688218381
 30
0.0
 10
-34.00746185088199
 20
1.999902978279082
 30
0.0
 10
-33.99999784581295
 20
2.000565701782092
 30
0.0
 10
-34.00000000001911
 20
2.00000000000013
 30
0.0
  0
LINE
  5
8AE6
330
8AD1
100
AcDbEntity
  8
0
100
AcDbLine
 10
-36.60606060606068
 20
0.0
 30
0.0
 11
-36.60606060606068
 21
2.00000000000001
 31
0.0
  0
SPLINE
  5
8AE7
330
8AD1
100
AcDbEntity
  8
0
100
AcDbSpline
210
0.0
220
0.0
230
1.0
 70
     8
 71
     3
 72
    28
 73
    24
 74
     0
 42
0.000000001
 43
0.0000000001
 40
0.0357732034704284
 40
0.0357732034704284
 40
0.0357732034704284
 40
0.0357732034704284
 40
0.0390422753579204
 40
0.0390422753579204
 40
0.0452611505385088
 40
0.0452611505385088
 40
0.0483374926872402
 40
0.0483374926872402
 40
0.0514208782682572
 40
0.0514208782682572
 40
0.0529575421320193
 40
0.0529575421320193
 40
0.0545062597930214
 40
0.0545062597930214
 40
0.0552768639655431
 40
0.0552768639655431
 40
0.0560490423970232
 40
0.0560490423970232
 40
0.0568196217719578
 40
0.0568196217719578
 40
0.0599779860321212
 40
0.0599779860321212
 40
0.0663268531679089
 40
0.0663268531679089
 40
0.0663268531679089
 40
0.0663268531679089
 10
-34.00328099785197
 20
3.842057251320845
 30
0.0
 10
-34.0032809978503
 20
3.842057251361253
 30
0.0
 10
-34.00325370308836
 20
3.842715126915706
 30
0.0
 10
-34.00307566836269
 20
3.84719283825826
 30
0.0
 10
-34.00281926780969
 20
3.853659085251755
 30
0.0
 10
-34.00230490580944
 20
3.868952895898438
 30
0.0
 10
-34.00211373393095
 20
3.874953169729051
 30
0.0
 10
-34.00171824157702
 20
3.888620143979812
 30
0.0
 10
-34.00151123847022
 20
3.896381733807215
 30
0.0
 10
-34.00120926592754
 20
3.909288426303134
 30
0.0
 10
-34.0011091443688
 20
3.913838539914752
 30
0.0
 10
-34.00091412426018
 20
3.923413604307706
 30
0.0
 10
-34.00081699725252
 20
3.928569998657887
 30
0.0
 10
-34.00068438692811
 20
3.936297116044849
 30
0.0
 10
-34.00064189433958
 20
3.93889618479789
 30
0.0
 10
-34.00056372807346
 20
3.943909393976699
 30
0.0
 10
-34.00052749020637
 20
3.946359799070755
 30
0.0
 10
-34.00046356991782
 20
3.950879019220354
 30
0.0
 10
-34.00043532219674
 20
3.952983957393393
 30
0.0
 10
-34.00030935107024
 20
3.962745419644586
 30
0.0
 10
-34.00025759965237
 20
3.967867506090891
 30
0.0
 10
-34.00012589227662
 20
3.981754123451557
 30
0.0
 10
-34.00006999202758
 20
3.989563038485845
 30
0.0
 10
-34.00002531920677
 20
4.000000108971983
 30
0.0
  0
SPLINE
  5
8AE8
330
8AD1
100
AcDbEntity
  8
0
100
AcDbSpline
210
0.0
220
0.0
230
1.0
 70
     8
 71
     3
 72
    24
 73
    20
 74
     0
 42
0.000000001
 43
0.0000000001
 40
0.022545504375828
 40
0.022545504375828
 40
0.022545504375828
 40
0.022545504375828
 40
0.0670584162345947
 40
0.0670584162345947
 40
0.1176569866952529
 40
0.1176569866952529
 40
0.1255739065712785
 40
0.1255739065712785
 40
0.1275474479079991
 40
0.1275474479079991
 40
0.1295305932688006
 40
0.1295305932688006
 40
0.1305201882201018
 40
0.1305201882201018
 40
0.131513765935205
 40
0.131513765935205
 40
0.1325098132363285
 40
0.1325098132363285
 40
0.1331618384340465
 40
0.1331618384340465
 40
0.1331618384340465
 40
0.1331618384340465
 10
-36.38760111846995
 20
2.000911654798886
 30
0.0
 10
-36.25277437881338
 20
2.002055086370171
 30
0.0
 10
-36.11870328407291
 20
2.004105436892226
 30
0.0
 10
-35.82488885394988
 20
2.015423834793023
 30
0.0
 10
-35.66175508162847
 20
2.025387294087431
 30
0.0
 10
-35.46909929965989
 20
2.052544208558441
 30
0.0
 10
-35.44256094147634
 20
2.056642799877898
 30
0.0
 10
-35.41059037281057
 20
2.062112997671081
 30
0.0
 10
-35.40425431386544
 20
2.063224475687056
 30
0.0
 10
-35.3919687536043
 20
2.06543378725536
 30
0.0
 10
-35.38592496806431
 20
2.066549999409756
 30
0.0
 10
-35.37787001057517
 20
2.068072834073857
 30
0.0
 10
-35.3753367006567
 20
2.068558169751153
 30
0.0
 10
-35.37086743333958
 20
2.069423429148101
 30
0.0
 10
-35.36890767069162
 20
2.069807989954021
 30
0.0
 10
-35.3659044694853
 20
2.070401936514362
 30
0.0
 10
-35.36484122780291
 20
2.070615025851866
 30
0.0
 10
-35.36389298447616
 20
2.070805715033666
 30
0.0
 10
-35.36371671482635
 20
2.070841469207707
 30
0.0
 10
-35.36371670695595
 20
2.070841470802738
 30
0.0
  0
LINE
  5
8AE9
330
8AD1
100
AcDbEntity
  8
0
100
AcDbLine
 10
-34.00000000000001
 20
2.000000000000004
 30
0.0
 11
-30.00000000000001
 21
1.999999999999999
 31
0.0
  0
LINE
  5
8AEA
330
8AD1
100
AcDbEntity
  8
0
100
AcDbLine
 10
-29.99999999999998
 20
86.00000000000001
 30
0.0
 11
-33.99999999999999
 21
86.00000000000001
 31
0.0
  0
LINE
  5
8AEB
330
8AD1
100
AcDbEntity
  8
0
100
AcDbLine
 10
-34.0
 20
2.000000000000004
 30
0.0
 11
-33.99999999999999
 21
86.00000000000001
 31
0.0
  0
LINE
  5
8AEC
330
8AD1
100
AcDbEntity
  8
0
100
AcDbLine
 10
34.00000000000001
 20
2.000000000000004
 30
0.0
 11
30.00000000000001
 21
1.999999999999999
 31
0.0
  0
LINE
  5
8AED
330
8AD1
100
AcDbEntity
  8
0
100
AcDbLine
 10
34.0
 20
2.000000000000004
 30
0.0
 11
33.99999999999999
 21
86.00000000000001
 31
0.0
  0
LINE
  5
8AEE
330
8AD1
100
AcDbEntity
  8
0
100
AcDbLine
 10
29.99999999999998
 20
86.00000000000001
 30
0.0
 11
33.99999999999999
 21
86.00000000000001
 31
0.0
  0
LINE
  5
8AEF
330
8AD1
100
AcDbEntity
  8
0
100
AcDbLine
 10
73.50000000000005
 20
0.0
 30
0.0
 11
36.60606060606068
 21
0.0
 31
0.0
  0
LINE
  5
8AF0
330
8AD1
100
AcDbEntity
  8
0
100
AcDbLine
 10
73.50000000000005
 20
1.999999999999997
 30
0.0
 11
73.50000000000005
 21
0.0
 31
0.0
  0
LINE
  5
8AF1
330
8AD1
100
AcDbEntity
  8
0
100
AcDbLine
 10
36.60606060606069
 20
2.00000000000001
 30
0.0
 11
73.50000000000005
 21
1.999999999999997
 31
0.0
  0
LINE
  5
8AF2
330
8AD1
100
AcDbEntity
  8
0
100
AcDbLine
 10
-73.50000000000005
 20
1.999999999999997
 30
0.0
 11
-36.60606060606069
 21
2.00000000000001
 31
0.0
  0
LINE
  5
8AF3
330
8AD1
100
AcDbEntity
  8
0
100
AcDbLine
 10
-73.50000000000005
 20
0.0
 30
0.0
 11
-73.50000000000005
 21
1.999999999999997
 31
0.0
  0
LINE
  5
8AF4
330
8AD1
100
AcDbEntity
  8
0
100
AcDbLine
 10
-36.60606060606068
 20
0.0
 30
0.0
 11
-73.50000000000005
 21
0.0
 31
0.0
  0
ENDBLK
  5
8AD3
330
8AD1
100
AcDbEntity
  8
0
100
AcDbBlockEnd
  0
BLOCK
  5
8AF6
330
8AF5
100
AcDbEntity
  8
0
100
AcDbBlockBegin
  2
SAE340_64_2-ISO
 70
     0
 10
0.0
 20
0.0
 30
0.0
  3
SAE340_64_2-ISO
  1

  0
LINE
  5
8AF8
330
8AF5
100
AcDbEntity
  8
0
100
AcDbLine
 10
53.02457658575747
 20
-46.13692504175326
 30
0.0
 11
52.8994331897467
 21
-46.20917661512738
 31
0.0
  0
SPLINE
  5
8AF9
330
8AF5
100
AcDbEntity
  8
0
100
AcDbSpline
210
0.0
220
0.0
230
1.0
 70
     8
 71
     3
 72
    17
 73
    13
 74
     0
 42
0.000000001
 43
0.0000000001
 40
0.0
 40
0.0
 40
0.0
 40
0.0
 40
0.3704689058681346
 40
0.3704689058681346
 40
0.3704689058681346
 40
0.7029757053306487
 40
0.7029757053306487
 40
0.7029757053306487
 40
0.9335813790882429
 40
0.9335813790882429
 40
0.9335813790882429
 40
1.0
 40
1.0
 40
1.0
 40
1.0
 10
54.86733971248605
 20
-45.10857234039542
 30
0.0
 10
54.617761306257
 20
-45.19958668559244
 30
0.0
 10
54.30407409725292
 20
-45.20965579982259
 30
0.0
 10
54.00260774261432
 20
-45.24100539530836
 30
0.0
 10
53.73203277359869
 20
-45.26914258440658
 30
0.0
 10
53.47527090661976
 20
-45.31667633154199
 30
0.0
 10
53.29306275666225
 20
-45.46172074730965
 30
0.0
 10
53.16669471470643
 20
-45.56231437509996
 30
0.0
 10
53.07522458277438
 20
-45.71424691869921
 30
0.0
 10
53.04005188995843
 20
-45.92887528188167
 30
0.0
 10
53.0299215158331
 20
-45.99069214726421
 30
0.0
 10
53.02417505095093
 20
-46.05644557646328
 30
0.0
 10
53.02457658577087
 20
-46.13692504175457
 30
0.0
  0
LINE
  5
8AFA
330
8AF5
100
AcDbEntity
  8
0
100
AcDbLine
 10
54.83259169081744
 20
-45.08851056073127
 30
0.0
 11
54.86733971248608
 21
-45.10857234039548
 31
0.0
  0
LINE
  5
8AFB
330
8AF5
100
AcDbEntity
  8
0
100
AcDbLine
 10
54.43879014813055
 20
-44.86114913405372
 30
0.0
 11
54.83259169081744
 21
-45.08851056073127
 31
0.0
  0
ELLIPSE
  5
8AFC
330
8AF5
100
AcDbEntity
  8
0
100
AcDbEllipse
 10
53.02457658575746
 20
-45.67764571498144
 30
0.0
 11
1.999999999999992
 21
0.0000000000000003
 31
0.0
210
0.0
220
0.0
230
1.0
 40
0.5773502691896257
 41
0.7853981633974536
 42
0.8225763078182497
  0
ELLIPSE
  5
8AFD
330
8AF5
100
AcDbEntity
  8
0
100
AcDbEllipse
 10
53.02457658575746
 20
-45.67764571498144
 30
0.0
 11
1.999999999999992
 21
-0.0000000000001192
 31
0.0
210
0.0
220
0.0
230
1.0
 40
0.5773502691896258
 41
0.8225763078184789
 42
2.356194490192606
  0
LINE
  5
8AFE
330
8AF5
100
AcDbEntity
  8
0
100
AcDbLine
 10
51.61036302338437
 20
-45.68426387707136
 30
0.0
 11
51.61036302338437
 21
-44.86114913405372
 31
0.0
  0
LINE
  5
8AFF
330
8AF5
100
AcDbEntity
  8
0
100
AcDbLine
 10
51.61036302338437
 20
-46.95342162268099
 30
0.0
 11
51.61036302338437
 21
-45.6842638771473
 31
0.0
  0
LINE
  5
8B00
330
8AF5
100
AcDbEntity
  8
0
100
AcDbLine
 10
52.8994331897467
 20
-46.20917661512738
 30
0.0
 11
51.61036302338437
 21
-46.95342162268099
 31
0.0
  0
ELLIPSE
  5
8B01
330
8AF5
100
AcDbEntity
  8
0
100
AcDbEllipse
 10
-17.68610153289728
 20
-67.36583614587414
 30
0.0
 11
-2.5
 21
-0.0000000000001496
 31
0.0
210
0.0
220
0.0
230
1.0
 40
0.5773502691896259
 41
3.74285687026858
 42
5.681921090500121
  0
ELLIPSE
  5
8B02
330
8AF5
100
AcDbEntity
  8
0
100
AcDbEllipse
 10
-3.543965909166333
 20
-59.20087033659687
 30
0.0
 11
-2.5
 21
-0.0000000000001496
 31
0.0
210
0.0
220
0.0
230
1.0
 40
0.5773502691896259
 41
3.74285687026858
 42
5.681921090500121
  0
LINE
  5
8B03
330
8AF5
100
AcDbEntity
  8
0
100
AcDbLine
 10
-9.200820158658746
 20
-86.96175408813957
 30
0.0
 11
-51.62722702985157
 21
-62.46685666030781
 31
0.0
  0
LINE
  5
8B04
330
8AF5
100
AcDbEntity
  8
0
100
AcDbLine
 10
6.355529027445308
 20
-19.19253787113829
 30
0.0
 11
6.355529027445312
 21
-24.09151735670466
 31
0.0
  0
LINE
  5
8B05
330
8AF5
100
AcDbEntity
  8
0
100
AcDbLine
 10
20.49766465117623
 20
-33.88947632783736
 30
0.0
 11
7.769742589818395
 21
-26.54100709948783
 31
0.0
  0
LINE
  5
8B06
330
8AF5
100
AcDbEntity
  8
0
100
AcDbLine
 10
-51.62722702985157
 20
-60.83386349845234
 30
0.0
 11
-9.200820158658755
 21
-85.32876092628413
 31
0.0
  0
ELLIPSE
  5
8B07
330
8AF5
100
AcDbEntity
  8
0
100
AcDbEllipse
 10
-3.543965909166333
 20
-57.56787717474143
 30
0.0
 11
-2.5
 21
0.0000000000001493
 31
0.0
210
0.0
220
0.0
230
1.0
 40
0.5773502691896259
 41
0.0
 42
6.283185307179586
  0
ELLIPSE
  5
8B08
330
8AF5
100
AcDbEntity
  8
0
100
AcDbEllipse
 10
-17.68610153289728
 20
-65.73284298401869
 30
0.0
 11
-2.5
 21
0.0000000000001493
 31
0.0
210
0.0
220
0.0
230
1.0
 40
0.5773502691896259
 41
0.0
 42
6.283185307179586
  0
LINE
  5
8B09
330
8AF5
100
AcDbEntity
  8
0
100
AcDbLine
 10
6.355529027445308
 20
-19.19253787113829
 30
0.0
 11
4.941315465072215
 21
-20.00903445206603
 31
0.0
  0
SPLINE
  5
8B0A
330
8AF5
100
AcDbEntity
  8
0
100
AcDbSpline
210
0.0
220
0.0
230
1.0
 70
     8
 71
     3
 72
    11
 73
     7
 74
     0
 42
0.000000001
 43
0.0000000001
 40
-1.0
 40
-1.0
 40
-1.0
 40
-1.0
 40
-0.7907552673954156
 40
-0.7907552673954156
 40
-0.7907552673954156
 40
-0.6580591885817287
 40
-0.6580591885817287
 40
-0.6580591885817287
 40
-0.6580591885817287
 10
6.355529027445334
 20
-19.19253787113828
 30
0.0
 10
6.357568711216288
 20
-18.79428512090471
 30
0.0
 10
6.322521700749468
 20
-18.40648844889139
 30
0.0
 10
6.25792649385791
 20
-18.05289921271014
 30
0.0
 10
6.216962353169761
 20
-17.82866463070685
 30
0.0
 10
6.164615198505547
 20
-17.61321867662131
 30
0.0
 10
6.101775580312875
 20
-17.40388833692796
 30
0.0
  0
ELLIPSE
  5
8B0B
330
8AF5
100
AcDbEntity
  8
0
100
AcDbEllipse
 10
2.112888340326026
 20
-16.28376880158329
 30
0.0
 11
3.999999999999994
 21
0.0000000000000003
 31
0.0
210
0.0
220
0.0
230
1.0
 40
0.5773502691896259
 41
6.068647301403171
 42
6.283185307179586
  0
ELLIPSE
  5
8B0C
330
8AF5
100
AcDbEntity
  8
0
100
AcDbEllipse
 10
2.112888340326026
 20
-16.28376880158329
 30
0.0
 11
3.999999999999994
 21
0.0000000000000004
 31
0.0
210
0.0
220
0.0
230
1.0
 40
0.5773502691896258
 41
5.497787143782129
 42
6.068647301403171
  0
LINE
  5
8B0D
330
8AF5
100
AcDbEntity
  8
0
100
AcDbLine
 10
4.941315465072215
 20
-17.91676196343874
 30
0.0
 11
4.941315465072215
 21
-20.00903445206603
 31
0.0
  0
SPLINE
  5
8B0E
330
8AF5
100
AcDbEntity
  8
0
100
AcDbSpline
210
0.0
220
0.0
230
1.0
 70
     8
 71
     3
 72
    16
 73
    12
 74
     0
 42
0.000000001
 43
0.0000000001
 40
0.0
 40
0.0
 40
0.0
 40
0.0
 40
0.0351246650182713
 40
0.0351246650182713
 40
0.0553378236619323
 40
0.0553378236619323
 40
0.0803966040252772
 40
0.0803966040252772
 40
0.1060253998086504
 40
0.1060253998086504
 40
0.116430031502652
 40
0.116430031502652
 40
0.116430031502652
 40
0.116430031502652
 10
6.101515669302077
 20
-16.45779655462353
 30
0.0
 10
6.086321044596068
 20
-16.57388479067966
 30
0.0
 10
6.071391170932169
 20
-16.69211305910764
 30
0.0
 10
6.056538534043198
 20
-16.86947821384522
 30
0.0
 10
6.052962559713428
 20
-16.93299115893764
 30
0.0
 10
6.050718787029727
 20
-17.06408537053908
 30
0.0
 10
6.053452815111661
 20
-17.12993853664436
 30
0.0
 10
6.065317913921912
 20
-17.24537946058053
 30
0.0
 10
6.074374483201232
 20
-17.29600575832369
 30
0.0
 10
6.091209229179224
 20
-17.36481651168887
 30
0.0
 10
6.096600837608883
 20
-17.3845470105295
 30
0.0
 10
6.102715592019891
 20
-17.40486818953091
 30
0.0
  0
ELLIPSE
  5
8B0F
330
8AF5
100
AcDbEntity
  8
0
100
AcDbEllipse
 10
7.769742589818404
 20
-24.90801393763238
 30
0.0
 11
1.000000000000105
 21
-1.732050807568817
 31
0.0
210
0.0
220
0.0
230
1.0
 40
0.5773502691896264
 41
3.926990816987
 42
5.497787143781897
  0
LINE
  5
8B10
330
8AF5
100
AcDbEntity
  8
0
100
AcDbLine
 10
7.769742589818395
 20
-26.54100709948783
 30
0.0
 11
-51.62722702985157
 21
-60.83386349845234
 31
0.0
  0
ELLIPSE
  5
8B11
330
8AF5
100
AcDbEntity
  8
0
100
AcDbEllipse
 10
-51.62722702985157
 20
-59.2008703365969
 30
0.0
 11
2.000000000000209
 21
-3.464101615137639
 31
0.0
210
0.0
220
0.0
230
1.0
 40
0.5773502691896258
 41
3.926990816986997
 42
5.497787143781893
  0
LINE
  5
8B12
330
8AF5
100
AcDbEntity
  8
0
100
AcDbLine
 10
-53.04144059222469
 20
-58.38437375566917
 30
0.0
 11
6.355529027445312
 21
-24.09151735670466
 31
0.0
  0
LINE
  5
8B13
330
8AF5
100
AcDbEntity
  8
0
100
AcDbLine
 10
-54.45565415459778
 20
-57.56787717474145
 30
0.0
 11
-53.04144059222469
 21
-58.38437375566917
 31
0.0
  0
LINE
  5
8B14
330
8AF5
100
AcDbEntity
  8
0
100
AcDbLine
 10
-51.62722702985157
 20
-62.4668566603078
 30
0.0
 11
-51.62722702985157
 21
-60.83386349845234
 31
0.0
  0
ELLIPSE
  5
8B15
330
8AF5
100
AcDbEntity
  8
0
100
AcDbEllipse
 10
-51.62722702985157
 20
-59.2008703365969
 30
0.0
 11
1.000000000000104
 21
-1.732050807568819
 31
0.0
210
0.0
220
0.0
230
1.0
 40
0.5773502691896258
 41
3.926990816986997
 42
5.497787143781896
  0
LINE
  5
8B16
330
8AF5
100
AcDbEntity
  8
0
100
AcDbLine
 10
53.02457658575746
 20
-51.03590452731963
 30
0.0
 11
53.02457658575747
 21
-46.13692504175326
 31
0.0
  0
ELLIPSE
  5
8B17
330
8AF5
100
AcDbEntity
  8
0
100
AcDbEllipse
 10
50.19614946101127
 20
-49.40291136546417
 30
0.0
 11
1.999999999999993
 21
-3.464101615137758
 31
0.0
210
0.0
220
0.0
230
1.0
 40
0.5773502691896251
 41
0.0000000000000013
 42
0.7853981633974558
  0
LINE
  5
8B18
330
8AF5
100
AcDbEntity
  8
0
100
AcDbLine
 10
-9.200820158658746
 20
-85.32876092628413
 30
0.0
 11
-7.786606596285654
 21
-84.51226434535639
 31
0.0
  0
LINE
  5
8B19
330
8AF5
100
AcDbEntity
  8
0
100
AcDbLine
 10
53.02457658575746
 20
-51.03590452731963
 30
0.0
 11
-6.372393033912562
 21
-85.32876092628411
 31
0.0
  0
ELLIPSE
  5
8B1A
330
8AF5
100
AcDbEntity
  8
0
100
AcDbEllipse
 10
-9.20082015865875
 20
-83.69576776442867
 30
0.0
 11
2.000000000000001
 21
-3.464101615137758
 31
0.0
210
0.0
220
0.0
230
0.9999999999999998
 40
0.5773502691896257
 41
5.497787143782137
 42
7.068583470577033
  0
LINE
  5
8B1B
330
8AF5
100
AcDbEntity
  8
0
100
AcDbLine
 10
80.95529444262613
 20
-35.31834534446093
 30
0.0
 11
82.36950800499924
 21
-34.5018487635332
 31
0.0
  0
LINE
  5
8B1C
330
8AF5
100
AcDbEntity
  8
0
100
AcDbLine
 10
54.86733971248608
 20
-45.10857234039548
 30
0.0
 11
80.95529444262613
 21
-35.31834534446093
 31
0.0
  0
ELLIPSE
  5
8B1D
330
8AF5
100
AcDbEntity
  8
0
100
AcDbEllipse
 10
68.5809257718615
 20
36.32922963194708
 30
0.0
 11
-3.249999999999998
 21
5.629165124598853
 31
0.0
210
0.0
220
0.0
230
1.0
 40
0.5773502691896257
 41
0.2193254863005914
 42
2.922267167289198
  0
ELLIPSE
  5
8B1E
330
8AF5
100
AcDbEntity
  8
0
100
AcDbEllipse
 10
76.3591003649135
 20
35.92098134148321
 30
0.0
 11
1.250000000000128
 21
-2.165063509461023
 31
0.0
210
0.0
220
0.0
230
1.0
 40
0.5773502691896254
 41
3.742856870268578
 42
5.681921090500122
  0
LINE
  5
8B1F
330
8AF5
100
AcDbEntity
  8
0
100
AcDbLine
 10
55.85300371050364
 20
60.00763047885115
 30
0.0
 11
82.36950800499917
 21
44.69831958645626
 31
0.0
  0
LINE
  5
8B20
330
8AF5
100
AcDbEntity
  8
0
100
AcDbLine
 10
82.36950800499924
 20
-34.5018487635332
 30
0.0
 11
82.36950800499917
 21
44.69831958645626
 31
0.0
  0
ELLIPSE
  5
8B21
330
8AF5
100
AcDbEntity
  8
0
100
AcDbEllipse
 10
53.02457658575746
 20
58.37463731699569
 30
0.0
 11
3.999999999999999
 21
-0.000000000000238
 31
0.0
210
0.0
220
0.0
230
1.0
 40
0.5773502691896259
 41
0.7853981633976881
 42
2.356194490192585
  0
ELLIPSE
  5
8B22
330
8AF5
100
AcDbEntity
  8
0
100
AcDbEllipse
 10
25.80096551007536
 20
33.67561574393195
 30
0.0
 11
1.24999999999987
 21
2.165063509461171
 31
0.0
210
0.0
220
0.0
230
1.0
 40
0.577350269189626
 41
3.742856870268578
 42
5.681921090500117
  0
ELLIPSE
  5
8B23
330
8AF5
100
AcDbEntity
  8
0
100
AcDbEllipse
 10
27.21517907244845
 20
32.85911916300422
 30
0.0
 11
-1.25
 21
-2.165063509461097
 31
0.0
210
0.0
220
0.0
230
1.0
 40
0.5773502691896259
 41
0.0
 42
6.283185307179586
  0
LINE
  5
8B24
330
8AF5
100
AcDbEntity
  8
0
100
AcDbLine
 10
-7.786606596285667
 20
-79.61328485979004
 30
0.0
 11
20.49766465117624
 21
-36.33896607062057
 31
0.0
  0
LINE
  5
8B25
330
8AF5
100
AcDbEntity
  8
0
100
AcDbLine
 10
-6.372393033912575
 20
-80.42978144071776
 30
0.0
 11
-7.786606596285667
 21
-79.61328485979004
 31
0.0
  0
LINE
  5
8B26
330
8AF5
100
AcDbEntity
  8
0
100
AcDbLine
 10
21.91187821354934
 20
-37.15546265154831
 30
0.0
 11
-6.372393033912575
 21
-80.42978144071776
 31
0.0
  0
LINE
  5
8B27
330
8AF5
100
AcDbEntity
  8
0
100
AcDbLine
 10
21.91187821354934
 20
-37.15546265154831
 30
0.0
 11
20.49766465117624
 21
-36.33896607062058
 31
0.0
  0
LINE
  5
8B28
330
8AF5
100
AcDbEntity
  8
0
100
AcDbLine
 10
20.49766465117624
 20
-36.33896607062058
 30
0.0
 11
20.49766465117626
 21
42.86120227936887
 31
0.0
  0
LINE
  5
8B29
330
8AF5
100
AcDbEntity
  8
0
100
AcDbLine
 10
21.91187821354935
 20
42.04470569844114
 30
0.0
 11
21.91187821354934
 21
-37.15546265154831
 31
0.0
  0
LINE
  5
8B2A
330
8AF5
100
AcDbEntity
  8
0
100
AcDbLine
 10
20.49766465117626
 20
42.86120227936886
 30
0.0
 11
21.91187821354935
 21
42.04470569844114
 31
0.0
  0
LINE
  5
8B2B
330
8AF5
100
AcDbEntity
  8
0
100
AcDbLine
 10
-6.372393033912575
 20
-80.42978144071776
 30
0.0
 11
-6.372393033912557
 21
-85.32876092628411
 31
0.0
  0
LINE
  5
8B2C
330
8AF5
100
AcDbEntity
  8
0
100
AcDbLine
 10
51.61036302338437
 20
-44.86114913405372
 30
0.0
 11
51.61036302338437
 21
59.19113389792342
 31
0.0
  0
LINE
  5
8B2D
330
8AF5
100
AcDbEntity
  8
0
100
AcDbLine
 10
51.61036302338437
 20
59.1911338979234
 30
0.0
 11
21.91187821354935
 21
42.04470569844114
 31
0.0
  0
LINE
  5
8B2E
330
8AF5
100
AcDbEntity
  8
0
100
AcDbLine
 10
20.49766465117626
 20
42.86120227936886
 30
0.0
 11
50.19614946101127
 21
60.00763047885115
 31
0.0
  0
LINE
  5
8B2F
330
8AF5
100
AcDbEntity
  8
0
100
AcDbLine
 10
-7.786606596285654
 20
-84.51226434535639
 30
0.0
 11
-7.786606596285667
 21
-79.61328485979004
 31
0.0
  0
LINE
  5
8B30
330
8AF5
100
AcDbEntity
  8
0
100
AcDbLine
 10
-9.200820158658746
 20
-85.32876092628413
 30
0.0
 11
-9.200820158658746
 21
-86.96175408813957
 31
0.0
  0
LINE
  5
8B31
330
8AF5
100
AcDbEntity
  8
0
100
AcDbLine
 10
-7.786606596285654
 20
-84.51226434535639
 30
0.0
 11
-6.372393033912557
 21
-85.32876092628411
 31
0.0
  0
ELLIPSE
  5
8B32
330
8AF5
100
AcDbEntity
  8
0
100
AcDbEllipse
 10
-9.20082015865875
 20
-83.69576776442867
 30
0.0
 11
1.0
 21
-1.732050807568879
 31
0.0
210
0.0
220
0.0
230
0.9999999999999998
 40
0.5773502691896257
 41
5.497787143782142
 42
7.068583470577038
  0
LINE
  5
8B33
330
8AF5
100
AcDbEntity
  8
0
100
AcDbLine
 10
54.43879014813055
 20
-44.86114913405372
 30
0.0
 11
54.43879014813053
 21
59.19113389792342
 31
0.0
  0
ELLIPSE
  5
8B34
330
8AF5
100
AcDbEntity
  8
0
100
AcDbEllipse
 10
53.02457658575746
 20
58.37463731699569
 30
0.0
 11
-1.999999999999997
 21
-0.0000000000001195
 31
0.0
210
0.0
220
0.0
230
1.0
 40
0.5773502691896259
 41
3.926990816987004
 42
5.497787143781901
  0
LINE
  5
8B35
330
8AF5
100
AcDbEntity
  8
0
100
AcDbLine
 10
82.36950800499917
 20
44.69831958645626
 30
0.0
 11
80.95529444262608
 21
43.88182300552855
 31
0.0
  0
LINE
  5
8B36
330
8AF5
100
AcDbEntity
  8
0
100
AcDbLine
 10
80.95529444262613
 20
-35.31834534446093
 30
0.0
 11
80.95529444262608
 21
43.88182300552855
 31
0.0
  0
LINE
  5
8B37
330
8AF5
100
AcDbEntity
  8
0
100
AcDbLine
 10
51.61036302338437
 20
59.1911338979234
 30
0.0
 11
50.19614946101127
 21
60.00763047885115
 31
0.0
  0
LINE
  5
8B38
330
8AF5
100
AcDbEntity
  8
0
100
AcDbLine
 10
54.43879014813053
 20
59.19113389792343
 30
0.0
 11
55.85300371050364
 21
60.00763047885115
 31
0.0
  0
LINE
  5
8B39
330
8AF5
100
AcDbEntity
  8
0
100
AcDbLine
 10
80.95529444262608
 20
43.88182300552855
 30
0.0
 11
54.43879014813053
 21
59.19113389792343
 31
0.0
  0
ELLIPSE
  5
8B3A
330
8AF5
100
AcDbEntity
  8
0
100
AcDbEllipse
 10
67.16671220948841
 20
35.51273305101936
 30
0.0
 11
-3.249999999999998
 21
5.629165124598853
 31
0.0
210
0.0
220
0.0
230
1.0
 40
0.5773502691896257
 41
0.0
 42
6.283185307179586
  0
ELLIPSE
  5
8B3B
330
8AF5
100
AcDbEntity
  8
0
100
AcDbEllipse
 10
74.94488680254041
 20
35.10448476055548
 30
0.0
 11
-1.249999999999999
 21
2.165063509461097
 31
0.0
210
0.0
220
0.0
230
1.0
 40
0.5773502691896257
 41
0.0
 42
6.283185307179586
  0
LINE
  5
8B3C
330
8AF5
100
AcDbEntity
  8
0
100
AcDbLine
 10
-7.200820158658749
 20
-87.15986937956643
 30
0.0
 11
52.19614946101126
 21
-52.86701298060193
 31
0.0
  0
ELLIPSE
  5
8B3D
330
8AF5
100
AcDbEntity
  8
0
100
AcDbEllipse
 10
68.5809257718615
 20
-20.82553103299375
 30
0.0
 11
-3.25
 21
5.629165124598855
 31
0.0
210
0.0
220
0.0
230
1.0
 40
0.5773502691896255
 41
0.2193254863005923
 42
2.9222671672892
  0
ELLIPSE
  5
8B3E
330
8AF5
100
AcDbEntity
  8
0
100
AcDbEllipse
 10
67.16671220948841
 20
-21.64202761392147
 30
0.0
 11
-3.249999999999998
 21
5.629165124598853
 31
0.0
210
0.0
220
0.0
230
1.0
 40
0.5773502691896257
 41
0.0
 42
6.283185307179586
  0
ELLIPSE
  5
8B3F
330
8AF5
100
AcDbEntity
  8
0
100
AcDbEllipse
 10
60.80275117880947
 20
-28.58224855180715
 30
0.0
 11
1.250000000000128
 21
-2.165063509461023
 31
0.0
210
0.0
220
0.0
230
1.0
 40
0.5773502691896254
 41
3.742856870268578
 42
5.681921090500122
  0
ELLIPSE
  5
8B40
330
8AF5
100
AcDbEntity
  8
0
100
AcDbEllipse
 10
60.80275117880947
 20
-12.25231693325263
 30
0.0
 11
1.250000000000128
 21
-2.165063509461023
 31
0.0
210
0.0
220
0.0
230
1.0
 40
0.5773502691896254
 41
3.742856870268578
 42
5.681921090500122
  0
ELLIPSE
  5
8B41
330
8AF5
100
AcDbEntity
  8
0
100
AcDbEllipse
 10
60.80275117880947
 20
4.077614685301895
 30
0.0
 11
1.250000000000128
 21
-2.165063509461023
 31
0.0
210
0.0
220
0.0
230
1.0
 40
0.5773502691896254
 41
3.742856870268578
 42
5.681921090500122
  0
ELLIPSE
  5
8B42
330
8AF5
100
AcDbEntity
  8
0
100
AcDbEllipse
 10
60.80275117880947
 20
20.40754630385642
 30
0.0
 11
1.250000000000128
 21
-2.165063509461023
 31
0.0
210
0.0
220
0.0
230
1.0
 40
0.5773502691896254
 41
3.742856870268578
 42
5.681921090500122
  0
ELLIPSE
  5
8B43
330
8AF5
100
AcDbEntity
  8
0
100
AcDbEllipse
 10
60.80275117880947
 20
36.73747792241095
 30
0.0
 11
1.250000000000128
 21
-2.165063509461023
 31
0.0
210
0.0
220
0.0
230
1.0
 40
0.5773502691896254
 41
3.742856870268578
 42
5.681921090500122
  0
ELLIPSE
  5
8B44
330
8AF5
100
AcDbEntity
  8
0
100
AcDbEllipse
 10
59.38853761643638
 20
-29.39874513273487
 30
0.0
 11
-1.249999999999999
 21
2.165063509461097
 31
0.0
210
0.0
220
0.0
230
1.0
 40
0.5773502691896257
 41
0.0
 42
6.283185307179586
  0
ELLIPSE
  5
8B45
330
8AF5
100
AcDbEntity
  8
0
100
AcDbEllipse
 10
59.38853761643638
 20
-13.06881351418035
 30
0.0
 11
-1.249999999999999
 21
2.165063509461097
 31
0.0
210
0.0
220
0.0
230
1.0
 40
0.5773502691896257
 41
0.0
 42
6.283185307179586
  0
ELLIPSE
  5
8B46
330
8AF5
100
AcDbEntity
  8
0
100
AcDbEllipse
 10
59.38853761643638
 20
3.261118104374176
 30
0.0
 11
-1.249999999999999
 21
2.165063509461097
 31
0.0
210
0.0
220
0.0
230
1.0
 40
0.5773502691896257
 41
0.0
 42
6.283185307179586
  0
ELLIPSE
  5
8B47
330
8AF5
100
AcDbEntity
  8
0
100
AcDbEllipse
 10
59.38853761643638
 20
19.5910497229287
 30
0.0
 11
-1.249999999999999
 21
2.165063509461097
 31
0.0
210
0.0
220
0.0
230
1.0
 40
0.5773502691896257
 41
0.0
 42
6.283185307179586
  0
ELLIPSE
  5
8B48
330
8AF5
100
AcDbEntity
  8
0
100
AcDbEllipse
 10
59.38853761643638
 20
35.92098134148323
 30
0.0
 11
-1.249999999999999
 21
2.165063509461097
 31
0.0
210
0.0
220
0.0
230
1.0
 40
0.5773502691896257
 41
0.0
 42
6.283185307179586
  0
ELLIPSE
  5
8B49
330
8AF5
100
AcDbEntity
  8
0
100
AcDbEllipse
 10
60.80275117880947
 20
53.06740954096548
 30
0.0
 11
1.250000000000128
 21
-2.165063509461023
 31
0.0
210
0.0
220
0.0
230
1.0
 40
0.5773502691896254
 41
3.742856870268578
 42
5.681921090500122
  0
ELLIPSE
  5
8B4A
330
8AF5
100
AcDbEntity
  8
0
100
AcDbEllipse
 10
-1.422645565606703
 20
87.36026593992995
 30
0.0
 11
1.250000000000001
 21
-2.165063509461097
 31
0.0
210
0.0
220
0.0
230
1.0
 40
0.5773502691896259
 41
0.0
 42
6.283185307179586
  0
ELLIPSE
  5
8B4B
330
8AF5
100
AcDbEntity
  8
0
100
AcDbEllipse
 10
-0.0084320032336116
 20
88.17676252085767
 30
0.0
 11
1.25000000000013
 21
-2.165063509461022
 31
0.0
210
0.0
220
0.0
230
1.0
 40
0.577350269189626
 41
3.742856870268576
 42
5.681921090500116
  0
ELLIPSE
  5
8B4C
330
8AF5
100
AcDbEntity
  8
0
100
AcDbEllipse
 10
59.38853761643638
 20
52.25091296003775
 30
0.0
 11
-1.249999999999999
 21
2.165063509461097
 31
0.0
210
0.0
220
0.0
230
1.0
 40
0.5773502691896257
 41
0.0
 42
6.283185307179586
  0
ELLIPSE
  5
8B4D
330
8AF5
100
AcDbEntity
  8
0
100
AcDbEllipse
 10
76.3591003649135
 20
-29.39874513273489
 30
0.0
 11
1.250000000000128
 21
-2.165063509461023
 31
0.0
210
0.0
220
0.0
230
1.0
 40
0.5773502691896254
 41
3.742856870268578
 42
5.681921090500122
  0
ELLIPSE
  5
8B4E
330
8AF5
100
AcDbEntity
  8
0
100
AcDbEllipse
 10
76.3591003649135
 20
-13.06881351418036
 30
0.0
 11
1.250000000000128
 21
-2.165063509461023
 31
0.0
210
0.0
220
0.0
230
1.0
 40
0.5773502691896254
 41
3.742856870268578
 42
5.681921090500122
  0
ELLIPSE
  5
8B4F
330
8AF5
100
AcDbEntity
  8
0
100
AcDbEllipse
 10
76.3591003649135
 20
3.261118104374158
 30
0.0
 11
1.250000000000128
 21
-2.165063509461023
 31
0.0
210
0.0
220
0.0
230
1.0
 40
0.5773502691896254
 41
3.74285687026858
 42
5.681921090500122
  0
ELLIPSE
  5
8B50
330
8AF5
100
AcDbEntity
  8
0
100
AcDbEllipse
 10
76.3591003649135
 20
19.59104972292868
 30
0.0
 11
1.250000000000128
 21
-2.165063509461023
 31
0.0
210
0.0
220
0.0
230
1.0
 40
0.5773502691896254
 41
3.742856870268578
 42
5.681921090500122
  0
ELLIPSE
  5
8B51
330
8AF5
100
AcDbEntity
  8
0
100
AcDbEllipse
 10
74.94488680254041
 20
-30.21524171366261
 30
0.0
 11
-1.249999999999999
 21
2.165063509461097
 31
0.0
210
0.0
220
0.0
230
1.0
 40
0.5773502691896257
 41
0.0
 42
6.283185307179586
  0
ELLIPSE
  5
8B52
330
8AF5
100
AcDbEntity
  8
0
100
AcDbEllipse
 10
74.94488680254041
 20
-13.88531009510809
 30
0.0
 11
-1.249999999999999
 21
2.165063509461097
 31
0.0
210
0.0
220
0.0
230
1.0
 40
0.5773502691896257
 41
0.0
 42
6.283185307179586
  0
ELLIPSE
  5
8B53
330
8AF5
100
AcDbEntity
  8
0
100
AcDbEllipse
 10
74.94488680254041
 20
2.44462152344643
 30
0.0
 11
-1.249999999999999
 21
2.165063509461097
 31
0.0
210
0.0
220
0.0
230
1.0
 40
0.5773502691896257
 41
0.0
 42
6.283185307179586
  0
ELLIPSE
  5
8B54
330
8AF5
100
AcDbEntity
  8
0
100
AcDbEllipse
 10
74.94488680254041
 20
18.77455314200095
 30
0.0
 11
-1.249999999999999
 21
2.165063509461097
 31
0.0
210
0.0
220
0.0
230
1.0
 40
0.5773502691896257
 41
0.0
 42
6.283185307179586
  0
LINE
  5
8B55
330
8AF5
100
AcDbEntity
  8
0
100
AcDbLine
 10
-20.1893870286477
 20
20.4101908510571
 30
0.0
 11
-19.48217518465703
 21
19.32817213752653
 31
0.0
  0
LINE
  5
8B56
330
8AF5
100
AcDbEntity
  8
0
100
AcDbLine
 10
-24.7571693447628
 20
-10.21107548093334
 30
0.0
 11
-53.0414405922247
 21
-53.48539427010281
 31
0.0
  0
LINE
  5
8B57
330
8AF5
100
AcDbEntity
  8
0
100
AcDbLine
 10
-26.1713829071359
 20
-9.394578900005621
 30
0.0
 11
-24.7571693447628
 21
-10.21107548093334
 31
0.0
  0
LINE
  5
8B58
330
8AF5
100
AcDbEntity
  8
0
100
AcDbLine
 10
-54.45565415459779
 20
-52.66889768917508
 30
0.0
 11
-26.1713829071359
 21
-9.394578900005621
 31
0.0
  0
LINE
  5
8B59
330
8AF5
100
AcDbEntity
  8
0
100
AcDbLine
 10
-53.0414405922247
 20
-53.48539427010281
 30
0.0
 11
-54.45565415459779
 21
-52.66889768917508
 31
0.0
  0
LINE
  5
8B5A
330
8AF5
100
AcDbEntity
  8
0
100
AcDbLine
 10
-24.75716934476279
 20
68.98909286905611
 30
0.0
 11
-24.7571693447628
 21
-10.21107548093334
 31
0.0
  0
LINE
  5
8B5B
330
8AF5
100
AcDbEntity
  8
0
100
AcDbLine
 10
-26.17138290713588
 20
69.80558944998382
 30
0.0
 11
-24.75716934476279
 21
68.98909286905611
 31
0.0
  0
LINE
  5
8B5C
330
8AF5
100
AcDbEntity
  8
0
100
AcDbLine
 10
-26.1713829071359
 20
-9.394578900005621
 30
0.0
 11
-26.17138290713588
 21
69.80558944998382
 31
0.0
  0
ELLIPSE
  5
8B5D
330
8AF5
100
AcDbEntity
  8
0
100
AcDbEllipse
 10
-9.200820158658729
 20
79.60354842111659
 30
0.0
 11
-3.250000000000007
 21
5.629165124598848
 31
0.0
210
0.0
220
0.0
230
1.0
 40
0.5773502691896259
 41
4.712388980384691
 42
7.853981633974486
  0
ELLIPSE
  5
8B5E
330
8AF5
100
AcDbEntity
  8
0
100
AcDbEllipse
 10
-7.786606596285636
 20
80.42004500204431
 30
0.0
 11
-3.250000000000003
 21
5.629165124598849
 31
0.0
210
0.0
220
0.0
230
1.0
 40
0.5773502691896259
 41
0.2193254863005913
 42
1.570796326794899
  0
ELLIPSE
  5
8B5F
330
8AF5
100
AcDbEntity
  8
0
100
AcDbEllipse
 10
-16.97899475171078
 20
88.17676252085767
 30
0.0
 11
1.250000000000001
 21
-2.165063509461097
 31
0.0
210
0.0
220
0.0
230
1.0
 40
0.5773502691896259
 41
0.0
 42
6.283185307179586
  0
ELLIPSE
  5
8B60
330
8AF5
100
AcDbEntity
  8
0
100
AcDbEllipse
 10
-15.56478118933769
 20
88.99325910178539
 30
0.0
 11
1.25000000000013
 21
-2.165063509461022
 31
0.0
210
0.0
220
0.0
230
1.0
 40
0.577350269189626
 41
3.742856870268578
 42
5.681921090500116
  0
LINE
  5
8B61
330
8AF5
100
AcDbEntity
  8
0
100
AcDbLine
 10
3.527101902699119
 20
86.9520176494661
 30
0.0
 11
3.527101902699127
 21
88.58501081132153
 31
0.0
  0
ELLIPSE
  5
8B62
330
8AF5
100
AcDbEntity
  8
0
100
AcDbEllipse
 10
2.112888340326026
 20
87.76851423039381
 30
0.0
 11
1.999999999999997
 21
0.0
 31
0.0
210
0.0
220
0.0
230
1.0
 40
0.5773502691896259
 41
5.49778714378214
 42
7.068583470577027
  0
LINE
  5
8B63
330
8AF5
100
AcDbEntity
  8
0
100
AcDbLine
 10
4.941315465072215
 20
86.13552106853838
 30
0.0
 11
4.941315465072215
 21
-17.91676196343875
 31
0.0
  0
ELLIPSE
  5
8B64
330
8AF5
100
AcDbEntity
  8
0
100
AcDbEllipse
 10
2.112888340326026
 20
87.76851423039381
 30
0.0
 11
3.999999999999999
 21
-0.0000000000000001
 31
0.0
210
0.0
220
0.0
230
1.0
 40
0.5773502691896259
 41
5.497787143782137
 42
7.068583470577028
  0
LINE
  5
8B65
330
8AF5
100
AcDbEntity
  8
0
100
AcDbLine
 10
3.527101902699127
 20
88.58501081132153
 30
0.0
 11
4.941315465072224
 21
89.40150739224931
 31
0.0
  0
LINE
  5
8B66
330
8AF5
100
AcDbEntity
  8
0
100
AcDbLine
 10
3.527101902699119
 20
86.9520176494661
 30
0.0
 11
4.941315465072215
 21
86.13552106853838
 31
0.0
  0
LINE
  5
8B67
330
8AF5
100
AcDbEntity
  8
0
100
AcDbLine
 10
6.112888340326021
 20
-16.28376880158329
 30
0.0
 11
6.112888340326021
 21
87.76851423039381
 31
0.0
  0
LINE
  5
8B68
330
8AF5
100
AcDbEntity
  8
0
100
AcDbLine
 10
-22.98940239179643
 20
103.8943217037164
 30
0.0
 11
3.527101902699127
 21
88.58501081132153
 31
0.0
  0
LINE
  5
8B69
330
8AF5
100
AcDbEntity
  8
0
100
AcDbLine
 10
-22.98940239179644
 20
71.64270675707124
 30
0.0
 11
-22.98940239179643
 21
103.8943217037164
 31
0.0
  0
LINE
  5
8B6A
330
8AF5
100
AcDbEntity
  8
0
100
AcDbLine
 10
-53.04144059222469
 20
-58.38437375566917
 30
0.0
 11
-53.0414405922247
 21
-53.48539427010281
 31
0.0
  0
LINE
  5
8B6B
330
8AF5
100
AcDbEntity
  8
0
100
AcDbLine
 10
-24.75716934476279
 20
68.98909286905611
 30
0.0
 11
4.941315465072215
 21
86.13552106853838
 31
0.0
  0
LINE
  5
8B6C
330
8AF5
100
AcDbEntity
  8
0
100
AcDbLine
 10
-54.45565415459779
 20
-52.66889768917508
 30
0.0
 11
-54.45565415459778
 21
-57.56787717474145
 31
0.0
  0
LINE
  5
8B6D
330
8AF5
100
AcDbEntity
  8
0
100
AcDbLine
 10
3.527101902699119
 20
86.9520176494661
 30
0.0
 11
-26.17138290713588
 21
69.80558944998382
 31
0.0
  0
LINE
  5
8B6E
330
8AF5
100
AcDbEntity
  8
0
100
AcDbLine
 10
4.941315465072224
 20
89.40150739224931
 30
0.0
 11
-21.57518882942332
 21
104.7108182846441
 31
0.0
  0
LINE
  5
8B6F
330
8AF5
100
AcDbEntity
  8
0
100
AcDbLine
 10
-21.57518882942332
 20
104.7108182846441
 30
0.0
 11
-22.98940239179643
 21
103.8943217037164
 31
0.0
  0
ELLIPSE
  5
8B70
330
8AF5
100
AcDbEntity
  8
0
100
AcDbEllipse
 10
25.80096551007536
 20
-47.97404234884067
 30
0.0
 11
1.24999999999987
 21
2.165063509461171
 31
0.0
210
0.0
220
0.0
230
1.0
 40
0.577350269189626
 41
3.742856870268578
 42
5.681921090500114
  0
ELLIPSE
  5
8B71
330
8AF5
100
AcDbEntity
  8
0
100
AcDbEllipse
 10
27.21517907244845
 20
-48.79053892976839
 30
0.0
 11
-1.25
 21
-2.165063509461097
 31
0.0
210
0.0
220
0.0
230
1.0
 40
0.5773502691896259
 41
0.0
 42
6.283185307179586
  0
ELLIPSE
  5
8B72
330
8AF5
100
AcDbEntity
  8
0
100
AcDbEllipse
 10
25.80096551007536
 20
-31.64411073028615
 30
0.0
 11
1.24999999999987
 21
2.165063509461171
 31
0.0
210
0.0
220
0.0
230
1.0
 40
0.577350269189626
 41
3.742856870268578
 42
5.681921090500117
  0
ELLIPSE
  5
8B73
330
8AF5
100
AcDbEntity
  8
0
100
AcDbEllipse
 10
27.21517907244845
 20
-32.46060731121387
 30
0.0
 11
-1.25
 21
-2.165063509461097
 31
0.0
210
0.0
220
0.0
230
1.0
 40
0.5773502691896259
 41
0.0
 42
6.283185307179586
  0
ELLIPSE
  5
8B74
330
8AF5
100
AcDbEntity
  8
0
100
AcDbEllipse
 10
25.80096551007536
 20
-15.31417911173162
 30
0.0
 11
1.24999999999987
 21
2.165063509461171
 31
0.0
210
0.0
220
0.0
230
1.0
 40
0.577350269189626
 41
3.742856870268578
 42
5.681921090500117
  0
ELLIPSE
  5
8B75
330
8AF5
100
AcDbEntity
  8
0
100
AcDbEllipse
 10
27.21517907244845
 20
-16.13067569265934
 30
0.0
 11
-1.25
 21
-2.165063509461097
 31
0.0
210
0.0
220
0.0
230
1.0
 40
0.5773502691896259
 41
0.0
 42
6.283185307179586
  0
ELLIPSE
  5
8B76
330
8AF5
100
AcDbEntity
  8
0
100
AcDbEllipse
 10
25.80096551007536
 20
1.015752506822895
 30
0.0
 11
1.24999999999987
 21
2.165063509461171
 31
0.0
210
0.0
220
0.0
230
1.0
 40
0.577350269189626
 41
3.742856870268578
 42
5.681921090500117
  0
ELLIPSE
  5
8B77
330
8AF5
100
AcDbEntity
  8
0
100
AcDbEllipse
 10
27.21517907244845
 20
0.199255925895172
 30
0.0
 11
-1.25
 21
-2.165063509461097
 31
0.0
210
0.0
220
0.0
230
1.0
 40
0.5773502691896259
 41
0.0
 42
6.283185307179586
  0
ELLIPSE
  5
8B78
330
8AF5
100
AcDbEntity
  8
0
100
AcDbEllipse
 10
25.80096551007536
 20
17.34568412537742
 30
0.0
 11
1.24999999999987
 21
2.165063509461171
 31
0.0
210
0.0
220
0.0
230
1.0
 40
0.577350269189626
 41
3.742856870268578
 42
5.681921090500117
  0
ELLIPSE
  5
8B79
330
8AF5
100
AcDbEntity
  8
0
100
AcDbEllipse
 10
27.21517907244845
 20
16.52918754444969
 30
0.0
 11
-1.25
 21
-2.165063509461097
 31
0.0
210
0.0
220
0.0
230
1.0
 40
0.5773502691896259
 41
0.0
 42
6.283185307179586
  0
ELLIPSE
  5
8B7A
330
8AF5
100
AcDbEntity
  8
0
100
AcDbEllipse
 10
-20.86808204823677
 20
-12.86468936894842
 30
0.0
 11
1.24999999999987
 21
2.165063509461171
 31
0.0
210
0.0
220
0.0
230
1.0
 40
0.5773502691896258
 41
3.742856870268578
 42
5.681921090500114
  0
ELLIPSE
  5
8B7B
330
8AF5
100
AcDbEntity
  8
0
100
AcDbEllipse
 10
-19.45386848586367
 20
-13.68118594987615
 30
0.0
 11
1.249999999999999
 21
2.165063509461097
 31
0.0
210
0.0
220
0.0
230
0.9999999999999998
 40
0.5773502691896258
 41
0.0
 42
6.283185307179586
  0
ELLIPSE
  5
8B7C
330
8AF5
100
AcDbEntity
  8
0
100
AcDbEllipse
 10
-20.86808204823677
 20
3.465242249606097
 30
0.0
 11
1.24999999999987
 21
2.165063509461171
 31
0.0
210
0.0
220
0.0
230
1.0
 40
0.5773502691896258
 41
3.742856870268578
 42
5.681921090500114
  0
ELLIPSE
  5
8B7D
330
8AF5
100
AcDbEntity
  8
0
100
AcDbEllipse
 10
-19.45386848586367
 20
2.648745668678369
 30
0.0
 11
1.249999999999999
 21
2.165063509461097
 31
0.0
210
0.0
220
0.0
230
0.9999999999999998
 40
0.5773502691896258
 41
0.0
 42
6.283185307179586
  0
ELLIPSE
  5
8B7E
330
8AF5
100
AcDbEntity
  8
0
100
AcDbEllipse
 10
-20.86808204823677
 20
19.79517386816062
 30
0.0
 11
1.24999999999987
 21
2.165063509461171
 31
0.0
210
0.0
220
0.0
230
1.0
 40
0.5773502691896258
 41
3.742856870268578
 42
5.681921090500114
  0
ELLIPSE
  5
8B7F
330
8AF5
100
AcDbEntity
  8
0
100
AcDbEllipse
 10
-19.45386848586367
 20
18.97867728723289
 30
0.0
 11
1.249999999999999
 21
2.165063509461097
 31
0.0
210
0.0
220
0.0
230
0.9999999999999998
 40
0.5773502691896258
 41
0.0
 42
6.283185307179586
  0
ELLIPSE
  5
8B80
330
8AF5
100
AcDbEntity
  8
0
100
AcDbEllipse
 10
-20.86808204823677
 20
36.12510548671515
 30
0.0
 11
1.24999999999987
 21
2.165063509461171
 31
0.0
210
0.0
220
0.0
230
1.0
 40
0.5773502691896258
 41
3.742856870268578
 42
5.681921090500117
  0
ELLIPSE
  5
8B81
330
8AF5
100
AcDbEntity
  8
0
100
AcDbEllipse
 10
-19.45386848586367
 20
35.30860890578742
 30
0.0
 11
1.249999999999999
 21
2.165063509461097
 31
0.0
210
0.0
220
0.0
230
0.9999999999999998
 40
0.5773502691896258
 41
0.0
 42
6.283185307179586
  0
ELLIPSE
  5
8B82
330
8AF5
100
AcDbEntity
  8
0
100
AcDbEllipse
 10
-20.86808204823677
 20
52.45503710526968
 30
0.0
 11
1.24999999999987
 21
2.165063509461171
 31
0.0
210
0.0
220
0.0
230
1.0
 40
0.5773502691896258
 41
3.742856870268578
 42
5.681921090500117
  0
ELLIPSE
  5
8B83
330
8AF5
100
AcDbEntity
  8
0
100
AcDbEllipse
 10
-19.45386848586367
 20
51.63854052434196
 30
0.0
 11
1.249999999999999
 21
2.165063509461097
 31
0.0
210
0.0
220
0.0
230
0.9999999999999998
 40
0.5773502691896258
 41
0.0
 42
6.283185307179586
  0
ELLIPSE
  5
8B84
330
8AF5
100
AcDbEntity
  8
0
100
AcDbEllipse
 10
-20.86808204823677
 20
68.78496872382419
 30
0.0
 11
1.24999999999987
 21
2.165063509461171
 31
0.0
210
0.0
220
0.0
230
1.0
 40
0.5773502691896258
 41
3.742856870268578
 42
5.681921090500117
  0
ELLIPSE
  5
8B85
330
8AF5
100
AcDbEntity
  8
0
100
AcDbEllipse
 10
-19.45386848586367
 20
67.96847214289647
 30
0.0
 11
1.249999999999999
 21
2.165063509461097
 31
0.0
210
0.0
220
0.0
230
0.9999999999999998
 40
0.5773502691896258
 41
0.0
 42
6.283185307179586
  0
ENDBLK
  5
8AF7
330
8AF5
100
AcDbEntity
  8
0
100
AcDbBlockEnd
  0
ENDSEC
  0
SECTION
  2
ENTITIES
  0
INSERT
  5
8B86
330
1F
100
AcDbEntity
  8
0
100
AcDbBlockReference
  2
SAE340_64_2-Front
 10
0.0
 20
0.0
 30
0.0
  0
INSERT
  5
8B87
330
1F
100
AcDbEntity
  8
0
100
AcDbBlockReference
  2
SAE340_64_2-Left
 10
115.5
 20
0.0
 30
0.0
  0
INSERT
  5
8B88
330
1F
100
AcDbEntity
  8
0
100
AcDbBlockReference
  2
SAE340_64_2-Right
 10
-115.5
 20
0.0
 30
0.0
  0
INSERT
  5
8B89
330
1F
100
AcDbEntity
  8
0
100
AcDbBlockReference
  2
SAE340_64_2-Top
 10
0.0
 20
-44.0
 30
0.0
  0
INSERT
  5
8B8A
330
1F
100
AcDbEntity
  8
0
100
AcDbBlockReference
  2
SAE340_64_2-Bottom
 10
0.0
 20
180.0
 30
0.0
  0
INSERT
  5
8B8B
330
1F
100
AcDbEntity
  8
0
100
AcDbBlockReference
  2
SAE340_64_2-ISO
 10
169.9556541545979
 20
-148.7108182846441
 30
0.0
  0
MTEXT
  5
8B8C
330
1F
100
AcDbEntity
  8
0
100
AcDbMText
 10
0.0
 20
-172.0
 30
0.0
 40
14.0
 41
0.0
 71
     5
 72
     5
  1
SAE340/64/2
 73
     1
 44
1.0
1001
ACAD
1000
MTEXTBEGIN
1070
    73
1070
     1
1070
    44
1040
1.0
1070
    74
1070
     0
1000
MTEXTEND
  0
ENDSEC
  0
SECTION
  2
OBJECTS
  0
DICTIONARY
  5
C
330
0
100
AcDbDictionary
281
     1
  3
ACAD_CIP_PREVIOUS_PRODUCT_INFO
350
216
  3
ACAD_COLOR
350
6B
  3
ACAD_DETAILVIEWSTYLE
350
21B
  3
ACAD_GROUP
350
D
  3
ACAD_LAYOUT
350
1A
  3
ACAD_MATERIAL
350
6A
  3
ACAD_MLEADERSTYLE
350
12D
  3
ACAD_MLINESTYLE
350
17
  3
ACAD_PLOTSETTINGS
350
19
  3
ACAD_PLOTSTYLENAME
350
E
  3
ACAD_SCALELIST
350
10C
  3
ACAD_SECTIONVIEWSTYLE
350
219
  3
ACAD_TABLESTYLE
350
7E
  3
ACAD_VISUALSTYLE
350
EF
  3
ACDB_RECOMPOSE_DATA
350
8C8D
  3
AcDbVariableDictionary
350
5E
  3
DWGPROPS
350
8C8E
  0
DICTIONARY
  5
8BDD
330
8
100
AcDbDictionary
280
     1
281
     1
  0
DICTIONARY
  5
1FF
330
2
100
AcDbDictionary
280
     1
281
     1
  3
ACAD_LAYERSTATES
360
200
  0
DICTIONARY
  5
13C
330
10
100
AcDbDictionary
280
     1
281
     1
  0
DICTIONARY
  5
1CE
330
1F
100
AcDbDictionary
280
     1
281
     1
  3
ACAD_LAYOUTSELFREF
360
8BE5
  0
DICTIONARY
  5
8B90
330
D2
100
AcDbDictionary
280
     1
281
     1
  3
ACAD_LAYOUTSELFREF
360
8BEE
  0
DICTIONARY
  5
8B92
330
D6
100
AcDbDictionary
280
     1
281
     1
  3
ACAD_LAYOUTSELFREF
360
8BF1
  0
XRECORD
  5
216
102
{ACAD_REACTORS
330
C
102
}
330
C
100
AcDbXrecord
280
     1
300
ACD
300
2021
300
87393ACD_2021_0F
  0
DICTIONARY
  5
6B
102
{ACAD_REACTORS
330
C
102
}
330
C
100
AcDbDictionary
281
     1
  0
DICTIONARY
  5
21B
102
{ACAD_REACTORS
330
C
102
}
330
C
100
AcDbDictionary
281
     1
  3
Metric50
350
21C
  0
DICTIONARY
  5
D
102
{ACAD_REACTORS
330
C
102
}
330
C
100
AcDbDictionary
281
     1
  0
DICTIONARY
  5
1A
102
{ACAD_REACTORS
330
C
102
}
330
C
100
AcDbDictionary
281
     1
  3
Layout1
350
D3
  3
Layout2
350
D7
  3
Model
350
22
  0
DICTIONARY
  5
6A
102
{ACAD_REACTORS
330
C
102
}
330
C
100
AcDbDictionary
281
     1
  3
ByBlock
350
ED
  3
ByLayer
350
EC
  3
Global
350
EE
  0
DICTIONARY
  5
12D
102
{ACAD_REACTORS
330
C
102
}
330
C
100
AcDbDictionary
281
     1
  3
Standard
350
12E
  0
DICTIONARY
  5
17
102
{ACAD_REACTORS
330
C
102
}
330
C
100
AcDbDictionary
281
     1
  3
Standard
350
18
  0
DICTIONARY
  5
19
102
{ACAD_REACTORS
330
C
102
}
330
C
100
AcDbDictionary
281
     1
  0
ACDBDICTIONARYWDFLT
  5
E
102
{ACAD_REACTORS
330
C
102
}
330
C
100
AcDbDictionary
281
     1
  3
Normal
350
F
100
AcDbDictionaryWithDefault
340
F
  0
DICTIONARY
  5
10C
102
{ACAD_REACTORS
330
C
102
}
330
C
100
AcDbDictionary
281
     1
  3
A0
350
10D
  3
A1
350
1BE
  3
A2
350
1BF
  3
A3
350
1C0
  3
A4
350
1C1
  3
A5
350
1C2
  3
A6
350
1C3
  3
A7
350
1C4
  3
A8
350
1C5
  3
A9
350
1C6
  3
B0
350
1C7
  3
B1
350
1C8
  3
B2
350
1C9
  3
B3
350
1CA
  3
B4
350
1CB
  3
B5
350
1CC
  3
B6
350
1CD
  0
DICTIONARY
  5
219
102
{ACAD_REACTORS
330
C
102
}
330
C
100
AcDbDictionary
281
     1
  3
Metric50
350
21A
  0
DICTIONARY
  5
7E
102
{ACAD_REACTORS
330
C
102
}
330
C
100
AcDbDictionary
281
     1
  3
Standard
350
7F
  0
DICTIONARY
  5
EF
102
{ACAD_REACTORS
330
C
102
}
330
C
100
AcDbDictionary
281
     1
  3
2dWireframe
350
F5
  3
Basic
350
F4
  3
Brighten
350
FB
  3
ColorChange
350
FF
  3
Conceptual
350
F8
  3
Dim
350
FA
  3
EdgeColorOff
350
1E6
  3
Facepattern
350
FE
  3
Flat
350
F0
  3
FlatWithEdges
350
F1
  3
Gouraud
350
F2
  3
GouraudWithEdges
350
F3
  3
Hidden
350
F7
  3
JitterOff
350
1E4
  3
Linepattern
350
FD
  3
OverhangOff
350
1E5
  3
Realistic
350
F9
  3
Shaded
350
1F3
  3
Shaded with edges
350
1F2
  3
Shades of Gray
350
1EF
  3
Sketchy
350
1F0
  3
Thicken
350
FC
  3
Wireframe
350
F6
  3
X-Ray
350
1F1
  0
XRECORD
  5
8C8D
102
{ACAD_REACTORS
330
C
102
}
330
C
100
AcDbXrecord
280
     1
 90
        1
330
7F
  0
DICTIONARY
  5
5E
102
{ACAD_REACTORS
330
C
102
}
330
C
100
AcDbDictionary
281
     1
  3
CANNOSCALE
350
146
  3
CENTEREXE
350
259
  3
CENTERLTYPEFILE
350
25A
  3
CMLEADERSTYLE
350
145
  3
CTABLESTYLE
350
84
  3
CVIEWDETAILSTYLE
350
227
  3
CVIEWSECTIONSTYLE
350
228
  3
DIMASSOC
350
5F
  3
HIDETEXT
350
63
  3
INDEXCTL
350
8C3A
  3
LAYEREVAL
350
1AE
  3
LAYERNOTIFY
350
1AF
  3
LIGHTINGUNITS
350
8C38
  3
MSLTSCALE
350
8C37
  3
PSOLHEIGHT
350
8C8A
  3
PSOLWIDTH
350
8C89
  3
SORTENTS
350
8C39
  3
XCLIPFRAME
350
8C8B
  0
XRECORD
  5
8C8E
102
{ACAD_REACTORS
330
C
102
}
330
C
100
AcDbXrecord
280
     1
  1
DWGPROPS COOKIE
  2

  3

  4

  6

  7

  8
truole
  9

300
=
301
=
302
=
303
=
304
=
305
=
306
=
307
=
308
=
309
=
 40
0.0077546296296296
 41
2460398.356956019
 42
2460398.374548611
  1

 90
        0
  0
DICTIONARY
  5
200
102
{ACAD_REACTORS
330
1FF
102
}
330
1FF
100
AcDbDictionary
281
     1
  0
XRECORD
  5
8BE5
102
{ACAD_REACTORS
330
1CE
102
}
330
1CE
100
AcDbXrecord
280
     1
340
1F
  0
XRECORD
  5
8BEE
102
{ACAD_REACTORS
330
8B90
102
}
330
8B90
100
AcDbXrecord
280
     1
340
D2
  0
XRECORD
  5
8BF1
102
{ACAD_REACTORS
330
8B92
102
}
330
8B92
100
AcDbXrecord
280
     1
340
D6
  0
ACDBDETAILVIEWSTYLE
  5
21C
102
{ACAD_XDICTIONARY
360
8CCD
102
}
102
{ACAD_REACTORS
330
21B
102
}
330
21B
100
AcDbModelDocViewStyle
 70
     0
  3
Metric50
290
     0
100
AcDbDetailViewStyle
 70
     0
 71
     0
 90
        3
 71
     1
340
11
 40
5.0
340
0
 40
5.0
300

 40
0.0
280
     1
 71
     2
340
16
 90
       25
 71
     3
340
11
 40
5.0
 90
        0
 40
15.0
 90
        1
300
%<\AcVar ViewDetailId>% (%<\AcVar ViewScale \f "%sn">%)
 71
     4
340
16
 90
       25
340
16
 90
       25
280
     0
  0
LAYOUT
  5
D3
102
{ACAD_XDICTIONARY
360
8C92
102
}
102
{ACAD_REACTORS
330
1A
102
}
330
1A
100
AcDbPlotSettings
  1

  2
C:\Documents and Settings\basas\Application Data\Autodesk\AutoCAD 2005\R16.1\enu\plotters\Default Windows System Printer.pc3
  4

  6

 40
0.0
 41
0.0
 42
0.0
 43
0.0
 44
0.0
 45
0.0
 46
0.0
 47
0.0
 48
0.0
 49
0.0
140
0.0
141
0.0
142
1.0
143
1.0
 70
   688
 72
     0
 73
     0
 74
     5
  7

 75
    16
147
1.0
148
0.0
149
0.0
100
AcDbLayout
  1
Layout1
 70
     1
 71
     1
 10
0.0
 20
0.0
 11
12.0
 21
9.0
 12
0.0
 22
0.0
 32
0.0
 14
0.0
 24
0.0
 34
0.0
 15
0.0
 25
0.0
 35
0.0
146
0.0
 13
0.0
 23
0.0
 33
0.0
 16
1.0
 26
0.0
 36
0.0
 17
0.0
 27
1.0
 37
0.0
 76
     0
330
D2
  0
LAYOUT
  5
D7
102
{ACAD_XDICTIONARY
360
8C94
102
}
102
{ACAD_REACTORS
330
1A
102
}
330
1A
100
AcDbPlotSettings
  1

  2
C:\Documents and Settings\basas\Application Data\Autodesk\AutoCAD 2005\R16.1\enu\plotters\Default Windows System Printer.pc3
  4

  6

 40
0.0
 41
0.0
 42
0.0
 43
0.0
 44
0.0
 45
0.0
 46
0.0
 47
0.0
 48
0.0
 49
0.0
140
0.0
141
0.0
142
1.0
143
1.0
 70
   688
 72
     0
 73
     0
 74
     5
  7

 75
    16
147
1.0
148
0.0
149
0.0
100
AcDbLayout
  1
Layout2
 70
     1
 71
     2
 10
0.0
 20
0.0
 11
12.0
 21
9.0
 12
0.0
 22
0.0
 32
0.0
 14
0.0
 24
0.0
 34
0.0
 15
0.0
 25
0.0
 35
0.0
146
0.0
 13
0.0
 23
0.0
 33
0.0
 16
1.0
 26
0.0
 36
0.0
 17
0.0
 27
1.0
 37
0.0
 76
     0
330
D6
  0
LAYOUT
  5
22
102
{ACAD_XDICTIONARY
360
8C8F
102
}
102
{ACAD_REACTORS
330
1A
102
}
330
1A
100
AcDbPlotSettings
  1

  2
none_device
  4
ISO_A4_(210.00_x_297.00_MM)
  6

 40
7.5
 41
20.0
 42
7.5
 43
20.0
 44
210.0
 45
297.0
 46
11.54999923706054
 47
-13.65000009536743
 48
0.0
 49
0.0
140
0.0
141
0.0
142
1.0
143
8.704084754739808
 70
 11952
 72
     1
 73
     0
 74
     0
  7

 75
     0
147
0.1148885871608098
148
0.0
149
0.0
100
AcDbLayout
  1
Model
 70
     1
 71
     0
 10
0.0
 20
0.0
 11
12.0
 21
9.0
 12
0.0
 22
0.0
 32
0.0
 14
0.0
 24
0.0
 34
0.0
 15
0.0
 25
0.0
 35
0.0
146
0.0
 13
0.0
 23
0.0
 33
0.0
 16
1.0
 26
0.0
 36
0.0
 17
0.0
 27
1.0
 37
0.0
 76
     0
330
1F
331
EA
1001
ACAD_PSEXT
1000
None
1000
None
1000
Not applicable
1000
The layout will not be plotted unless a new plotter configuration name is selected.
1070
     0
  0
MATERIAL
  5
ED
102
{ACAD_XDICTIONARY
360
1F9
102
}
102
{ACAD_REACTORS
330
6A
102
}
330
6A
100
AcDbMaterial
  1
ByBlock
  0
MATERIAL
  5
EC
102
{ACAD_XDICTIONARY
360
1F7
102
}
102
{ACAD_REACTORS
330
6A
102
}
330
6A
100
AcDbMaterial
  1
ByLayer
  0
MATERIAL
  5
EE
102
{ACAD_XDICTIONARY
360
173
102
}
102
{ACAD_REACTORS
330
6A
102
}
330
6A
100
AcDbMaterial
  1
Global
 43
0.0007999999797903
 43
0.0
 43
0.0
 43
0.0
 43
0.0
 43
0.0007999999797903
 43
0.0
 43
0.0
 43
0.0
 43
0.0
 43
1.0
 43
0.0
 43
0.0
 43
0.0
 43
0.0
 43
1.0
 49
0.0007999999797903
 49
0.0
 49
0.0
 49
0.0
 49
0.0
 49
0.0007999999797903
 49
0.0
 49
0.0
 49
0.0
 49
0.0
 49
1.0
 49
0.0
 49
0.0
 49
0.0
 49
0.0
 49
1.0
142
0.0007999999797903
142
0.0
142
0.0
142
0.0
142
0.0
142
0.0007999999797903
142
0.0
142
0.0
142
0.0
142
0.0
142
1.0
142
0.0
142
0.0
142
0.0
142
0.0
142
1.0
144
0.0007999999797903
144
0.0
144
0.0
144
0.0
144
0.0
144
0.0007999999797903
144
0.0
144
0.0
144
0.0
144
0.0
144
1.0
144
0.0
144
0.0
144
0.0
144
0.0
144
1.0
1001
ACAD
1070
    -1
1070
     3
1070
     0
1000

1071
        0
1070
     0
  0
MLEADERSTYLE
  5
12E
102
{ACAD_XDICTIONARY
360
8CB9
102
}
102
{ACAD_REACTORS
330
12D
102
}
330
12D
100
AcDbMLeaderStyle
170
     2
171
     1
172
     0
 90
        2
 40
0.0
 41
0.0
173
     1
 91
-1056964608
340
14
 92
       -2
290
     1
 42
2.0
291
     1
 43
8.0
  3
Standard
 44
4.0
300

342
11
174
     1
178
     1
175
     1
176
     0
 93
-1056964608
 45
4.0
292
     0
297
     0
 46
4.0
 94
-1056964608
 47
1.0
 49
1.0
140
1.0
293
     1
141
0.0
294
     1
177
     0
142
1.0
295
     0
296
     0
143
3.75
1001
ACAD_MLEADERVER
1070
     2
  0
MLINESTYLE
  5
18
102
{ACAD_REACTORS
330
17
102
}
330
17
100
AcDbMlineStyle
  2
STANDARD
 70
     0
  3

 62
   256
 51
90.0
 52
90.0
 71
     2
 49
0.5
 62
   256
  6
BYLAYER
 49
-0.5
 62
   256
  6
BYLAYER
  0
ACDBPLACEHOLDER
  5
F
102
{ACAD_REACTORS
330
E
102
}
330
E
  0
SCALE
  5
10D
102
{ACAD_REACTORS
330
10C
102
}
330
10C
100
AcDbScale
 70
     0
300
1:1
140
1.0
141
1.0
290
     1
  0
SCALE
  5
1BE
102
{ACAD_REACTORS
330
10C
102
}
330
10C
100
AcDbScale
 70
     0
300
1:2
140
1.0
141
2.0
290
     0
  0
SCALE
  5
1BF
102
{ACAD_REACTORS
330
10C
102
}
330
10C
100
AcDbScale
 70
     0
300
1:4
140
1.0
141
4.0
290
     0
  0
SCALE
  5
1C0
102
{ACAD_REACTORS
330
10C
102
}
330
10C
100
AcDbScale
 70
     0
300
1:5
140
1.0
141
5.0
290
     0
  0
SCALE
  5
1C1
102
{ACAD_REACTORS
330
10C
102
}
330
10C
100
AcDbScale
 70
     0
300
1:8
140
1.0
141
8.0
290
     0
  0
SCALE
  5
1C2
102
{ACAD_REACTORS
330
10C
102
}
330
10C
100
AcDbScale
 70
     0
300
1:10
140
1.0
141
10.0
290
     0
  0
SCALE
  5
1C3
102
{ACAD_REACTORS
330
10C
102
}
330
10C
100
AcDbScale
 70
     0
300
1:16
140
1.0
141
16.0
290
     0
  0
SCALE
  5
1C4
102
{ACAD_REACTORS
330
10C
102
}
330
10C
100
AcDbScale
 70
     0
300
1:20
140
1.0
141
20.0
290
     0
  0
SCALE
  5
1C5
102
{ACAD_REACTORS
330
10C
102
}
330
10C
100
AcDbScale
 70
     0
300
1:30
140
1.0
141
30.0
290
     0
  0
SCALE
  5
1C6
102
{ACAD_REACTORS
330
10C
102
}
330
10C
100
AcDbScale
 70
     0
300
1:40
140
1.0
141
40.0
290
     0
  0
SCALE
  5
1C7
102
{ACAD_REACTORS
330
10C
102
}
330
10C
100
AcDbScale
 70
     0
300
1:50
140
1.0
141
50.0
290
     0
  0
SCALE
  5
1C8
102
{ACAD_REACTORS
330
10C
102
}
330
10C
100
AcDbScale
 70
     0
300
1:100
140
1.0
141
100.0
290
     0
  0
SCALE
  5
1C9
102
{ACAD_REACTORS
330
10C
102
}
330
10C
100
AcDbScale
 70
     0
300
2:1
140
2.0
141
1.0
290
     0
  0
SCALE
  5
1CA
102
{ACAD_REACTORS
330
10C
102
}
330
10C
100
AcDbScale
 70
     0
300
4:1
140
4.0
141
1.0
290
     0
  0
SCALE
  5
1CB
102
{ACAD_REACTORS
330
10C
102
}
330
10C
100
AcDbScale
 70
     0
300
8:1
140
8.0
141
1.0
290
     0
  0
SCALE
  5
1CC
102
{ACAD_REACTORS
330
10C
102
}
330
10C
100
AcDbScale
 70
     0
300
10:1
140
10.0
141
1.0
290
     0
  0
SCALE
  5
1CD
102
{ACAD_REACTORS
330
10C
102
}
330
10C
100
AcDbScale
 70
     0
300
100:1
140
100.0
141
1.0
290
     0
  0
ACDBSECTIONVIEWSTYLE
  5
21A
102
{ACAD_XDICTIONARY
360
8CCB
102
}
102
{ACAD_REACTORS
330
219
102
}
330
219
100
AcDbModelDocViewStyle
 70
     0
  3
Metric50
290
     0
100
AcDbSectionViewStyle
 70
     0
 71
     0
 90
      102
 71
     1
340
11
 40
5.0
340
0
340
0
 40
5.0
300
I, O, Q, S, X, Z
 40
10.0
 90
        0
 40
2.5
 90
        0
 71
     2
340
16
 90
       25
340
16
 90
       50
 40
5.0
 40
2.5
 40
5.0
 71
     3
340
11
 40
5.0
 90
        0
 40
15.0
 90
        1
300
%<\AcVar ViewSectionStartId>%-%<\AcVar ViewSectionEndId>% (%<\AcVar ViewScale \f "%sn">%)
 71
     4
300
ANSI31
 40
1.0
 90
        0
290
     0
290
     0
 90
        6
 40
0.0
 40
1.570796326794896
 40
0.2617993877991494
 40
1.308996938995747
 40
-0.2617993877991494
 40
1.832595714594046
  0
TABLESTYLE
  5
7F
102
{ACAD_XDICTIONARY
360
162
102
}
102
{ACAD_REACTORS
330
7E
102
}
330
7E
100
AcDbTableStyle
  3
Standard
 70
     0
 71
     0
 40
1.5
 41
1.5
280
     0
281
     0
  7
Standard
140
4.5
170
     2
 62
     0
 63
     7
283
     0
274
    -2
284
     1
 64
     0
275
    -2
285
     1
 65
     0
276
    -2
286
     1
 66
     0
277
    -2
287
     1
 67
     0
278
    -2
288
     1
 68
     0
279
    -2
289
     1
 69
     0
  7
Standard
140
6.0
170
     5
 62
     0
 63
     7
283
     0
274
    -2
284
     1
 64
     0
275
    -2
285
     1
 65
     0
276
    -2
286
     1
 66
     0
277
    -2
287
     1
 67
     0
278
    -2
288
     1
 68
     0
279
    -2
289
     1
 69
     0
  7
Standard
140
4.5
170
     5
 62
     0
 63
     7
283
     0
274
    -2
284
     1
 64
     0
275
    -2
285
     1
 65
     0
276
    -2
286
     1
 66
     0
277
    -2
287
     1
 67
     0
278
    -2
288
     1
 68
     0
279
    -2
289
     1
 69
     0
  0
VISUALSTYLE
  5
F5
102
{ACAD_XDICTIONARY
360
8CA3
102
}
102
{ACAD_REACTORS
330
EF
102
}
330
EF
100
AcDbVisualStyle
  2
2dWireframe
 70
     4
 71
     0
 72
     2
 73
     1
 90
        0
 40
-0.6
 41
-30.0
 62
     5
 63
     7
 74
     1
 91
        4
 64
     7
 65
   257
 75
     1
175
     1
 42
1.0
 92
        0
 66
   257
 43
1.0
 76
     1
 77
     6
 78
     2
 67
     7
 79
     5
170
     0
171
     0
290
     0
174
     0
 93
        1
 44
0.0
173
     0
291
     0
 45
0.0
1001
ACAD
1000
AcDbSavedByObjectVersion
1070
     0
  0
VISUALSTYLE
  5
F4
102
{ACAD_XDICTIONARY
360
8CA1
102
}
102
{ACAD_REACTORS
330
EF
102
}
330
EF
100
AcDbVisualStyle
  2
Basic
 70
     7
 71
     1
 72
     0
 73
     1
 90
        0
 40
-0.6
 41
-30.0
 62
     5
 63
     7
 74
     0
 91
        4
 64
     7
 65
   257
 75
     1
175
     1
 42
1.0
 92
        8
 66
     7
 43
1.0
 76
     1
 77
     6
 78
     2
 67
     7
 79
     5
170
     0
171
     0
290
     0
174
     0
 93
        1
 44
0.0
173
     0
291
     1
 45
0.0
1001
ACAD
1000
AcDbSavedByObjectVersion
1070
     0
  0
VISUALSTYLE
  5
FB
102
{ACAD_XDICTIONARY
360
8CAF
102
}
102
{ACAD_REACTORS
330
EF
102
}
330
EF
100
AcDbVisualStyle
  2
Brighten
 70
    12
 71
     2
 72
     2
 73
     1
 90
        0
 40
-0.6
 41
-30.0
 62
     5
 63
     7
 74
     1
 91
        4
 64
     7
 65
   257
 75
     1
175
     1
 42
1.0
 92
        8
 66
     7
 43
1.0
 76
     1
 77
     6
 78
     2
 67
     7
 79
     5
170
     0
171
     0
290
     0
174
     0
 93
        1
 44
50.0
173
     0
291
     1
 45
0.0
1001
ACAD
1000
AcDbSavedByObjectVersion
1070
     0
  0
VISUALSTYLE
  5
FF
102
{ACAD_XDICTIONARY
360
8CB7
102
}
102
{ACAD_REACTORS
330
EF
102
}
330
EF
100
AcDbVisualStyle
  2
ColorChange
 70
    16
 71
     2
 72
     2
 73
     3
 90
        0
 40
-0.6
 41
-30.0
 62
     5
 63
     8
 74
     1
 91
        4
 64
     7
 65
   257
 75
     1
175
     1
 42
1.0
 92
        8
 66
     8
 43
1.0
 76
     1
 77
     6
 78
     2
 67
     7
 79
     5
170
     0
171
     0
290
     0
174
     0
 93
        1
 44
0.0
173
     0
291
     1
 45
0.0
1001
ACAD
1000
AcDbSavedByObjectVersion
1070
     0
  0
VISUALSTYLE
  5
F8
102
{ACAD_XDICTIONARY
360
8CA9
102
}
102
{ACAD_REACTORS
330
EF
102
}
330
EF
100
AcDbVisualStyle
  2
Conceptual
 70
     9
 71
     3
 72
     2
 73
     1
 90
        0
 40
-0.6
 41
-30.0
 62
     5
 63
     7
 74
     2
 91
        2
 64
     7
 65
   257
 75
     1
175
     1
 42
40.0
 92
        8
 66
     7
 43
1.0
 76
     1
 77
     6
 78
     2
 67
     7
 79
     3
170
     0
171
     0
290
     0
174
     0
 93
        1
 44
0.0
173
     0
291
     0
 45
0.0
1001
ACAD
1000
AcDbSavedByObjectVersion
1070
     0
  0
VISUALSTYLE
  5
FA
102
{ACAD_XDICTIONARY
360
8CAD
102
}
102
{ACAD_REACTORS
330
EF
102
}
330
EF
100
AcDbVisualStyle
  2
Dim
 70
    11
 71
     2
 72
     2
 73
     1
 90
        0
 40
-0.6
 41
-30.0
 62
     5
 63
     7
 74
     1
 91
        4
 64
     7
 65
   257
 75
     1
175
     1
 42
1.0
 92
        8
 66
     7
 43
1.0
 76
     1
 77
     6
 78
     2
 67
     7
 79
     5
170
     0
171
     0
290
     0
174
     0
 93
        1
 44
-50.0
173
     0
291
     1
 45
0.0
1001
ACAD
1000
AcDbSavedByObjectVersion
1070
     0
  0
VISUALSTYLE
  5
1E6
102
{ACAD_XDICTIONARY
360
8CBF
102
}
102
{ACAD_REACTORS
330
EF
102
}
330
EF
100
AcDbVisualStyle
  2
EdgeColorOff
 70
    22
 71
     2
 72
     2
 73
     0
 90
        0
 40
-0.6
 41
-30.0
 62
     5
 63
     7
 74
     1
 91
        4
 64
     7
 65
   257
 75
     1
175
     1
 42
1.0
 92
        8
 66
     7
 43
1.0
 76
     1
 77
     6
 78
     2
 67
     7
 79
     5
170
     0
171
     0
290
     0
174
     0
 93
        1
 44
0.0
173
     0
291
     1
 45
0.0
1001
ACAD
1000
AcDbSavedByObjectVersion
1070
     0
  0
VISUALSTYLE
  5
FE
102
{ACAD_XDICTIONARY
360
8CB5
102
}
102
{ACAD_REACTORS
330
EF
102
}
330
EF
100
AcDbVisualStyle
  2
Facepattern
 70
    15
 71
     2
 72
     2
 73
     1
 90
        0
 40
-0.6
 41
-30.0
 62
     5
 63
     7
 74
     1
 91
        4
 64
     7
 65
   257
 75
     1
175
     1
 42
1.0
 92
        8
 66
     7
 43
1.0
 76
     1
 77
     6
 78
     2
 67
     7
 79
     5
170
     0
171
     0
290
     0
174
     0
 93
        1
 44
0.0
173
     0
291
     1
 45
0.0
1001
ACAD
1000
AcDbSavedByObjectVersion
1070
     0
  0
VISUALSTYLE
  5
F0
102
{ACAD_XDICTIONARY
360
8C99
102
}
102
{ACAD_REACTORS
330
EF
102
}
330
EF
100
AcDbVisualStyle
  2
Flat
 70
     0
 71
     2
 72
     1
 73
     1
 90
        2
 40
-0.6
 41
30.0
 62
     5
 63
     7
 74
     0
 91
        0
 64
     7
 65
   257
 75
     1
175
     1
 42
1.0
 92
        8
 66
     7
 43
1.0
 76
     1
 77
     6
 78
     2
 67
     7
 79
     5
170
     0
171
     0
290
     0
174
     0
 93
       13
 44
0.0
173
     0
291
     1
 45
0.0
1001
ACAD
1000
AcDbSavedByObjectVersion
1070
     0
  0
VISUALSTYLE
  5
F1
102
{ACAD_XDICTIONARY
360
8C9B
102
}
102
{ACAD_REACTORS
330
EF
102
}
330
EF
100
AcDbVisualStyle
  2
FlatWithEdges
 70
     1
 71
     2
 72
     1
 73
     1
 90
        2
 40
-0.6
 41
30.0
 62
     5
 63
     7
 74
     1
 91
        0
 64
     7
 65
   257
 75
     1
175
     1
 42
1.0
 92
        0
 66
   257
 43
1.0
 76
     1
 77
     6
 78
     2
 67
     7
 79
     5
170
     0
171
     0
290
     0
174
     0
 93
       13
 44
0.0
173
     0
291
     1
 45
0.0
1001
ACAD
1000
AcDbSavedByObjectVersion
1070
     0
  0
VISUALSTYLE
  5
F2
102
{ACAD_XDICTIONARY
360
8C9D
102
}
102
{ACAD_REACTORS
330
EF
102
}
330
EF
100
AcDbVisualStyle
  2
Gouraud
 70
     2
 71
     2
 72
     2
 73
     1
 90
        2
 40
-0.6
 41
30.0
 62
     5
 63
     7
 74
     0
 91
        0
 64
     7
 65
   257
 75
     1
175
     1
 42
1.0
 92
        0
 66
     7
 43
1.0
 76
     1
 77
     6
 78
     2
 67
     7
 79
     5
170
     0
171
     0
290
     0
174
     0
 93
       13
 44
0.0
173
     0
291
     1
 45
0.0
1001
ACAD
1000
AcDbSavedByObjectVersion
1070
     0
  0
VISUALSTYLE
  5
F3
102
{ACAD_XDICTIONARY
360
8C9F
102
}
102
{ACAD_REACTORS
330
EF
102
}
330
EF
100
AcDbVisualStyle
  2
GouraudWithEdges
 70
     3
 71
     2
 72
     2
 73
     1
 90
        2
 40
-0.6
 41
30.0
 62
     5
 63
     7
 74
     1
 91
        0
 64
     7
 65
   257
 75
     1
175
     1
 42
1.0
 92
        0
 66
   257
 43
1.0
 76
     1
 77
     6
 78
     2
 67
     7
 79
     5
170
     0
171
     0
290
     0
174
     0
 93
       13
 44
0.0
173
     0
291
     1
 45
0.0
1001
ACAD
1000
AcDbSavedByObjectVersion
1070
     0
  0
VISUALSTYLE
  5
F7
102
{ACAD_XDICTIONARY
360
8CA7
102
}
102
{ACAD_REACTORS
330
EF
102
}
330
EF
100
AcDbVisualStyle
  2
Hidden
 70
     6
 71
     1
 72
     2
 73
     2
 90
        0
 40
-0.6
 41
-30.0
 62
     5
 63
     7
 74
     2
 91
        2
 64
     7
 65
   257
 75
     2
175
     1
 42
40.0
 92
        0
 66
   257
 43
1.0
 76
     1
 77
     6
 78
     2
 67
     7
 79
     3
170
     0
171
     0
290
     0
174
     0
 93
        1
 44
0.0
173
     0
291
     0
 45
0.0
1001
ACAD
1000
AcDbSavedByObjectVersion
1070
     0
  0
VISUALSTYLE
  5
1E4
102
{ACAD_XDICTIONARY
360
8CBB
102
}
102
{ACAD_REACTORS
330
EF
102
}
330
EF
100
AcDbVisualStyle
  2
JitterOff
 70
    20
 71
     2
 72
     2
 73
     0
 90
        0
 40
-0.6
 41
-30.0
 62
     5
 63
     7
 74
     1
 91
        4
 64
     7
 65
   257
 75
     1
175
     1
 42
1.0
 92
       10
 66
     7
 43
1.0
 76
     1
 77
     6
 78
     2
 67
     7
 79
     5
170
     0
171
     0
290
     0
174
     0
 93
        1
 44
0.0
173
     0
291
     1
 45
0.0
1001
ACAD
1000
AcDbSavedByObjectVersion
1070
     0
  0
VISUALSTYLE
  5
FD
102
{ACAD_XDICTIONARY
360
8CB3
102
}
102
{ACAD_REACTORS
330
EF
102
}
330
EF
100
AcDbVisualStyle
  2
Linepattern
 70
    14
 71
     2
 72
     2
 73
     1
 90
        0
 40
-0.6
 41
-30.0
 62
     5
 63
     7
 74
     1
 91
        4
 64
     7
 65
   257
 75
     7
175
     7
 42
1.0
 92
        8
 66
     7
 43
1.0
 76
     1
 77
     6
 78
     2
 67
     7
 79
     5
170
     0
171
     0
290
     0
174
     0
 93
        1
 44
0.0
173
     0
291
     1
 45
0.0
1001
ACAD
1000
AcDbSavedByObjectVersion
1070
     0
  0
VISUALSTYLE
  5
1E5
102
{ACAD_XDICTIONARY
360
8CBD
102
}
102
{ACAD_REACTORS
330
EF
102
}
330
EF
100
AcDbVisualStyle
  2
OverhangOff
 70
    21
 71
     2
 72
     2
 73
     0
 90
        0
 40
-0.6
 41
-30.0
 62
     5
 63
     7
 74
     1
 91
        4
 64
     7
 65
   257
 75
     1
175
     1
 42
1.0
 92
        9
 66
     7
 43
1.0
 76
     1
 77
     6
 78
     2
 67
     7
 79
     5
170
     0
171
     0
290
     0
174
     0
 93
        1
 44
0.0
173
     0
291
     1
 45
0.0
1001
ACAD
1000
AcDbSavedByObjectVersion
1070
     0
  0
VISUALSTYLE
  5
F9
102
{ACAD_XDICTIONARY
360
8CAB
102
}
102
{ACAD_REACTORS
330
EF
102
}
330
EF
100
AcDbVisualStyle
  2
Realistic
 70
     8
 71
     2
 72
     2
 73
     0
 90
        2
 40
-0.6
 41
30.0
 62
     5
 63
     7
 74
     0
 91
        0
 64
     7
 65
   257
 75
     1
175
     1
 42
1.0
 92
        8
 66
   257
 43
1.0
 76
     1
 77
     6
 78
     2
 67
     7
 79
     3
170
     0
171
     0
290
     0
174
     0
 93
       13
 44
0.0
173
     0
291
     0
 45
0.0
1001
ACAD
1000
AcDbSavedByObjectVersion
1070
     0
  0
VISUALSTYLE
  5
1F3
102
{ACAD_XDICTIONARY
360
8CC9
102
}
102
{ACAD_REACTORS
330
EF
102
}
330
EF
100
AcDbVisualStyle
  2
Shaded
 70
    27
 71
     2
 72
     2
 73
     1
 90
        2
 40
-0.6
 41
30.0
 62
     5
 63
     7
 74
     0
 91
        4
 64
     7
 65
   257
 75
     1
175
     1
 42
1.0
 92
        8
 66
   257
 43
1.0
 76
     1
 77
     6
 78
     2
 67
     8
 79
     3
170
     0
171
     0
290
     0
174
     0
 93
        5
 44
0.0
173
     0
291
     0
 45
0.0
1001
ACAD
1000
AcDbSavedByObjectVersion
1070
     0
  0
VISUALSTYLE
  5
1F2
102
{ACAD_XDICTIONARY
360
8CC7
102
}
102
{ACAD_REACTORS
330
EF
102
}
330
EF
100
AcDbVisualStyle
  2
Shaded with edges
 70
    26
 71
     2
 72
     2
 73
     1
 90
        2
 40
-0.6
 41
30.0
 62
     5
 63
     7
 74
     1
 91
        2
 64
     7
 65
   257
 75
     2
175
     1
 42
1.0
 92
        8
 66
   257
 43
1.0
 76
     1
 77
     6
 78
     2
 67
     7
 79
     3
170
     0
171
     0
290
     0
174
     0
 93
        5
 44
0.0
173
     0
291
     0
 45
0.0
1001
ACAD
1000
AcDbSavedByObjectVersion
1070
     0
  0
VISUALSTYLE
  5
1EF
102
{ACAD_XDICTIONARY
360
8CC1
102
}
102
{ACAD_REACTORS
330
EF
102
}
330
EF
100
AcDbVisualStyle
  2
Shades of Gray
 70
    23
 71
     2
 72
     2
 73
     3
 90
        0
 40
-0.6
 41
-30.0
 62
     5
 63
     7
 74
     2
 91
        2
 64
     7
 65
     7
 75
     1
175
     1
 42
40.0
 92
        8
 66
     7
 43
1.0
 76
     1
 77
     6
 78
     2
 67
     7
 79
     3
170
     0
171
     0
290
     0
174
     0
 93
        1
 44
0.0
173
     0
291
     0
 45
0.0
1001
ACAD
1000
AcDbSavedByObjectVersion
1070
     0
  0
VISUALSTYLE
  5
1F0
102
{ACAD_XDICTIONARY
360
8CC3
102
}
102
{ACAD_REACTORS
330
EF
102
}
330
EF
100
AcDbVisualStyle
  2
Sketchy
 70
    24
 71
     1
 72
     2
 73
     2
 90
        0
 40
-0.6
 41
-30.0
 62
     5
 63
     7
 74
     2
 91
        2
 64
     7
 65
     7
 75
     1
175
     1
 42
40.0
 92
       11
 66
     7
 43
1.0
 76
     1
 77
     6
 78
     2
 67
     7
 79
     6
170
     0
171
     0
290
     0
174
     0
 93
        1
 44
0.0
173
     0
291
     0
 45
0.0
1001
ACAD
1000
AcDbSavedByObjectVersion
1070
     0
  0
VISUALSTYLE
  5
FC
102
{ACAD_XDICTIONARY
360
8CB1
102
}
102
{ACAD_REACTORS
330
EF
102
}
330
EF
100
AcDbVisualStyle
  2
Thicken
 70
    13
 71
     2
 72
     2
 73
     1
 90
        0
 40
-0.6
 41
-30.0
 62
     5
 63
     7
 74
     1
 91
        4
 64
     7
 65
   257
 75
     1
175
     1
 42
1.0
 92
       12
 66
     7
 43
1.0
 76
     1
 77
     6
 78
     2
 67
     7
 79
     5
170
     0
171
     0
290
     0
174
     0
 93
        1
 44
0.0
173
     0
291
     1
 45
0.0
1001
ACAD
1000
AcDbSavedByObjectVersion
1070
     0
  0
VISUALSTYLE
  5
F6
102
{ACAD_XDICTIONARY
360
8CA5
102
}
102
{ACAD_REACTORS
330
EF
102
}
330
EF
100
AcDbVisualStyle
  2
Wireframe
 70
     5
 71
     0
 72
     2
 73
     0
 90
        0
 40
-0.6
 41
-30.0
 62
     5
 63
     7
 74
     1
 91
        4
 64
     7
 65
   257
 75
     1
175
     1
 42
1.0
 92
        0
 66
   257
 43
1.0
 76
     1
 77
     6
 78
     2
 67
     7
 79
     3
170
     0
171
     0
290
     0
174
     0
 93
        1
 44
0.0
173
     0
291
     0
 45
0.0
1001
ACAD
1000
AcDbSavedByObjectVersion
1070
     0
  0
VISUALSTYLE
  5
1F1
102
{ACAD_XDICTIONARY
360
8CC5
102
}
102
{ACAD_REACTORS
330
EF
102
}
330
EF
100
AcDbVisualStyle
  2
X-Ray
 70
    25
 71
     2
 72
     2
 73
     1
 90
        1
 40
0.5
 41
-30.0
 62
     5
 63
     7
 74
     1
 91
        0
 64
     7
 65
   257
 75
     1
175
     1
 42
1.0
 92
        8
 66
     7
 43
1.0
 76
     1
 77
     6
 78
     2
 67
     7
 79
     3
170
     0
171
     0
290
     0
174
     0
 93
       13
 44
0.0
173
     0
291
     0
 45
0.0
1001
ACAD
1000
AcDbSavedByObjectVersion
1070
     0
  0
DICTIONARYVAR
  5
146
102
{ACAD_REACTORS
330
5E
102
}
330
5E
100
DictionaryVariables
280
     0
  1
1:1
  0
DICTIONARYVAR
  5
259
102
{ACAD_REACTORS
330
5E
102
}
330
5E
100
DictionaryVariables
280
     0
  1
3.500000
  0
DICTIONARYVAR
  5
25A
102
{ACAD_REACTORS
330
5E
102
}
330
5E
100
DictionaryVariables
280
     0
  1
acadiso.lin
  0
DICTIONARYVAR
  5
145
102
{ACAD_REACTORS
330
5E
102
}
330
5E
100
DictionaryVariables
280
     0
  1
STANDARD
  0
DICTIONARYVAR
  5
84
102
{ACAD_REACTORS
330
5E
102
}
330
5E
100
DictionaryVariables
280
     0
  1
STANDARD
  0
DICTIONARYVAR
  5
227
102
{ACAD_REACTORS
330
5E
102
}
330
5E
100
DictionaryVariables
280
     0
  1
Metric50
  0
DICTIONARYVAR
  5
228
102
{ACAD_REACTORS
330
5E
102
}
330
5E
100
DictionaryVariables
280
     0
  1
Metric50
  0
DICTIONARYVAR
  5
5F
102
{ACAD_REACTORS
330
5E
102
}
330
5E
100
DictionaryVariables
280
     0
  1
2
  0
DICTIONARYVAR
  5
63
102
{ACAD_REACTORS
330
5E
102
}
330
5E
100
DictionaryVariables
280
     0
  1
1
  0
DICTIONARYVAR
  5
8C3A
102
{ACAD_REACTORS
330
5E
102
}
330
5E
100
DictionaryVariables
280
     0
  1
0
  0
DICTIONARYVAR
  5
1AE
102
{ACAD_REACTORS
330
5E
102
}
330
5E
100
DictionaryVariables
280
     0
  1
0
  0
DICTIONARYVAR
  5
1AF
102
{ACAD_REACTORS
330
5E
102
}
330
5E
100
DictionaryVariables
280
     0
  1
0
  0
DICTIONARYVAR
  5
8C38
102
{ACAD_REACTORS
330
5E
102
}
330
5E
100
DictionaryVariables
280
     0
  1
2
  0
DICTIONARYVAR
  5
8C37
102
{ACAD_REACTORS
330
5E
102
}
330
5E
100
DictionaryVariables
280
     0
  1
1
  0
DICTIONARYVAR
  5
8C8A
102
{ACAD_REACTORS
330
5E
102
}
330
5E
100
DictionaryVariables
280
     0
  1
80.000000
  0
DICTIONARYVAR
  5
8C89
102
{ACAD_REACTORS
330
5E
102
}
330
5E
100
DictionaryVariables
280
     0
  1
5.000000
  0
DICTIONARYVAR
  5
8C39
102
{ACAD_REACTORS
330
5E
102
}
330
5E
100
DictionaryVariables
280
     0
  1
127
  0
DICTIONARYVAR
  5
8C8B
102
{ACAD_REACTORS
330
5E
102
}
330
5E
100
DictionaryVariables
280
     0
  1
2
  0
DICTIONARY
  5
8CCD
330
21C
100
AcDbDictionary
280
     1
281
     1
  3
ACAD_XREC_ROUNDTRIP
360
8CCE
  0
DICTIONARY
  5
8C92
330
D3
100
AcDbDictionary
280
     1
281
     1
  3
ACAD_XREC_ROUNDTRIP
360
8C93
  0
DICTIONARY
  5
8C94
330
D7
100
AcDbDictionary
280
     1
281
     1
  3
ACAD_XREC_ROUNDTRIP
360
8C95
  0
DICTIONARY
  5
8C8F
330
22
100
AcDbDictionary
280
     1
281
     1
  3
ACAD_XREC_ROUNDTRIP
360
8C90
  0
DICTIONARY
  5
1F9
330
ED
100
AcDbDictionary
280
     1
281
     1
  3
ACAD_XREC_ROUNDTRIP
360
8C97
  3
FBXASSET
360
1FA
  0
DICTIONARY
  5
1F7
330
EC
100
AcDbDictionary
280
     1
281
     1
  3
ACAD_XREC_ROUNDTRIP
360
8C96
  3
FBXASSET
360
1F8
  0
DICTIONARY
  5
173
330
EE
100
AcDbDictionary
280
     1
281
     1
  3
ACAD_XREC_ROUNDTRIP
360
8C98
  3
BUMPTILE
360
175
  3
DIFFUSETILE
360
174
  3
FBXASSET
360
1FB
  3
OPACITYTILE
360
176
  3
REFLECTIONTILE
360
177
  0
DICTIONARY
  5
8CB9
330
12E
100
AcDbDictionary
280
     1
281
     1
  3
ACAD_XREC_ROUNDTRIP
360
8CBA
  0
DICTIONARY
  5
8CCB
330
21A
100
AcDbDictionary
280
     1
281
     1
  3
ACAD_XREC_ROUNDTRIP
360
8CCC
  0
DICTIONARY
  5
162
330
7F
100
AcDbDictionary
280
     1
281
     1
  3
ACAD_ROUNDTRIP_2008_TABLESTYLE_CELLSTYLEMAP
360
8C8C
  3
ACAD_XREC_ROUNDTRIP
360
8C91
  0
DICTIONARY
  5
8CA3
330
F5
100
AcDbDictionary
280
     1
281
     1
  3
ACAD_XREC_ROUNDTRIP
360
8CA4
  0
DICTIONARY
  5
8CA1
330
F4
100
AcDbDictionary
280
     1
281
     1
  3
ACAD_XREC_ROUNDTRIP
360
8CA2
  0
DICTIONARY
  5
8CAF
330
FB
100
AcDbDictionary
280
     1
281
     1
  3
ACAD_XREC_ROUNDTRIP
360
8CB0
  0
DICTIONARY
  5
8CB7
330
FF
100
AcDbDictionary
280
     1
281
     1
  3
ACAD_XREC_ROUNDTRIP
360
8CB8
  0
DICTIONARY
  5
8CA9
330
F8
100
AcDbDictionary
280
     1
281
     1
  3
ACAD_XREC_ROUNDTRIP
360
8CAA
  0
DICTIONARY
  5
8CAD
330
FA
100
AcDbDictionary
280
     1
281
     1
  3
ACAD_XREC_ROUNDTRIP
360
8CAE
  0
DICTIONARY
  5
8CBF
330
1E6
100
AcDbDictionary
280
     1
281
     1
  3
ACAD_XREC_ROUNDTRIP
360
8CC0
  0
DICTIONARY
  5
8CB5
330
FE
100
AcDbDictionary
280
     1
281
     1
  3
ACAD_XREC_ROUNDTRIP
360
8CB6
  0
DICTIONARY
  5
8C99
330
F0
100
AcDbDictionary
280
     1
281
     1
  3
ACAD_XREC_ROUNDTRIP
360
8C9A
  0
DICTIONARY
  5
8C9B
330
F1
100
AcDbDictionary
280
     1
281
     1
  3
ACAD_XREC_ROUNDTRIP
360
8C9C
  0
DICTIONARY
  5
8C9D
330
F2
100
AcDbDictionary
280
     1
281
     1
  3
ACAD_XREC_ROUNDTRIP
360
8C9E
  0
DICTIONARY
  5
8C9F
330
F3
100
AcDbDictionary
280
     1
281
     1
  3
ACAD_XREC_ROUNDTRIP
360
8CA0
  0
DICTIONARY
  5
8CA7
330
F7
100
AcDbDictionary
280
     1
281
     1
  3
ACAD_XREC_ROUNDTRIP
360
8CA8
  0
DICTIONARY
  5
8CBB
330
1E4
100
AcDbDictionary
280
     1
281
     1
  3
ACAD_XREC_ROUNDTRIP
360
8CBC
  0
DICTIONARY
  5
8CB3
330
FD
100
AcDbDictionary
280
     1
281
     1
  3
ACAD_XREC_ROUNDTRIP
360
8CB4
  0
DICTIONARY
  5
8CBD
330
1E5
100
AcDbDictionary
280
     1
281
     1
  3
ACAD_XREC_ROUNDTRIP
360
8CBE
  0
DICTIONARY
  5
8CAB
330
F9
100
AcDbDictionary
280
     1
281
     1
  3
ACAD_XREC_ROUNDTRIP
360
8CAC
  0
DICTIONARY
  5
8CC9
330
1F3
100
AcDbDictionary
280
     1
281
     1
  3
ACAD_XREC_ROUNDTRIP
360
8CCA
  0
DICTIONARY
  5
8CC7
330
1F2
100
AcDbDictionary
280
     1
281
     1
  3
ACAD_XREC_ROUNDTRIP
360
8CC8
  0
DICTIONARY
  5
8CC1
330
1EF
100
AcDbDictionary
280
     1
281
     1
  3
ACAD_XREC_ROUNDTRIP
360
8CC2
  0
DICTIONARY
  5
8CC3
330
1F0
100
AcDbDictionary
280
     1
281
     1
  3
ACAD_XREC_ROUNDTRIP
360
8CC4
  0
DICTIONARY
  5
8CB1
330
FC
100
AcDbDictionary
280
     1
281
     1
  3
ACAD_XREC_ROUNDTRIP
360
8CB2
  0
DICTIONARY
  5
8CA5
330
F6
100
AcDbDictionary
280
     1
281
     1
  3
ACAD_XREC_ROUNDTRIP
360
8CA6
  0
DICTIONARY
  5
8CC5
330
1F1
100
AcDbDictionary
280
     1
281
     1
  3
ACAD_XREC_ROUNDTRIP
360
8CC6
  0
XRECORD
  5
8CCE
102
{ACAD_REACTORS
330
8CCD
102
}
330
8CCD
100
AcDbXrecord
280
     1
102
DISPLAYNAME
  1
Metric50
102
FLAGS
 90
        0
  0
XRECORD
  5
8C93
102
{ACAD_REACTORS
330
8C92
102
}
330
8C92
100
AcDbXrecord
280
     1
102
SHADEPLOT
 70
     0
102
SHADEPLOTRESLEVEL
 70
     2
102
SHADEPLOTCUSTOMDPI
 70
   300
  0
XRECORD
  5
8C95
102
{ACAD_REACTORS
330
8C94
102
}
330
8C94
100
AcDbXrecord
280
     1
102
SHADEPLOT
 70
     0
102
SHADEPLOTRESLEVEL
 70
     2
102
SHADEPLOTCUSTOMDPI
 70
   300
  0
XRECORD
  5
8C90
102
{ACAD_REACTORS
330
8C8F
102
}
330
8C8F
100
AcDbXrecord
280
     1
102
SHADEPLOT
 70
     0
102
SHADEPLOTRESLEVEL
 70
     2
102
SHADEPLOTCUSTOMDPI
 70
   300
  0
XRECORD
  5
8C97
102
{ACAD_REACTORS
330
1F9
102
}
330
1F9
100
AcDbXrecord
280
     1
102
MATERIAL
148
0.0
149
0.0
149
0.0
 93
        0
 94
       63
282
     0
 72
     1
 77
     1
171
     1
175
     1
179
     1
273
     0
  0
XRECORD
  5
1FA
102
{ACAD_REACTORS
330
1F9
102
}
330
1F9
100
AcDbXrecord
280
     1
 70
     1
 90
429727718
  1
D62C5603-E3A1-4AEA-B7FB-FE5D8D0755AF
310
504B03040A0000080000CC70623B3DEE336E79000000790000001B0000006175746F6465736B2D64657369676E2D7061636B6167652E786D6C3C3F786D6C2076657273696F6E3D22312E302220656E636F64696E673D227574662D3822203F3E3C666F726D6174733E3C666F726D61743E687474703A2F2F736368656D612E
310
6175746F6465736B2E636F6D2F64657369676E2D7061636B6167652F323030393C2F666F726D61743E3C2F666F726D6174733E504B0304140006080800CC70623BD486FD9CA0000000F4000000130000005B436F6E74656E745F54797065735D2E786D6C7D8EC10E82300C865F65E91D8A1E8C310C0EEA1BF002731658846E
310
D98AC1B77784ABF1D8FE5FBFBF75BBCE937A534CCEB38643598122B6FEE978D0B0485F9C41B54DDD7D022595594E1A469170414C76A4D9A4D207E29CF43ECE46F218070CC6BECC4078ACAA135ACF422C856C0E68EA1BF5669944DDD7BCDE7B1F8E415D77AECB980613C2E4AC91FC167A2B244592486606FC29C8FD7F045B9A
310
EF7053A7E60B504B0304140006080800CC70623B853B8169EB0000007C01000008000000636F72652E786D6C8D90416EC3201045AF62CDB6C206821CC7C244919D9CA01740401C94182C03558F5F9C3852BBEB6A467FFE9B197D7EFC9E1EC5975982F5AE035262288C535E5B377690E21535501C055FBC8FBF6C503839990E
310
5619041F179FE64D52DE45E362569DD7661365082642A11EB9E920A89B99642953CC8E702F67A9EE7234257977194EC9EAE275C4EABCCF5EAD5940D4AC6F0E35A568B8F43562CD7046CD199FD07E60174276A7BE677B5EADB0E0D14EEFFB6A31321A0D82627C4084204C3F096B71DD52F6819B16635EADF63F509AF53FA164
310
5DDCD1EDDD17164090FCC8732078B56691CB33A85CD7DCC40F504B0304140006080800CC70623B55019EA25F0000007C00000007000000636E782E786D6C4DCB3B0E80201045D1AD90E915ED2CF8AC45050C11660C8261F98AB1B07AC9C97D42D718D865D3E909258CFD00CCE24AC6E326A164D74DC0B4128928FF32603847
310
2BA13128B1252AC747C6BAB984FC68F0B87FE8960A5C09FE86CFB69FBA01504B0304140006080800CC70623BDBABAAF470010000D40300000C0000006662782F636F72652E786D6CC553D16E823014FD95A6AF4B694182CC941A83FA05FB810A9511A125A5257EFE2E82712ECEB8A7F100CD39F7F69E734AF9FADC366850B6
310
AF8DCE7018308C942E4C59EB2AC3DE1D498AD15A706B8CFB56869196ADCAF00863C12B6B7C374385D14E6907A836A59A41D9F7CA615434B0C8705F7CAA5606D23BA8E84F41278B93AC54100640439DE0BDB320004D43C63716C7C399D30917DCFBBA9CD9BA8469F5B156168B24CED3F7248AC8769F27244EB73B92EED8862C
310
B7F13E0C179B3C8F979C8ECD82BBBABDAA2BAC924E9558448CBD9330242CFA08E3154B5651FCC6D215639C8EE5774DBE2B5F6CF2B5768B68963BB5F5588420E442FC700B1139D4CB01F450C1E918227C2E09DF070D8140C84E1E9AAB8F1340832A9CB13130A5F1376A908D57309505ECF2A0DF179C4E9D30F5B239B87E3823
310
7A79C6F31DE1A8A5AEC08474B03C7837EAE4938639B44E5932B833D2C6B6B279CDC613877FA26EE21F4A2A4C63EC7F29A2F301D1F9F7A0E37D145F504B0304140006080800CC70623B9C113CC27E0000009D0000000B0000006662782F636E782E786D6C4DCCDF0A83201C86E15B91DFB94BFB330DD428C8FB886521330DA7
310
6397BF1A1DECE883878F57749FCDA1B7892F1BBC047A23808C7F84D9FA55424E0BE6803A256208E9EF06C84F9B91703228B1C690F78B66B34CD9A5439DF5CF0BFBF65E35BCA1B8D6A5C6F540381E886698B5741C695F9503EBA150A2F8958E3DC3EA0B504B0304140006080800CC70623B7DF2F77C2A010000120200003100
310
00006662782F41393633353835312D344632462D344230382D423046372D3739314545314133324237412F636F72652E786D6C8D51DB8EC22014FC15C2939B0D2DB4B45643319AE817EC0F6041255A68B86CFCFC856D4D76DF7CE190393373060EDB3DC707F856CE6B6B7A480A0C81328395DA5C7B18C3057510EC3873D686
310
3F34088C18550F330C39BB3A1BA7051AAC09CA84841A2BD5020AEF55806078A44B0FFD7053A328440C89E1EFC52486BBB8AA8214A99D789CF9E05200300FC927E4FB4D5B375D43103D5527440FB843077C5AA3F5861C8F645F5787F59E95B390B318B55CE45AA638FAA2957BD7248B390B7A7CC51F9C124149C82B8C378810
310
84AB2F42B7B8DD56F413775B8C5999E9FF4471926F8AA236A1AE96B8B3CC434E5839373893369E1FAF30EA395917409EB7F26AF8801C171837A4A6AC9C89E9F9C9B1A58BA30FD6A5EF5DDDCF894B9AD9B6A59C957943A9FCAE2FD5BC4DFE03504B0304140006080800CC70623BAD7543B64E01000033030000300000006662
310
782F41393633353835312D344632462D344230382D423046372D3739314545314133324237412F636E782E786D6CD593CD6EC32010845F0571AD6CE3D48AD20813A9873E410FBD12D82434182C7EAAE6EDBB2424CD25871E7B41D6EC30B3FA84F9E67BB2E40B4234DE8DB46F1925E094D7C6ED479AD3AE5951B2113C789FEE
310
6C943839C1488B4C05DF079FE72A69D8C96C13AAD6B8631503449F83828872B949AC57D26200B826A308D316B4064D6E46FCDA41C05550DC9E483A00797BFD207EFB092A45DE9514C1BBD22178396BD39D891265658C238DEA00936C654E5E433CB65A26D9F6EDB5EBC14EBF49A45CB856E66048291F6939A9A81BB5C89177
310
38143CA680F4AA299D66A042CEB3354A2684DC9D8D178FE0D9B8B41CAAD720F880EE7EF93C0C18769E099ECC04D5A102C8049A8A05632F4DDF376CF1DE0F6BB65C2F8627B65A33C6BB62177CEBBDAD973006829F89F22E814B54F4BC2BE347F8AA8F681390B50FA73F804400B5F542E796F19FF974E7F78DB802FE05E20750
310
4B0304140006080800CC70623BE75B7789680500003C100000340000006662782F41393633353835312D344632462D344230382D423046372D3739314545314133324237412F6F626A656374732E786D6CAD575B8F9B3818FD2B887D06C22499CB8AA1CA655245D5B455A356FB305264C061D8018C6C3393D95FBFC7600890
310
A4CD5EF210B0B1BFEBF98E3F7B1FF6596ABC522E1296DF9BAE3D320D9A872C4AF2F8DE2CE5CEBA358D0FBEC719939D65A691938CDE9B6ADAF4BD98B3B2D05311DD91329583D9D5FC0F438434A7A611A644887B5384CF34233629258BA878B12322891DEFF6B66BD70BFB62634E8AE781D082709A4B588AF91C528CDA28B73F
310
1C998EEF39EABBEFA97FBD6A7C7E9553F9D3D79FE442923C3C523610337627CB87ABE99D359D4CC6D6E4FACAB5E6ABF9D2726FC6A3C5F56271377BB88362213924694B38DD99FE47C48627A1E7D49F5A8BB5E1A74C0A599ED3B0F21F1E56366B89112D681E218F0915D0D6F17AD41FBA2A369DCF6335D62ABBD39779D5DDD1
310
11D4D8DE3CBB96B2E04FB8202E41051754A1AA8E8F76B4C6DFE810B580B1547F4B84911149794252234D024EF8BBE963A95AE27B3D310A9D5C215C7960FAEE415ED75694C6AFB17BCACA5D99A60A9AA65F217B0BFC53292ACB92BF283FAD0D3621576592CB5BED907C2FA8E9DF794E35E97BEA31BED21FEB401ABB94C44839
310
DCACBF0E1C5DA8DA5B2F4DFFD32AD86F543D9E565E7056502E157C00AD2671CD534549AB752FCA9CDA00677A313F04E51B22FF19E57B300579E3C97EB29F682D92935CEC18CF901B7B54FD8C51F362B56FC72FE0B3C1EAE335EDCCBF5AEC39ADB17DC238973F804BA5E6F6BFE7AF1FB32E523BE9F3BD571418E3631DCA4D48
310
5250CF639223210A9446CA30052EDF057BD35F8329C1ECD84552BF0DC8D18BE7BCE23BFE6BD960AB4A7DE79923A103BEBD80F911CBAA2C60DB19B01CF164A5583B772EE6D3FFA56666CBCDA74DC97724A48F9A58967497E489C4D979006FD7A05E227A1EBDD0F737C623387A9C844D3709995625106D157315F8B8392CD4E0
310
A0B9A720C4BE9829CEF37EA1E13111214D53925356365ADA634861B52519DD27A00AEB808EAF0628E6F435519D446F45CF2C9CF5214F0A15B2F6D06B79DA3EE3CBF7F56780D2F4E7EF73A0F5E5B02A38D07DC852C6B7C1FBB6664213E0C39E3EBA7FF4E1AD23EA2829407C85E586727488B751B2DB9502BC7B228A3FD68B6E
310
A65A22397E690AA8D158D7E404EC8CDA235CC3B7D1898680131CEC2CDF2638C65196279577750F15884AEE19F94199155B92B13297978469D4F8D358DF0AEF7631E28DC8F0D9F437D5D39A83B2231A1D52D543813A824EF8D44BCFF2FA6A31BD1E8DAD87F1CCB526B3879935BF59CDADD5C37479BB1CDD4CA7B3556B516589
310
EF352754B706114D9C885EC9131DE6EFEB43D99AFE2391C2F958179413D7CFEF6B1B6DB1E7600F00DE6E5C67454A339A4BA2E0FBA85ED26F045D454F463DBFCE484C2F90F2E5E3666003662ED8F755951A7D1BECD5B30B550B2785C8E7320B7292A4838DDA71BBC863ED7613CAF659337A3354231D4FF4A182A54904C2898C
310
98B28C4AD0CE056CCF332A80986E571EE9DBC305BB5FEB7E509220A58D25CF042D712A806AC0AD0C657FDEF80D2D9CEAA2EE4D1C76F60BFE74219A06527D6F82DF6412526107381E55E353090704D085B52408A8913C4ED159D79BDA71BB4BC506F4831350EB6F975CD22D69BF7AC49B91A2C0A9DDA3D5CA36AD20FC478E37
310
E61844E2352865EBCB61A275A65283CAAA9DD27703B4102F5AF51EF5F573B75CBB5AD38BC845F7A49F82A0966A49C2E3EA5EA0ECD326CD965F1DB402C6FA8B51A4658C5C5E2EC9E214602E55810345408596591009A82E7E7FFACA19EEA299B14A0081A705CB3296EBC14CDF658DCD336EA6D1136881AAEB87B81AB9EE53D5
310
F5EB8BC8362082DA24122F98680A4E7930C01A0079749CEA14382A0783E5EBA5A10F8C098456A03D6A4AEB6BB881E2513747552A5DB22C7EDAF83BD5528081A365F7FF06504B0304140006080000CC70623B000000000000000000000000350000006662782F41393633353835312D344632462D344230382D423046372D37
310
39314545314133324237412F76657274696365732E62696E504B0304140006080800CC70623BF270F1330600000004000000360000006662782F41393633353835312D344632462D344230382D423046372D3739314545314133324237412F747269616E676C65732E62696E636660600000504B0304140006080000CC7062
310
3B000000000000000000000000370000006662782F41393633353835312D344632462D344230382D423046372D3739314545314133324237412F617474726962757465732E62696E504B0304140006080800CC70623B08DA0BD19000000041010000360000006662782F41393633353835312D344632462D344230382D4230
310
46372D3739314545314133324237412F6469726563746F72792E786D6C858F410AC3201045AF22B36F53E9A60B35CBEEBAE80D244E44489C6234F4F835464A48035D0DF398FF9F8AF63D0E6CC63039F212F8F9020C7D47C6792B21C5FE7403D62A1188E2E60C98D7234A5830286103A55745067B9D86B8A3CF9C7F90C11DE6
310
07FB144396D7B6A82D282E9A152AD114D5EF2CB866EEE831B8EEA07A7BB5A8D7D61A2BAAEB7FD5F70921FF497D00504B0304140006080800CC70623BEDD1DC58FD000000A00100003B0000006662782F41393633353835312D344632462D344230382D423046372D3739314545314133324237412F7265736F75726365732F
310
636F72652E786D6C8D504B6E833010BD0A9A6D65B00922041947112427E8052C33A156828DFCA97AFC9A40A576D7CDCCE87D344F8F9FBFE667F689CE6B6B3A6039850C8DB2A336530731DC4903D95970676DF82583CCC8193B5861107C72362E3BA4AC096842428D1D7107A5F7182053CF7474E0D507CE32973124857FE48B
310
540F3961CEF244279DE03EB81420DB9EAC1384436FA353E879B1B182C7A8C75DA3C7F453DF353A1075D537A7BA6464B8F535A99AE14A9A2BBD90E350DD183B5CFABE3AF262350B1EF4FC9351399401471025A527C218A1E53BAB5A5AB765F5469B96525EACF23FA6B88CFF34456DC2A1DCE36E360F82A5202F42F062ED2BAD
310
579969AFDD8A6F504B010214000A0000080000CC70623B3DEE336E79000000790000001B00000000000000000000000000000000006175746F6465736B2D64657369676E2D7061636B6167652E786D6C504B01021400140006080800CC70623BD486FD9CA0000000F40000001300000000000000000000000000B20000005B
310
436F6E74656E745F54797065735D2E786D6C504B01021400140006080800CC70623B853B8169EB0000007C010000080000000000000000000000000083010000636F72652E786D6C504B01021400140006080800CC70623B55019EA25F0000007C000000070000000000000000000000000094020000636E782E786D6C504B
310
01021400140006080800CC70623BDBABAAF470010000D40300000C00000000000000000000000000180300006662782F636F72652E786D6C504B01021400140006080800CC70623B9C113CC27E0000009D0000000B00000000000000000000000000B20400006662782F636E782E786D6C504B01021400140006080800CC70
310
623B7DF2F77C2A010000120200003100000000000000000000000000590500006662782F41393633353835312D344632462D344230382D423046372D3739314545314133324237412F636F72652E786D6C504B01021400140006080800CC70623BAD7543B64E010000330300003000000000000000000000000000D2060000
310
6662782F41393633353835312D344632462D344230382D423046372D3739314545314133324237412F636E782E786D6C504B01021400140006080800CC70623BE75B7789680500003C10000034000000000000000000000000006E0800006662782F41393633353835312D344632462D344230382D423046372D3739314545
310
314133324237412F6F626A656374732E786D6C504B01021400140006080000CC70623B0000000000000000000000003500000000000000000000000000280E00006662782F41393633353835312D344632462D344230382D423046372D3739314545314133324237412F76657274696365732E62696E504B01021400140006
310
080800CC70623BF270F133060000000400000036000000000000000000000000007B0E00006662782F41393633353835312D344632462D344230382D423046372D3739314545314133324237412F747269616E676C65732E62696E504B01021400140006080000CC70623B0000000000000000000000003700000000000000
310
000000000000D50E00006662782F41393633353835312D344632462D344230382D423046372D3739314545314133324237412F617474726962757465732E62696E504B01021400140006080800CC70623B08DA0BD1900000004101000036000000000000000000000000002A0F00006662782F41393633353835312D344632
310
462D344230382D423046372D3739314545314133324237412F6469726563746F72792E786D6C504B01021400140006080800CC70623BEDD1DC58FD000000A00100003B000000000000000000000000000E1000006662782F41393633353835312D344632462D344230382D423046372D3739314545314133324237412F7265
310
736F75726365732F636F72652E786D6C504B0506000000000E000E0080040000641100000000
  0
XRECORD
  5
8C96
102
{ACAD_REACTORS
330
1F7
102
}
330
1F7
100
AcDbXrecord
280
     1
102
MATERIAL
148
0.0
149
0.0
149
0.0
 93
        0
 94
       63
282
     0
 72
     1
 77
     1
171
     1
175
     1
179
     1
273
     0
  0
XRECORD
  5
1F8
102
{ACAD_REACTORS
330
1F7
102
}
330
1F7
100
AcDbXrecord
280
     1
 70
     1
 90
429727718
  1
30362254-06B7-45E0-A893-8CFA70E3D6BC
310
504B03040A0000080000CC70623B3DEE336E79000000790000001B0000006175746F6465736B2D64657369676E2D7061636B6167652E786D6C3C3F786D6C2076657273696F6E3D22312E302220656E636F64696E673D227574662D3822203F3E3C666F726D6174733E3C666F726D61743E687474703A2F2F736368656D612E
310
6175746F6465736B2E636F6D2F64657369676E2D7061636B6167652F323030393C2F666F726D61743E3C2F666F726D6174733E504B0304140006080800CC70623BD486FD9CA0000000F4000000130000005B436F6E74656E745F54797065735D2E786D6C7D8EC10E82300C865F65E91D8A1E8C310C0EEA1BF002731658846E
310
D98AC1B77784ABF1D8FE5FBFBF75BBCE937A534CCEB38643598122B6FEE978D0B0485F9C41B54DDD7D022595594E1A469170414C76A4D9A4D207E29CF43ECE46F218070CC6BECC4078ACAA135ACF422C856C0E68EA1BF5669944DDD7BCDE7B1F8E415D77AECB980613C2E4AC91FC167A2B244592486606FC29C8FD7F045B9A
310
EF7053A7E60B504B0304140006080800CC70623B1EC5D7A3EB0000007C01000008000000636F72652E786D6C8D90416EC3201045AF82665B6103C6756C6122AB4D4ED00B204C5C94182C03558F5F9C3852BBEB6A467FFE9B197D71FC9E6FE8CBACC17AD7032D0820E3B41FAD9B7A48F1820F808E52ACDEC75F36404ECDA687
310
4D0629A6D5A76597B477D1B89855E747B38B2A041301E95B6E7A08FAD3CCAA50296647B8168BD2573599823EBB0CA76447F43862C7BCCF5EAC59410E4DDD9C7973C2755553CCCFA4C603E3040F1565ED3B1FDE4E432BCA0D9622DAF9795FAF464533826484B498524CD807E51D79ED187F21878E10516EF63F505AC67F42C9
310
BA58B1FDDD071640D2FCC87D2045B96591CB3DA85CB7DCE40F504B0304140006080800CC70623B55019EA25F0000007C00000007000000636E782E786D6C4DCB3B0E80201045D1AD90E915ED2CF8AC45050C11660C8261F98AB1B07AC9C97D42D718D865D3E909258CFD00CCE24AC6E326A164D74DC0B4128928FF32603847
310
2BA13128B1252AC747C6BAB984FC68F0B87FE8960A5C09FE86CFB69FBA01504B0304140006080800CC70623B8C9102E971010000D40300000C0000006662782F636F72652E786D6CC5535B6E833010BC8AE5DF0A6C08340F1947A84D4ED00B38C6A128602363A31CBFCB234A53A551FA553EC09AD9F5CE8C31DB9E9B1AF5CA
310
7695D1198E428A91D2D214952E33ECDD315861B4E5CC1AE3BE9561A445A3323CC098B3D21ADFCE9034DA29ED00D5A6503328BA4E398C640D8B0C77F253352214DE4145770A5B214FA2546114020D759C75CE8200340D19DE981F0F6746269C33EFAB6266AB02A655C74A59CCF365BADC27CB5D902ED22848F6340DF238A141
310
BE88E2F57B92BFEDF23523433367AE6A2EEAA455C2A902F398D2751045018D3FA264435F3771F242571B4A1919CA6F9A7C5B3CD9E42BED16F12C776AEB308F40C848FC700B1139D4891EF410CEC810227CC6846F8386402064270EF5C5C709A05E49676C024C61FC95EA45ED154CA5211D1FF4FB8291A913A68E9B83EBBB33
310
E2A7673CDE118E5AE8124C0807CB8377834E366998436B950D7A7746DAD846D4CFD978E0F04FD455FC5D49D2D4C6FE9722321F10997F0F32DC47FE05504B0304140006080800CC70623BFFEA85907E0000009D0000000B0000006662782F636E782E786D6C4DCCD10A83201886E15B91FFDC95D95A811AB6F23E625948A6C3
310
E9D8E5AF46073BFAE0E1E365ED67B3E8ADC3CB78C7815C7240DA3DFC64DCC221C519D7805AC182F7F1EF06C88D9BE6703008B6049F9E274D7A1E938DBB5AE3D6131B2589BA0D3D965551E0B2EA732C9B9A624AAEB41E3A557677029960D9AFB4EF11165F504B0304140006080800CC70623B4FEEA4082C0100001202000031
310
0000006662782F39464131463745442D413632322D343644302D413938332D3331353338454246344243312F636F72652E786D6C8D515B6EC32010BC0AE2AB55850DD871ED0813254D72825EC00192A2C460F1A872FC42ED48ED5F7E00CDCECCCEB26C731F6FE05B39AFADE921293004CA082BB5B9F43086336A21D870E6AC
310
0D7F68109861543DCC30E4ECE26C9C164858139409093556AA051CBC570102714B8F1E7AF1A5C6A11862480C7F2DA6415C878B2A4891CA89C7990F2E050073937C42DE1DB7E4F87ED8A36D4329AA9B3D46DBAEAD504556557BD81DEBDD0761E52CE42C462D17B996298E3E6BE59E35C962CE821E1FF18553435012728A7187
310
0841987E927A8D9B35ADDF70BBC6989599FE4F1427F9A4286A132ABAC49D651EF234CD5CE04CDA78BA3DC2A8FB645D00B9DF8B57E215725C60BCA2A463E54C4CE327C7A65E1C7DB02E7DEFCBF594B864C5CA6CDBD49C957943E9FA5D5FBAF336F90F504B0304140006080800CC70623BAD7543B64E01000033030000300000
310
006662782F39464131463745442D413632322D343644302D413938332D3331353338454246344243312F636E782E786D6CD593CD6EC32010845F0571AD6CE3D48AD20813A9873E410FBD12D82434182C7EAAE6EDBB2424CD25871E7B41D6EC30B3FA84F9E67BB2E40B4234DE8DB46F1925E094D7C6ED479AD3AE5951B2113C
310
789FEE6C943839C1488B4C05DF079FE72A69D8C96C13AAD6B8631503449F83828872B949AC57D26200B826A308D316B4064D6E46FCDA41C05550DC9E483A00797BFD207EFB092A45DE9514C1BBD22178396BD39D891265658C238DEA00936C654E5E433CB65A26D9F6EDB5EBC14EBF49A45CB856E66048291F6939A9A81BB5
310
C8917738143CA680F4AA299D66A042CEB3354A2684DC9D8D178FE0D9B8B41CAAD720F880EE7EF93C0C18769E099ECC04D5A102C8049A8A05632F4DDF376CF1DE0F6BB65C2F8627B65A33C6BB62177CEBBDAD973006829F89F22E814B54F4BC2BE347F8AA8F681390B50FA73F804400B5F542E796F19FF974E7F78DB802FE05
310
E207504B0304140006080800CC70623B16AB87BA640500003C100000340000006662782F39464131463745442D413632322D343644302D413938332D3331353338454246344243312F6F626A656374732E786D6CAD575B6FA33818FD2B887DE6924B3BED8A326A92B68A663B534DD4D13E548A0C38942D60649B369D5FBFC7
310
600890A493BDE42160637FD7F31D7FF63E6FB3D478A55C242CBF3247B66B1A340F5994E4F19559CA8D75611A9F7D8F33263BCB4C232719BD32D5B4E97B316765A1A722BA21652A07B3B7B33F0D11D29C9A46981221AE4C113ED38CD8A4942CA2E2C58E882476BCD9DA23BB5ED8171B73523C0F841684D35CC252CCE79062D4
310
468DFA43D7747CCF51DF7D4FFDEB5593E3AB9CCA9FBEFE241792E4E19EB28198C968BAB8199F5D5A67D3E9C49A9E8F47D6EC76B6B0469F26EEFC7C3EBFBCBEB98462213924694B38DD98FE1D62C393D073EA4FADC5DAF04326852CCF6958F90F0F2B9BB5C48816348F90C7840A68EB78EDF68723159BCEE7891A6B95DDE9D3
310
BCEAEEE8086A6C6F9E5D4B59F0175C10A7A0820BAA5055C7473B5AE3CFDD452D602CD5DF12616444529E90D448938013FE6EFA58AA96F85E4F8C42275708571E98FE6827AF6B2B4AE3D7D83D64E5A64C53054DD3AF90BD06FEA9149565C94FCA0F6B834DC85599E4F2423B24DF0B6AFA979E534DFA9E7A4CC6FA631D486393
310
921829879BF5D781A373557BCB85E97FB90DB62B558F8795179C15944B051F40AB495CF35451D26A4727654E6D8033BD98EF82F21D91FF8AF2DD9982BCF1643BDD4EB516C9492E368C67C88DED563FC36D5EACF66DFF057C3658BDBFA69DF9578B3DA735B64F18C7F20770A9D45CFCF7FCF563D6456A277DBEF78A02637CA2
310
43B90A490AEAB94F72244481D24819A6C0E59B606BFA4B3025981DBB48EAB701D97BF19C577CC77F2D1B6C55A9EF3C732474C0B727303F625995056C3B02963D9EAC146BE78EC5FCEC7FA999EBC5EACBAAE41B12D27B4D2C0BBA49F244E2ECDC81B76B502F113D8F5EE8FB1BE3111CDD4FC2AA9B844CAB1288B68AB90A7CDC
310
1C166AB0D3DC5310625FCC14E779BFD0709F8890A629C9292B1B2DED31A4B0DA928CEE135085754027E3018A397D4D5427D15BD1330B677DC8934285AC3DF45A9EB68FF8F2B8FC0A509AFEECFD0FF2DE25CC6047F7214B195F07EFEB9A094D800F7BFAE8FED187B78EA8A3A400F115961BCAD1215E47C966530AF0EE8128FE
310
58CEBB996A8964FFA529A046635D9353B0336A8F700DDF46271A024E70B0B37C9DE01847591E54DED53D54202AB947E4076556AC49C6CA5C9E1226B7F1A7B1BE15DEED62C41B91E1B3E9AFAAA735036547343A925075041DF0A9979E893B391F8FCFA6967B3EFB644DCF6E5CEBFAE272625DCC6FAF3FB93793C5F90CE1EF57
310
407342756B10D1C489E8953CD1617E5CEECAD6F4EF8914CE5D5D504E5C3F1F9736DA62CFC11E00BCDDB8CC8A9466349744C1F75EBDA4DF09BA8A9E8C7A7E9991989E20E5DBDD6A6003664ED8F7A04A8DBE0DF6EAD9B9AA858342E47399053949D2C146EDB85DE4B176BB0965FBAC19BD19AA918E27FA50C1D22402E144464C
310
59462568E704B6E71915404CB72B8FF4EDE184DDAF753F284990D2C6926782963815403548A70C657FDEF80D2D9CEAA2AE4C1C76F60BFE74219A06527D6582DF6412526107381E55E353090704D085B52408D0933C4ED159D79BDA71BB4BC506F4831350EB6F979CD22D69BF7AC49B91A2C0A9DDA3D5CA36AD20FC478E37E6
310
1844E2352865EBCB6EA275A652E3836BE04EFB400BF1A2556F515F1FBB35B2AB35BD889C744FFA1004B5544B121E57F70215746DD2F5E2C1412B602CBF19455AC6C8E5E9922C4E01E65215385004546899059180EAFCF7A707CE7017CD8CDB0410789AB32C63B91E5CEBBBACB17AC6CD347A022D5075FD106377347AAABA7E
310
7D11590744509B44E205134DC1290F06580320F78E537D3D73540E06CB970B431F185308AD40BBD794D6D77003C5A36E8EAA54BA64597CD8F83BD552A080A365F7FF06504B0304140006080000CC70623B000000000000000000000000350000006662782F39464131463745442D413632322D343644302D413938332D3331
310
353338454246344243312F76657274696365732E62696E504B0304140006080800CC70623BF270F1330600000004000000360000006662782F39464131463745442D413632322D343644302D413938332D3331353338454246344243312F747269616E676C65732E62696E636660600000504B0304140006080000CC70623B
310
000000000000000000000000370000006662782F39464131463745442D413632322D343644302D413938332D3331353338454246344243312F617474726962757465732E62696E504B0304140006080800CC70623B08DA0BD19000000041010000360000006662782F39464131463745442D413632322D343644302D413938
310
332D3331353338454246344243312F6469726563746F72792E786D6C858F410AC3201045AF22B36F53E9A60B35CBEEBAE80D244E44489C6234F4F835464A48035D0DF398FF9F8AF63D0E6CC63039F212F8F9020C7D47C6792B21C5FE7403D62A1188E2E60C98D7234A5830286103A55745067B9D86B8A3CF9C7F90C11DE607
310
FB144396D7B6A82D282E9A152AD114D5EF2CB866EEE831B8EEA07A7BB5A8D7D61A2BAAEB7FD5F70921FF497D00504B0304140006080800CC70623B0D6EF93BFE000000A00100003B0000006662782F39464131463745442D413632322D343644302D413938332D3331353338454246344243312F7265736F75726365732F63
310
6F72652E786D6C8D50596E833010BD0A9ADFCA60B334011947A8694ED00B586642AC041B79A97AFC9A40A5F6AF3F33A3B7689E1E3F7DCD8FEC139DD7D6F4C0720A191A65476DA61E62B892236427C19DB5E1970C322367EC618541F0C9D9B8EC90B226A009093576C41D94DE63804C3DD2D18357379C652E63480A7FCF17A9
310
EE72C29CE5894E3AC17D702940B63D59270887DE46A7D0F36263058F518FBB468FE9A7BE6A7420864373B8D4873369AA8691FA421B3294352543C5CAF65C0F6FEF43CB8BD52C78D0F34F46E550061C419494B6843142CB0F5677F4B52BEB177AEC28E5C52AFF638ACBF84F53D42654E51E77B379102C05791282176B5F693D
310
CB4C7BED567C03504B010214000A0000080000CC70623B3DEE336E79000000790000001B00000000000000000000000000000000006175746F6465736B2D64657369676E2D7061636B6167652E786D6C504B01021400140006080800CC70623BD486FD9CA0000000F40000001300000000000000000000000000B20000005B
310
436F6E74656E745F54797065735D2E786D6C504B01021400140006080800CC70623B1EC5D7A3EB0000007C010000080000000000000000000000000083010000636F72652E786D6C504B01021400140006080800CC70623B55019EA25F0000007C000000070000000000000000000000000094020000636E782E786D6C504B
310
01021400140006080800CC70623B8C9102E971010000D40300000C00000000000000000000000000180300006662782F636F72652E786D6C504B01021400140006080800CC70623BFFEA85907E0000009D0000000B00000000000000000000000000B30400006662782F636E782E786D6C504B01021400140006080800CC70
310
623B4FEEA4082C0100001202000031000000000000000000000000005A0500006662782F39464131463745442D413632322D343644302D413938332D3331353338454246344243312F636F72652E786D6C504B01021400140006080800CC70623BAD7543B64E010000330300003000000000000000000000000000D5060000
310
6662782F39464131463745442D413632322D343644302D413938332D3331353338454246344243312F636E782E786D6C504B01021400140006080800CC70623B16AB87BA640500003C1000003400000000000000000000000000710800006662782F39464131463745442D413632322D343644302D413938332D3331353338
310
454246344243312F6F626A656374732E786D6C504B01021400140006080000CC70623B0000000000000000000000003500000000000000000000000000270E00006662782F39464131463745442D413632322D343644302D413938332D3331353338454246344243312F76657274696365732E62696E504B01021400140006
310
080800CC70623BF270F133060000000400000036000000000000000000000000007A0E00006662782F39464131463745442D413632322D343644302D413938332D3331353338454246344243312F747269616E676C65732E62696E504B01021400140006080000CC70623B0000000000000000000000003700000000000000
310
000000000000D40E00006662782F39464131463745442D413632322D343644302D413938332D3331353338454246344243312F617474726962757465732E62696E504B01021400140006080800CC70623B08DA0BD190000000410100003600000000000000000000000000290F00006662782F39464131463745442D413632
310
322D343644302D413938332D3331353338454246344243312F6469726563746F72792E786D6C504B01021400140006080800CC70623B0D6EF93BFE000000A00100003B000000000000000000000000000D1000006662782F39464131463745442D413632322D343644302D413938332D3331353338454246344243312F7265
310
736F75726365732F636F72652E786D6C504B0506000000000E000E0080040000641100000000
  0
XRECORD
  5
8C98
102
{ACAD_REACTORS
330
173
102
}
330
173
100
AcDbXrecord
280
     1
102
MATERIAL
148
0.0
149
0.0
149
0.0
 93
        0
 94
       63
282
     0
 72
     1
 77
     1
171
     1
175
     1
179
     1
273
     0
  0
XRECORD
  5
175
102
{ACAD_REACTORS
330
173
102
}
330
173
100
AcDbXrecord
280
     1
270
     1
271
     1
  0
XRECORD
  5
174
102
{ACAD_REACTORS
330
173
102
}
330
173
100
AcDbXrecord
280
     1
270
     1
271
     1
  0
XRECORD
  5
1FB
102
{ACAD_REACTORS
330
173
102
}
330
173
100
AcDbXrecord
280
     1
 70
     0
 90
1673772943
  1
ECE7A1D2-D628-4531-984C-D00F80459256
310
504B03040A0000080000CC70623B3DEE336E79000000790000001B0000006175746F6465736B2D64657369676E2D7061636B6167652E786D6C3C3F786D6C2076657273696F6E3D22312E302220656E636F64696E673D227574662D3822203F3E3C666F726D6174733E3C666F726D61743E687474703A2F2F736368656D612E
310
6175746F6465736B2E636F6D2F64657369676E2D7061636B6167652F323030393C2F666F726D61743E3C2F666F726D6174733E504B0304140006080800CC70623BD486FD9CA0000000F4000000130000005B436F6E74656E745F54797065735D2E786D6C7D8EC10E82300C865F65E91D8A1E8C310C0EEA1BF002731658846E
310
D98AC1B77784ABF1D8FE5FBFBF75BBCE937A534CCEB38643598122B6FEE978D0B0485F9C41B54DDD7D022595594E1A469170414C76A4D9A4D207E29CF43ECE46F218070CC6BECC4078ACAA135ACF422C856C0E68EA1BF5669944DDD7BCDE7B1F8E415D77AECB980613C2E4AC91FC167A2B244592486606FC29C8FD7F045B9A
310
EF7053A7E60B504B0304140006080800CC70623BD9DDAED0EC0000007C01000008000000636F72652E786D6C8D90416EC3201045AF82665B61836D9CD8C2444DD39CA01740405C94182C03558F5F9C3852BBEB6A467FFE9B197D7EF89E6EE8CB2CC17A37002D0820E394D7D68D03A478C17B4007C117EFE32F1B20272733C0
310
2A83E0E3E2D3BC49CABB685CCCAAF3DA6CA20CC14440EA969B0182FA34932C648AD911AEC52CD5558EA6A0CF2EC329598D1E47ACCEFBECC59A050463A7EA5833865FEBDD0E37353BE3EE8DBDE3F6786A48D375FBF6CC78B9C282473B3DEFABC5C86834888A900E538A49F5419B9EB47DD5BC907D4F082F57FB1F28CDFA9F50
310
B22ED6D5F6EE030B20687EE43E10BC5CB3C8E51E54AE6B6EE207504B0304140006080800CC70623B55019EA25F0000007C00000007000000636E782E786D6C4DCB3B0E80201045D1AD90E915ED2CF8AC45050C11660C8261F98AB1B07AC9C97D42D718D865D3E909258CFD00CCE24AC6E326A164D74DC0B4128928FF326038
310
472BA13128B1252AC747C6BAB984FC68F0B87FE8960A5C09FE86CFB69FBA01504B0304140006080800CC70623BA24EB22D72010000D40300000C0000006662782F636F72652E786D6CC5535B6E833010BC8AE5DF0A6C5E49888CA3A6694ED00B38E05014B091B1518EDFE511A5A9D228FD2A1F60CDEC7A67C6986DCE4D8D7A
310
69BA4AAB0C073EC548AA5C17952A33ECECD15B61B4E1CC686DBF9561A44423333CC098B3D268D7CE50AE9595CA02AA74216750749DB418E5352C32DCE59FB211BE70162ABA93DF8AFC244AE9073ED050C759670D0840D390E18DF9F1706664C23973AE2A66B62A605A75ACA4C13C4976E1364A12EF355A2EBD384AF65EFA96
310
BC7B8BED2EA6719AAE16FB8491A199335B351775B991C2CA02F390D2D40B028F861F41BCA68B7518BFD0D59A524686F29B26D7164F36B94AD9289CE54E6D1DE6010819891F6E21228B3AD1831EC219194284CF98F06DD01008846CC5A1BEF83801D4CBDC6A1303536877A57A513B0953A94FC707FDBE6064EA84A9E3E6E0FA
310
EE8CF0E9198F7784A316AA0413C2C2F2E0ECA0934D1AE6D05A69BCDE9E91D2A611F573361E38FC1375157F5752AE6B6DFE4B11990F88CCBF0719EE23FF02504B0304140006080800CC70623B408A7D3B7C0000009D0000000B0000006662782F636E782E786D6C4DCCD10A83201886E15B91FFDC552A92A0064DBC8F581632
310
D3703A76F9ABD1C18E3E78F878E5F0D9027ABBFCF2292AE86E2D20171F69F6715550CB827B40839639A5F2770314A7CD293819B45C73AAFB45B35BA61ACAA1C1C7E7855C58C15BC331339661262CC762340413D68D77DA5B42298546CBE6573AF60CEB2F504B0304140006080800CC70623B449FB9BD290100001202000031
310
0000006662782F36394639363044362D344446342D343946362D394244322D3234314243333846323333332F636F72652E786D6C8D515B6EC32010BC0AE22B55850D98B871848994463E412FE002495162B07854397EA176A4F62F3F2C9A9D991D587EB84F37F0AD7D30CEF6905418026DA553C65E7A98E219ED203808EE9D
310
8B7F6810D871D23D2C3014FCE25D9A57483A1BB58D19B54EE9151C43D0110279CB971E06F9A5A7B11A53CC8C70ADE6515EC78BAE4895DB992778883E0700CB907242D17643D7E2538BD869608875438BBAE38922CAC8F1BDD90DB4691A5E2F42C153326A951B95E398B3D1FE599322163C9AE9115F7A3D46ADA0A018778810
310
84E907617BDCEE297BC5BB3DC6BC2EF47FA234AB2745C9D8D8D035EE220B50105E2F0DC1954B9FB747187D9F9D8FA0CCDB042D5FA0C015C65B42DF78BD10F3F3B363CB56C7109DCFDFBBB97E662ED92EB62D13BC2E1BCAE5777DB9966D8A1F504B0304140006080800CC70623BAD7543B64E01000033030000300000006662
310
782F36394639363044362D344446342D343946362D394244322D3234314243333846323333332F636E782E786D6CD593CD6EC32010845F0571AD6CE3D48AD20813A9873E410FBD12D82434182C7EAAE6EDBB2424CD25871E7B41D6EC30B3FA84F9E67BB2E40B4234DE8DB46F1925E094D7C6ED479AD3AE5951B2113C789FEE
310
6C943839C1488B4C05DF079FE72A69D8C96C13AAD6B8631503449F83828872B949AC57D26200B826A308D316B4064D6E46FCDA41C05550DC9E483A00797BFD207EFB092A45DE9514C1BBD22178396BD39D891265658C238DEA00936C654E5E433CB65A26D9F6EDB5EBC14EBF49A45CB856E66048291F6939A9A81BB5C89177
310
38143CA680F4AA299D66A042CEB3354A2684DC9D8D178FE0D9B8B41CAAD720F880EE7EF93C0C18769E099ECC04D5A102C8049A8A05632F4DDF376CF1DE0F6BB65C2F8627B65A33C6BB62177CEBBDAD973006829F89F22E814B54F4BC2BE347F8AA8F681390B50FA73F804400B5F542E796F19FF974E7F78DB802FE05E20750
310
4B0304140006080800CC70623B8D05915C650500003B100000340000006662782F36394639363044362D344446342D343946362D394244322D3234314243333846323333332F6F626A656374732E786D6CAD575B6FA33814FE2B887D06429276DA1565D4266D158D3A339A6846FB502932E050B66023DB74D2FDF5FB190C01
310
9276B2973C046C8ECFF53B17071F77456EBD502133CEAE6CDF9DD81665314F32965ED995DA3A17B6F5310C04E7AA47665B8C14F4CAD6DB7618A48257A5D94AE89654B91AEDDEDDFC61C998326A5B714EA4BCB265FC440BE2924AF184CA6737218AB8E976E7FA6E4338649B0A523E8D98964450A6A029F619B8588D52FE7039
310
B1BD30F0F4F730D0FF866AF6369557DB33949F31A9088B0F848DD8CCFCF9F2767A76E99CCDE733677E3EF59D9BBB9BA5E37F984D16E78BC5E5F5ED25044B25C0C96822E8D60EEFE11B91C581D77CEA34368A1F5329E68CD1B8B61F16D63A1B8E092D294B10C78C4A48EB593D192E7DED9BDEE7995E1B91FDEDD3ACEA9FE831
310
6A756F9F7D4D79F4274C90A7A04248AA51D5F8C718DAE06FB2F75AC4796EBE65D22A88A22223B995679120E2D50E41AA49C260C046A35368846B0BECD0DFF3EBEB8AD4F835768F69B9ADF25C43D30E6B646F807FAA64AD59F61715C7A54127C4AACA98BA3006A9D792DAE165E0D59B61A01FB3A9F9D838D2DAE62445C86166
310
F37564E842E7DE6A69879FEEA2DD5AE7E371E1A5E025154AC307D06A03D73EB5978C58FFA4C8E9033066E0F3BD53BEC1F39F91BE7B55103791EDE6BBB991A2046172CB4581D8B893FA674DDA17A77B3B7C413D1B511FD2743BFF8A38F03A658705E3ADF8015C3A3417FF3D7E439FF591DA0B5F18BC20C1B8981957AE6392A3
310
F43C640C01D1A0B4728E2DD4F26DB4B3C3152A252A3B4E913CEC1C72F012782FF88EFF8637AA552DBEF76408E8A8DE9E50F9E1CB3A2DA0DB1B6039A893B56063DC5B3E3FFB5F72E67AB9FEB4AEC496C4F4C1149625DD662C53E89D7BF0F6151A046260D1337DFDC94502430F83B0EE07A130A224BCAD7DAE1D9FB6CD422FF6
310
920702629C4BB9AE79C12F243C6432A6794E18E5552BA56B431AAB5D91317302B2B071E86C3A42B1A02F999E24061403B5D0EB639195DA655DD3EBEAB4FB862DDF579F014AD0E73C22F99E28DA57FB98E75C6CA2D74D53086D600F4786E0FE3144B771A8A7B900F03594DB8A633CBC49B2EDB69228BB479CF863B5E807AAAB
310
23872F6DFEB4129B949CA33823F58830E86D65621E10047D9DB34D862E8EAC3C2ABC2F7B2C40D67CDFE01F5545B92105AF983AC54D93D69E56FB8E797F88913F898A9FEC705D3F9D1B54EC8426FB500D40A03BD0119B06E1B95DDC7EB8F6975367793EBD70E66733DFB9BC982F9CE564727731999F5D4ECFCE3B8D6A4DC2A0
310
6D50FD148437D110834A64C6CDDF57FBACB5C307A2A477DFE4939736CFEF2B175371E0E10CF0DD1D5C15654E0BCA14D1E87DD02FF93782A162C0A3D95F1524A52770F972BF1EE9809D13CE7DD599467F8ECE9ADD85CE85A34CD45355448C64F9E8A031DC2D596ACC6E5DD93D9B82DE2EF5CAF81363A8E47996A0DE24564A79
310
4115AACE09C55E14540231FDA13C319787134EBF34E3A022514E5B4D9E0826E25C02D5805B15ABE1BEF51B26383D445DD9E875EE33FE4C22DA16427D65A3BCA92CA6D28DD01DF5DC53330704308475351050232CCD31583787BA75774AFB06E5070DD0C8EF484E19968C5D83BA5B90B244D31E54D55A372320FE4786B7EA58
310
44E135AA5467CB7EA333A61683CC6A8C3257034C10CF46F40EF9F5BE59BE5BD30C3C72D235E95D10345C1D45445A5F0BB47E46A5EBE5570F9380B5FA629579952296A773720405982B9DE04011506178964401AA8BDF1FBF0A8EAB6861DD6580C0E38217056766716DAEB2D6FA0917D3E4116581EADB879C4E7CFFB11EFACD
310
3D641311495D92C8676CB409A72D18610D803CE8A626049E8EC1887CB5B44CC39883690DDA8399B4B9855B481E7D71D4A9D22F96E5BB73BF5793020C02137BF837504B0304140006080000CC70623B000000000000000000000000350000006662782F36394639363044362D344446342D343946362D394244322D32343142
310
43333846323333332F76657274696365732E62696E504B0304140006080800CC70623BF270F1330600000004000000360000006662782F36394639363044362D344446342D343946362D394244322D3234314243333846323333332F747269616E676C65732E62696E636660600000504B0304140006080000CC70623B0000
310
00000000000000000000370000006662782F36394639363044362D344446342D343946362D394244322D3234314243333846323333332F617474726962757465732E62696E504B0304140006080800CC70623B08DA0BD19000000041010000360000006662782F36394639363044362D344446342D343946362D394244322D
310
3234314243333846323333332F6469726563746F72792E786D6C858F410AC3201045AF22B36F53E9A60B35CBEEBAE80D244E44489C6234F4F835464A48035D0DF398FF9F8AF63D0E6CC63039F212F8F9020C7D47C6792B21C5FE7403D62A1188E2E60C98D7234A5830286103A55745067B9D86B8A3CF9C7F90C11DE607FB14
310
4396D7B6A82D282E9A152AD114D5EF2CB866EEE831B8EEA07A7BB5A8D7D61A2BAAEB7FD5F70921FF497D00504B0304140006080800CC70623BCA768048FE000000A00100003B0000006662782F36394639363044362D344446342D343946362D394244322D3234314243333846323333332F7265736F75726365732F636F72
310
652E786D6C8D50596E833010BD0A9ADFCA60D600328E9AA639412F609909B1126CE4A5EAF16B0295DABFFECC8CDEA2797AECF8353F924FB44E193D409E5248504B332A3D0D10FC95B4901C39B3C6F85F3248B49871801506CE266BC2B243D2688FDA47549B11775038871E12F988C7004EDE7016A9083E2ADC3D5D84BC8B09
310
D33C8D74D471E6BC8D0192EDC93A815B742658898E651BCB59086ADC356A8C3FD555A1055ED7E7E254D615792D0F075295F585746FF53B694EE78A565DD736979A65AB9933AFE69F8CD2A2F038022F28ED489E135A7CE4554F9BBEA85E68DB53CAB255FEC71496F19FA6A0B42F8B3DEE6673C0F318E4497096AD7DC5F52C33
310
EEB55BFE0D504B010214000A0000080000CC70623B3DEE336E79000000790000001B00000000000000000000000000000000006175746F6465736B2D64657369676E2D7061636B6167652E786D6C504B01021400140006080800CC70623BD486FD9CA0000000F40000001300000000000000000000000000B20000005B436F
310
6E74656E745F54797065735D2E786D6C504B01021400140006080800CC70623BD9DDAED0EC0000007C010000080000000000000000000000000083010000636F72652E786D6C504B01021400140006080800CC70623B55019EA25F0000007C000000070000000000000000000000000095020000636E782E786D6C504B0102
310
1400140006080800CC70623BA24EB22D72010000D40300000C00000000000000000000000000190300006662782F636F72652E786D6C504B01021400140006080800CC70623B408A7D3B7C0000009D0000000B00000000000000000000000000B50400006662782F636E782E786D6C504B01021400140006080800CC70623B
310
449FB9BD290100001202000031000000000000000000000000005A0500006662782F36394639363044362D344446342D343946362D394244322D3234314243333846323333332F636F72652E786D6C504B01021400140006080800CC70623BAD7543B64E010000330300003000000000000000000000000000D20600006662
310
782F36394639363044362D344446342D343946362D394244322D3234314243333846323333332F636E782E786D6C504B01021400140006080800CC70623B8D05915C650500003B10000034000000000000000000000000006E0800006662782F36394639363044362D344446342D343946362D394244322D32343142433338
310
46323333332F6F626A656374732E786D6C504B01021400140006080000CC70623B0000000000000000000000003500000000000000000000000000250E00006662782F36394639363044362D344446342D343946362D394244322D3234314243333846323333332F76657274696365732E62696E504B010214001400060808
310
00CC70623BF270F13306000000040000003600000000000000000000000000780E00006662782F36394639363044362D344446342D343946362D394244322D3234314243333846323333332F747269616E676C65732E62696E504B01021400140006080000CC70623B00000000000000000000000037000000000000000000
310
00000000D20E00006662782F36394639363044362D344446342D343946362D394244322D3234314243333846323333332F617474726962757465732E62696E504B01021400140006080800CC70623B08DA0BD190000000410100003600000000000000000000000000270F00006662782F36394639363044362D344446342D
310
343946362D394244322D3234314243333846323333332F6469726563746F72792E786D6C504B01021400140006080800CC70623BCA768048FE000000A00100003B000000000000000000000000000B1000006662782F36394639363044362D344446342D343946362D394244322D3234314243333846323333332F7265736F
310
75726365732F636F72652E786D6C504B0506000000000E000E0080040000621100000000
  0
XRECORD
  5
176
102
{ACAD_REACTORS
330
173
102
}
330
173
100
AcDbXrecord
280
     1
270
     1
271
     1
  0
XRECORD
  5
177
102
{ACAD_REACTORS
330
173
102
}
330
173
100
AcDbXrecord
280
     1
270
     1
271
     1
  0
XRECORD
  5
8CBA
102
{ACAD_REACTORS
330
8CB9
102
}
330
8CB9
100
AcDbXrecord
280
     1
102
ACAD_ROUNDTRIP_2012_MLEADER_STYLE
298
     1
  0
XRECORD
  5
8CCC
102
{ACAD_REACTORS
330
8CCB
102
}
330
8CCB
100
AcDbXrecord
280
     1
102
DISPLAYNAME
  1
Metric50
102
FLAGS
 90
        0
  0
CELLSTYLEMAP
  5
8C8C
102
{ACAD_REACTORS
330
162
102
}
330
162
100
AcDbCellStyleMap
 90
        3
300
CELLSTYLE
  1
TABLEFORMAT_BEGIN
 90
        5
170
     1
 91
        0
 92
    32768
 62
   257
 93
        1
300
CONTENTFORMAT
  1
CONTENTFORMAT_BEGIN
 90
        0
 91
        0
 92
      512
 93
        0
300

 40
0.0
140
1.0
 94
        5
 62
     0
340
11
144
6.0
309
CONTENTFORMAT_END
171
     1
301
MARGIN
  1
CELLMARGIN_BEGIN
 40
1.5
 40
1.5
 40
1.5
 40
1.5
 40
4.5
 40
4.5
309
CELLMARGIN_END
 94
        6
 95
        1
302
GRIDFORMAT
  1
GRIDFORMAT_BEGIN
 90
        0
 91
        1
 62
     0
 92
       -2
340
14
 93
        0
 40
1.125
309
GRIDFORMAT_END
 95
        2
302
GRIDFORMAT
  1
GRIDFORMAT_BEGIN
 90
        0
 91
        1
 62
     0
 92
       -2
340
14
 93
        0
 40
1.125
309
GRIDFORMAT_END
 95
        4
302
GRIDFORMAT
  1
GRIDFORMAT_BEGIN
 90
        0
 91
        1
 62
     0
 92
       -2
340
14
 93
        0
 40
1.125
309
GRIDFORMAT_END
 95
        8
302
GRIDFORMAT
  1
GRIDFORMAT_BEGIN
 90
        0
 91
        1
 62
     0
 92
       -2
340
14
 93
        0
 40
1.125
309
GRIDFORMAT_END
 95
       16
302
GRIDFORMAT
  1
GRIDFORMAT_BEGIN
 90
        0
 91
        1
 62
     0
 92
       -2
340
14
 93
        0
 40
1.125
309
GRIDFORMAT_END
 95
       32
302
GRIDFORMAT
  1
GRIDFORMAT_BEGIN
 90
        0
 91
        1
 62
     0
 92
       -2
340
14
 93
        0
 40
1.125
309
GRIDFORMAT_END
309
TABLEFORMAT_END
  1
CELLSTYLE_BEGIN
 90
        1
 91
        1
300
_TITLE
309
CELLSTYLE_END
300
CELLSTYLE
  1
TABLEFORMAT_BEGIN
 90
        5
170
     1
 91
        0
 92
        0
 62
   257
 93
        1
300
CONTENTFORMAT
  1
CONTENTFORMAT_BEGIN
 90
        0
 91
        0
 92
      512
 93
        0
300

 40
0.0
140
1.0
 94
        5
 62
     0
340
11
144
4.5
309
CONTENTFORMAT_END
171
     1
301
MARGIN
  1
CELLMARGIN_BEGIN
 40
1.5
 40
1.5
 40
1.5
 40
1.5
 40
4.5
 40
4.5
309
CELLMARGIN_END
 94
        6
 95
        1
302
GRIDFORMAT
  1
GRIDFORMAT_BEGIN
 90
        0
 91
        1
 62
     0
 92
       -2
340
14
 93
        0
 40
1.125
309
GRIDFORMAT_END
 95
        2
302
GRIDFORMAT
  1
GRIDFORMAT_BEGIN
 90
        0
 91
        1
 62
     0
 92
       -2
340
14
 93
        0
 40
1.125
309
GRIDFORMAT_END
 95
        4
302
GRIDFORMAT
  1
GRIDFORMAT_BEGIN
 90
        0
 91
        1
 62
     0
 92
       -2
340
14
 93
        0
 40
1.125
309
GRIDFORMAT_END
 95
        8
302
GRIDFORMAT
  1
GRIDFORMAT_BEGIN
 90
        0
 91
        1
 62
     0
 92
       -2
340
14
 93
        0
 40
1.125
309
GRIDFORMAT_END
 95
       16
302
GRIDFORMAT
  1
GRIDFORMAT_BEGIN
 90
        0
 91
        1
 62
     0
 92
       -2
340
14
 93
        0
 40
1.125
309
GRIDFORMAT_END
 95
       32
302
GRIDFORMAT
  1
GRIDFORMAT_BEGIN
 90
        0
 91
        1
 62
     0
 92
       -2
340
14
 93
        0
 40
1.125
309
GRIDFORMAT_END
309
TABLEFORMAT_END
  1
CELLSTYLE_BEGIN
 90
        2
 91
        1
300
_HEADER
309
CELLSTYLE_END
300
CELLSTYLE
  1
TABLEFORMAT_BEGIN
 90
        5
170
     1
 91
        0
 92
        0
 62
   257
 93
        1
300
CONTENTFORMAT
  1
CONTENTFORMAT_BEGIN
 90
        0
 91
        0
 92
      512
 93
        0
300

 40
0.0
140
1.0
 94
        2
 62
     0
340
11
144
4.5
309
CONTENTFORMAT_END
171
     1
301
MARGIN
  1
CELLMARGIN_BEGIN
 40
1.5
 40
1.5
 40
1.5
 40
1.5
 40
4.5
 40
4.5
309
CELLMARGIN_END
 94
        6
 95
        1
302
GRIDFORMAT
  1
GRIDFORMAT_BEGIN
 90
        0
 91
        1
 62
     0
 92
       -2
340
14
 93
        0
 40
1.125
309
GRIDFORMAT_END
 95
        2
302
GRIDFORMAT
  1
GRIDFORMAT_BEGIN
 90
        0
 91
        1
 62
     0
 92
       -2
340
14
 93
        0
 40
1.125
309
GRIDFORMAT_END
 95
        4
302
GRIDFORMAT
  1
GRIDFORMAT_BEGIN
 90
        0
 91
        1
 62
     0
 92
       -2
340
14
 93
        0
 40
1.125
309
GRIDFORMAT_END
 95
        8
302
GRIDFORMAT
  1
GRIDFORMAT_BEGIN
 90
        0
 91
        1
 62
     0
 92
       -2
340
14
 93
        0
 40
1.125
309
GRIDFORMAT_END
 95
       16
302
GRIDFORMAT
  1
GRIDFORMAT_BEGIN
 90
        0
 91
        1
 62
     0
 92
       -2
340
14
 93
        0
 40
1.125
309
GRIDFORMAT_END
 95
       32
302
GRIDFORMAT
  1
GRIDFORMAT_BEGIN
 90
        0
 91
        1
 62
     0
 92
       -2
340
14
 93
        0
 40
1.125
309
GRIDFORMAT_END
309
TABLEFORMAT_END
  1
CELLSTYLE_BEGIN
 90
        3
 91
        2
300
_DATA
309
CELLSTYLE_END
  0
XRECORD
  5
8C91
102
{ACAD_REACTORS
330
162
102
}
330
162
100
AcDbXrecord
280
     1
102
ACAD_ROUNDTRIP_PRE2007_TABLESTYLE
 90
      512
 91
        0
  1

 92
      512
 93
        0
  2

 94
      512
 95
        0
  3

  0
XRECORD
  5
8CA4
102
{ACAD_REACTORS
330
8CA3
102
}
330
8CA3
100
AcDbXrecord
280
     1
102
RTVSPost2010Prop28
280
     1
102
RTVSPost2010PropOp28
 70
     1
102
RTVSPost2010Prop29
280
     1
102
RTVSPost2010PropOp29
 70
     1
102
RTVSPost2010Prop30
280
     0
102
RTVSPost2010PropOp30
 70
     1
102
RTVSPost2010Prop31
280
     0
102
RTVSPost2010PropOp31
 70
     1
102
RTVSPost2010Prop32
280
     0
102
RTVSPost2010PropOp32
 70
     1
102
RTVSPost2010Prop33
280
     0
102
RTVSPost2010PropOp33
 70
     1
102
RTVSPost2010Prop34
280
     0
102
RTVSPost2010PropOp34
 70
     1
102
RTVSPost2010Prop35
280
     0
102
RTVSPost2010PropOp35
 70
     1
102
RTVSPost2010Prop36
280
     0
102
RTVSPost2010PropOp36
 70
     1
102
RTVSPost2010Prop37
 90
       50
102
RTVSPost2010PropOp37
 70
     1
102
RTVSPost2010Prop38
140
0.0
102
RTVSPost2010PropOp38
 70
     1
102
RTVSPost2010Prop39
140
1.0
102
RTVSPost2010PropOp39
 70
     1
102
RTVSPost2010Prop40
 90
        0
102
RTVSPost2010PropOp40
 70
     1
102
RTVSPost2010Prop41ColorIndex
 90
       18
102
RTVSPost2010Prop41ColorRGB
 90
        0
102
RTVSPost2010PropOp41
 70
     1
102
RTVSPost2010Prop42
 90
       50
102
RTVSPost2010PropOp42
 70
     1
102
RTVSPost2010Prop43
 90
        3
102
RTVSPost2010PropOp43
 70
     1
102
RTVSPost2010Prop44ColorIndex
 90
        5
102
RTVSPost2010Prop44ColorRGB
 90
      255
102
RTVSPost2010PropOp44
 70
     1
102
RTVSPost2010Prop45
280
     0
102
RTVSPost2010PropOp45
 70
     1
102
RTVSPost2010Prop46
 90
       50
102
RTVSPost2010PropOp46
 70
     1
102
RTVSPost2010Prop47
 90
       50
102
RTVSPost2010PropOp47
 70
     1
102
RTVSPost2010Prop48
 90
       50
102
RTVSPost2010PropOp48
 70
     1
102
RTVSPost2010Prop49
280
     0
102
RTVSPost2010PropOp49
 70
     1
102
RTVSPost2010Prop50
 90
       50
102
RTVSPost2010PropOp50
 70
     1
102
RTVSPost2010Prop51ColorIndex
 90
      256
102
RTVSPost2010Prop51ColorRGB
 90
-16777216
102
RTVSPost2010PropOp51
 70
     0
102
RTVSPost2010Prop52
140
1.0
102
RTVSPost2010PropOp52
 70
     0
102
RTVSPost2010Prop53
 90
        2
102
RTVSPost2010PropOp53
 70
     1
102
RTVSPost2010Prop54
  1
strokes_ogs.tif
102
RTVSPost2010PropOp54
 70
     1
102
RTVSPost2010Prop55
280
     0
102
RTVSPost2010PropOp55
 70
     1
102
RTVSPost2010Prop56
140
1.0
102
RTVSPost2010PropOp56
 70
     1
102
RTVSPost2010Prop57
140
1.0
102
RTVSPost2010PropOp57
 70
     1
102
RTVSPropertyOp0
 70
     1
102
RTVSPropertyOp1
 70
     1
102
RTVSPropertyOp2
 70
     1
102
RTVSPropertyOp3
 70
     1
102
RTVSPropertyOp4
 70
     1
102
RTVSPropertyOp5
 70
     1
102
RTVSPropertyOp6
 70
     1
102
RTVSPropertyOp7
 70
     1
102
RTVSPropertyOp8
 70
     1
102
RTVSPropertyOp9
 70
     1
102
RTVSPropertyOp10
 70
     1
102
RTVSPropertyOp11
 70
     1
102
RTVSPropertyOp12
 70
     1
102
RTVSPropertyOp13
 70
     1
102
RTVSPropertyOp14
 70
     1
102
RTVSPropertyOp15
 70
     1
102
RTVSPropertyOp16
 70
     1
102
RTVSPropertyOp17
 70
     1
102
RTVSPropertyOp18
 70
     1
102
RTVSPropertyOp19
 70
     1
102
RTVSPropertyOp20
 70
     1
102
RTVSPropertyOp21
 70
     1
102
RTVSPropertyOp22
 70
     1
102
RTVSPropertyOp23
 70
     1
102
RTVSPropertyOp24
 70
     1
102
RTVSPropertyOp25
 70
     1
102
RTVSPropertyOp26
 70
     1
102
RTVSPropertyOp27
 70
     1
102
RTVSPropertyOp28
 70
     1
102
RTVSPropertyOp29
 70
     1
102
RTVSPropertyOp30
 70
     1
102
RTVSPropertyOp31
 70
     1
102
RTVSPropertyOp32
 70
     1
102
RTVSPropertyOp33
 70
     1
102
RTVSPropertyOp34
 70
     1
102
RTVSPropertyOp35
 70
     1
102
RTVSPropertyOp36
 70
     1
102
RTVSPropertyOp37
 70
     1
102
RTVSPropertyOp38
 70
     1
102
RTVSPropertyOp39
 70
     1
102
RTVSPropertyOp40
 70
     1
102
RTVSPropertyOp41
 70
     1
102
RTVSPropertyOp42
 70
     1
102
RTVSPropertyOp43
 70
     1
102
RTVSPropertyOp44
 70
     1
102
RTVSPropertyOp45
 70
     1
102
RTVSPropertyOp46
 70
     1
102
RTVSPropertyOp47
 70
     1
102
RTVSPropertyOp48
 70
     1
102
RTVSPropertyOp49
 70
     1
102
RTVSPropertyOp50
 70
     1
102
RTVSPropertyOp51
 70
     0
102
RTVSPropertyOp52
 70
     0
102
RTVSPropertyOp53
 70
     1
102
RTVSPropertyOp54
 70
     1
102
RTVSPropertyOp55
 70
     1
102
RTVSPropertyOp56
 70
     1
102
RTVSPropertyOp57
 70
     1
102
RTVSPropertyOp58
 70
     1
102
RTVSPropertyOp59
 70
     1
102
RTVSPropertyOp60
 70
     1
102
RTVSPropertyOp61
 70
     1
102
RTVSPropertyOp62
 70
     1
  0
XRECORD
  5
8CA2
102
{ACAD_REACTORS
330
8CA1
102
}
330
8CA1
100
AcDbXrecord
280
     1
102
RTVSPost2010Prop28
280
     0
102
RTVSPost2010PropOp28
 70
     1
102
RTVSPost2010Prop29
280
     1
102
RTVSPost2010PropOp29
 70
     1
102
RTVSPost2010Prop30
280
     1
102
RTVSPost2010PropOp30
 70
     1
102
RTVSPost2010Prop31
280
     0
102
RTVSPost2010PropOp31
 70
     1
102
RTVSPost2010Prop32
280
     0
102
RTVSPost2010PropOp32
 70
     1
102
RTVSPost2010Prop33
280
     0
102
RTVSPost2010PropOp33
 70
     1
102
RTVSPost2010Prop34
280
     0
102
RTVSPost2010PropOp34
 70
     1
102
RTVSPost2010Prop35
280
     0
102
RTVSPost2010PropOp35
 70
     1
102
RTVSPost2010Prop36
280
     0
102
RTVSPost2010PropOp36
 70
     1
102
RTVSPost2010Prop37
 90
       50
102
RTVSPost2010PropOp37
 70
     1
102
RTVSPost2010Prop38
140
0.0
102
RTVSPost2010PropOp38
 70
     1
102
RTVSPost2010Prop39
140
1.0
102
RTVSPost2010PropOp39
 70
     1
102
RTVSPost2010Prop40
 90
        0
102
RTVSPost2010PropOp40
 70
     1
102
RTVSPost2010Prop41ColorIndex
 90
       18
102
RTVSPost2010Prop41ColorRGB
 90
        0
102
RTVSPost2010PropOp41
 70
     1
102
RTVSPost2010Prop42
 90
       50
102
RTVSPost2010PropOp42
 70
     1
102
RTVSPost2010Prop43
 90
        3
102
RTVSPost2010PropOp43
 70
     1
102
RTVSPost2010Prop44ColorIndex
 90
        5
102
RTVSPost2010Prop44ColorRGB
 90
      255
102
RTVSPost2010PropOp44
 70
     1
102
RTVSPost2010Prop45
280
     0
102
RTVSPost2010PropOp45
 70
     1
102
RTVSPost2010Prop46
 90
       50
102
RTVSPost2010PropOp46
 70
     1
102
RTVSPost2010Prop47
 90
       50
102
RTVSPost2010PropOp47
 70
     1
102
RTVSPost2010Prop48
 90
       50
102
RTVSPost2010PropOp48
 70
     1
102
RTVSPost2010Prop49
280
     0
102
RTVSPost2010PropOp49
 70
     1
102
RTVSPost2010Prop50
 90
       50
102
RTVSPost2010PropOp50
 70
     1
102
RTVSPost2010Prop51ColorIndex
 90
      256
102
RTVSPost2010Prop51ColorRGB
 90
-16777216
102
RTVSPost2010PropOp51
 70
     0
102
RTVSPost2010Prop52
140
1.0
102
RTVSPost2010PropOp52
 70
     0
102
RTVSPost2010Prop53
 90
        2
102
RTVSPost2010PropOp53
 70
     1
102
RTVSPost2010Prop54
  1
strokes_ogs.tif
102
RTVSPost2010PropOp54
 70
     1
102
RTVSPost2010Prop55
280
     0
102
RTVSPost2010PropOp55
 70
     1
102
RTVSPost2010Prop56
140
1.0
102
RTVSPost2010PropOp56
 70
     1
102
RTVSPost2010Prop57
140
1.0
102
RTVSPost2010PropOp57
 70
     1
102
RTVSPropertyOp0
 70
     1
102
RTVSPropertyOp1
 70
     1
102
RTVSPropertyOp2
 70
     1
102
RTVSPropertyOp3
 70
     1
102
RTVSPropertyOp4
 70
     1
102
RTVSPropertyOp5
 70
     1
102
RTVSPropertyOp6
 70
     1
102
RTVSPropertyOp7
 70
     1
102
RTVSPropertyOp8
 70
     1
102
RTVSPropertyOp9
 70
     1
102
RTVSPropertyOp10
 70
     1
102
RTVSPropertyOp11
 70
     1
102
RTVSPropertyOp12
 70
     1
102
RTVSPropertyOp13
 70
     1
102
RTVSPropertyOp14
 70
     1
102
RTVSPropertyOp15
 70
     1
102
RTVSPropertyOp16
 70
     1
102
RTVSPropertyOp17
 70
     1
102
RTVSPropertyOp18
 70
     1
102
RTVSPropertyOp19
 70
     1
102
RTVSPropertyOp20
 70
     1
102
RTVSPropertyOp21
 70
     1
102
RTVSPropertyOp22
 70
     1
102
RTVSPropertyOp23
 70
     1
102
RTVSPropertyOp24
 70
     1
102
RTVSPropertyOp25
 70
     1
102
RTVSPropertyOp26
 70
     1
102
RTVSPropertyOp27
 70
     1
102
RTVSPropertyOp28
 70
     1
102
RTVSPropertyOp29
 70
     1
102
RTVSPropertyOp30
 70
     1
102
RTVSPropertyOp31
 70
     1
102
RTVSPropertyOp32
 70
     1
102
RTVSPropertyOp33
 70
     1
102
RTVSPropertyOp34
 70
     1
102
RTVSPropertyOp35
 70
     1
102
RTVSPropertyOp36
 70
     1
102
RTVSPropertyOp37
 70
     1
102
RTVSPropertyOp38
 70
     1
102
RTVSPropertyOp39
 70
     1
102
RTVSPropertyOp40
 70
     1
102
RTVSPropertyOp41
 70
     1
102
RTVSPropertyOp42
 70
     1
102
RTVSPropertyOp43
 70
     1
102
RTVSPropertyOp44
 70
     1
102
RTVSPropertyOp45
 70
     1
102
RTVSPropertyOp46
 70
     1
102
RTVSPropertyOp47
 70
     1
102
RTVSPropertyOp48
 70
     1
102
RTVSPropertyOp49
 70
     1
102
RTVSPropertyOp50
 70
     1
102
RTVSPropertyOp51
 70
     0
102
RTVSPropertyOp52
 70
     0
102
RTVSPropertyOp53
 70
     1
102
RTVSPropertyOp54
 70
     1
102
RTVSPropertyOp55
 70
     1
102
RTVSPropertyOp56
 70
     1
102
RTVSPropertyOp57
 70
     1
102
RTVSPropertyOp58
 70
     1
102
RTVSPropertyOp59
 70
     1
102
RTVSPropertyOp60
 70
     1
102
RTVSPropertyOp61
 70
     1
102
RTVSPropertyOp62
 70
     1
  0
XRECORD
  5
8CB0
102
{ACAD_REACTORS
330
8CAF
102
}
330
8CAF
100
AcDbXrecord
280
     1
102
RTVSPost2010Prop28
280
     0
102
RTVSPost2010PropOp28
 70
     1
102
RTVSPost2010Prop29
280
     1
102
RTVSPost2010PropOp29
 70
     1
102
RTVSPost2010Prop30
280
     1
102
RTVSPost2010PropOp30
 70
     1
102
RTVSPost2010Prop31
280
     0
102
RTVSPost2010PropOp31
 70
     1
102
RTVSPost2010Prop32
280
     0
102
RTVSPost2010PropOp32
 70
     1
102
RTVSPost2010Prop33
280
     0
102
RTVSPost2010PropOp33
 70
     1
102
RTVSPost2010Prop34
280
     0
102
RTVSPost2010PropOp34
 70
     1
102
RTVSPost2010Prop35
280
     0
102
RTVSPost2010PropOp35
 70
     1
102
RTVSPost2010Prop36
280
     0
102
RTVSPost2010PropOp36
 70
     1
102
RTVSPost2010Prop37
 90
       50
102
RTVSPost2010PropOp37
 70
     1
102
RTVSPost2010Prop38
140
0.0
102
RTVSPost2010PropOp38
 70
     1
102
RTVSPost2010Prop39
140
1.0
102
RTVSPost2010PropOp39
 70
     1
102
RTVSPost2010Prop40
 90
        0
102
RTVSPost2010PropOp40
 70
     1
102
RTVSPost2010Prop41ColorIndex
 90
       18
102
RTVSPost2010Prop41ColorRGB
 90
        0
102
RTVSPost2010PropOp41
 70
     1
102
RTVSPost2010Prop42
 90
       50
102
RTVSPost2010PropOp42
 70
     1
102
RTVSPost2010Prop43
 90
        3
102
RTVSPost2010PropOp43
 70
     1
102
RTVSPost2010Prop44ColorIndex
 90
        5
102
RTVSPost2010Prop44ColorRGB
 90
      255
102
RTVSPost2010PropOp44
 70
     1
102
RTVSPost2010Prop45
280
     0
102
RTVSPost2010PropOp45
 70
     1
102
RTVSPost2010Prop46
 90
       50
102
RTVSPost2010PropOp46
 70
     1
102
RTVSPost2010Prop47
 90
       50
102
RTVSPost2010PropOp47
 70
     1
102
RTVSPost2010Prop48
 90
       50
102
RTVSPost2010PropOp48
 70
     1
102
RTVSPost2010Prop49
280
     0
102
RTVSPost2010PropOp49
 70
     1
102
RTVSPost2010Prop50
 90
       50
102
RTVSPost2010PropOp50
 70
     1
102
RTVSPost2010Prop51ColorIndex
 90
      256
102
RTVSPost2010Prop51ColorRGB
 90
-16777216
102
RTVSPost2010PropOp51
 70
     0
102
RTVSPost2010Prop52
140
1.0
102
RTVSPost2010PropOp52
 70
     0
102
RTVSPost2010Prop53
 90
        2
102
RTVSPost2010PropOp53
 70
     1
102
RTVSPost2010Prop54
  1
strokes_ogs.tif
102
RTVSPost2010PropOp54
 70
     1
102
RTVSPost2010Prop55
280
     0
102
RTVSPost2010PropOp55
 70
     1
102
RTVSPost2010Prop56
140
1.0
102
RTVSPost2010PropOp56
 70
     1
102
RTVSPost2010Prop57
140
1.0
102
RTVSPost2010PropOp57
 70
     1
102
RTVSPropertyOp0
 70
     1
102
RTVSPropertyOp1
 70
     1
102
RTVSPropertyOp2
 70
     1
102
RTVSPropertyOp3
 70
     1
102
RTVSPropertyOp4
 70
     1
102
RTVSPropertyOp5
 70
     1
102
RTVSPropertyOp6
 70
     1
102
RTVSPropertyOp7
 70
     1
102
RTVSPropertyOp8
 70
     1
102
RTVSPropertyOp9
 70
     1
102
RTVSPropertyOp10
 70
     1
102
RTVSPropertyOp11
 70
     1
102
RTVSPropertyOp12
 70
     1
102
RTVSPropertyOp13
 70
     1
102
RTVSPropertyOp14
 70
     1
102
RTVSPropertyOp15
 70
     1
102
RTVSPropertyOp16
 70
     1
102
RTVSPropertyOp17
 70
     1
102
RTVSPropertyOp18
 70
     1
102
RTVSPropertyOp19
 70
     1
102
RTVSPropertyOp20
 70
     1
102
RTVSPropertyOp21
 70
     1
102
RTVSPropertyOp22
 70
     1
102
RTVSPropertyOp23
 70
     1
102
RTVSPropertyOp24
 70
     1
102
RTVSPropertyOp25
 70
     1
102
RTVSPropertyOp26
 70
     1
102
RTVSPropertyOp27
 70
     1
102
RTVSPropertyOp28
 70
     1
102
RTVSPropertyOp29
 70
     1
102
RTVSPropertyOp30
 70
     1
102
RTVSPropertyOp31
 70
     1
102
RTVSPropertyOp32
 70
     1
102
RTVSPropertyOp33
 70
     1
102
RTVSPropertyOp34
 70
     1
102
RTVSPropertyOp35
 70
     1
102
RTVSPropertyOp36
 70
     1
102
RTVSPropertyOp37
 70
     1
102
RTVSPropertyOp38
 70
     1
102
RTVSPropertyOp39
 70
     1
102
RTVSPropertyOp40
 70
     1
102
RTVSPropertyOp41
 70
     1
102
RTVSPropertyOp42
 70
     1
102
RTVSPropertyOp43
 70
     1
102
RTVSPropertyOp44
 70
     1
102
RTVSPropertyOp45
 70
     1
102
RTVSPropertyOp46
 70
     1
102
RTVSPropertyOp47
 70
     1
102
RTVSPropertyOp48
 70
     1
102
RTVSPropertyOp49
 70
     1
102
RTVSPropertyOp50
 70
     1
102
RTVSPropertyOp51
 70
     0
102
RTVSPropertyOp52
 70
     0
102
RTVSPropertyOp53
 70
     1
102
RTVSPropertyOp54
 70
     1
102
RTVSPropertyOp55
 70
     1
102
RTVSPropertyOp56
 70
     1
102
RTVSPropertyOp57
 70
     1
102
RTVSPropertyOp58
 70
     1
102
RTVSPropertyOp59
 70
     1
102
RTVSPropertyOp60
 70
     1
102
RTVSPropertyOp61
 70
     1
102
RTVSPropertyOp62
 70
     1
  0
XRECORD
  5
8CB8
102
{ACAD_REACTORS
330
8CB7
102
}
330
8CB7
100
AcDbXrecord
280
     1
102
RTVSPost2010Prop28
280
     0
102
RTVSPost2010PropOp28
 70
     1
102
RTVSPost2010Prop29
280
     1
102
RTVSPost2010PropOp29
 70
     1
102
RTVSPost2010Prop30
280
     1
102
RTVSPost2010PropOp30
 70
     1
102
RTVSPost2010Prop31
280
     0
102
RTVSPost2010PropOp31
 70
     1
102
RTVSPost2010Prop32
280
     0
102
RTVSPost2010PropOp32
 70
     1
102
RTVSPost2010Prop33
280
     0
102
RTVSPost2010PropOp33
 70
     1
102
RTVSPost2010Prop34
280
     0
102
RTVSPost2010PropOp34
 70
     1
102
RTVSPost2010Prop35
280
     0
102
RTVSPost2010PropOp35
 70
     1
102
RTVSPost2010Prop36
280
     0
102
RTVSPost2010PropOp36
 70
     1
102
RTVSPost2010Prop37
 90
       50
102
RTVSPost2010PropOp37
 70
     1
102
RTVSPost2010Prop38
140
0.0
102
RTVSPost2010PropOp38
 70
     1
102
RTVSPost2010Prop39
140
1.0
102
RTVSPost2010PropOp39
 70
     1
102
RTVSPost2010Prop40
 90
        0
102
RTVSPost2010PropOp40
 70
     1
102
RTVSPost2010Prop41ColorIndex
 90
       18
102
RTVSPost2010Prop41ColorRGB
 90
        0
102
RTVSPost2010PropOp41
 70
     1
102
RTVSPost2010Prop42
 90
       50
102
RTVSPost2010PropOp42
 70
     1
102
RTVSPost2010Prop43
 90
        3
102
RTVSPost2010PropOp43
 70
     1
102
RTVSPost2010Prop44ColorIndex
 90
        5
102
RTVSPost2010Prop44ColorRGB
 90
      255
102
RTVSPost2010PropOp44
 70
     1
102
RTVSPost2010Prop45
280
     0
102
RTVSPost2010PropOp45
 70
     1
102
RTVSPost2010Prop46
 90
       50
102
RTVSPost2010PropOp46
 70
     1
102
RTVSPost2010Prop47
 90
       50
102
RTVSPost2010PropOp47
 70
     1
102
RTVSPost2010Prop48
 90
       50
102
RTVSPost2010PropOp48
 70
     1
102
RTVSPost2010Prop49
280
     0
102
RTVSPost2010PropOp49
 70
     1
102
RTVSPost2010Prop50
 90
       50
102
RTVSPost2010PropOp50
 70
     1
102
RTVSPost2010Prop51ColorIndex
 90
      256
102
RTVSPost2010Prop51ColorRGB
 90
-16777216
102
RTVSPost2010PropOp51
 70
     0
102
RTVSPost2010Prop52
140
1.0
102
RTVSPost2010PropOp52
 70
     0
102
RTVSPost2010Prop53
 90
        2
102
RTVSPost2010PropOp53
 70
     1
102
RTVSPost2010Prop54
  1
strokes_ogs.tif
102
RTVSPost2010PropOp54
 70
     1
102
RTVSPost2010Prop55
280
     0
102
RTVSPost2010PropOp55
 70
     1
102
RTVSPost2010Prop56
140
1.0
102
RTVSPost2010PropOp56
 70
     1
102
RTVSPost2010Prop57
140
1.0
102
RTVSPost2010PropOp57
 70
     1
102
RTVSPropertyOp0
 70
     1
102
RTVSPropertyOp1
 70
     1
102
RTVSPropertyOp2
 70
     1
102
RTVSPropertyOp3
 70
     1
102
RTVSPropertyOp4
 70
     1
102
RTVSPropertyOp5
 70
     1
102
RTVSPropertyOp6
 70
     1
102
RTVSPropertyOp7
 70
     1
102
RTVSPropertyOp8
 70
     1
102
RTVSPropertyOp9
 70
     1
102
RTVSPropertyOp10
 70
     1
102
RTVSPropertyOp11
 70
     1
102
RTVSPropertyOp12
 70
     1
102
RTVSPropertyOp13
 70
     1
102
RTVSPropertyOp14
 70
     1
102
RTVSPropertyOp15
 70
     1
102
RTVSPropertyOp16
 70
     1
102
RTVSPropertyOp17
 70
     1
102
RTVSPropertyOp18
 70
     1
102
RTVSPropertyOp19
 70
     1
102
RTVSPropertyOp20
 70
     1
102
RTVSPropertyOp21
 70
     1
102
RTVSPropertyOp22
 70
     1
102
RTVSPropertyOp23
 70
     1
102
RTVSPropertyOp24
 70
     1
102
RTVSPropertyOp25
 70
     1
102
RTVSPropertyOp26
 70
     1
102
RTVSPropertyOp27
 70
     1
102
RTVSPropertyOp28
 70
     1
102
RTVSPropertyOp29
 70
     1
102
RTVSPropertyOp30
 70
     1
102
RTVSPropertyOp31
 70
     1
102
RTVSPropertyOp32
 70
     1
102
RTVSPropertyOp33
 70
     1
102
RTVSPropertyOp34
 70
     1
102
RTVSPropertyOp35
 70
     1
102
RTVSPropertyOp36
 70
     1
102
RTVSPropertyOp37
 70
     1
102
RTVSPropertyOp38
 70
     1
102
RTVSPropertyOp39
 70
     1
102
RTVSPropertyOp40
 70
     1
102
RTVSPropertyOp41
 70
     1
102
RTVSPropertyOp42
 70
     1
102
RTVSPropertyOp43
 70
     1
102
RTVSPropertyOp44
 70
     1
102
RTVSPropertyOp45
 70
     1
102
RTVSPropertyOp46
 70
     1
102
RTVSPropertyOp47
 70
     1
102
RTVSPropertyOp48
 70
     1
102
RTVSPropertyOp49
 70
     1
102
RTVSPropertyOp50
 70
     1
102
RTVSPropertyOp51
 70
     0
102
RTVSPropertyOp52
 70
     0
102
RTVSPropertyOp53
 70
     1
102
RTVSPropertyOp54
 70
     1
102
RTVSPropertyOp55
 70
     1
102
RTVSPropertyOp56
 70
     1
102
RTVSPropertyOp57
 70
     1
102
RTVSPropertyOp58
 70
     1
102
RTVSPropertyOp59
 70
     1
102
RTVSPropertyOp60
 70
     1
102
RTVSPropertyOp61
 70
     1
102
RTVSPropertyOp62
 70
     1
  0
XRECORD
  5
8CAA
102
{ACAD_REACTORS
330
8CA9
102
}
330
8CA9
100
AcDbXrecord
280
     1
102
RTVSPost2010Prop28
280
     0
102
RTVSPost2010PropOp28
 70
     1
102
RTVSPost2010Prop29
280
     1
102
RTVSPost2010PropOp29
 70
     1
102
RTVSPost2010Prop30
280
     1
102
RTVSPost2010PropOp30
 70
     1
102
RTVSPost2010Prop31
280
     0
102
RTVSPost2010PropOp31
 70
     1
102
RTVSPost2010Prop32
280
     0
102
RTVSPost2010PropOp32
 70
     1
102
RTVSPost2010Prop33
280
     0
102
RTVSPost2010PropOp33
 70
     1
102
RTVSPost2010Prop34
280
     0
102
RTVSPost2010PropOp34
 70
     1
102
RTVSPost2010Prop35
280
     0
102
RTVSPost2010PropOp35
 70
     1
102
RTVSPost2010Prop36
280
     0
102
RTVSPost2010PropOp36
 70
     1
102
RTVSPost2010Prop37
 90
       50
102
RTVSPost2010PropOp37
 70
     1
102
RTVSPost2010Prop38
140
0.0
102
RTVSPost2010PropOp38
 70
     1
102
RTVSPost2010Prop39
140
1.0
102
RTVSPost2010PropOp39
 70
     1
102
RTVSPost2010Prop40
 90
        0
102
RTVSPost2010PropOp40
 70
     1
102
RTVSPost2010Prop41ColorIndex
 90
       18
102
RTVSPost2010Prop41ColorRGB
 90
        0
102
RTVSPost2010PropOp41
 70
     1
102
RTVSPost2010Prop42
 90
       50
102
RTVSPost2010PropOp42
 70
     1
102
RTVSPost2010Prop43
 90
        3
102
RTVSPost2010PropOp43
 70
     1
102
RTVSPost2010Prop44ColorIndex
 90
        5
102
RTVSPost2010Prop44ColorRGB
 90
      255
102
RTVSPost2010PropOp44
 70
     1
102
RTVSPost2010Prop45
280
     0
102
RTVSPost2010PropOp45
 70
     1
102
RTVSPost2010Prop46
 90
       50
102
RTVSPost2010PropOp46
 70
     1
102
RTVSPost2010Prop47
 90
       50
102
RTVSPost2010PropOp47
 70
     1
102
RTVSPost2010Prop48
 90
       50
102
RTVSPost2010PropOp48
 70
     1
102
RTVSPost2010Prop49
280
     0
102
RTVSPost2010PropOp49
 70
     1
102
RTVSPost2010Prop50
 90
       50
102
RTVSPost2010PropOp50
 70
     1
102
RTVSPost2010Prop51ColorIndex
 90
      256
102
RTVSPost2010Prop51ColorRGB
 90
-16777216
102
RTVSPost2010PropOp51
 70
     0
102
RTVSPost2010Prop52
140
1.0
102
RTVSPost2010PropOp52
 70
     0
102
RTVSPost2010Prop53
 90
        2
102
RTVSPost2010PropOp53
 70
     1
102
RTVSPost2010Prop54
  1
strokes_ogs.tif
102
RTVSPost2010PropOp54
 70
     1
102
RTVSPost2010Prop55
280
     0
102
RTVSPost2010PropOp55
 70
     1
102
RTVSPost2010Prop56
140
1.0
102
RTVSPost2010PropOp56
 70
     1
102
RTVSPost2010Prop57
140
1.0
102
RTVSPost2010PropOp57
 70
     1
102
RTVSPropertyOp0
 70
     1
102
RTVSPropertyOp1
 70
     1
102
RTVSPropertyOp2
 70
     1
102
RTVSPropertyOp3
 70
     1
102
RTVSPropertyOp4
 70
     1
102
RTVSPropertyOp5
 70
     1
102
RTVSPropertyOp6
 70
     1
102
RTVSPropertyOp7
 70
     1
102
RTVSPropertyOp8
 70
     1
102
RTVSPropertyOp9
 70
     1
102
RTVSPropertyOp10
 70
     1
102
RTVSPropertyOp11
 70
     1
102
RTVSPropertyOp12
 70
     1
102
RTVSPropertyOp13
 70
     1
102
RTVSPropertyOp14
 70
     1
102
RTVSPropertyOp15
 70
     1
102
RTVSPropertyOp16
 70
     1
102
RTVSPropertyOp17
 70
     1
102
RTVSPropertyOp18
 70
     1
102
RTVSPropertyOp19
 70
     1
102
RTVSPropertyOp20
 70
     1
102
RTVSPropertyOp21
 70
     1
102
RTVSPropertyOp22
 70
     1
102
RTVSPropertyOp23
 70
     1
102
RTVSPropertyOp24
 70
     1
102
RTVSPropertyOp25
 70
     1
102
RTVSPropertyOp26
 70
     1
102
RTVSPropertyOp27
 70
     1
102
RTVSPropertyOp28
 70
     1
102
RTVSPropertyOp29
 70
     1
102
RTVSPropertyOp30
 70
     1
102
RTVSPropertyOp31
 70
     1
102
RTVSPropertyOp32
 70
     1
102
RTVSPropertyOp33
 70
     1
102
RTVSPropertyOp34
 70
     1
102
RTVSPropertyOp35
 70
     1
102
RTVSPropertyOp36
 70
     1
102
RTVSPropertyOp37
 70
     1
102
RTVSPropertyOp38
 70
     1
102
RTVSPropertyOp39
 70
     1
102
RTVSPropertyOp40
 70
     1
102
RTVSPropertyOp41
 70
     1
102
RTVSPropertyOp42
 70
     1
102
RTVSPropertyOp43
 70
     1
102
RTVSPropertyOp44
 70
     1
102
RTVSPropertyOp45
 70
     1
102
RTVSPropertyOp46
 70
     1
102
RTVSPropertyOp47
 70
     1
102
RTVSPropertyOp48
 70
     1
102
RTVSPropertyOp49
 70
     1
102
RTVSPropertyOp50
 70
     1
102
RTVSPropertyOp51
 70
     0
102
RTVSPropertyOp52
 70
     0
102
RTVSPropertyOp53
 70
     1
102
RTVSPropertyOp54
 70
     1
102
RTVSPropertyOp55
 70
     1
102
RTVSPropertyOp56
 70
     1
102
RTVSPropertyOp57
 70
     1
102
RTVSPropertyOp58
 70
     1
102
RTVSPropertyOp59
 70
     1
102
RTVSPropertyOp60
 70
     1
102
RTVSPropertyOp61
 70
     1
102
RTVSPropertyOp62
 70
     1
  0
XRECORD
  5
8CAE
102
{ACAD_REACTORS
330
8CAD
102
}
330
8CAD
100
AcDbXrecord
280
     1
102
RTVSPost2010Prop28
280
     0
102
RTVSPost2010PropOp28
 70
     1
102
RTVSPost2010Prop29
280
     1
102
RTVSPost2010PropOp29
 70
     1
102
RTVSPost2010Prop30
280
     1
102
RTVSPost2010PropOp30
 70
     1
102
RTVSPost2010Prop31
280
     0
102
RTVSPost2010PropOp31
 70
     1
102
RTVSPost2010Prop32
280
     0
102
RTVSPost2010PropOp32
 70
     1
102
RTVSPost2010Prop33
280
     0
102
RTVSPost2010PropOp33
 70
     1
102
RTVSPost2010Prop34
280
     0
102
RTVSPost2010PropOp34
 70
     1
102
RTVSPost2010Prop35
280
     0
102
RTVSPost2010PropOp35
 70
     1
102
RTVSPost2010Prop36
280
     0
102
RTVSPost2010PropOp36
 70
     1
102
RTVSPost2010Prop37
 90
       50
102
RTVSPost2010PropOp37
 70
     1
102
RTVSPost2010Prop38
140
0.0
102
RTVSPost2010PropOp38
 70
     1
102
RTVSPost2010Prop39
140
1.0
102
RTVSPost2010PropOp39
 70
     1
102
RTVSPost2010Prop40
 90
        0
102
RTVSPost2010PropOp40
 70
     1
102
RTVSPost2010Prop41ColorIndex
 90
       18
102
RTVSPost2010Prop41ColorRGB
 90
        0
102
RTVSPost2010PropOp41
 70
     1
102
RTVSPost2010Prop42
 90
       50
102
RTVSPost2010PropOp42
 70
     1
102
RTVSPost2010Prop43
 90
        3
102
RTVSPost2010PropOp43
 70
     1
102
RTVSPost2010Prop44ColorIndex
 90
        5
102
RTVSPost2010Prop44ColorRGB
 90
      255
102
RTVSPost2010PropOp44
 70
     1
102
RTVSPost2010Prop45
280
     0
102
RTVSPost2010PropOp45
 70
     1
102
RTVSPost2010Prop46
 90
       50
102
RTVSPost2010PropOp46
 70
     1
102
RTVSPost2010Prop47
 90
       50
102
RTVSPost2010PropOp47
 70
     1
102
RTVSPost2010Prop48
 90
       50
102
RTVSPost2010PropOp48
 70
     1
102
RTVSPost2010Prop49
280
     0
102
RTVSPost2010PropOp49
 70
     1
102
RTVSPost2010Prop50
 90
       50
102
RTVSPost2010PropOp50
 70
     1
102
RTVSPost2010Prop51ColorIndex
 90
      256
102
RTVSPost2010Prop51ColorRGB
 90
-16777216
102
RTVSPost2010PropOp51
 70
     0
102
RTVSPost2010Prop52
140
1.0
102
RTVSPost2010PropOp52
 70
     0
102
RTVSPost2010Prop53
 90
        2
102
RTVSPost2010PropOp53
 70
     1
102
RTVSPost2010Prop54
  1
strokes_ogs.tif
102
RTVSPost2010PropOp54
 70
     1
102
RTVSPost2010Prop55
280
     0
102
RTVSPost2010PropOp55
 70
     1
102
RTVSPost2010Prop56
140
1.0
102
RTVSPost2010PropOp56
 70
     1
102
RTVSPost2010Prop57
140
1.0
102
RTVSPost2010PropOp57
 70
     1
102
RTVSPropertyOp0
 70
     1
102
RTVSPropertyOp1
 70
     1
102
RTVSPropertyOp2
 70
     1
102
RTVSPropertyOp3
 70
     1
102
RTVSPropertyOp4
 70
     1
102
RTVSPropertyOp5
 70
     1
102
RTVSPropertyOp6
 70
     1
102
RTVSPropertyOp7
 70
     1
102
RTVSPropertyOp8
 70
     1
102
RTVSPropertyOp9
 70
     1
102
RTVSPropertyOp10
 70
     1
102
RTVSPropertyOp11
 70
     1
102
RTVSPropertyOp12
 70
     1
102
RTVSPropertyOp13
 70
     1
102
RTVSPropertyOp14
 70
     1
102
RTVSPropertyOp15
 70
     1
102
RTVSPropertyOp16
 70
     1
102
RTVSPropertyOp17
 70
     1
102
RTVSPropertyOp18
 70
     1
102
RTVSPropertyOp19
 70
     1
102
RTVSPropertyOp20
 70
     1
102
RTVSPropertyOp21
 70
     1
102
RTVSPropertyOp22
 70
     1
102
RTVSPropertyOp23
 70
     1
102
RTVSPropertyOp24
 70
     1
102
RTVSPropertyOp25
 70
     1
102
RTVSPropertyOp26
 70
     1
102
RTVSPropertyOp27
 70
     1
102
RTVSPropertyOp28
 70
     1
102
RTVSPropertyOp29
 70
     1
102
RTVSPropertyOp30
 70
     1
102
RTVSPropertyOp31
 70
     1
102
RTVSPropertyOp32
 70
     1
102
RTVSPropertyOp33
 70
     1
102
RTVSPropertyOp34
 70
     1
102
RTVSPropertyOp35
 70
     1
102
RTVSPropertyOp36
 70
     1
102
RTVSPropertyOp37
 70
     1
102
RTVSPropertyOp38
 70
     1
102
RTVSPropertyOp39
 70
     1
102
RTVSPropertyOp40
 70
     1
102
RTVSPropertyOp41
 70
     1
102
RTVSPropertyOp42
 70
     1
102
RTVSPropertyOp43
 70
     1
102
RTVSPropertyOp44
 70
     1
102
RTVSPropertyOp45
 70
     1
102
RTVSPropertyOp46
 70
     1
102
RTVSPropertyOp47
 70
     1
102
RTVSPropertyOp48
 70
     1
102
RTVSPropertyOp49
 70
     1
102
RTVSPropertyOp50
 70
     1
102
RTVSPropertyOp51
 70
     0
102
RTVSPropertyOp52
 70
     0
102
RTVSPropertyOp53
 70
     1
102
RTVSPropertyOp54
 70
     1
102
RTVSPropertyOp55
 70
     1
102
RTVSPropertyOp56
 70
     1
102
RTVSPropertyOp57
 70
     1
102
RTVSPropertyOp58
 70
     1
102
RTVSPropertyOp59
 70
     1
102
RTVSPropertyOp60
 70
     1
102
RTVSPropertyOp61
 70
     1
102
RTVSPropertyOp62
 70
     1
  0
XRECORD
  5
8CC0
102
{ACAD_REACTORS
330
8CBF
102
}
330
8CBF
100
AcDbXrecord
280
     1
102
RTVSPost2010Prop28
280
     0
102
RTVSPost2010PropOp28
 70
     1
102
RTVSPost2010Prop29
280
     1
102
RTVSPost2010PropOp29
 70
     1
102
RTVSPost2010Prop30
280
     1
102
RTVSPost2010PropOp30
 70
     1
102
RTVSPost2010Prop31
280
     0
102
RTVSPost2010PropOp31
 70
     1
102
RTVSPost2010Prop32
280
     0
102
RTVSPost2010PropOp32
 70
     1
102
RTVSPost2010Prop33
280
     0
102
RTVSPost2010PropOp33
 70
     1
102
RTVSPost2010Prop34
280
     0
102
RTVSPost2010PropOp34
 70
     1
102
RTVSPost2010Prop35
280
     0
102
RTVSPost2010PropOp35
 70
     1
102
RTVSPost2010Prop36
280
     0
102
RTVSPost2010PropOp36
 70
     1
102
RTVSPost2010Prop37
 90
       50
102
RTVSPost2010PropOp37
 70
     1
102
RTVSPost2010Prop38
140
0.0
102
RTVSPost2010PropOp38
 70
     1
102
RTVSPost2010Prop39
140
1.0
102
RTVSPost2010PropOp39
 70
     1
102
RTVSPost2010Prop40
 90
        0
102
RTVSPost2010PropOp40
 70
     1
102
RTVSPost2010Prop41ColorIndex
 90
       18
102
RTVSPost2010Prop41ColorRGB
 90
        0
102
RTVSPost2010PropOp41
 70
     1
102
RTVSPost2010Prop42
 90
       50
102
RTVSPost2010PropOp42
 70
     1
102
RTVSPost2010Prop43
 90
        3
102
RTVSPost2010PropOp43
 70
     1
102
RTVSPost2010Prop44ColorIndex
 90
        5
102
RTVSPost2010Prop44ColorRGB
 90
      255
102
RTVSPost2010PropOp44
 70
     1
102
RTVSPost2010Prop45
280
     0
102
RTVSPost2010PropOp45
 70
     1
102
RTVSPost2010Prop46
 90
       50
102
RTVSPost2010PropOp46
 70
     1
102
RTVSPost2010Prop47
 90
       50
102
RTVSPost2010PropOp47
 70
     1
102
RTVSPost2010Prop48
 90
       50
102
RTVSPost2010PropOp48
 70
     1
102
RTVSPost2010Prop49
280
     0
102
RTVSPost2010PropOp49
 70
     1
102
RTVSPost2010Prop50
 90
       50
102
RTVSPost2010PropOp50
 70
     1
102
RTVSPost2010Prop51ColorIndex
 90
      256
102
RTVSPost2010Prop51ColorRGB
 90
-16777216
102
RTVSPost2010PropOp51
 70
     0
102
RTVSPost2010Prop52
140
1.0
102
RTVSPost2010PropOp52
 70
     0
102
RTVSPost2010Prop53
 90
        2
102
RTVSPost2010PropOp53
 70
     1
102
RTVSPost2010Prop54
  1
strokes_ogs.tif
102
RTVSPost2010PropOp54
 70
     1
102
RTVSPost2010Prop55
280
     0
102
RTVSPost2010PropOp55
 70
     1
102
RTVSPost2010Prop56
140
1.0
102
RTVSPost2010PropOp56
 70
     1
102
RTVSPost2010Prop57
140
1.0
102
RTVSPost2010PropOp57
 70
     1
102
RTVSPropertyOp0
 70
     0
102
RTVSPropertyOp1
 70
     0
102
RTVSPropertyOp2
 70
     0
102
RTVSPropertyOp3
 70
     0
102
RTVSPropertyOp4
 70
     0
102
RTVSPropertyOp5
 70
     0
102
RTVSPropertyOp6
 70
     0
102
RTVSPropertyOp7
 70
     0
102
RTVSPropertyOp8
 70
     0
102
RTVSPropertyOp9
 70
     0
102
RTVSPropertyOp10
 70
     0
102
RTVSPropertyOp11
 70
     0
102
RTVSPropertyOp12
 70
     0
102
RTVSPropertyOp13
 70
     0
102
RTVSPropertyOp14
 70
     2
102
RTVSPropertyOp15
 70
     0
102
RTVSPropertyOp16
 70
     0
102
RTVSPropertyOp17
 70
     0
102
RTVSPropertyOp18
 70
     0
102
RTVSPropertyOp19
 70
     0
102
RTVSPropertyOp20
 70
     0
102
RTVSPropertyOp21
 70
     0
102
RTVSPropertyOp22
 70
     0
102
RTVSPropertyOp23
 70
     0
102
RTVSPropertyOp24
 70
     0
102
RTVSPropertyOp25
 70
     0
102
RTVSPropertyOp26
 70
     0
102
RTVSPropertyOp27
 70
     0
102
RTVSPropertyOp28
 70
     1
102
RTVSPropertyOp29
 70
     1
102
RTVSPropertyOp30
 70
     1
102
RTVSPropertyOp31
 70
     1
102
RTVSPropertyOp32
 70
     1
102
RTVSPropertyOp33
 70
     1
102
RTVSPropertyOp34
 70
     1
102
RTVSPropertyOp35
 70
     1
102
RTVSPropertyOp36
 70
     1
102
RTVSPropertyOp37
 70
     1
102
RTVSPropertyOp38
 70
     1
102
RTVSPropertyOp39
 70
     1
102
RTVSPropertyOp40
 70
     1
102
RTVSPropertyOp41
 70
     1
102
RTVSPropertyOp42
 70
     1
102
RTVSPropertyOp43
 70
     1
102
RTVSPropertyOp44
 70
     1
102
RTVSPropertyOp45
 70
     1
102
RTVSPropertyOp46
 70
     1
102
RTVSPropertyOp47
 70
     1
102
RTVSPropertyOp48
 70
     1
102
RTVSPropertyOp49
 70
     1
102
RTVSPropertyOp50
 70
     1
102
RTVSPropertyOp51
 70
     0
102
RTVSPropertyOp52
 70
     0
102
RTVSPropertyOp53
 70
     1
102
RTVSPropertyOp54
 70
     1
102
RTVSPropertyOp55
 70
     1
102
RTVSPropertyOp56
 70
     1
102
RTVSPropertyOp57
 70
     1
102
RTVSPropertyOp58
 70
     1
102
RTVSPropertyOp59
 70
     1
102
RTVSPropertyOp60
 70
     1
102
RTVSPropertyOp61
 70
     1
102
RTVSPropertyOp62
 70
     1
  0
XRECORD
  5
8CB6
102
{ACAD_REACTORS
330
8CB5
102
}
330
8CB5
100
AcDbXrecord
280
     1
102
RTVSPost2010Prop28
280
     0
102
RTVSPost2010PropOp28
 70
     1
102
RTVSPost2010Prop29
280
     1
102
RTVSPost2010PropOp29
 70
     1
102
RTVSPost2010Prop30
280
     1
102
RTVSPost2010PropOp30
 70
     1
102
RTVSPost2010Prop31
280
     0
102
RTVSPost2010PropOp31
 70
     1
102
RTVSPost2010Prop32
280
     0
102
RTVSPost2010PropOp32
 70
     1
102
RTVSPost2010Prop33
280
     0
102
RTVSPost2010PropOp33
 70
     1
102
RTVSPost2010Prop34
280
     0
102
RTVSPost2010PropOp34
 70
     1
102
RTVSPost2010Prop35
280
     0
102
RTVSPost2010PropOp35
 70
     1
102
RTVSPost2010Prop36
280
     0
102
RTVSPost2010PropOp36
 70
     1
102
RTVSPost2010Prop37
 90
       50
102
RTVSPost2010PropOp37
 70
     1
102
RTVSPost2010Prop38
140
0.0
102
RTVSPost2010PropOp38
 70
     1
102
RTVSPost2010Prop39
140
1.0
102
RTVSPost2010PropOp39
 70
     1
102
RTVSPost2010Prop40
 90
        0
102
RTVSPost2010PropOp40
 70
     1
102
RTVSPost2010Prop41ColorIndex
 90
       18
102
RTVSPost2010Prop41ColorRGB
 90
        0
102
RTVSPost2010PropOp41
 70
     1
102
RTVSPost2010Prop42
 90
       50
102
RTVSPost2010PropOp42
 70
     1
102
RTVSPost2010Prop43
 90
        3
102
RTVSPost2010PropOp43
 70
     1
102
RTVSPost2010Prop44ColorIndex
 90
        5
102
RTVSPost2010Prop44ColorRGB
 90
      255
102
RTVSPost2010PropOp44
 70
     1
102
RTVSPost2010Prop45
280
     0
102
RTVSPost2010PropOp45
 70
     1
102
RTVSPost2010Prop46
 90
       50
102
RTVSPost2010PropOp46
 70
     1
102
RTVSPost2010Prop47
 90
       50
102
RTVSPost2010PropOp47
 70
     1
102
RTVSPost2010Prop48
 90
       50
102
RTVSPost2010PropOp48
 70
     1
102
RTVSPost2010Prop49
280
     0
102
RTVSPost2010PropOp49
 70
     1
102
RTVSPost2010Prop50
 90
       50
102
RTVSPost2010PropOp50
 70
     1
102
RTVSPost2010Prop51ColorIndex
 90
      256
102
RTVSPost2010Prop51ColorRGB
 90
-16777216
102
RTVSPost2010PropOp51
 70
     0
102
RTVSPost2010Prop52
140
1.0
102
RTVSPost2010PropOp52
 70
     0
102
RTVSPost2010Prop53
 90
        2
102
RTVSPost2010PropOp53
 70
     1
102
RTVSPost2010Prop54
  1
strokes_ogs.tif
102
RTVSPost2010PropOp54
 70
     1
102
RTVSPost2010Prop55
280
     0
102
RTVSPost2010PropOp55
 70
     1
102
RTVSPost2010Prop56
140
1.0
102
RTVSPost2010PropOp56
 70
     1
102
RTVSPost2010Prop57
140
1.0
102
RTVSPost2010PropOp57
 70
     1
102
RTVSPropertyOp0
 70
     1
102
RTVSPropertyOp1
 70
     1
102
RTVSPropertyOp2
 70
     1
102
RTVSPropertyOp3
 70
     1
102
RTVSPropertyOp4
 70
     1
102
RTVSPropertyOp5
 70
     1
102
RTVSPropertyOp6
 70
     1
102
RTVSPropertyOp7
 70
     1
102
RTVSPropertyOp8
 70
     1
102
RTVSPropertyOp9
 70
     1
102
RTVSPropertyOp10
 70
     1
102
RTVSPropertyOp11
 70
     1
102
RTVSPropertyOp12
 70
     1
102
RTVSPropertyOp13
 70
     1
102
RTVSPropertyOp14
 70
     1
102
RTVSPropertyOp15
 70
     1
102
RTVSPropertyOp16
 70
     1
102
RTVSPropertyOp17
 70
     1
102
RTVSPropertyOp18
 70
     1
102
RTVSPropertyOp19
 70
     1
102
RTVSPropertyOp20
 70
     1
102
RTVSPropertyOp21
 70
     1
102
RTVSPropertyOp22
 70
     1
102
RTVSPropertyOp23
 70
     1
102
RTVSPropertyOp24
 70
     1
102
RTVSPropertyOp25
 70
     1
102
RTVSPropertyOp26
 70
     1
102
RTVSPropertyOp27
 70
     1
102
RTVSPropertyOp28
 70
     1
102
RTVSPropertyOp29
 70
     1
102
RTVSPropertyOp30
 70
     1
102
RTVSPropertyOp31
 70
     1
102
RTVSPropertyOp32
 70
     1
102
RTVSPropertyOp33
 70
     1
102
RTVSPropertyOp34
 70
     1
102
RTVSPropertyOp35
 70
     1
102
RTVSPropertyOp36
 70
     1
102
RTVSPropertyOp37
 70
     1
102
RTVSPropertyOp38
 70
     1
102
RTVSPropertyOp39
 70
     1
102
RTVSPropertyOp40
 70
     1
102
RTVSPropertyOp41
 70
     1
102
RTVSPropertyOp42
 70
     1
102
RTVSPropertyOp43
 70
     1
102
RTVSPropertyOp44
 70
     1
102
RTVSPropertyOp45
 70
     1
102
RTVSPropertyOp46
 70
     1
102
RTVSPropertyOp47
 70
     1
102
RTVSPropertyOp48
 70
     1
102
RTVSPropertyOp49
 70
     1
102
RTVSPropertyOp50
 70
     1
102
RTVSPropertyOp51
 70
     0
102
RTVSPropertyOp52
 70
     0
102
RTVSPropertyOp53
 70
     1
102
RTVSPropertyOp54
 70
     1
102
RTVSPropertyOp55
 70
     1
102
RTVSPropertyOp56
 70
     1
102
RTVSPropertyOp57
 70
     1
102
RTVSPropertyOp58
 70
     1
102
RTVSPropertyOp59
 70
     1
102
RTVSPropertyOp60
 70
     1
102
RTVSPropertyOp61
 70
     1
102
RTVSPropertyOp62
 70
     1
  0
XRECORD
  5
8C9A
102
{ACAD_REACTORS
330
8C99
102
}
330
8C99
100
AcDbXrecord
280
     1
102
RTVSPost2010Prop28
280
     0
102
RTVSPost2010PropOp28
 70
     1
102
RTVSPost2010Prop29
280
     1
102
RTVSPost2010PropOp29
 70
     1
102
RTVSPost2010Prop30
280
     1
102
RTVSPost2010PropOp30
 70
     1
102
RTVSPost2010Prop31
280
     0
102
RTVSPost2010PropOp31
 70
     1
102
RTVSPost2010Prop32
280
     0
102
RTVSPost2010PropOp32
 70
     1
102
RTVSPost2010Prop33
280
     0
102
RTVSPost2010PropOp33
 70
     1
102
RTVSPost2010Prop34
280
     0
102
RTVSPost2010PropOp34
 70
     1
102
RTVSPost2010Prop35
280
     0
102
RTVSPost2010PropOp35
 70
     1
102
RTVSPost2010Prop36
280
     0
102
RTVSPost2010PropOp36
 70
     1
102
RTVSPost2010Prop37
 90
       50
102
RTVSPost2010PropOp37
 70
     1
102
RTVSPost2010Prop38
140
0.0
102
RTVSPost2010PropOp38
 70
     1
102
RTVSPost2010Prop39
140
1.0
102
RTVSPost2010PropOp39
 70
     1
102
RTVSPost2010Prop40
 90
        0
102
RTVSPost2010PropOp40
 70
     1
102
RTVSPost2010Prop41ColorIndex
 90
       18
102
RTVSPost2010Prop41ColorRGB
 90
        0
102
RTVSPost2010PropOp41
 70
     1
102
RTVSPost2010Prop42
 90
       50
102
RTVSPost2010PropOp42
 70
     1
102
RTVSPost2010Prop43
 90
        3
102
RTVSPost2010PropOp43
 70
     1
102
RTVSPost2010Prop44ColorIndex
 90
        5
102
RTVSPost2010Prop44ColorRGB
 90
      255
102
RTVSPost2010PropOp44
 70
     1
102
RTVSPost2010Prop45
280
     0
102
RTVSPost2010PropOp45
 70
     1
102
RTVSPost2010Prop46
 90
       50
102
RTVSPost2010PropOp46
 70
     1
102
RTVSPost2010Prop47
 90
       50
102
RTVSPost2010PropOp47
 70
     1
102
RTVSPost2010Prop48
 90
       50
102
RTVSPost2010PropOp48
 70
     1
102
RTVSPost2010Prop49
280
     0
102
RTVSPost2010PropOp49
 70
     1
102
RTVSPost2010Prop50
 90
       50
102
RTVSPost2010PropOp50
 70
     1
102
RTVSPost2010Prop51ColorIndex
 90
      256
102
RTVSPost2010Prop51ColorRGB
 90
-16777216
102
RTVSPost2010PropOp51
 70
     0
102
RTVSPost2010Prop52
140
1.0
102
RTVSPost2010PropOp52
 70
     0
102
RTVSPost2010Prop53
 90
        2
102
RTVSPost2010PropOp53
 70
     1
102
RTVSPost2010Prop54
  1
strokes_ogs.tif
102
RTVSPost2010PropOp54
 70
     1
102
RTVSPost2010Prop55
280
     0
102
RTVSPost2010PropOp55
 70
     1
102
RTVSPost2010Prop56
140
1.0
102
RTVSPost2010PropOp56
 70
     1
102
RTVSPost2010Prop57
140
1.0
102
RTVSPost2010PropOp57
 70
     1
102
RTVSPropertyOp0
 70
     1
102
RTVSPropertyOp1
 70
     1
102
RTVSPropertyOp2
 70
     1
102
RTVSPropertyOp3
 70
     1
102
RTVSPropertyOp4
 70
     1
102
RTVSPropertyOp5
 70
     1
102
RTVSPropertyOp6
 70
     1
102
RTVSPropertyOp7
 70
     1
102
RTVSPropertyOp8
 70
     1
102
RTVSPropertyOp9
 70
     1
102
RTVSPropertyOp10
 70
     1
102
RTVSPropertyOp11
 70
     1
102
RTVSPropertyOp12
 70
     1
102
RTVSPropertyOp13
 70
     1
102
RTVSPropertyOp14
 70
     1
102
RTVSPropertyOp15
 70
     1
102
RTVSPropertyOp16
 70
     1
102
RTVSPropertyOp17
 70
     1
102
RTVSPropertyOp18
 70
     1
102
RTVSPropertyOp19
 70
     1
102
RTVSPropertyOp20
 70
     1
102
RTVSPropertyOp21
 70
     1
102
RTVSPropertyOp22
 70
     1
102
RTVSPropertyOp23
 70
     1
102
RTVSPropertyOp24
 70
     1
102
RTVSPropertyOp25
 70
     1
102
RTVSPropertyOp26
 70
     1
102
RTVSPropertyOp27
 70
     1
102
RTVSPropertyOp28
 70
     1
102
RTVSPropertyOp29
 70
     1
102
RTVSPropertyOp30
 70
     1
102
RTVSPropertyOp31
 70
     1
102
RTVSPropertyOp32
 70
     1
102
RTVSPropertyOp33
 70
     1
102
RTVSPropertyOp34
 70
     1
102
RTVSPropertyOp35
 70
     1
102
RTVSPropertyOp36
 70
     1
102
RTVSPropertyOp37
 70
     1
102
RTVSPropertyOp38
 70
     1
102
RTVSPropertyOp39
 70
     1
102
RTVSPropertyOp40
 70
     1
102
RTVSPropertyOp41
 70
     1
102
RTVSPropertyOp42
 70
     1
102
RTVSPropertyOp43
 70
     1
102
RTVSPropertyOp44
 70
     1
102
RTVSPropertyOp45
 70
     1
102
RTVSPropertyOp46
 70
     1
102
RTVSPropertyOp47
 70
     1
102
RTVSPropertyOp48
 70
     1
102
RTVSPropertyOp49
 70
     1
102
RTVSPropertyOp50
 70
     1
102
RTVSPropertyOp51
 70
     0
102
RTVSPropertyOp52
 70
     0
102
RTVSPropertyOp53
 70
     1
102
RTVSPropertyOp54
 70
     1
102
RTVSPropertyOp55
 70
     1
102
RTVSPropertyOp56
 70
     1
102
RTVSPropertyOp57
 70
     1
102
RTVSPropertyOp58
 70
     1
102
RTVSPropertyOp59
 70
     1
102
RTVSPropertyOp60
 70
     1
102
RTVSPropertyOp61
 70
     1
102
RTVSPropertyOp62
 70
     1
  0
XRECORD
  5
8C9C
102
{ACAD_REACTORS
330
8C9B
102
}
330
8C9B
100
AcDbXrecord
280
     1
102
RTVSPost2010Prop28
280
     0
102
RTVSPost2010PropOp28
 70
     1
102
RTVSPost2010Prop29
280
     1
102
RTVSPost2010PropOp29
 70
     1
102
RTVSPost2010Prop30
280
     1
102
RTVSPost2010PropOp30
 70
     1
102
RTVSPost2010Prop31
280
     0
102
RTVSPost2010PropOp31
 70
     1
102
RTVSPost2010Prop32
280
     0
102
RTVSPost2010PropOp32
 70
     1
102
RTVSPost2010Prop33
280
     0
102
RTVSPost2010PropOp33
 70
     1
102
RTVSPost2010Prop34
280
     0
102
RTVSPost2010PropOp34
 70
     1
102
RTVSPost2010Prop35
280
     0
102
RTVSPost2010PropOp35
 70
     1
102
RTVSPost2010Prop36
280
     0
102
RTVSPost2010PropOp36
 70
     1
102
RTVSPost2010Prop37
 90
       50
102
RTVSPost2010PropOp37
 70
     1
102
RTVSPost2010Prop38
140
0.0
102
RTVSPost2010PropOp38
 70
     1
102
RTVSPost2010Prop39
140
1.0
102
RTVSPost2010PropOp39
 70
     1
102
RTVSPost2010Prop40
 90
        0
102
RTVSPost2010PropOp40
 70
     1
102
RTVSPost2010Prop41ColorIndex
 90
       18
102
RTVSPost2010Prop41ColorRGB
 90
        0
102
RTVSPost2010PropOp41
 70
     1
102
RTVSPost2010Prop42
 90
       50
102
RTVSPost2010PropOp42
 70
     1
102
RTVSPost2010Prop43
 90
        3
102
RTVSPost2010PropOp43
 70
     1
102
RTVSPost2010Prop44ColorIndex
 90
        5
102
RTVSPost2010Prop44ColorRGB
 90
      255
102
RTVSPost2010PropOp44
 70
     1
102
RTVSPost2010Prop45
280
     0
102
RTVSPost2010PropOp45
 70
     1
102
RTVSPost2010Prop46
 90
       50
102
RTVSPost2010PropOp46
 70
     1
102
RTVSPost2010Prop47
 90
       50
102
RTVSPost2010PropOp47
 70
     1
102
RTVSPost2010Prop48
 90
       50
102
RTVSPost2010PropOp48
 70
     1
102
RTVSPost2010Prop49
280
     0
102
RTVSPost2010PropOp49
 70
     1
102
RTVSPost2010Prop50
 90
       50
102
RTVSPost2010PropOp50
 70
     1
102
RTVSPost2010Prop51ColorIndex
 90
      256
102
RTVSPost2010Prop51ColorRGB
 90
-16777216
102
RTVSPost2010PropOp51
 70
     0
102
RTVSPost2010Prop52
140
1.0
102
RTVSPost2010PropOp52
 70
     0
102
RTVSPost2010Prop53
 90
        2
102
RTVSPost2010PropOp53
 70
     1
102
RTVSPost2010Prop54
  1
strokes_ogs.tif
102
RTVSPost2010PropOp54
 70
     1
102
RTVSPost2010Prop55
280
     0
102
RTVSPost2010PropOp55
 70
     1
102
RTVSPost2010Prop56
140
1.0
102
RTVSPost2010PropOp56
 70
     1
102
RTVSPost2010Prop57
140
1.0
102
RTVSPost2010PropOp57
 70
     1
102
RTVSPropertyOp0
 70
     1
102
RTVSPropertyOp1
 70
     1
102
RTVSPropertyOp2
 70
     1
102
RTVSPropertyOp3
 70
     1
102
RTVSPropertyOp4
 70
     1
102
RTVSPropertyOp5
 70
     1
102
RTVSPropertyOp6
 70
     1
102
RTVSPropertyOp7
 70
     1
102
RTVSPropertyOp8
 70
     1
102
RTVSPropertyOp9
 70
     1
102
RTVSPropertyOp10
 70
     1
102
RTVSPropertyOp11
 70
     1
102
RTVSPropertyOp12
 70
     1
102
RTVSPropertyOp13
 70
     1
102
RTVSPropertyOp14
 70
     1
102
RTVSPropertyOp15
 70
     1
102
RTVSPropertyOp16
 70
     1
102
RTVSPropertyOp17
 70
     1
102
RTVSPropertyOp18
 70
     1
102
RTVSPropertyOp19
 70
     1
102
RTVSPropertyOp20
 70
     1
102
RTVSPropertyOp21
 70
     1
102
RTVSPropertyOp22
 70
     1
102
RTVSPropertyOp23
 70
     1
102
RTVSPropertyOp24
 70
     1
102
RTVSPropertyOp25
 70
     1
102
RTVSPropertyOp26
 70
     1
102
RTVSPropertyOp27
 70
     1
102
RTVSPropertyOp28
 70
     1
102
RTVSPropertyOp29
 70
     1
102
RTVSPropertyOp30
 70
     1
102
RTVSPropertyOp31
 70
     1
102
RTVSPropertyOp32
 70
     1
102
RTVSPropertyOp33
 70
     1
102
RTVSPropertyOp34
 70
     1
102
RTVSPropertyOp35
 70
     1
102
RTVSPropertyOp36
 70
     1
102
RTVSPropertyOp37
 70
     1
102
RTVSPropertyOp38
 70
     1
102
RTVSPropertyOp39
 70
     1
102
RTVSPropertyOp40
 70
     1
102
RTVSPropertyOp41
 70
     1
102
RTVSPropertyOp42
 70
     1
102
RTVSPropertyOp43
 70
     1
102
RTVSPropertyOp44
 70
     1
102
RTVSPropertyOp45
 70
     1
102
RTVSPropertyOp46
 70
     1
102
RTVSPropertyOp47
 70
     1
102
RTVSPropertyOp48
 70
     1
102
RTVSPropertyOp49
 70
     1
102
RTVSPropertyOp50
 70
     1
102
RTVSPropertyOp51
 70
     0
102
RTVSPropertyOp52
 70
     0
102
RTVSPropertyOp53
 70
     1
102
RTVSPropertyOp54
 70
     1
102
RTVSPropertyOp55
 70
     1
102
RTVSPropertyOp56
 70
     1
102
RTVSPropertyOp57
 70
     1
102
RTVSPropertyOp58
 70
     1
102
RTVSPropertyOp59
 70
     1
102
RTVSPropertyOp60
 70
     1
102
RTVSPropertyOp61
 70
     1
102
RTVSPropertyOp62
 70
     1
  0
XRECORD
  5
8C9E
102
{ACAD_REACTORS
330
8C9D
102
}
330
8C9D
100
AcDbXrecord
280
     1
102
RTVSPost2010Prop28
280
     0
102
RTVSPost2010PropOp28
 70
     1
102
RTVSPost2010Prop29
280
     1
102
RTVSPost2010PropOp29
 70
     1
102
RTVSPost2010Prop30
280
     1
102
RTVSPost2010PropOp30
 70
     1
102
RTVSPost2010Prop31
280
     0
102
RTVSPost2010PropOp31
 70
     1
102
RTVSPost2010Prop32
280
     0
102
RTVSPost2010PropOp32
 70
     1
102
RTVSPost2010Prop33
280
     0
102
RTVSPost2010PropOp33
 70
     1
102
RTVSPost2010Prop34
280
     0
102
RTVSPost2010PropOp34
 70
     1
102
RTVSPost2010Prop35
280
     0
102
RTVSPost2010PropOp35
 70
     1
102
RTVSPost2010Prop36
280
     0
102
RTVSPost2010PropOp36
 70
     1
102
RTVSPost2010Prop37
 90
       50
102
RTVSPost2010PropOp37
 70
     1
102
RTVSPost2010Prop38
140
0.0
102
RTVSPost2010PropOp38
 70
     1
102
RTVSPost2010Prop39
140
1.0
102
RTVSPost2010PropOp39
 70
     1
102
RTVSPost2010Prop40
 90
        0
102
RTVSPost2010PropOp40
 70
     1
102
RTVSPost2010Prop41ColorIndex
 90
       18
102
RTVSPost2010Prop41ColorRGB
 90
        0
102
RTVSPost2010PropOp41
 70
     1
102
RTVSPost2010Prop42
 90
       50
102
RTVSPost2010PropOp42
 70
     1
102
RTVSPost2010Prop43
 90
        3
102
RTVSPost2010PropOp43
 70
     1
102
RTVSPost2010Prop44ColorIndex
 90
        5
102
RTVSPost2010Prop44ColorRGB
 90
      255
102
RTVSPost2010PropOp44
 70
     1
102
RTVSPost2010Prop45
280
     0
102
RTVSPost2010PropOp45
 70
     1
102
RTVSPost2010Prop46
 90
       50
102
RTVSPost2010PropOp46
 70
     1
102
RTVSPost2010Prop47
 90
       50
102
RTVSPost2010PropOp47
 70
     1
102
RTVSPost2010Prop48
 90
       50
102
RTVSPost2010PropOp48
 70
     1
102
RTVSPost2010Prop49
280
     0
102
RTVSPost2010PropOp49
 70
     1
102
RTVSPost2010Prop50
 90
       50
102
RTVSPost2010PropOp50
 70
     1
102
RTVSPost2010Prop51ColorIndex
 90
      256
102
RTVSPost2010Prop51ColorRGB
 90
-16777216
102
RTVSPost2010PropOp51
 70
     0
102
RTVSPost2010Prop52
140
1.0
102
RTVSPost2010PropOp52
 70
     0
102
RTVSPost2010Prop53
 90
        2
102
RTVSPost2010PropOp53
 70
     1
102
RTVSPost2010Prop54
  1
strokes_ogs.tif
102
RTVSPost2010PropOp54
 70
     1
102
RTVSPost2010Prop55
280
     0
102
RTVSPost2010PropOp55
 70
     1
102
RTVSPost2010Prop56
140
1.0
102
RTVSPost2010PropOp56
 70
     1
102
RTVSPost2010Prop57
140
1.0
102
RTVSPost2010PropOp57
 70
     1
102
RTVSPropertyOp0
 70
     1
102
RTVSPropertyOp1
 70
     1
102
RTVSPropertyOp2
 70
     1
102
RTVSPropertyOp3
 70
     1
102
RTVSPropertyOp4
 70
     1
102
RTVSPropertyOp5
 70
     1
102
RTVSPropertyOp6
 70
     1
102
RTVSPropertyOp7
 70
     1
102
RTVSPropertyOp8
 70
     1
102
RTVSPropertyOp9
 70
     1
102
RTVSPropertyOp10
 70
     1
102
RTVSPropertyOp11
 70
     1
102
RTVSPropertyOp12
 70
     1
102
RTVSPropertyOp13
 70
     1
102
RTVSPropertyOp14
 70
     1
102
RTVSPropertyOp15
 70
     1
102
RTVSPropertyOp16
 70
     1
102
RTVSPropertyOp17
 70
     1
102
RTVSPropertyOp18
 70
     1
102
RTVSPropertyOp19
 70
     1
102
RTVSPropertyOp20
 70
     1
102
RTVSPropertyOp21
 70
     1
102
RTVSPropertyOp22
 70
     1
102
RTVSPropertyOp23
 70
     1
102
RTVSPropertyOp24
 70
     1
102
RTVSPropertyOp25
 70
     1
102
RTVSPropertyOp26
 70
     1
102
RTVSPropertyOp27
 70
     1
102
RTVSPropertyOp28
 70
     1
102
RTVSPropertyOp29
 70
     1
102
RTVSPropertyOp30
 70
     1
102
RTVSPropertyOp31
 70
     1
102
RTVSPropertyOp32
 70
     1
102
RTVSPropertyOp33
 70
     1
102
RTVSPropertyOp34
 70
     1
102
RTVSPropertyOp35
 70
     1
102
RTVSPropertyOp36
 70
     1
102
RTVSPropertyOp37
 70
     1
102
RTVSPropertyOp38
 70
     1
102
RTVSPropertyOp39
 70
     1
102
RTVSPropertyOp40
 70
     1
102
RTVSPropertyOp41
 70
     1
102
RTVSPropertyOp42
 70
     1
102
RTVSPropertyOp43
 70
     1
102
RTVSPropertyOp44
 70
     1
102
RTVSPropertyOp45
 70
     1
102
RTVSPropertyOp46
 70
     1
102
RTVSPropertyOp47
 70
     1
102
RTVSPropertyOp48
 70
     1
102
RTVSPropertyOp49
 70
     1
102
RTVSPropertyOp50
 70
     1
102
RTVSPropertyOp51
 70
     0
102
RTVSPropertyOp52
 70
     0
102
RTVSPropertyOp53
 70
     1
102
RTVSPropertyOp54
 70
     1
102
RTVSPropertyOp55
 70
     1
102
RTVSPropertyOp56
 70
     1
102
RTVSPropertyOp57
 70
     1
102
RTVSPropertyOp58
 70
     1
102
RTVSPropertyOp59
 70
     1
102
RTVSPropertyOp60
 70
     1
102
RTVSPropertyOp61
 70
     1
102
RTVSPropertyOp62
 70
     1
  0
XRECORD
  5
8CA0
102
{ACAD_REACTORS
330
8C9F
102
}
330
8C9F
100
AcDbXrecord
280
     1
102
RTVSPost2010Prop28
280
     0
102
RTVSPost2010PropOp28
 70
     1
102
RTVSPost2010Prop29
280
     1
102
RTVSPost2010PropOp29
 70
     1
102
RTVSPost2010Prop30
280
     1
102
RTVSPost2010PropOp30
 70
     1
102
RTVSPost2010Prop31
280
     0
102
RTVSPost2010PropOp31
 70
     1
102
RTVSPost2010Prop32
280
     0
102
RTVSPost2010PropOp32
 70
     1
102
RTVSPost2010Prop33
280
     0
102
RTVSPost2010PropOp33
 70
     1
102
RTVSPost2010Prop34
280
     0
102
RTVSPost2010PropOp34
 70
     1
102
RTVSPost2010Prop35
280
     0
102
RTVSPost2010PropOp35
 70
     1
102
RTVSPost2010Prop36
280
     0
102
RTVSPost2010PropOp36
 70
     1
102
RTVSPost2010Prop37
 90
       50
102
RTVSPost2010PropOp37
 70
     1
102
RTVSPost2010Prop38
140
0.0
102
RTVSPost2010PropOp38
 70
     1
102
RTVSPost2010Prop39
140
1.0
102
RTVSPost2010PropOp39
 70
     1
102
RTVSPost2010Prop40
 90
        0
102
RTVSPost2010PropOp40
 70
     1
102
RTVSPost2010Prop41ColorIndex
 90
       18
102
RTVSPost2010Prop41ColorRGB
 90
        0
102
RTVSPost2010PropOp41
 70
     1
102
RTVSPost2010Prop42
 90
       50
102
RTVSPost2010PropOp42
 70
     1
102
RTVSPost2010Prop43
 90
        3
102
RTVSPost2010PropOp43
 70
     1
102
RTVSPost2010Prop44ColorIndex
 90
        5
102
RTVSPost2010Prop44ColorRGB
 90
      255
102
RTVSPost2010PropOp44
 70
     1
102
RTVSPost2010Prop45
280
     0
102
RTVSPost2010PropOp45
 70
     1
102
RTVSPost2010Prop46
 90
       50
102
RTVSPost2010PropOp46
 70
     1
102
RTVSPost2010Prop47
 90
       50
102
RTVSPost2010PropOp47
 70
     1
102
RTVSPost2010Prop48
 90
       50
102
RTVSPost2010PropOp48
 70
     1
102
RTVSPost2010Prop49
280
     0
102
RTVSPost2010PropOp49
 70
     1
102
RTVSPost2010Prop50
 90
       50
102
RTVSPost2010PropOp50
 70
     1
102
RTVSPost2010Prop51ColorIndex
 90
      256
102
RTVSPost2010Prop51ColorRGB
 90
-16777216
102
RTVSPost2010PropOp51
 70
     0
102
RTVSPost2010Prop52
140
1.0
102
RTVSPost2010PropOp52
 70
     0
102
RTVSPost2010Prop53
 90
        2
102
RTVSPost2010PropOp53
 70
     1
102
RTVSPost2010Prop54
  1
strokes_ogs.tif
102
RTVSPost2010PropOp54
 70
     1
102
RTVSPost2010Prop55
280
     0
102
RTVSPost2010PropOp55
 70
     1
102
RTVSPost2010Prop56
140
1.0
102
RTVSPost2010PropOp56
 70
     1
102
RTVSPost2010Prop57
140
1.0
102
RTVSPost2010PropOp57
 70
     1
102
RTVSPropertyOp0
 70
     1
102
RTVSPropertyOp1
 70
     1
102
RTVSPropertyOp2
 70
     1
102
RTVSPropertyOp3
 70
     1
102
RTVSPropertyOp4
 70
     1
102
RTVSPropertyOp5
 70
     1
102
RTVSPropertyOp6
 70
     1
102
RTVSPropertyOp7
 70
     1
102
RTVSPropertyOp8
 70
     1
102
RTVSPropertyOp9
 70
     1
102
RTVSPropertyOp10
 70
     1
102
RTVSPropertyOp11
 70
     1
102
RTVSPropertyOp12
 70
     1
102
RTVSPropertyOp13
 70
     1
102
RTVSPropertyOp14
 70
     1
102
RTVSPropertyOp15
 70
     1
102
RTVSPropertyOp16
 70
     1
102
RTVSPropertyOp17
 70
     1
102
RTVSPropertyOp18
 70
     1
102
RTVSPropertyOp19
 70
     1
102
RTVSPropertyOp20
 70
     1
102
RTVSPropertyOp21
 70
     1
102
RTVSPropertyOp22
 70
     1
102
RTVSPropertyOp23
 70
     1
102
RTVSPropertyOp24
 70
     1
102
RTVSPropertyOp25
 70
     1
102
RTVSPropertyOp26
 70
     1
102
RTVSPropertyOp27
 70
     1
102
RTVSPropertyOp28
 70
     1
102
RTVSPropertyOp29
 70
     1
102
RTVSPropertyOp30
 70
     1
102
RTVSPropertyOp31
 70
     1
102
RTVSPropertyOp32
 70
     1
102
RTVSPropertyOp33
 70
     1
102
RTVSPropertyOp34
 70
     1
102
RTVSPropertyOp35
 70
     1
102
RTVSPropertyOp36
 70
     1
102
RTVSPropertyOp37
 70
     1
102
RTVSPropertyOp38
 70
     1
102
RTVSPropertyOp39
 70
     1
102
RTVSPropertyOp40
 70
     1
102
RTVSPropertyOp41
 70
     1
102
RTVSPropertyOp42
 70
     1
102
RTVSPropertyOp43
 70
     1
102
RTVSPropertyOp44
 70
     1
102
RTVSPropertyOp45
 70
     1
102
RTVSPropertyOp46
 70
     1
102
RTVSPropertyOp47
 70
     1
102
RTVSPropertyOp48
 70
     1
102
RTVSPropertyOp49
 70
     1
102
RTVSPropertyOp50
 70
     1
102
RTVSPropertyOp51
 70
     0
102
RTVSPropertyOp52
 70
     0
102
RTVSPropertyOp53
 70
     1
102
RTVSPropertyOp54
 70
     1
102
RTVSPropertyOp55
 70
     1
102
RTVSPropertyOp56
 70
     1
102
RTVSPropertyOp57
 70
     1
102
RTVSPropertyOp58
 70
     1
102
RTVSPropertyOp59
 70
     1
102
RTVSPropertyOp60
 70
     1
102
RTVSPropertyOp61
 70
     1
102
RTVSPropertyOp62
 70
     1
  0
XRECORD
  5
8CA8
102
{ACAD_REACTORS
330
8CA7
102
}
330
8CA7
100
AcDbXrecord
280
     1
102
RTVSPost2010Prop28
280
     0
102
RTVSPost2010PropOp28
 70
     1
102
RTVSPost2010Prop29
280
     1
102
RTVSPost2010PropOp29
 70
     1
102
RTVSPost2010Prop30
280
     1
102
RTVSPost2010PropOp30
 70
     1
102
RTVSPost2010Prop31
280
     0
102
RTVSPost2010PropOp31
 70
     1
102
RTVSPost2010Prop32
280
     0
102
RTVSPost2010PropOp32
 70
     1
102
RTVSPost2010Prop33
280
     0
102
RTVSPost2010PropOp33
 70
     1
102
RTVSPost2010Prop34
280
     0
102
RTVSPost2010PropOp34
 70
     1
102
RTVSPost2010Prop35
280
     0
102
RTVSPost2010PropOp35
 70
     1
102
RTVSPost2010Prop36
280
     0
102
RTVSPost2010PropOp36
 70
     1
102
RTVSPost2010Prop37
 90
       50
102
RTVSPost2010PropOp37
 70
     1
102
RTVSPost2010Prop38
140
0.0
102
RTVSPost2010PropOp38
 70
     1
102
RTVSPost2010Prop39
140
1.0
102
RTVSPost2010PropOp39
 70
     1
102
RTVSPost2010Prop40
 90
        0
102
RTVSPost2010PropOp40
 70
     1
102
RTVSPost2010Prop41ColorIndex
 90
       18
102
RTVSPost2010Prop41ColorRGB
 90
        0
102
RTVSPost2010PropOp41
 70
     1
102
RTVSPost2010Prop42
 90
       50
102
RTVSPost2010PropOp42
 70
     1
102
RTVSPost2010Prop43
 90
        3
102
RTVSPost2010PropOp43
 70
     1
102
RTVSPost2010Prop44ColorIndex
 90
        5
102
RTVSPost2010Prop44ColorRGB
 90
      255
102
RTVSPost2010PropOp44
 70
     1
102
RTVSPost2010Prop45
280
     0
102
RTVSPost2010PropOp45
 70
     1
102
RTVSPost2010Prop46
 90
       50
102
RTVSPost2010PropOp46
 70
     1
102
RTVSPost2010Prop47
 90
       50
102
RTVSPost2010PropOp47
 70
     1
102
RTVSPost2010Prop48
 90
       50
102
RTVSPost2010PropOp48
 70
     1
102
RTVSPost2010Prop49
280
     0
102
RTVSPost2010PropOp49
 70
     1
102
RTVSPost2010Prop50
 90
       50
102
RTVSPost2010PropOp50
 70
     1
102
RTVSPost2010Prop51ColorIndex
 90
      256
102
RTVSPost2010Prop51ColorRGB
 90
-16777216
102
RTVSPost2010PropOp51
 70
     0
102
RTVSPost2010Prop52
140
1.0
102
RTVSPost2010PropOp52
 70
     0
102
RTVSPost2010Prop53
 90
        2
102
RTVSPost2010PropOp53
 70
     1
102
RTVSPost2010Prop54
  1
strokes_ogs.tif
102
RTVSPost2010PropOp54
 70
     1
102
RTVSPost2010Prop55
280
     0
102
RTVSPost2010PropOp55
 70
     1
102
RTVSPost2010Prop56
140
1.0
102
RTVSPost2010PropOp56
 70
     1
102
RTVSPost2010Prop57
140
1.0
102
RTVSPost2010PropOp57
 70
     1
102
RTVSPropertyOp0
 70
     1
102
RTVSPropertyOp1
 70
     1
102
RTVSPropertyOp2
 70
     1
102
RTVSPropertyOp3
 70
     1
102
RTVSPropertyOp4
 70
     1
102
RTVSPropertyOp5
 70
     1
102
RTVSPropertyOp6
 70
     1
102
RTVSPropertyOp7
 70
     1
102
RTVSPropertyOp8
 70
     1
102
RTVSPropertyOp9
 70
     1
102
RTVSPropertyOp10
 70
     1
102
RTVSPropertyOp11
 70
     1
102
RTVSPropertyOp12
 70
     1
102
RTVSPropertyOp13
 70
     1
102
RTVSPropertyOp14
 70
     1
102
RTVSPropertyOp15
 70
     1
102
RTVSPropertyOp16
 70
     1
102
RTVSPropertyOp17
 70
     1
102
RTVSPropertyOp18
 70
     1
102
RTVSPropertyOp19
 70
     1
102
RTVSPropertyOp20
 70
     1
102
RTVSPropertyOp21
 70
     1
102
RTVSPropertyOp22
 70
     1
102
RTVSPropertyOp23
 70
     1
102
RTVSPropertyOp24
 70
     1
102
RTVSPropertyOp25
 70
     1
102
RTVSPropertyOp26
 70
     1
102
RTVSPropertyOp27
 70
     1
102
RTVSPropertyOp28
 70
     1
102
RTVSPropertyOp29
 70
     1
102
RTVSPropertyOp30
 70
     1
102
RTVSPropertyOp31
 70
     1
102
RTVSPropertyOp32
 70
     1
102
RTVSPropertyOp33
 70
     1
102
RTVSPropertyOp34
 70
     1
102
RTVSPropertyOp35
 70
     1
102
RTVSPropertyOp36
 70
     1
102
RTVSPropertyOp37
 70
     1
102
RTVSPropertyOp38
 70
     1
102
RTVSPropertyOp39
 70
     1
102
RTVSPropertyOp40
 70
     1
102
RTVSPropertyOp41
 70
     1
102
RTVSPropertyOp42
 70
     1
102
RTVSPropertyOp43
 70
     1
102
RTVSPropertyOp44
 70
     1
102
RTVSPropertyOp45
 70
     1
102
RTVSPropertyOp46
 70
     1
102
RTVSPropertyOp47
 70
     1
102
RTVSPropertyOp48
 70
     1
102
RTVSPropertyOp49
 70
     1
102
RTVSPropertyOp50
 70
     1
102
RTVSPropertyOp51
 70
     0
102
RTVSPropertyOp52
 70
     0
102
RTVSPropertyOp53
 70
     1
102
RTVSPropertyOp54
 70
     1
102
RTVSPropertyOp55
 70
     1
102
RTVSPropertyOp56
 70
     1
102
RTVSPropertyOp57
 70
     1
102
RTVSPropertyOp58
 70
     1
102
RTVSPropertyOp59
 70
     1
102
RTVSPropertyOp60
 70
     1
102
RTVSPropertyOp61
 70
     1
102
RTVSPropertyOp62
 70
     1
  0
XRECORD
  5
8CBC
102
{ACAD_REACTORS
330
8CBB
102
}
330
8CBB
100
AcDbXrecord
280
     1
102
RTVSPost2010Prop28
280
     0
102
RTVSPost2010PropOp28
 70
     1
102
RTVSPost2010Prop29
280
     1
102
RTVSPost2010PropOp29
 70
     1
102
RTVSPost2010Prop30
280
     1
102
RTVSPost2010PropOp30
 70
     1
102
RTVSPost2010Prop31
280
     0
102
RTVSPost2010PropOp31
 70
     1
102
RTVSPost2010Prop32
280
     0
102
RTVSPost2010PropOp32
 70
     1
102
RTVSPost2010Prop33
280
     0
102
RTVSPost2010PropOp33
 70
     1
102
RTVSPost2010Prop34
280
     0
102
RTVSPost2010PropOp34
 70
     1
102
RTVSPost2010Prop35
280
     0
102
RTVSPost2010PropOp35
 70
     1
102
RTVSPost2010Prop36
280
     0
102
RTVSPost2010PropOp36
 70
     1
102
RTVSPost2010Prop37
 90
       50
102
RTVSPost2010PropOp37
 70
     1
102
RTVSPost2010Prop38
140
0.0
102
RTVSPost2010PropOp38
 70
     1
102
RTVSPost2010Prop39
140
1.0
102
RTVSPost2010PropOp39
 70
     1
102
RTVSPost2010Prop40
 90
        0
102
RTVSPost2010PropOp40
 70
     1
102
RTVSPost2010Prop41ColorIndex
 90
       18
102
RTVSPost2010Prop41ColorRGB
 90
        0
102
RTVSPost2010PropOp41
 70
     1
102
RTVSPost2010Prop42
 90
       50
102
RTVSPost2010PropOp42
 70
     1
102
RTVSPost2010Prop43
 90
        3
102
RTVSPost2010PropOp43
 70
     1
102
RTVSPost2010Prop44ColorIndex
 90
        5
102
RTVSPost2010Prop44ColorRGB
 90
      255
102
RTVSPost2010PropOp44
 70
     1
102
RTVSPost2010Prop45
280
     0
102
RTVSPost2010PropOp45
 70
     1
102
RTVSPost2010Prop46
 90
       50
102
RTVSPost2010PropOp46
 70
     1
102
RTVSPost2010Prop47
 90
       50
102
RTVSPost2010PropOp47
 70
     1
102
RTVSPost2010Prop48
 90
       50
102
RTVSPost2010PropOp48
 70
     1
102
RTVSPost2010Prop49
280
     0
102
RTVSPost2010PropOp49
 70
     1
102
RTVSPost2010Prop50
 90
       50
102
RTVSPost2010PropOp50
 70
     1
102
RTVSPost2010Prop51ColorIndex
 90
      256
102
RTVSPost2010Prop51ColorRGB
 90
-16777216
102
RTVSPost2010PropOp51
 70
     0
102
RTVSPost2010Prop52
140
1.0
102
RTVSPost2010PropOp52
 70
     0
102
RTVSPost2010Prop53
 90
        2
102
RTVSPost2010PropOp53
 70
     1
102
RTVSPost2010Prop54
  1
strokes_ogs.tif
102
RTVSPost2010PropOp54
 70
     1
102
RTVSPost2010Prop55
280
     0
102
RTVSPost2010PropOp55
 70
     1
102
RTVSPost2010Prop56
140
1.0
102
RTVSPost2010PropOp56
 70
     1
102
RTVSPost2010Prop57
140
1.0
102
RTVSPost2010PropOp57
 70
     1
102
RTVSPropertyOp0
 70
     0
102
RTVSPropertyOp1
 70
     0
102
RTVSPropertyOp2
 70
     0
102
RTVSPropertyOp3
 70
     0
102
RTVSPropertyOp4
 70
     0
102
RTVSPropertyOp5
 70
     0
102
RTVSPropertyOp6
 70
     0
102
RTVSPropertyOp7
 70
     0
102
RTVSPropertyOp8
 70
     0
102
RTVSPropertyOp9
 70
     0
102
RTVSPropertyOp10
 70
     0
102
RTVSPropertyOp11
 70
     0
102
RTVSPropertyOp12
 70
     0
102
RTVSPropertyOp13
 70
     0
102
RTVSPropertyOp14
 70
     2
102
RTVSPropertyOp15
 70
     0
102
RTVSPropertyOp16
 70
     0
102
RTVSPropertyOp17
 70
     0
102
RTVSPropertyOp18
 70
     0
102
RTVSPropertyOp19
 70
     0
102
RTVSPropertyOp20
 70
     0
102
RTVSPropertyOp21
 70
     0
102
RTVSPropertyOp22
 70
     0
102
RTVSPropertyOp23
 70
     0
102
RTVSPropertyOp24
 70
     0
102
RTVSPropertyOp25
 70
     0
102
RTVSPropertyOp26
 70
     0
102
RTVSPropertyOp27
 70
     0
102
RTVSPropertyOp28
 70
     1
102
RTVSPropertyOp29
 70
     1
102
RTVSPropertyOp30
 70
     1
102
RTVSPropertyOp31
 70
     1
102
RTVSPropertyOp32
 70
     1
102
RTVSPropertyOp33
 70
     1
102
RTVSPropertyOp34
 70
     1
102
RTVSPropertyOp35
 70
     1
102
RTVSPropertyOp36
 70
     1
102
RTVSPropertyOp37
 70
     1
102
RTVSPropertyOp38
 70
     1
102
RTVSPropertyOp39
 70
     1
102
RTVSPropertyOp40
 70
     1
102
RTVSPropertyOp41
 70
     1
102
RTVSPropertyOp42
 70
     1
102
RTVSPropertyOp43
 70
     1
102
RTVSPropertyOp44
 70
     1
102
RTVSPropertyOp45
 70
     1
102
RTVSPropertyOp46
 70
     1
102
RTVSPropertyOp47
 70
     1
102
RTVSPropertyOp48
 70
     1
102
RTVSPropertyOp49
 70
     1
102
RTVSPropertyOp50
 70
     1
102
RTVSPropertyOp51
 70
     0
102
RTVSPropertyOp52
 70
     0
102
RTVSPropertyOp53
 70
     1
102
RTVSPropertyOp54
 70
     1
102
RTVSPropertyOp55
 70
     1
102
RTVSPropertyOp56
 70
     1
102
RTVSPropertyOp57
 70
     1
102
RTVSPropertyOp58
 70
     1
102
RTVSPropertyOp59
 70
     1
102
RTVSPropertyOp60
 70
     1
102
RTVSPropertyOp61
 70
     1
102
RTVSPropertyOp62
 70
     1
  0
XRECORD
  5
8CB4
102
{ACAD_REACTORS
330
8CB3
102
}
330
8CB3
100
AcDbXrecord
280
     1
102
RTVSPost2010Prop28
280
     0
102
RTVSPost2010PropOp28
 70
     1
102
RTVSPost2010Prop29
280
     1
102
RTVSPost2010PropOp29
 70
     1
102
RTVSPost2010Prop30
280
     1
102
RTVSPost2010PropOp30
 70
     1
102
RTVSPost2010Prop31
280
     0
102
RTVSPost2010PropOp31
 70
     1
102
RTVSPost2010Prop32
280
     0
102
RTVSPost2010PropOp32
 70
     1
102
RTVSPost2010Prop33
280
     0
102
RTVSPost2010PropOp33
 70
     1
102
RTVSPost2010Prop34
280
     0
102
RTVSPost2010PropOp34
 70
     1
102
RTVSPost2010Prop35
280
     0
102
RTVSPost2010PropOp35
 70
     1
102
RTVSPost2010Prop36
280
     0
102
RTVSPost2010PropOp36
 70
     1
102
RTVSPost2010Prop37
 90
       50
102
RTVSPost2010PropOp37
 70
     1
102
RTVSPost2010Prop38
140
0.0
102
RTVSPost2010PropOp38
 70
     1
102
RTVSPost2010Prop39
140
1.0
102
RTVSPost2010PropOp39
 70
     1
102
RTVSPost2010Prop40
 90
        0
102
RTVSPost2010PropOp40
 70
     1
102
RTVSPost2010Prop41ColorIndex
 90
       18
102
RTVSPost2010Prop41ColorRGB
 90
        0
102
RTVSPost2010PropOp41
 70
     1
102
RTVSPost2010Prop42
 90
       50
102
RTVSPost2010PropOp42
 70
     1
102
RTVSPost2010Prop43
 90
        3
102
RTVSPost2010PropOp43
 70
     1
102
RTVSPost2010Prop44ColorIndex
 90
        5
102
RTVSPost2010Prop44ColorRGB
 90
      255
102
RTVSPost2010PropOp44
 70
     1
102
RTVSPost2010Prop45
280
     0
102
RTVSPost2010PropOp45
 70
     1
102
RTVSPost2010Prop46
 90
       50
102
RTVSPost2010PropOp46
 70
     1
102
RTVSPost2010Prop47
 90
       50
102
RTVSPost2010PropOp47
 70
     1
102
RTVSPost2010Prop48
 90
       50
102
RTVSPost2010PropOp48
 70
     1
102
RTVSPost2010Prop49
280
     0
102
RTVSPost2010PropOp49
 70
     1
102
RTVSPost2010Prop50
 90
       50
102
RTVSPost2010PropOp50
 70
     1
102
RTVSPost2010Prop51ColorIndex
 90
      256
102
RTVSPost2010Prop51ColorRGB
 90
-16777216
102
RTVSPost2010PropOp51
 70
     0
102
RTVSPost2010Prop52
140
1.0
102
RTVSPost2010PropOp52
 70
     0
102
RTVSPost2010Prop53
 90
        2
102
RTVSPost2010PropOp53
 70
     1
102
RTVSPost2010Prop54
  1
strokes_ogs.tif
102
RTVSPost2010PropOp54
 70
     1
102
RTVSPost2010Prop55
280
     0
102
RTVSPost2010PropOp55
 70
     1
102
RTVSPost2010Prop56
140
1.0
102
RTVSPost2010PropOp56
 70
     1
102
RTVSPost2010Prop57
140
1.0
102
RTVSPost2010PropOp57
 70
     1
102
RTVSPropertyOp0
 70
     1
102
RTVSPropertyOp1
 70
     1
102
RTVSPropertyOp2
 70
     1
102
RTVSPropertyOp3
 70
     1
102
RTVSPropertyOp4
 70
     1
102
RTVSPropertyOp5
 70
     1
102
RTVSPropertyOp6
 70
     1
102
RTVSPropertyOp7
 70
     1
102
RTVSPropertyOp8
 70
     1
102
RTVSPropertyOp9
 70
     1
102
RTVSPropertyOp10
 70
     1
102
RTVSPropertyOp11
 70
     1
102
RTVSPropertyOp12
 70
     1
102
RTVSPropertyOp13
 70
     1
102
RTVSPropertyOp14
 70
     1
102
RTVSPropertyOp15
 70
     1
102
RTVSPropertyOp16
 70
     1
102
RTVSPropertyOp17
 70
     1
102
RTVSPropertyOp18
 70
     1
102
RTVSPropertyOp19
 70
     1
102
RTVSPropertyOp20
 70
     1
102
RTVSPropertyOp21
 70
     1
102
RTVSPropertyOp22
 70
     1
102
RTVSPropertyOp23
 70
     1
102
RTVSPropertyOp24
 70
     1
102
RTVSPropertyOp25
 70
     1
102
RTVSPropertyOp26
 70
     1
102
RTVSPropertyOp27
 70
     1
102
RTVSPropertyOp28
 70
     1
102
RTVSPropertyOp29
 70
     1
102
RTVSPropertyOp30
 70
     1
102
RTVSPropertyOp31
 70
     1
102
RTVSPropertyOp32
 70
     1
102
RTVSPropertyOp33
 70
     1
102
RTVSPropertyOp34
 70
     1
102
RTVSPropertyOp35
 70
     1
102
RTVSPropertyOp36
 70
     1
102
RTVSPropertyOp37
 70
     1
102
RTVSPropertyOp38
 70
     1
102
RTVSPropertyOp39
 70
     1
102
RTVSPropertyOp40
 70
     1
102
RTVSPropertyOp41
 70
     1
102
RTVSPropertyOp42
 70
     1
102
RTVSPropertyOp43
 70
     1
102
RTVSPropertyOp44
 70
     1
102
RTVSPropertyOp45
 70
     1
102
RTVSPropertyOp46
 70
     1
102
RTVSPropertyOp47
 70
     1
102
RTVSPropertyOp48
 70
     1
102
RTVSPropertyOp49
 70
     1
102
RTVSPropertyOp50
 70
     1
102
RTVSPropertyOp51
 70
     0
102
RTVSPropertyOp52
 70
     0
102
RTVSPropertyOp53
 70
     1
102
RTVSPropertyOp54
 70
     1
102
RTVSPropertyOp55
 70
     1
102
RTVSPropertyOp56
 70
     1
102
RTVSPropertyOp57
 70
     1
102
RTVSPropertyOp58
 70
     1
102
RTVSPropertyOp59
 70
     1
102
RTVSPropertyOp60
 70
     1
102
RTVSPropertyOp61
 70
     1
102
RTVSPropertyOp62
 70
     1
  0
XRECORD
  5
8CBE
102
{ACAD_REACTORS
330
8CBD
102
}
330
8CBD
100
AcDbXrecord
280
     1
102
RTVSPost2010Prop28
280
     0
102
RTVSPost2010PropOp28
 70
     1
102
RTVSPost2010Prop29
280
     1
102
RTVSPost2010PropOp29
 70
     1
102
RTVSPost2010Prop30
280
     1
102
RTVSPost2010PropOp30
 70
     1
102
RTVSPost2010Prop31
280
     0
102
RTVSPost2010PropOp31
 70
     1
102
RTVSPost2010Prop32
280
     0
102
RTVSPost2010PropOp32
 70
     1
102
RTVSPost2010Prop33
280
     0
102
RTVSPost2010PropOp33
 70
     1
102
RTVSPost2010Prop34
280
     0
102
RTVSPost2010PropOp34
 70
     1
102
RTVSPost2010Prop35
280
     0
102
RTVSPost2010PropOp35
 70
     1
102
RTVSPost2010Prop36
280
     0
102
RTVSPost2010PropOp36
 70
     1
102
RTVSPost2010Prop37
 90
       50
102
RTVSPost2010PropOp37
 70
     1
102
RTVSPost2010Prop38
140
0.0
102
RTVSPost2010PropOp38
 70
     1
102
RTVSPost2010Prop39
140
1.0
102
RTVSPost2010PropOp39
 70
     1
102
RTVSPost2010Prop40
 90
        0
102
RTVSPost2010PropOp40
 70
     1
102
RTVSPost2010Prop41ColorIndex
 90
       18
102
RTVSPost2010Prop41ColorRGB
 90
        0
102
RTVSPost2010PropOp41
 70
     1
102
RTVSPost2010Prop42
 90
       50
102
RTVSPost2010PropOp42
 70
     1
102
RTVSPost2010Prop43
 90
        3
102
RTVSPost2010PropOp43
 70
     1
102
RTVSPost2010Prop44ColorIndex
 90
        5
102
RTVSPost2010Prop44ColorRGB
 90
      255
102
RTVSPost2010PropOp44
 70
     1
102
RTVSPost2010Prop45
280
     0
102
RTVSPost2010PropOp45
 70
     1
102
RTVSPost2010Prop46
 90
       50
102
RTVSPost2010PropOp46
 70
     1
102
RTVSPost2010Prop47
 90
       50
102
RTVSPost2010PropOp47
 70
     1
102
RTVSPost2010Prop48
 90
       50
102
RTVSPost2010PropOp48
 70
     1
102
RTVSPost2010Prop49
280
     0
102
RTVSPost2010PropOp49
 70
     1
102
RTVSPost2010Prop50
 90
       50
102
RTVSPost2010PropOp50
 70
     1
102
RTVSPost2010Prop51ColorIndex
 90
      256
102
RTVSPost2010Prop51ColorRGB
 90
-16777216
102
RTVSPost2010PropOp51
 70
     0
102
RTVSPost2010Prop52
140
1.0
102
RTVSPost2010PropOp52
 70
     0
102
RTVSPost2010Prop53
 90
        2
102
RTVSPost2010PropOp53
 70
     1
102
RTVSPost2010Prop54
  1
strokes_ogs.tif
102
RTVSPost2010PropOp54
 70
     1
102
RTVSPost2010Prop55
280
     0
102
RTVSPost2010PropOp55
 70
     1
102
RTVSPost2010Prop56
140
1.0
102
RTVSPost2010PropOp56
 70
     1
102
RTVSPost2010Prop57
140
1.0
102
RTVSPost2010PropOp57
 70
     1
102
RTVSPropertyOp0
 70
     0
102
RTVSPropertyOp1
 70
     0
102
RTVSPropertyOp2
 70
     0
102
RTVSPropertyOp3
 70
     0
102
RTVSPropertyOp4
 70
     0
102
RTVSPropertyOp5
 70
     0
102
RTVSPropertyOp6
 70
     0
102
RTVSPropertyOp7
 70
     0
102
RTVSPropertyOp8
 70
     0
102
RTVSPropertyOp9
 70
     0
102
RTVSPropertyOp10
 70
     0
102
RTVSPropertyOp11
 70
     0
102
RTVSPropertyOp12
 70
     0
102
RTVSPropertyOp13
 70
     0
102
RTVSPropertyOp14
 70
     2
102
RTVSPropertyOp15
 70
     0
102
RTVSPropertyOp16
 70
     0
102
RTVSPropertyOp17
 70
     0
102
RTVSPropertyOp18
 70
     0
102
RTVSPropertyOp19
 70
     0
102
RTVSPropertyOp20
 70
     0
102
RTVSPropertyOp21
 70
     0
102
RTVSPropertyOp22
 70
     0
102
RTVSPropertyOp23
 70
     0
102
RTVSPropertyOp24
 70
     0
102
RTVSPropertyOp25
 70
     0
102
RTVSPropertyOp26
 70
     0
102
RTVSPropertyOp27
 70
     0
102
RTVSPropertyOp28
 70
     1
102
RTVSPropertyOp29
 70
     1
102
RTVSPropertyOp30
 70
     1
102
RTVSPropertyOp31
 70
     1
102
RTVSPropertyOp32
 70
     1
102
RTVSPropertyOp33
 70
     1
102
RTVSPropertyOp34
 70
     1
102
RTVSPropertyOp35
 70
     1
102
RTVSPropertyOp36
 70
     1
102
RTVSPropertyOp37
 70
     1
102
RTVSPropertyOp38
 70
     1
102
RTVSPropertyOp39
 70
     1
102
RTVSPropertyOp40
 70
     1
102
RTVSPropertyOp41
 70
     1
102
RTVSPropertyOp42
 70
     1
102
RTVSPropertyOp43
 70
     1
102
RTVSPropertyOp44
 70
     1
102
RTVSPropertyOp45
 70
     1
102
RTVSPropertyOp46
 70
     1
102
RTVSPropertyOp47
 70
     1
102
RTVSPropertyOp48
 70
     1
102
RTVSPropertyOp49
 70
     1
102
RTVSPropertyOp50
 70
     1
102
RTVSPropertyOp51
 70
     0
102
RTVSPropertyOp52
 70
     0
102
RTVSPropertyOp53
 70
     1
102
RTVSPropertyOp54
 70
     1
102
RTVSPropertyOp55
 70
     1
102
RTVSPropertyOp56
 70
     1
102
RTVSPropertyOp57
 70
     1
102
RTVSPropertyOp58
 70
     1
102
RTVSPropertyOp59
 70
     1
102
RTVSPropertyOp60
 70
     1
102
RTVSPropertyOp61
 70
     1
102
RTVSPropertyOp62
 70
     1
  0
XRECORD
  5
8CAC
102
{ACAD_REACTORS
330
8CAB
102
}
330
8CAB
100
AcDbXrecord
280
     1
102
RTVSPost2010Prop28
280
     0
102
RTVSPost2010PropOp28
 70
     1
102
RTVSPost2010Prop29
280
     1
102
RTVSPost2010PropOp29
 70
     1
102
RTVSPost2010Prop30
280
     1
102
RTVSPost2010PropOp30
 70
     1
102
RTVSPost2010Prop31
280
     0
102
RTVSPost2010PropOp31
 70
     1
102
RTVSPost2010Prop32
280
     0
102
RTVSPost2010PropOp32
 70
     1
102
RTVSPost2010Prop33
280
     0
102
RTVSPost2010PropOp33
 70
     1
102
RTVSPost2010Prop34
280
     0
102
RTVSPost2010PropOp34
 70
     1
102
RTVSPost2010Prop35
280
     0
102
RTVSPost2010PropOp35
 70
     1
102
RTVSPost2010Prop36
280
     0
102
RTVSPost2010PropOp36
 70
     1
102
RTVSPost2010Prop37
 90
       50
102
RTVSPost2010PropOp37
 70
     1
102
RTVSPost2010Prop38
140
0.0
102
RTVSPost2010PropOp38
 70
     1
102
RTVSPost2010Prop39
140
1.0
102
RTVSPost2010PropOp39
 70
     1
102
RTVSPost2010Prop40
 90
        0
102
RTVSPost2010PropOp40
 70
     1
102
RTVSPost2010Prop41ColorIndex
 90
       18
102
RTVSPost2010Prop41ColorRGB
 90
        0
102
RTVSPost2010PropOp41
 70
     1
102
RTVSPost2010Prop42
 90
       50
102
RTVSPost2010PropOp42
 70
     1
102
RTVSPost2010Prop43
 90
        3
102
RTVSPost2010PropOp43
 70
     1
102
RTVSPost2010Prop44ColorIndex
 90
        5
102
RTVSPost2010Prop44ColorRGB
 90
      255
102
RTVSPost2010PropOp44
 70
     1
102
RTVSPost2010Prop45
280
     0
102
RTVSPost2010PropOp45
 70
     1
102
RTVSPost2010Prop46
 90
       50
102
RTVSPost2010PropOp46
 70
     1
102
RTVSPost2010Prop47
 90
       50
102
RTVSPost2010PropOp47
 70
     1
102
RTVSPost2010Prop48
 90
       50
102
RTVSPost2010PropOp48
 70
     1
102
RTVSPost2010Prop49
280
     0
102
RTVSPost2010PropOp49
 70
     1
102
RTVSPost2010Prop50
 90
       50
102
RTVSPost2010PropOp50
 70
     1
102
RTVSPost2010Prop51ColorIndex
 90
      256
102
RTVSPost2010Prop51ColorRGB
 90
-16777216
102
RTVSPost2010PropOp51
 70
     0
102
RTVSPost2010Prop52
140
1.0
102
RTVSPost2010PropOp52
 70
     0
102
RTVSPost2010Prop53
 90
        2
102
RTVSPost2010PropOp53
 70
     1
102
RTVSPost2010Prop54
  1
strokes_ogs.tif
102
RTVSPost2010PropOp54
 70
     1
102
RTVSPost2010Prop55
280
     0
102
RTVSPost2010PropOp55
 70
     1
102
RTVSPost2010Prop56
140
1.0
102
RTVSPost2010PropOp56
 70
     1
102
RTVSPost2010Prop57
140
1.0
102
RTVSPost2010PropOp57
 70
     1
102
RTVSPropertyOp0
 70
     1
102
RTVSPropertyOp1
 70
     1
102
RTVSPropertyOp2
 70
     1
102
RTVSPropertyOp3
 70
     1
102
RTVSPropertyOp4
 70
     1
102
RTVSPropertyOp5
 70
     1
102
RTVSPropertyOp6
 70
     1
102
RTVSPropertyOp7
 70
     1
102
RTVSPropertyOp8
 70
     1
102
RTVSPropertyOp9
 70
     1
102
RTVSPropertyOp10
 70
     1
102
RTVSPropertyOp11
 70
     1
102
RTVSPropertyOp12
 70
     1
102
RTVSPropertyOp13
 70
     1
102
RTVSPropertyOp14
 70
     1
102
RTVSPropertyOp15
 70
     1
102
RTVSPropertyOp16
 70
     1
102
RTVSPropertyOp17
 70
     1
102
RTVSPropertyOp18
 70
     1
102
RTVSPropertyOp19
 70
     1
102
RTVSPropertyOp20
 70
     1
102
RTVSPropertyOp21
 70
     1
102
RTVSPropertyOp22
 70
     1
102
RTVSPropertyOp23
 70
     1
102
RTVSPropertyOp24
 70
     1
102
RTVSPropertyOp25
 70
     1
102
RTVSPropertyOp26
 70
     1
102
RTVSPropertyOp27
 70
     1
102
RTVSPropertyOp28
 70
     1
102
RTVSPropertyOp29
 70
     1
102
RTVSPropertyOp30
 70
     1
102
RTVSPropertyOp31
 70
     1
102
RTVSPropertyOp32
 70
     1
102
RTVSPropertyOp33
 70
     1
102
RTVSPropertyOp34
 70
     1
102
RTVSPropertyOp35
 70
     1
102
RTVSPropertyOp36
 70
     1
102
RTVSPropertyOp37
 70
     1
102
RTVSPropertyOp38
 70
     1
102
RTVSPropertyOp39
 70
     1
102
RTVSPropertyOp40
 70
     1
102
RTVSPropertyOp41
 70
     1
102
RTVSPropertyOp42
 70
     1
102
RTVSPropertyOp43
 70
     1
102
RTVSPropertyOp44
 70
     1
102
RTVSPropertyOp45
 70
     1
102
RTVSPropertyOp46
 70
     1
102
RTVSPropertyOp47
 70
     1
102
RTVSPropertyOp48
 70
     1
102
RTVSPropertyOp49
 70
     1
102
RTVSPropertyOp50
 70
     1
102
RTVSPropertyOp51
 70
     0
102
RTVSPropertyOp52
 70
     0
102
RTVSPropertyOp53
 70
     1
102
RTVSPropertyOp54
 70
     1
102
RTVSPropertyOp55
 70
     1
102
RTVSPropertyOp56
 70
     1
102
RTVSPropertyOp57
 70
     1
102
RTVSPropertyOp58
 70
     1
102
RTVSPropertyOp59
 70
     1
102
RTVSPropertyOp60
 70
     1
102
RTVSPropertyOp61
 70
     1
102
RTVSPropertyOp62
 70
     1
  0
XRECORD
  5
8CCA
102
{ACAD_REACTORS
330
8CC9
102
}
330
8CC9
100
AcDbXrecord
280
     1
102
RTVSPost2010Prop28
280
     0
102
RTVSPost2010PropOp28
 70
     1
102
RTVSPost2010Prop29
280
     1
102
RTVSPost2010PropOp29
 70
     1
102
RTVSPost2010Prop30
280
     1
102
RTVSPost2010PropOp30
 70
     1
102
RTVSPost2010Prop31
280
     0
102
RTVSPost2010PropOp31
 70
     1
102
RTVSPost2010Prop32
280
     0
102
RTVSPost2010PropOp32
 70
     1
102
RTVSPost2010Prop33
280
     0
102
RTVSPost2010PropOp33
 70
     1
102
RTVSPost2010Prop34
280
     0
102
RTVSPost2010PropOp34
 70
     1
102
RTVSPost2010Prop35
280
     0
102
RTVSPost2010PropOp35
 70
     1
102
RTVSPost2010Prop36
280
     0
102
RTVSPost2010PropOp36
 70
     1
102
RTVSPost2010Prop37
 90
       50
102
RTVSPost2010PropOp37
 70
     1
102
RTVSPost2010Prop38
140
0.0
102
RTVSPost2010PropOp38
 70
     1
102
RTVSPost2010Prop39
140
1.0
102
RTVSPost2010PropOp39
 70
     1
102
RTVSPost2010Prop40
 90
        0
102
RTVSPost2010PropOp40
 70
     1
102
RTVSPost2010Prop41ColorIndex
 90
       18
102
RTVSPost2010Prop41ColorRGB
 90
        0
102
RTVSPost2010PropOp41
 70
     1
102
RTVSPost2010Prop42
 90
       50
102
RTVSPost2010PropOp42
 70
     1
102
RTVSPost2010Prop43
 90
        3
102
RTVSPost2010PropOp43
 70
     1
102
RTVSPost2010Prop44ColorIndex
 90
        5
102
RTVSPost2010Prop44ColorRGB
 90
      255
102
RTVSPost2010PropOp44
 70
     1
102
RTVSPost2010Prop45
280
     0
102
RTVSPost2010PropOp45
 70
     1
102
RTVSPost2010Prop46
 90
       50
102
RTVSPost2010PropOp46
 70
     1
102
RTVSPost2010Prop47
 90
       50
102
RTVSPost2010PropOp47
 70
     1
102
RTVSPost2010Prop48
 90
       50
102
RTVSPost2010PropOp48
 70
     1
102
RTVSPost2010Prop49
280
     0
102
RTVSPost2010PropOp49
 70
     1
102
RTVSPost2010Prop50
 90
       50
102
RTVSPost2010PropOp50
 70
     1
102
RTVSPost2010Prop51ColorIndex
 90
      256
102
RTVSPost2010Prop51ColorRGB
 90
-16777216
102
RTVSPost2010PropOp51
 70
     0
102
RTVSPost2010Prop52
140
1.0
102
RTVSPost2010PropOp52
 70
     0
102
RTVSPost2010Prop53
 90
        2
102
RTVSPost2010PropOp53
 70
     1
102
RTVSPost2010Prop54
  1
strokes_ogs.tif
102
RTVSPost2010PropOp54
 70
     1
102
RTVSPost2010Prop55
280
     0
102
RTVSPost2010PropOp55
 70
     1
102
RTVSPost2010Prop56
140
1.0
102
RTVSPost2010PropOp56
 70
     1
102
RTVSPost2010Prop57
140
1.0
102
RTVSPost2010PropOp57
 70
     1
102
RTVSPropertyOp0
 70
     1
102
RTVSPropertyOp1
 70
     1
102
RTVSPropertyOp2
 70
     1
102
RTVSPropertyOp3
 70
     1
102
RTVSPropertyOp4
 70
     1
102
RTVSPropertyOp5
 70
     1
102
RTVSPropertyOp6
 70
     1
102
RTVSPropertyOp7
 70
     1
102
RTVSPropertyOp8
 70
     1
102
RTVSPropertyOp9
 70
     1
102
RTVSPropertyOp10
 70
     1
102
RTVSPropertyOp11
 70
     1
102
RTVSPropertyOp12
 70
     1
102
RTVSPropertyOp13
 70
     1
102
RTVSPropertyOp14
 70
     1
102
RTVSPropertyOp15
 70
     1
102
RTVSPropertyOp16
 70
     1
102
RTVSPropertyOp17
 70
     1
102
RTVSPropertyOp18
 70
     1
102
RTVSPropertyOp19
 70
     1
102
RTVSPropertyOp20
 70
     1
102
RTVSPropertyOp21
 70
     1
102
RTVSPropertyOp22
 70
     1
102
RTVSPropertyOp23
 70
     1
102
RTVSPropertyOp24
 70
     1
102
RTVSPropertyOp25
 70
     1
102
RTVSPropertyOp26
 70
     1
102
RTVSPropertyOp27
 70
     1
102
RTVSPropertyOp28
 70
     1
102
RTVSPropertyOp29
 70
     1
102
RTVSPropertyOp30
 70
     1
102
RTVSPropertyOp31
 70
     1
102
RTVSPropertyOp32
 70
     1
102
RTVSPropertyOp33
 70
     1
102
RTVSPropertyOp34
 70
     1
102
RTVSPropertyOp35
 70
     1
102
RTVSPropertyOp36
 70
     1
102
RTVSPropertyOp37
 70
     1
102
RTVSPropertyOp38
 70
     1
102
RTVSPropertyOp39
 70
     1
102
RTVSPropertyOp40
 70
     1
102
RTVSPropertyOp41
 70
     1
102
RTVSPropertyOp42
 70
     1
102
RTVSPropertyOp43
 70
     1
102
RTVSPropertyOp44
 70
     1
102
RTVSPropertyOp45
 70
     1
102
RTVSPropertyOp46
 70
     1
102
RTVSPropertyOp47
 70
     1
102
RTVSPropertyOp48
 70
     1
102
RTVSPropertyOp49
 70
     1
102
RTVSPropertyOp50
 70
     1
102
RTVSPropertyOp51
 70
     0
102
RTVSPropertyOp52
 70
     0
102
RTVSPropertyOp53
 70
     1
102
RTVSPropertyOp54
 70
     1
102
RTVSPropertyOp55
 70
     1
102
RTVSPropertyOp56
 70
     1
102
RTVSPropertyOp57
 70
     1
102
RTVSPropertyOp58
 70
     1
102
RTVSPropertyOp59
 70
     1
102
RTVSPropertyOp60
 70
     1
102
RTVSPropertyOp61
 70
     1
102
RTVSPropertyOp62
 70
     1
  0
XRECORD
  5
8CC8
102
{ACAD_REACTORS
330
8CC7
102
}
330
8CC7
100
AcDbXrecord
280
     1
102
RTVSPost2010Prop28
280
     0
102
RTVSPost2010PropOp28
 70
     1
102
RTVSPost2010Prop29
280
     1
102
RTVSPost2010PropOp29
 70
     1
102
RTVSPost2010Prop30
280
     1
102
RTVSPost2010PropOp30
 70
     1
102
RTVSPost2010Prop31
280
     0
102
RTVSPost2010PropOp31
 70
     1
102
RTVSPost2010Prop32
280
     0
102
RTVSPost2010PropOp32
 70
     1
102
RTVSPost2010Prop33
280
     0
102
RTVSPost2010PropOp33
 70
     1
102
RTVSPost2010Prop34
280
     0
102
RTVSPost2010PropOp34
 70
     1
102
RTVSPost2010Prop35
280
     0
102
RTVSPost2010PropOp35
 70
     1
102
RTVSPost2010Prop36
280
     0
102
RTVSPost2010PropOp36
 70
     1
102
RTVSPost2010Prop37
 90
       50
102
RTVSPost2010PropOp37
 70
     1
102
RTVSPost2010Prop38
140
0.0
102
RTVSPost2010PropOp38
 70
     1
102
RTVSPost2010Prop39
140
1.0
102
RTVSPost2010PropOp39
 70
     1
102
RTVSPost2010Prop40
 90
        0
102
RTVSPost2010PropOp40
 70
     1
102
RTVSPost2010Prop41ColorIndex
 90
       18
102
RTVSPost2010Prop41ColorRGB
 90
        0
102
RTVSPost2010PropOp41
 70
     1
102
RTVSPost2010Prop42
 90
       50
102
RTVSPost2010PropOp42
 70
     1
102
RTVSPost2010Prop43
 90
        3
102
RTVSPost2010PropOp43
 70
     1
102
RTVSPost2010Prop44ColorIndex
 90
        5
102
RTVSPost2010Prop44ColorRGB
 90
      255
102
RTVSPost2010PropOp44
 70
     1
102
RTVSPost2010Prop45
280
     0
102
RTVSPost2010PropOp45
 70
     1
102
RTVSPost2010Prop46
 90
       50
102
RTVSPost2010PropOp46
 70
     1
102
RTVSPost2010Prop47
 90
       50
102
RTVSPost2010PropOp47
 70
     1
102
RTVSPost2010Prop48
 90
       50
102
RTVSPost2010PropOp48
 70
     1
102
RTVSPost2010Prop49
280
     0
102
RTVSPost2010PropOp49
 70
     1
102
RTVSPost2010Prop50
 90
       50
102
RTVSPost2010PropOp50
 70
     1
102
RTVSPost2010Prop51ColorIndex
 90
      256
102
RTVSPost2010Prop51ColorRGB
 90
-16777216
102
RTVSPost2010PropOp51
 70
     0
102
RTVSPost2010Prop52
140
1.0
102
RTVSPost2010PropOp52
 70
     0
102
RTVSPost2010Prop53
 90
        2
102
RTVSPost2010PropOp53
 70
     1
102
RTVSPost2010Prop54
  1
strokes_ogs.tif
102
RTVSPost2010PropOp54
 70
     1
102
RTVSPost2010Prop55
280
     0
102
RTVSPost2010PropOp55
 70
     1
102
RTVSPost2010Prop56
140
1.0
102
RTVSPost2010PropOp56
 70
     1
102
RTVSPost2010Prop57
140
1.0
102
RTVSPost2010PropOp57
 70
     1
102
RTVSPropertyOp0
 70
     1
102
RTVSPropertyOp1
 70
     1
102
RTVSPropertyOp2
 70
     1
102
RTVSPropertyOp3
 70
     1
102
RTVSPropertyOp4
 70
     1
102
RTVSPropertyOp5
 70
     1
102
RTVSPropertyOp6
 70
     1
102
RTVSPropertyOp7
 70
     1
102
RTVSPropertyOp8
 70
     1
102
RTVSPropertyOp9
 70
     1
102
RTVSPropertyOp10
 70
     1
102
RTVSPropertyOp11
 70
     1
102
RTVSPropertyOp12
 70
     1
102
RTVSPropertyOp13
 70
     1
102
RTVSPropertyOp14
 70
     1
102
RTVSPropertyOp15
 70
     1
102
RTVSPropertyOp16
 70
     1
102
RTVSPropertyOp17
 70
     1
102
RTVSPropertyOp18
 70
     1
102
RTVSPropertyOp19
 70
     1
102
RTVSPropertyOp20
 70
     1
102
RTVSPropertyOp21
 70
     1
102
RTVSPropertyOp22
 70
     1
102
RTVSPropertyOp23
 70
     1
102
RTVSPropertyOp24
 70
     1
102
RTVSPropertyOp25
 70
     1
102
RTVSPropertyOp26
 70
     1
102
RTVSPropertyOp27
 70
     1
102
RTVSPropertyOp28
 70
     1
102
RTVSPropertyOp29
 70
     1
102
RTVSPropertyOp30
 70
     1
102
RTVSPropertyOp31
 70
     1
102
RTVSPropertyOp32
 70
     1
102
RTVSPropertyOp33
 70
     1
102
RTVSPropertyOp34
 70
     1
102
RTVSPropertyOp35
 70
     1
102
RTVSPropertyOp36
 70
     1
102
RTVSPropertyOp37
 70
     1
102
RTVSPropertyOp38
 70
     1
102
RTVSPropertyOp39
 70
     1
102
RTVSPropertyOp40
 70
     1
102
RTVSPropertyOp41
 70
     1
102
RTVSPropertyOp42
 70
     1
102
RTVSPropertyOp43
 70
     1
102
RTVSPropertyOp44
 70
     1
102
RTVSPropertyOp45
 70
     1
102
RTVSPropertyOp46
 70
     1
102
RTVSPropertyOp47
 70
     1
102
RTVSPropertyOp48
 70
     1
102
RTVSPropertyOp49
 70
     1
102
RTVSPropertyOp50
 70
     1
102
RTVSPropertyOp51
 70
     0
102
RTVSPropertyOp52
 70
     0
102
RTVSPropertyOp53
 70
     1
102
RTVSPropertyOp54
 70
     1
102
RTVSPropertyOp55
 70
     1
102
RTVSPropertyOp56
 70
     1
102
RTVSPropertyOp57
 70
     1
102
RTVSPropertyOp58
 70
     1
102
RTVSPropertyOp59
 70
     1
102
RTVSPropertyOp60
 70
     1
102
RTVSPropertyOp61
 70
     1
102
RTVSPropertyOp62
 70
     1
  0
XRECORD
  5
8CC2
102
{ACAD_REACTORS
330
8CC1
102
}
330
8CC1
100
AcDbXrecord
280
     1
102
RTVSPost2010Prop28
280
     0
102
RTVSPost2010PropOp28
 70
     1
102
RTVSPost2010Prop29
280
     1
102
RTVSPost2010PropOp29
 70
     1
102
RTVSPost2010Prop30
280
     1
102
RTVSPost2010PropOp30
 70
     1
102
RTVSPost2010Prop31
280
     0
102
RTVSPost2010PropOp31
 70
     1
102
RTVSPost2010Prop32
280
     0
102
RTVSPost2010PropOp32
 70
     1
102
RTVSPost2010Prop33
280
     0
102
RTVSPost2010PropOp33
 70
     1
102
RTVSPost2010Prop34
280
     0
102
RTVSPost2010PropOp34
 70
     1
102
RTVSPost2010Prop35
280
     0
102
RTVSPost2010PropOp35
 70
     1
102
RTVSPost2010Prop36
280
     0
102
RTVSPost2010PropOp36
 70
     1
102
RTVSPost2010Prop37
 90
       50
102
RTVSPost2010PropOp37
 70
     1
102
RTVSPost2010Prop38
140
0.0
102
RTVSPost2010PropOp38
 70
     1
102
RTVSPost2010Prop39
140
1.0
102
RTVSPost2010PropOp39
 70
     1
102
RTVSPost2010Prop40
 90
        0
102
RTVSPost2010PropOp40
 70
     1
102
RTVSPost2010Prop41ColorIndex
 90
       18
102
RTVSPost2010Prop41ColorRGB
 90
        0
102
RTVSPost2010PropOp41
 70
     1
102
RTVSPost2010Prop42
 90
       50
102
RTVSPost2010PropOp42
 70
     1
102
RTVSPost2010Prop43
 90
        3
102
RTVSPost2010PropOp43
 70
     1
102
RTVSPost2010Prop44ColorIndex
 90
        5
102
RTVSPost2010Prop44ColorRGB
 90
      255
102
RTVSPost2010PropOp44
 70
     1
102
RTVSPost2010Prop45
280
     0
102
RTVSPost2010PropOp45
 70
     1
102
RTVSPost2010Prop46
 90
       50
102
RTVSPost2010PropOp46
 70
     1
102
RTVSPost2010Prop47
 90
       50
102
RTVSPost2010PropOp47
 70
     1
102
RTVSPost2010Prop48
 90
       50
102
RTVSPost2010PropOp48
 70
     1
102
RTVSPost2010Prop49
280
     0
102
RTVSPost2010PropOp49
 70
     1
102
RTVSPost2010Prop50
 90
       50
102
RTVSPost2010PropOp50
 70
     1
102
RTVSPost2010Prop51ColorIndex
 90
      256
102
RTVSPost2010Prop51ColorRGB
 90
-16777216
102
RTVSPost2010PropOp51
 70
     0
102
RTVSPost2010Prop52
140
1.0
102
RTVSPost2010PropOp52
 70
     0
102
RTVSPost2010Prop53
 90
        2
102
RTVSPost2010PropOp53
 70
     1
102
RTVSPost2010Prop54
  1
strokes_ogs.tif
102
RTVSPost2010PropOp54
 70
     1
102
RTVSPost2010Prop55
280
     0
102
RTVSPost2010PropOp55
 70
     1
102
RTVSPost2010Prop56
140
1.0
102
RTVSPost2010PropOp56
 70
     1
102
RTVSPost2010Prop57
140
1.0
102
RTVSPost2010PropOp57
 70
     1
102
RTVSPropertyOp0
 70
     1
102
RTVSPropertyOp1
 70
     1
102
RTVSPropertyOp2
 70
     1
102
RTVSPropertyOp3
 70
     1
102
RTVSPropertyOp4
 70
     1
102
RTVSPropertyOp5
 70
     1
102
RTVSPropertyOp6
 70
     1
102
RTVSPropertyOp7
 70
     1
102
RTVSPropertyOp8
 70
     1
102
RTVSPropertyOp9
 70
     1
102
RTVSPropertyOp10
 70
     1
102
RTVSPropertyOp11
 70
     1
102
RTVSPropertyOp12
 70
     1
102
RTVSPropertyOp13
 70
     1
102
RTVSPropertyOp14
 70
     1
102
RTVSPropertyOp15
 70
     1
102
RTVSPropertyOp16
 70
     1
102
RTVSPropertyOp17
 70
     1
102
RTVSPropertyOp18
 70
     1
102
RTVSPropertyOp19
 70
     1
102
RTVSPropertyOp20
 70
     1
102
RTVSPropertyOp21
 70
     1
102
RTVSPropertyOp22
 70
     1
102
RTVSPropertyOp23
 70
     1
102
RTVSPropertyOp24
 70
     1
102
RTVSPropertyOp25
 70
     1
102
RTVSPropertyOp26
 70
     1
102
RTVSPropertyOp27
 70
     1
102
RTVSPropertyOp28
 70
     1
102
RTVSPropertyOp29
 70
     1
102
RTVSPropertyOp30
 70
     1
102
RTVSPropertyOp31
 70
     1
102
RTVSPropertyOp32
 70
     1
102
RTVSPropertyOp33
 70
     1
102
RTVSPropertyOp34
 70
     1
102
RTVSPropertyOp35
 70
     1
102
RTVSPropertyOp36
 70
     1
102
RTVSPropertyOp37
 70
     1
102
RTVSPropertyOp38
 70
     1
102
RTVSPropertyOp39
 70
     1
102
RTVSPropertyOp40
 70
     1
102
RTVSPropertyOp41
 70
     1
102
RTVSPropertyOp42
 70
     1
102
RTVSPropertyOp43
 70
     1
102
RTVSPropertyOp44
 70
     1
102
RTVSPropertyOp45
 70
     1
102
RTVSPropertyOp46
 70
     1
102
RTVSPropertyOp47
 70
     1
102
RTVSPropertyOp48
 70
     1
102
RTVSPropertyOp49
 70
     1
102
RTVSPropertyOp50
 70
     1
102
RTVSPropertyOp51
 70
     0
102
RTVSPropertyOp52
 70
     0
102
RTVSPropertyOp53
 70
     1
102
RTVSPropertyOp54
 70
     1
102
RTVSPropertyOp55
 70
     1
102
RTVSPropertyOp56
 70
     1
102
RTVSPropertyOp57
 70
     1
102
RTVSPropertyOp58
 70
     1
102
RTVSPropertyOp59
 70
     1
102
RTVSPropertyOp60
 70
     1
102
RTVSPropertyOp61
 70
     1
102
RTVSPropertyOp62
 70
     1
  0
XRECORD
  5
8CC4
102
{ACAD_REACTORS
330
8CC3
102
}
330
8CC3
100
AcDbXrecord
280
     1
102
RTVSPost2010Prop28
280
     0
102
RTVSPost2010PropOp28
 70
     1
102
RTVSPost2010Prop29
280
     1
102
RTVSPost2010PropOp29
 70
     1
102
RTVSPost2010Prop30
280
     1
102
RTVSPost2010PropOp30
 70
     1
102
RTVSPost2010Prop31
280
     0
102
RTVSPost2010PropOp31
 70
     1
102
RTVSPost2010Prop32
280
     0
102
RTVSPost2010PropOp32
 70
     1
102
RTVSPost2010Prop33
280
     0
102
RTVSPost2010PropOp33
 70
     1
102
RTVSPost2010Prop34
280
     0
102
RTVSPost2010PropOp34
 70
     1
102
RTVSPost2010Prop35
280
     0
102
RTVSPost2010PropOp35
 70
     1
102
RTVSPost2010Prop36
280
     0
102
RTVSPost2010PropOp36
 70
     1
102
RTVSPost2010Prop37
 90
       50
102
RTVSPost2010PropOp37
 70
     1
102
RTVSPost2010Prop38
140
0.0
102
RTVSPost2010PropOp38
 70
     1
102
RTVSPost2010Prop39
140
1.0
102
RTVSPost2010PropOp39
 70
     1
102
RTVSPost2010Prop40
 90
        0
102
RTVSPost2010PropOp40
 70
     1
102
RTVSPost2010Prop41ColorIndex
 90
       18
102
RTVSPost2010Prop41ColorRGB
 90
        0
102
RTVSPost2010PropOp41
 70
     1
102
RTVSPost2010Prop42
 90
       50
102
RTVSPost2010PropOp42
 70
     1
102
RTVSPost2010Prop43
 90
        3
102
RTVSPost2010PropOp43
 70
     1
102
RTVSPost2010Prop44ColorIndex
 90
        5
102
RTVSPost2010Prop44ColorRGB
 90
      255
102
RTVSPost2010PropOp44
 70
     1
102
RTVSPost2010Prop45
280
     0
102
RTVSPost2010PropOp45
 70
     1
102
RTVSPost2010Prop46
 90
       50
102
RTVSPost2010PropOp46
 70
     1
102
RTVSPost2010Prop47
 90
       50
102
RTVSPost2010PropOp47
 70
     1
102
RTVSPost2010Prop48
 90
       50
102
RTVSPost2010PropOp48
 70
     1
102
RTVSPost2010Prop49
280
     0
102
RTVSPost2010PropOp49
 70
     1
102
RTVSPost2010Prop50
 90
       50
102
RTVSPost2010PropOp50
 70
     1
102
RTVSPost2010Prop51ColorIndex
 90
      256
102
RTVSPost2010Prop51ColorRGB
 90
-16777216
102
RTVSPost2010PropOp51
 70
     0
102
RTVSPost2010Prop52
140
1.0
102
RTVSPost2010PropOp52
 70
     0
102
RTVSPost2010Prop53
 90
        2
102
RTVSPost2010PropOp53
 70
     1
102
RTVSPost2010Prop54
  1
strokes_ogs.tif
102
RTVSPost2010PropOp54
 70
     1
102
RTVSPost2010Prop55
280
     0
102
RTVSPost2010PropOp55
 70
     1
102
RTVSPost2010Prop56
140
1.0
102
RTVSPost2010PropOp56
 70
     1
102
RTVSPost2010Prop57
140
1.0
102
RTVSPost2010PropOp57
 70
     1
102
RTVSPropertyOp0
 70
     1
102
RTVSPropertyOp1
 70
     1
102
RTVSPropertyOp2
 70
     1
102
RTVSPropertyOp3
 70
     1
102
RTVSPropertyOp4
 70
     1
102
RTVSPropertyOp5
 70
     1
102
RTVSPropertyOp6
 70
     1
102
RTVSPropertyOp7
 70
     1
102
RTVSPropertyOp8
 70
     1
102
RTVSPropertyOp9
 70
     1
102
RTVSPropertyOp10
 70
     1
102
RTVSPropertyOp11
 70
     1
102
RTVSPropertyOp12
 70
     1
102
RTVSPropertyOp13
 70
     1
102
RTVSPropertyOp14
 70
     1
102
RTVSPropertyOp15
 70
     1
102
RTVSPropertyOp16
 70
     1
102
RTVSPropertyOp17
 70
     1
102
RTVSPropertyOp18
 70
     1
102
RTVSPropertyOp19
 70
     1
102
RTVSPropertyOp20
 70
     1
102
RTVSPropertyOp21
 70
     1
102
RTVSPropertyOp22
 70
     1
102
RTVSPropertyOp23
 70
     1
102
RTVSPropertyOp24
 70
     1
102
RTVSPropertyOp25
 70
     1
102
RTVSPropertyOp26
 70
     1
102
RTVSPropertyOp27
 70
     1
102
RTVSPropertyOp28
 70
     1
102
RTVSPropertyOp29
 70
     1
102
RTVSPropertyOp30
 70
     1
102
RTVSPropertyOp31
 70
     1
102
RTVSPropertyOp32
 70
     1
102
RTVSPropertyOp33
 70
     1
102
RTVSPropertyOp34
 70
     1
102
RTVSPropertyOp35
 70
     1
102
RTVSPropertyOp36
 70
     1
102
RTVSPropertyOp37
 70
     1
102
RTVSPropertyOp38
 70
     1
102
RTVSPropertyOp39
 70
     1
102
RTVSPropertyOp40
 70
     1
102
RTVSPropertyOp41
 70
     1
102
RTVSPropertyOp42
 70
     1
102
RTVSPropertyOp43
 70
     1
102
RTVSPropertyOp44
 70
     1
102
RTVSPropertyOp45
 70
     1
102
RTVSPropertyOp46
 70
     1
102
RTVSPropertyOp47
 70
     1
102
RTVSPropertyOp48
 70
     1
102
RTVSPropertyOp49
 70
     1
102
RTVSPropertyOp50
 70
     1
102
RTVSPropertyOp51
 70
     0
102
RTVSPropertyOp52
 70
     0
102
RTVSPropertyOp53
 70
     1
102
RTVSPropertyOp54
 70
     1
102
RTVSPropertyOp55
 70
     1
102
RTVSPropertyOp56
 70
     1
102
RTVSPropertyOp57
 70
     1
102
RTVSPropertyOp58
 70
     1
102
RTVSPropertyOp59
 70
     1
102
RTVSPropertyOp60
 70
     1
102
RTVSPropertyOp61
 70
     1
102
RTVSPropertyOp62
 70
     1
  0
XRECORD
  5
8CB2
102
{ACAD_REACTORS
330
8CB1
102
}
330
8CB1
100
AcDbXrecord
280
     1
102
RTVSPost2010Prop28
280
     0
102
RTVSPost2010PropOp28
 70
     1
102
RTVSPost2010Prop29
280
     1
102
RTVSPost2010PropOp29
 70
     1
102
RTVSPost2010Prop30
280
     1
102
RTVSPost2010PropOp30
 70
     1
102
RTVSPost2010Prop31
280
     0
102
RTVSPost2010PropOp31
 70
     1
102
RTVSPost2010Prop32
280
     0
102
RTVSPost2010PropOp32
 70
     1
102
RTVSPost2010Prop33
280
     0
102
RTVSPost2010PropOp33
 70
     1
102
RTVSPost2010Prop34
280
     0
102
RTVSPost2010PropOp34
 70
     1
102
RTVSPost2010Prop35
280
     0
102
RTVSPost2010PropOp35
 70
     1
102
RTVSPost2010Prop36
280
     0
102
RTVSPost2010PropOp36
 70
     1
102
RTVSPost2010Prop37
 90
       50
102
RTVSPost2010PropOp37
 70
     1
102
RTVSPost2010Prop38
140
0.0
102
RTVSPost2010PropOp38
 70
     1
102
RTVSPost2010Prop39
140
1.0
102
RTVSPost2010PropOp39
 70
     1
102
RTVSPost2010Prop40
 90
        0
102
RTVSPost2010PropOp40
 70
     1
102
RTVSPost2010Prop41ColorIndex
 90
       18
102
RTVSPost2010Prop41ColorRGB
 90
        0
102
RTVSPost2010PropOp41
 70
     1
102
RTVSPost2010Prop42
 90
       50
102
RTVSPost2010PropOp42
 70
     1
102
RTVSPost2010Prop43
 90
        3
102
RTVSPost2010PropOp43
 70
     1
102
RTVSPost2010Prop44ColorIndex
 90
        5
102
RTVSPost2010Prop44ColorRGB
 90
      255
102
RTVSPost2010PropOp44
 70
     1
102
RTVSPost2010Prop45
280
     0
102
RTVSPost2010PropOp45
 70
     1
102
RTVSPost2010Prop46
 90
       50
102
RTVSPost2010PropOp46
 70
     1
102
RTVSPost2010Prop47
 90
       50
102
RTVSPost2010PropOp47
 70
     1
102
RTVSPost2010Prop48
 90
       50
102
RTVSPost2010PropOp48
 70
     1
102
RTVSPost2010Prop49
280
     0
102
RTVSPost2010PropOp49
 70
     1
102
RTVSPost2010Prop50
 90
       50
102
RTVSPost2010PropOp50
 70
     1
102
RTVSPost2010Prop51ColorIndex
 90
      256
102
RTVSPost2010Prop51ColorRGB
 90
-16777216
102
RTVSPost2010PropOp51
 70
     0
102
RTVSPost2010Prop52
140
1.0
102
RTVSPost2010PropOp52
 70
     0
102
RTVSPost2010Prop53
 90
        2
102
RTVSPost2010PropOp53
 70
     1
102
RTVSPost2010Prop54
  1
strokes_ogs.tif
102
RTVSPost2010PropOp54
 70
     1
102
RTVSPost2010Prop55
280
     0
102
RTVSPost2010PropOp55
 70
     1
102
RTVSPost2010Prop56
140
1.0
102
RTVSPost2010PropOp56
 70
     1
102
RTVSPost2010Prop57
140
1.0
102
RTVSPost2010PropOp57
 70
     1
102
RTVSPropertyOp0
 70
     1
102
RTVSPropertyOp1
 70
     1
102
RTVSPropertyOp2
 70
     1
102
RTVSPropertyOp3
 70
     1
102
RTVSPropertyOp4
 70
     1
102
RTVSPropertyOp5
 70
     1
102
RTVSPropertyOp6
 70
     1
102
RTVSPropertyOp7
 70
     1
102
RTVSPropertyOp8
 70
     1
102
RTVSPropertyOp9
 70
     1
102
RTVSPropertyOp10
 70
     1
102
RTVSPropertyOp11
 70
     1
102
RTVSPropertyOp12
 70
     1
102
RTVSPropertyOp13
 70
     1
102
RTVSPropertyOp14
 70
     1
102
RTVSPropertyOp15
 70
     1
102
RTVSPropertyOp16
 70
     1
102
RTVSPropertyOp17
 70
     1
102
RTVSPropertyOp18
 70
     1
102
RTVSPropertyOp19
 70
     1
102
RTVSPropertyOp20
 70
     1
102
RTVSPropertyOp21
 70
     1
102
RTVSPropertyOp22
 70
     1
102
RTVSPropertyOp23
 70
     1
102
RTVSPropertyOp24
 70
     1
102
RTVSPropertyOp25
 70
     1
102
RTVSPropertyOp26
 70
     1
102
RTVSPropertyOp27
 70
     1
102
RTVSPropertyOp28
 70
     1
102
RTVSPropertyOp29
 70
     1
102
RTVSPropertyOp30
 70
     1
102
RTVSPropertyOp31
 70
     1
102
RTVSPropertyOp32
 70
     1
102
RTVSPropertyOp33
 70
     1
102
RTVSPropertyOp34
 70
     1
102
RTVSPropertyOp35
 70
     1
102
RTVSPropertyOp36
 70
     1
102
RTVSPropertyOp37
 70
     1
102
RTVSPropertyOp38
 70
     1
102
RTVSPropertyOp39
 70
     1
102
RTVSPropertyOp40
 70
     1
102
RTVSPropertyOp41
 70
     1
102
RTVSPropertyOp42
 70
     1
102
RTVSPropertyOp43
 70
     1
102
RTVSPropertyOp44
 70
     1
102
RTVSPropertyOp45
 70
     1
102
RTVSPropertyOp46
 70
     1
102
RTVSPropertyOp47
 70
     1
102
RTVSPropertyOp48
 70
     1
102
RTVSPropertyOp49
 70
     1
102
RTVSPropertyOp50
 70
     1
102
RTVSPropertyOp51
 70
     0
102
RTVSPropertyOp52
 70
     0
102
RTVSPropertyOp53
 70
     1
102
RTVSPropertyOp54
 70
     1
102
RTVSPropertyOp55
 70
     1
102
RTVSPropertyOp56
 70
     1
102
RTVSPropertyOp57
 70
     1
102
RTVSPropertyOp58
 70
     1
102
RTVSPropertyOp59
 70
     1
102
RTVSPropertyOp60
 70
     1
102
RTVSPropertyOp61
 70
     1
102
RTVSPropertyOp62
 70
     1
  0
XRECORD
  5
8CA6
102
{ACAD_REACTORS
330
8CA5
102
}
330
8CA5
100
AcDbXrecord
280
     1
102
RTVSPost2010Prop28
280
     0
102
RTVSPost2010PropOp28
 70
     1
102
RTVSPost2010Prop29
280
     1
102
RTVSPost2010PropOp29
 70
     1
102
RTVSPost2010Prop30
280
     1
102
RTVSPost2010PropOp30
 70
     1
102
RTVSPost2010Prop31
280
     0
102
RTVSPost2010PropOp31
 70
     1
102
RTVSPost2010Prop32
280
     0
102
RTVSPost2010PropOp32
 70
     1
102
RTVSPost2010Prop33
280
     0
102
RTVSPost2010PropOp33
 70
     1
102
RTVSPost2010Prop34
280
     0
102
RTVSPost2010PropOp34
 70
     1
102
RTVSPost2010Prop35
280
     0
102
RTVSPost2010PropOp35
 70
     1
102
RTVSPost2010Prop36
280
     0
102
RTVSPost2010PropOp36
 70
     1
102
RTVSPost2010Prop37
 90
       50
102
RTVSPost2010PropOp37
 70
     1
102
RTVSPost2010Prop38
140
0.0
102
RTVSPost2010PropOp38
 70
     1
102
RTVSPost2010Prop39
140
1.0
102
RTVSPost2010PropOp39
 70
     1
102
RTVSPost2010Prop40
 90
        0
102
RTVSPost2010PropOp40
 70
     1
102
RTVSPost2010Prop41ColorIndex
 90
       18
102
RTVSPost2010Prop41ColorRGB
 90
        0
102
RTVSPost2010PropOp41
 70
     1
102
RTVSPost2010Prop42
 90
       50
102
RTVSPost2010PropOp42
 70
     1
102
RTVSPost2010Prop43
 90
        3
102
RTVSPost2010PropOp43
 70
     1
102
RTVSPost2010Prop44ColorIndex
 90
        5
102
RTVSPost2010Prop44ColorRGB
 90
      255
102
RTVSPost2010PropOp44
 70
     1
102
RTVSPost2010Prop45
280
     0
102
RTVSPost2010PropOp45
 70
     1
102
RTVSPost2010Prop46
 90
       50
102
RTVSPost2010PropOp46
 70
     1
102
RTVSPost2010Prop47
 90
       50
102
RTVSPost2010PropOp47
 70
     1
102
RTVSPost2010Prop48
 90
       50
102
RTVSPost2010PropOp48
 70
     1
102
RTVSPost2010Prop49
280
     0
102
RTVSPost2010PropOp49
 70
     1
102
RTVSPost2010Prop50
 90
       50
102
RTVSPost2010PropOp50
 70
     1
102
RTVSPost2010Prop51ColorIndex
 90
      256
102
RTVSPost2010Prop51ColorRGB
 90
-16777216
102
RTVSPost2010PropOp51
 70
     0
102
RTVSPost2010Prop52
140
1.0
102
RTVSPost2010PropOp52
 70
     0
102
RTVSPost2010Prop53
 90
        2
102
RTVSPost2010PropOp53
 70
     1
102
RTVSPost2010Prop54
  1
strokes_ogs.tif
102
RTVSPost2010PropOp54
 70
     1
102
RTVSPost2010Prop55
280
     0
102
RTVSPost2010PropOp55
 70
     1
102
RTVSPost2010Prop56
140
1.0
102
RTVSPost2010PropOp56
 70
     1
102
RTVSPost2010Prop57
140
1.0
102
RTVSPost2010PropOp57
 70
     1
102
RTVSPropertyOp0
 70
     1
102
RTVSPropertyOp1
 70
     1
102
RTVSPropertyOp2
 70
     1
102
RTVSPropertyOp3
 70
     1
102
RTVSPropertyOp4
 70
     1
102
RTVSPropertyOp5
 70
     1
102
RTVSPropertyOp6
 70
     1
102
RTVSPropertyOp7
 70
     1
102
RTVSPropertyOp8
 70
     1
102
RTVSPropertyOp9
 70
     1
102
RTVSPropertyOp10
 70
     1
102
RTVSPropertyOp11
 70
     1
102
RTVSPropertyOp12
 70
     1
102
RTVSPropertyOp13
 70
     1
102
RTVSPropertyOp14
 70
     1
102
RTVSPropertyOp15
 70
     1
102
RTVSPropertyOp16
 70
     1
102
RTVSPropertyOp17
 70
     1
102
RTVSPropertyOp18
 70
     1
102
RTVSPropertyOp19
 70
     1
102
RTVSPropertyOp20
 70
     1
102
RTVSPropertyOp21
 70
     1
102
RTVSPropertyOp22
 70
     1
102
RTVSPropertyOp23
 70
     1
102
RTVSPropertyOp24
 70
     1
102
RTVSPropertyOp25
 70
     1
102
RTVSPropertyOp26
 70
     1
102
RTVSPropertyOp27
 70
     1
102
RTVSPropertyOp28
 70
     1
102
RTVSPropertyOp29
 70
     1
102
RTVSPropertyOp30
 70
     1
102
RTVSPropertyOp31
 70
     1
102
RTVSPropertyOp32
 70
     1
102
RTVSPropertyOp33
 70
     1
102
RTVSPropertyOp34
 70
     1
102
RTVSPropertyOp35
 70
     1
102
RTVSPropertyOp36
 70
     1
102
RTVSPropertyOp37
 70
     1
102
RTVSPropertyOp38
 70
     1
102
RTVSPropertyOp39
 70
     1
102
RTVSPropertyOp40
 70
     1
102
RTVSPropertyOp41
 70
     1
102
RTVSPropertyOp42
 70
     1
102
RTVSPropertyOp43
 70
     1
102
RTVSPropertyOp44
 70
     1
102
RTVSPropertyOp45
 70
     1
102
RTVSPropertyOp46
 70
     1
102
RTVSPropertyOp47
 70
     1
102
RTVSPropertyOp48
 70
     1
102
RTVSPropertyOp49
 70
     1
102
RTVSPropertyOp50
 70
     1
102
RTVSPropertyOp51
 70
     0
102
RTVSPropertyOp52
 70
     0
102
RTVSPropertyOp53
 70
     1
102
RTVSPropertyOp54
 70
     1
102
RTVSPropertyOp55
 70
     1
102
RTVSPropertyOp56
 70
     1
102
RTVSPropertyOp57
 70
     1
102
RTVSPropertyOp58
 70
     1
102
RTVSPropertyOp59
 70
     1
102
RTVSPropertyOp60
 70
     1
102
RTVSPropertyOp61
 70
     1
102
RTVSPropertyOp62
 70
     1
  0
XRECORD
  5
8CC6
102
{ACAD_REACTORS
330
8CC5
102
}
330
8CC5
100
AcDbXrecord
280
     1
102
RTVSPost2010Prop28
280
     0
102
RTVSPost2010PropOp28
 70
     1
102
RTVSPost2010Prop29
280
     1
102
RTVSPost2010PropOp29
 70
     1
102
RTVSPost2010Prop30
280
     1
102
RTVSPost2010PropOp30
 70
     1
102
RTVSPost2010Prop31
280
     0
102
RTVSPost2010PropOp31
 70
     1
102
RTVSPost2010Prop32
280
     0
102
RTVSPost2010PropOp32
 70
     1
102
RTVSPost2010Prop33
280
     0
102
RTVSPost2010PropOp33
 70
     1
102
RTVSPost2010Prop34
280
     0
102
RTVSPost2010PropOp34
 70
     1
102
RTVSPost2010Prop35
280
     0
102
RTVSPost2010PropOp35
 70
     1
102
RTVSPost2010Prop36
280
     0
102
RTVSPost2010PropOp36
 70
     1
102
RTVSPost2010Prop37
 90
       50
102
RTVSPost2010PropOp37
 70
     1
102
RTVSPost2010Prop38
140
0.0
102
RTVSPost2010PropOp38
 70
     1
102
RTVSPost2010Prop39
140
1.0
102
RTVSPost2010PropOp39
 70
     1
102
RTVSPost2010Prop40
 90
        0
102
RTVSPost2010PropOp40
 70
     1
102
RTVSPost2010Prop41ColorIndex
 90
       18
102
RTVSPost2010Prop41ColorRGB
 90
        0
102
RTVSPost2010PropOp41
 70
     1
102
RTVSPost2010Prop42
 90
       50
102
RTVSPost2010PropOp42
 70
     1
102
RTVSPost2010Prop43
 90
        3
102
RTVSPost2010PropOp43
 70
     1
102
RTVSPost2010Prop44ColorIndex
 90
        5
102
RTVSPost2010Prop44ColorRGB
 90
      255
102
RTVSPost2010PropOp44
 70
     1
102
RTVSPost2010Prop45
280
     0
102
RTVSPost2010PropOp45
 70
     1
102
RTVSPost2010Prop46
 90
       50
102
RTVSPost2010PropOp46
 70
     1
102
RTVSPost2010Prop47
 90
       50
102
RTVSPost2010PropOp47
 70
     1
102
RTVSPost2010Prop48
 90
       50
102
RTVSPost2010PropOp48
 70
     1
102
RTVSPost2010Prop49
280
     0
102
RTVSPost2010PropOp49
 70
     1
102
RTVSPost2010Prop50
 90
       50
102
RTVSPost2010PropOp50
 70
     1
102
RTVSPost2010Prop51ColorIndex
 90
      256
102
RTVSPost2010Prop51ColorRGB
 90
-16777216
102
RTVSPost2010PropOp51
 70
     0
102
RTVSPost2010Prop52
140
1.0
102
RTVSPost2010PropOp52
 70
     0
102
RTVSPost2010Prop53
 90
        2
102
RTVSPost2010PropOp53
 70
     1
102
RTVSPost2010Prop54
  1
strokes_ogs.tif
102
RTVSPost2010PropOp54
 70
     1
102
RTVSPost2010Prop55
280
     0
102
RTVSPost2010PropOp55
 70
     1
102
RTVSPost2010Prop56
140
1.0
102
RTVSPost2010PropOp56
 70
     1
102
RTVSPost2010Prop57
140
1.0
102
RTVSPost2010PropOp57
 70
     1
102
RTVSPropertyOp0
 70
     1
102
RTVSPropertyOp1
 70
     1
102
RTVSPropertyOp2
 70
     1
102
RTVSPropertyOp3
 70
     1
102
RTVSPropertyOp4
 70
     1
102
RTVSPropertyOp5
 70
     1
102
RTVSPropertyOp6
 70
     1
102
RTVSPropertyOp7
 70
     1
102
RTVSPropertyOp8
 70
     1
102
RTVSPropertyOp9
 70
     1
102
RTVSPropertyOp10
 70
     1
102
RTVSPropertyOp11
 70
     1
102
RTVSPropertyOp12
 70
     1
102
RTVSPropertyOp13
 70
     1
102
RTVSPropertyOp14
 70
     1
102
RTVSPropertyOp15
 70
     1
102
RTVSPropertyOp16
 70
     1
102
RTVSPropertyOp17
 70
     1
102
RTVSPropertyOp18
 70
     1
102
RTVSPropertyOp19
 70
     1
102
RTVSPropertyOp20
 70
     1
102
RTVSPropertyOp21
 70
     1
102
RTVSPropertyOp22
 70
     1
102
RTVSPropertyOp23
 70
     1
102
RTVSPropertyOp24
 70
     1
102
RTVSPropertyOp25
 70
     1
102
RTVSPropertyOp26
 70
     1
102
RTVSPropertyOp27
 70
     1
102
RTVSPropertyOp28
 70
     1
102
RTVSPropertyOp29
 70
     1
102
RTVSPropertyOp30
 70
     1
102
RTVSPropertyOp31
 70
     1
102
RTVSPropertyOp32
 70
     1
102
RTVSPropertyOp33
 70
     1
102
RTVSPropertyOp34
 70
     1
102
RTVSPropertyOp35
 70
     1
102
RTVSPropertyOp36
 70
     1
102
RTVSPropertyOp37
 70
     1
102
RTVSPropertyOp38
 70
     1
102
RTVSPropertyOp39
 70
     1
102
RTVSPropertyOp40
 70
     1
102
RTVSPropertyOp41
 70
     1
102
RTVSPropertyOp42
 70
     1
102
RTVSPropertyOp43
 70
     1
102
RTVSPropertyOp44
 70
     1
102
RTVSPropertyOp45
 70
     1
102
RTVSPropertyOp46
 70
     1
102
RTVSPropertyOp47
 70
     1
102
RTVSPropertyOp48
 70
     1
102
RTVSPropertyOp49
 70
     1
102
RTVSPropertyOp50
 70
     1
102
RTVSPropertyOp51
 70
     0
102
RTVSPropertyOp52
 70
     0
102
RTVSPropertyOp53
 70
     1
102
RTVSPropertyOp54
 70
     1
102
RTVSPropertyOp55
 70
     1
102
RTVSPropertyOp56
 70
     1
102
RTVSPropertyOp57
 70
     1
102
RTVSPropertyOp58
 70
     1
102
RTVSPropertyOp59
 70
     1
102
RTVSPropertyOp60
 70
     1
102
RTVSPropertyOp61
 70
     1
102
RTVSPropertyOp62
 70
     1
  0
ENDSEC
  0
EOF
