  0
SECTION
  2
HEADER
  9
$ACADVER
  1
AC1015
  9
$ACADMAINTVER
 70
    18
  9
$DWGCODEPAGE
  3
ANSI_1252
  9
$INSBASE
 10
0.0
 20
0.0
 30
0.0
  9
$EXTMIN
 10
-222.1060173470829
 20
-289.504302624036
 30
-0.0015258207003583
  9
$EXTMAX
 10
284.244690761255
 20
320.6200568713481
 30
0.0000000349246037
  9
$LIMMIN
 10
0.0
 20
0.0
  9
$LIMMAX
 10
420.0
 20
297.0
  9
$ORTHOMODE
 70
     0
  9
$REGENMODE
 70
     1
  9
$FILLMODE
 70
     1
  9
$QTEXTMODE
 70
     0
  9
$MIRRTEXT
 70
     0
  9
$LTSCALE
 40
1.0
  9
$ATTMODE
 70
     1
  9
$TEXTSIZE
 40
2.5
  9
$TRACEWID
 40
1.0
  9
$TEXTSTYLE
  7
Standard
  9
$CLAYER
  8
0
  9
$CELTYPE
  6
ByLayer
  9
$CECOLOR
 62
   256
  9
$CELTSCALE
 40
1.0
  9
$DISPSILH
 70
     0
  9
$DIMSCALE
 40
1.0
  9
$DIMASZ
 40
2.5
  9
$DIMEXO
 40
0.625
  9
$DIMDLI
 40
3.75
  9
$DIMRND
 40
0.0
  9
$DIMDLE
 40
0.0
  9
$DIMEXE
 40
1.25
  9
$DIMTP
 40
0.0
  9
$DIMTM
 40
0.0
  9
$DIMTXT
 40
2.5
  9
$DIMCEN
 40
2.5
  9
$DIMTSZ
 40
0.0
  9
$DIMTOL
 70
     0
  9
$DIMLIM
 70
     0
  9
$DIMTIH
 70
     0
  9
$DIMTOH
 70
     0
  9
$DIMSE1
 70
     0
  9
$DIMSE2
 70
     0
  9
$DIMTAD
 70
     1
  9
$DIMZIN
 70
     8
  9
$DIMBLK
  1

  9
$DIMASO
 70
     1
  9
$DIMSHO
 70
     1
  9
$DIMPOST
  1

  9
$DIMAPOST
  1

  9
$DIMALT
 70
     0
  9
$DIMALTD
 70
     3
  9
$DIMALTF
 40
0.03937007874016
  9
$DIMLFAC
 40
1.0
  9
$DIMTOFL
 70
     1
  9
$DIMTVP
 40
0.0
  9
$DIMTIX
 70
     0
  9
$DIMSOXD
 70
     0
  9
$DIMSAH
 70
     0
  9
$DIMBLK1
  1

  9
$DIMBLK2
  1

  9
$DIMSTYLE
  2
ISO-25
  9
$DIMCLRD
 70
     0
  9
$DIMCLRE
 70
     0
  9
$DIMCLRT
 70
     0
  9
$DIMTFAC
 40
1.0
  9
$DIMGAP
 40
0.625
  9
$DIMJUST
 70
     0
  9
$DIMSD1
 70
     0
  9
$DIMSD2
 70
     0
  9
$DIMTOLJ
 70
     0
  9
$DIMTZIN
 70
     8
  9
$DIMALTZ
 70
     0
  9
$DIMALTTZ
 70
     0
  9
$DIMUPT
 70
     0
  9
$DIMDEC
 70
     2
  9
$DIMTDEC
 70
     2
  9
$DIMALTU
 70
     2
  9
$DIMALTTD
 70
     3
  9
$DIMTXSTY
  7
Standard
  9
$DIMAUNIT
 70
     0
  9
$DIMADEC
 70
     0
  9
$DIMALTRND
 40
0.0
  9
$DIMAZIN
 70
     0
  9
$DIMDSEP
 70
    44
  9
$DIMATFIT
 70
     3
  9
$DIMFRAC
 70
     0
  9
$DIMLDRBLK
  1

  9
$DIMLUNIT
 70
     2
  9
$DIMLWD
 70
    -2
  9
$DIMLWE
 70
    -2
  9
$DIMTMOVE
 70
     0
  9
$LUNITS
 70
     2
  9
$LUPREC
 70
     4
  9
$SKETCHINC
 40
1.0
  9
$FILLETRAD
 40
0.0
  9
$AUNITS
 70
     0
  9
$AUPREC
 70
     0
  9
$MENU
  1
.
  9
$ELEVATION
 40
0.0
  9
$PELEVATION
 40
0.0
  9
$THICKNESS
 40
0.0
  9
$LIMCHECK
 70
     0
  9
$CHAMFERA
 40
0.0
  9
$CHAMFERB
 40
0.0
  9
$CHAMFERC
 40
0.0
  9
$CHAMFERD
 40
0.0
  9
$SKPOLY
 70
     0
  9
$TDCREATE
 40
2460398.356956019
  9
$TDUCREATE
 40
2460398.065289352
  9
$TDUPDATE
 40
2460398.375787037
  9
$TDUUPDATE
 40
2460398.084120370
  9
$TDINDWG
 40
0.0079282407
  9
$TDUSRTIMER
 40
0.0079282407
  9
$USRTIMER
 70
     1
  9
$ANGBASE
 50
0.0
  9
$ANGDIR
 70
     0
  9
$PDMODE
 70
     0
  9
$PDSIZE
 40
0.0
  9
$PLINEWID
 40
0.0
  9
$SPLFRAME
 70
     0
  9
$SPLINETYPE
 70
     6
  9
$SPLINESEGS
 70
     8
  9
$HANDSEED
  5
B2B5
  9
$SURFTAB1
 70
     6
  9
$SURFTAB2
 70
     6
  9
$SURFTYPE
 70
     6
  9
$SURFU
 70
     6
  9
$SURFV
 70
     6
  9
$UCSBASE
  2

  9
$UCSNAME
  2

  9
$UCSORG
 10
0.0
 20
0.0
 30
0.0
  9
$UCSXDIR
 10
1.0
 20
0.0
 30
0.0
  9
$UCSYDIR
 10
0.0
 20
1.0
 30
0.0
  9
$UCSORTHOREF
  2

  9
$UCSORTHOVIEW
 70
     0
  9
$UCSORGTOP
 10
0.0
 20
0.0
 30
0.0
  9
$UCSORGBOTTOM
 10
0.0
 20
0.0
 30
0.0
  9
$UCSORGLEFT
 10
0.0
 20
0.0
 30
0.0
  9
$UCSORGRIGHT
 10
0.0
 20
0.0
 30
0.0
  9
$UCSORGFRONT
 10
0.0
 20
0.0
 30
0.0
  9
$UCSORGBACK
 10
0.0
 20
0.0
 30
0.0
  9
$PUCSBASE
  2

  9
$PUCSNAME
  2

  9
$PUCSORG
 10
0.0
 20
0.0
 30
0.0
  9
$PUCSXDIR
 10
1.0
 20
0.0
 30
0.0
  9
$PUCSYDIR
 10
0.0
 20
1.0
 30
0.0
  9
$PUCSORTHOREF
  2

  9
$PUCSORTHOVIEW
 70
     0
  9
$PUCSORGTOP
 10
0.0
 20
0.0
 30
0.0
  9
$PUCSORGBOTTOM
 10
0.0
 20
0.0
 30
0.0
  9
$PUCSORGLEFT
 10
0.0
 20
0.0
 30
0.0
  9
$PUCSORGRIGHT
 10
0.0
 20
0.0
 30
0.0
  9
$PUCSORGFRONT
 10
0.0
 20
0.0
 30
0.0
  9
$PUCSORGBACK
 10
0.0
 20
0.0
 30
0.0
  9
$USERI1
 70
     0
  9
$USERI2
 70
     0
  9
$USERI3
 70
     0
  9
$USERI4
 70
     0
  9
$USERI5
 70
     0
  9
$USERR1
 40
0.0
  9
$USERR2
 40
0.0
  9
$USERR3
 40
0.0
  9
$USERR4
 40
0.0
  9
$USERR5
 40
0.0
  9
$WORLDVIEW
 70
     1
  9
$SHADEDGE
 70
     3
  9
$SHADEDIF
 70
    70
  9
$TILEMODE
 70
     1
  9
$MAXACTVP
 70
    48
  9
$PINSBASE
 10
0.0
 20
0.0
 30
0.0
  9
$PLIMCHECK
 70
     0
  9
$PEXTMIN
 10
0.0
 20
0.0
 30
0.0
  9
$PEXTMAX
 10
0.0
 20
0.0
 30
0.0
  9
$PLIMMIN
 10
0.0
 20
0.0
  9
$PLIMMAX
 10
12.0
 20
9.0
  9
$UNITMODE
 70
     0
  9
$VISRETAIN
 70
     1
  9
$PLINEGEN
 70
     0
  9
$PSLTSCALE
 70
     1
  9
$TREEDEPTH
 70
  3020
  9
$CMLSTYLE
  2
Standard
  9
$CMLJUST
 70
     0
  9
$CMLSCALE
 40
20.0
  9
$PROXYGRAPHICS
 70
     1
  9
$MEASUREMENT
 70
     1
  9
$CELWEIGHT
370
    -1
  9
$ENDCAPS
280
     0
  9
$JOINSTYLE
280
     0
  9
$LWDISPLAY
290
     0
  9
$INSUNITS
 70
     4
  9
$HYPERLINKBASE
  1

  9
$STYLESHEET
  1

  9
$XEDIT
290
     1
  9
$CEPSNTYPE
380
     0
  9
$PSTYLEMODE
290
     1
  9
$FINGERPRINTGUID
  2
{6C1266EE-7BC1-BF4A-B059-A6E7702B10CE}
  9
$VERSIONGUID
  2
{C6D07E0F-5CC2-314C-99D3-7FBCE8C94330}
  9
$EXTNAMES
290
     1
  9
$PSVPSCALE
 40
0.0
  9
$OLESTARTUP
290
     0
  0
ENDSEC
  0
SECTION
  2
CLASSES
  0
CLASS
  1
ACDBDICTIONARYWDFLT
  2
AcDbDictionaryWithDefault
  3
ObjectDBX Classes
 90
        0
280
     0
281
     0
  0
CLASS
  1
ACDBPLACEHOLDER
  2
AcDbPlaceHolder
  3
ObjectDBX Classes
 90
        0
280
     0
281
     0
  0
CLASS
  1
LAYOUT
  2
AcDbLayout
  3
ObjectDBX Classes
 90
        0
280
     0
281
     0
  0
CLASS
  1
DICTIONARYVAR
  2
AcDbDictionaryVar
  3
ObjectDBX Classes
 90
        0
280
     0
281
     0
  0
CLASS
  1
TABLESTYLE
  2
AcDbTableStyle
  3
ObjectDBX Classes
 90
     4095
280
     0
281
     0
  0
CLASS
  1
MATERIAL
  2
AcDbMaterial
  3
ObjectDBX Classes
 90
     1153
280
     0
281
     0
  0
CLASS
  1
VISUALSTYLE
  2
AcDbVisualStyle
  3
ObjectDBX Classes
 90
     4095
280
     0
281
     0
  0
CLASS
  1
SCALE
  2
AcDbScale
  3
ObjectDBX Classes
 90
     1153
280
     0
281
     0
  0
CLASS
  1
MLEADERSTYLE
  2
AcDbMLeaderStyle
  3
ACDB_MLEADERSTYLE_CLASS
 90
     4095
280
     0
281
     0
  0
CLASS
  1
CELLSTYLEMAP
  2
AcDbCellStyleMap
  3
ObjectDBX Classes
 90
     1152
280
     0
281
     0
  0
CLASS
  1
EXACXREFPANELOBJECT
  2
ExAcXREFPanelObject
  3
EXAC_ESW
 90
    33793
280
     0
281
     0
  0
CLASS
  1
NPOCOLLECTION
  2
AcDbImpNonPersistentObjectsCollection
  3
ObjectDBX Classes
 90
    33921
280
     0
281
     0
  0
CLASS
  1
LAYER_INDEX
  2
AcDbLayerIndex
  3
ObjectDBX Classes
 90
    32768
280
     0
281
     0
  0
CLASS
  1
SPATIAL_INDEX
  2
AcDbSpatialIndex
  3
ObjectDBX Classes
 90
    32768
280
     0
281
     0
  0
CLASS
  1
IDBUFFER
  2
AcDbIdBuffer
  3
ObjectDBX Classes
 90
    32768
280
     0
281
     0
  0
CLASS
  1
ACDBSECTIONVIEWSTYLE
  2
AcDbSectionViewStyle
  3
ObjectDBX Classes
 90
     1025
280
     0
281
     0
  0
CLASS
  1
ACDBDETAILVIEWSTYLE
  2
AcDbDetailViewStyle
  3
ObjectDBX Classes
 90
     1025
280
     0
281
     0
  0
CLASS
  1
XRECORD
  2
AcDbXrecord
  3
ObjectDBX Classes
 90
        0
280
     0
281
     0
  0
ENDSEC
  0
SECTION
  2
TABLES
  0
TABLE
  2
VPORT
  5
8
102
{ACAD_XDICTIONARY
360
B1C3
102
}
330
0
100
AcDbSymbolTable
 70
     1
  0
VPORT
  5
EA
330
8
100
AcDbSymbolTableRecord
100
AcDbViewportTableRecord
  2
*Active
 70
     0
 10
0.0
 20
0.0
 11
1.0
 21
1.0
 12
31.06933670708605
 22
15.55787712365605
 13
0.0
 23
0.0
 14
10.0
 24
10.0
 15
10.0
 25
10.0
 16
0.0
 26
0.0
 36
1.0
 17
0.0
 27
0.0
 37
0.0
 40
648.81196483073
 41
0.9846153846153846
 42
50.0
 43
0.0
 44
0.0
 50
0.0
 51
0.0
 71
     0
 72
  1000
 73
     1
 74
     3
 75
     0
 76
     1
 77
     0
 78
     0
281
     0
 65
     1
110
0.0
120
0.0
130
0.0
111
1.0
121
0.0
131
0.0
112
0.0
122
1.0
132
0.0
 79
     0
146
0.0
1001
ACAD_NAV_VCDISPLAY
1070
     3
  0
ENDTAB
  0
TABLE
  2
LTYPE
  5
5
330
0
100
AcDbSymbolTable
 70
     1
  0
LTYPE
  5
14
330
5
100
AcDbSymbolTableRecord
100
AcDbLinetypeTableRecord
  2
ByBlock
 70
     0
  3

 72
    65
 73
     0
 40
0.0
  0
LTYPE
  5
15
330
5
100
AcDbSymbolTableRecord
100
AcDbLinetypeTableRecord
  2
ByLayer
 70
     0
  3

 72
    65
 73
     0
 40
0.0
  0
LTYPE
  5
16
330
5
100
AcDbSymbolTableRecord
100
AcDbLinetypeTableRecord
  2
Continuous
 70
     0
  3
Solid line
 72
    65
 73
     0
 40
0.0
  0
ENDTAB
  0
TABLE
  2
LAYER
  5
2
102
{ACAD_XDICTIONARY
360
1FF
102
}
330
0
100
AcDbSymbolTable
 70
     1
  0
LAYER
  5
10
102
{ACAD_XDICTIONARY
360
13C
102
}
330
2
100
AcDbSymbolTableRecord
100
AcDbLayerTableRecord
  2
0
 70
     0
 62
     7
  6
Continuous
370
    -3
390
F
  0
ENDTAB
  0
TABLE
  2
STYLE
  5
3
330
0
100
AcDbSymbolTable
 70
     1
  0
STYLE
  5
11
330
3
100
AcDbSymbolTableRecord
100
AcDbTextStyleTableRecord
  2
Standard
 70
     0
 40
0.0
 41
1.0
 50
0.0
 71
     0
 42
2.5
  3
arial.ttf
  4

1001
ACAD
1000
Arial
1071
       34
  0
ENDTAB
  0
TABLE
  2
VIEW
  5
6
330
0
100
AcDbSymbolTable
 70
     0
  0
ENDTAB
  0
TABLE
  2
UCS
  5
7
330
0
100
AcDbSymbolTable
 70
     0
  0
ENDTAB
  0
TABLE
  2
APPID
  5
9
330
0
100
AcDbSymbolTable
 70
     8
  0
APPID
  5
12
330
9
100
AcDbSymbolTableRecord
100
AcDbRegAppTableRecord
  2
ACAD
 70
     0
  0
APPID
  5
9E
330
9
100
AcDbSymbolTableRecord
100
AcDbRegAppTableRecord
  2
ACAD_PSEXT
 70
     0
  0
APPID
  5
133
330
9
100
AcDbSymbolTableRecord
100
AcDbRegAppTableRecord
  2
AcadAnnoPO
 70
     0
  0
APPID
  5
134
330
9
100
AcDbSymbolTableRecord
100
AcDbRegAppTableRecord
  2
AcadAnnotative
 70
     0
  0
APPID
  5
135
330
9
100
AcDbSymbolTableRecord
100
AcDbRegAppTableRecord
  2
ACAD_DSTYLE_DIMJAG
 70
     0
  0
APPID
  5
136
330
9
100
AcDbSymbolTableRecord
100
AcDbRegAppTableRecord
  2
ACAD_DSTYLE_DIMTALN
 70
     0
  0
APPID
  5
165
330
9
100
AcDbSymbolTableRecord
100
AcDbRegAppTableRecord
  2
ACAD_MLEADERVER
 70
     0
  0
APPID
  5
217
330
9
100
AcDbSymbolTableRecord
100
AcDbRegAppTableRecord
  2
ACAD_NAV_VCDISPLAY
 70
     0
  0
ENDTAB
  0
TABLE
  2
DIMSTYLE
  5
A
330
0
100
AcDbSymbolTable
 70
     1
100
AcDbDimStyleTable
 71
     0
  0
DIMSTYLE
105
27
330
A
100
AcDbSymbolTableRecord
100
AcDbDimStyleTableRecord
  2
ISO-25
 70
     0
 41
2.5
 42
0.625
 43
3.75
 44
1.25
 73
     0
 74
     0
 77
     1
 78
     8
140
2.5
141
2.5
143
0.03937007874016
147
0.625
171
     3
172
     1
271
     2
272
     2
274
     3
278
    44
283
     0
284
     8
340
11
  0
ENDTAB
  0
TABLE
  2
BLOCK_RECORD
  5
1
330
0
100
AcDbSymbolTable
 70
     7
  0
BLOCK_RECORD
  5
1F
102
{ACAD_XDICTIONARY
360
1CE
102
}
330
1
100
AcDbSymbolTableRecord
100
AcDbBlockTableRecord
  2
*Model_Space
340
22
  0
BLOCK_RECORD
  5
D2
102
{ACAD_XDICTIONARY
360
B176
102
}
330
1
100
AcDbSymbolTableRecord
100
AcDbBlockTableRecord
  2
*Paper_Space
340
D3
  0
BLOCK_RECORD
  5
D6
102
{ACAD_XDICTIONARY
360
B178
102
}
330
1
100
AcDbSymbolTableRecord
100
AcDbBlockTableRecord
  2
*Paper_Space0
340
D7
  0
BLOCK_RECORD
  5
AFE1
330
1
100
AcDbSymbolTableRecord
100
AcDbBlockTableRecord
  2
SAE440_80_2-Front
340
0
102
{BLKREFS
331
B16C
102
}
  0
BLOCK_RECORD
  5
B03A
330
1
100
AcDbSymbolTableRecord
100
AcDbBlockTableRecord
  2
SAE440_80_2-Left
340
0
102
{BLKREFS
331
B16D
102
}
  0
BLOCK_RECORD
  5
B05D
330
1
100
AcDbSymbolTableRecord
100
AcDbBlockTableRecord
  2
SAE440_80_2-Right
340
0
102
{BLKREFS
331
B16E
102
}
  0
BLOCK_RECORD
  5
B07F
330
1
100
AcDbSymbolTableRecord
100
AcDbBlockTableRecord
  2
SAE440_80_2-Top
340
0
102
{BLKREFS
331
B16F
102
}
  0
BLOCK_RECORD
  5
B0AC
330
1
100
AcDbSymbolTableRecord
100
AcDbBlockTableRecord
  2
SAE440_80_2-Bottom
340
0
102
{BLKREFS
331
B170
102
}
  0
BLOCK_RECORD
  5
B0D0
330
1
100
AcDbSymbolTableRecord
100
AcDbBlockTableRecord
  2
SAE440_80_2-ISO
340
0
102
{BLKREFS
331
B171
102
}
  0
ENDTAB
  0
ENDSEC
  0
SECTION
  2
BLOCKS
  0
BLOCK
  5
20
330
1F
100
AcDbEntity
  8
0
100
AcDbBlockBegin
  2
*Model_Space
 70
     0
 10
0.0
 20
0.0
 30
0.0
  3
*Model_Space
  1

  0
ENDBLK
  5
21
330
1F
100
AcDbEntity
  8
0
100
AcDbBlockEnd
  0
BLOCK
  5
D4
330
D2
100
AcDbEntity
 67
     1
  8
0
100
AcDbBlockBegin
  2
*Paper_Space
 70
     0
 10
0.0
 20
0.0
 30
0.0
  3
*Paper_Space
  1

  0
ENDBLK
  5
D5
330
D2
100
AcDbEntity
 67
     1
  8
0
100
AcDbBlockEnd
  0
BLOCK
  5
D8
330
D6
100
AcDbEntity
 67
     1
  8
0
100
AcDbBlockBegin
  2
*Paper_Space0
 70
     0
 10
0.0
 20
0.0
 30
0.0
  3
*Paper_Space0
  1

  0
ENDBLK
  5
D9
330
D6
100
AcDbEntity
 67
     1
  8
0
100
AcDbBlockEnd
  0
BLOCK
  5
AFE2
330
AFE1
100
AcDbEntity
  8
0
100
AcDbBlockBegin
  2
SAE440_80_2-Front
 70
     0
 10
0.0
 20
0.0
 30
0.0
  3
SAE440_80_2-Front
  1

  0
SPLINE
  5
AFE4
330
AFE1
100
AcDbEntity
  8
0
100
AcDbSpline
210
0.0
220
0.0
230
1.0
 70
     8
 71
     3
 72
    17
 73
    13
 74
     0
 42
0.000000001
 43
0.0000000001
 40
0.0
 40
0.0
 40
0.0
 40
0.0
 40
0.3704689058671613
 40
0.3704689058671613
 40
0.3704689058671613
 40
0.7029757053327439
 40
0.7029757053327439
 40
0.7029757053327439
 40
0.9335813790911094
 40
0.9335813790911094
 40
0.9335813790911094
 40
0.9938196524627448
 40
0.9938196524627448
 40
0.9938196524627448
 40
0.9938196524627448
 10
44.60606060606067
 20
22.56250000000003
 30
0.0
 10
44.25310981611631
 20
22.27455844103481
 30
0.0
 10
43.80994835339467
 20
22.04087523495744
 30
0.0
 10
43.38299606377261
 20
21.78869659270838
 30
0.0
 10
42.99979375691655
 20
21.56235880322093
 30
0.0
 10
42.63742190750618
 20
21.32332829808082
 30
0.0
 10
42.37998709143901
 20
21.01709169609802
 30
0.0
 10
42.2014465945125
 20
20.80470536883127
 30
0.0
 10
42.07197149374199
 20
20.55383081505268
 30
0.0
 10
42.02188707329887
 20
20.26575225714606
 30
0.0
 10
42.00880413842939
 20
20.19050105174047
 30
0.0
 10
42.00144719265267
 20
20.1144602249731
 30
0.0
 10
42.00019293058544
 20
20.02721777764185
 30
0.0
  0
LINE
  5
AFE5
330
AFE1
100
AcDbEntity
  8
0
100
AcDbLine
 10
44.0
 20
22.56250000000003
 30
0.0
 11
44.55691948256592
 21
22.56250000000003
 31
0.0
  0
LINE
  5
AFE6
330
AFE1
100
AcDbEntity
  8
0
100
AcDbLine
 10
43.92566083936483
 20
22.56250000000003
 30
0.0
 11
44.00000000000001
 21
22.56250000000003
 31
0.0
  0
LINE
  5
AFE7
330
AFE1
100
AcDbEntity
  8
0
100
AcDbLine
 10
42.00000000000001
 20
22.56250000000003
 30
0.0
 11
43.92566083936483
 21
22.56250000000003
 31
0.0
  0
SPLINE
  5
AFE8
330
AFE1
100
AcDbEntity
  8
0
100
AcDbSpline
210
0.0
220
0.0
230
1.0
 70
     8
 71
     3
 72
    34
 73
    30
 74
     0
 42
0.000000001
 43
0.0000000001
 40
0.0386753941482771
 40
0.0386753941482771
 40
0.0386753941482771
 40
0.0386753941482771
 40
0.040069016465528
 40
0.040069016465528
 40
0.0422300052577792
 40
0.0422300052577792
 40
0.0465822561145186
 40
0.0465822561145186
 40
0.0508891065388437
 40
0.0508891065388437
 40
0.0582937992034678
 40
0.0582937992034678
 40
0.0594557675860818
 40
0.0594557675860818
 40
0.0599928501620333
 40
0.0599928501620333
 40
0.0605321584431189
 40
0.0605321584431189
 40
0.0616267650560956
 40
0.0616267650560956
 40
0.0637733273249485
 40
0.0637733273249485
 40
0.06596661057355
 40
0.06596661057355
 40
0.070260201459071
 40
0.070260201459071
 40
0.0744091209152324
 40
0.0744091209152324
 40
0.0786107582933761
 40
0.0786107582933761
 40
0.0786107582933761
 40
0.0786107582933761
 10
42.01076237536297
 20
20.25193571330706
 30
0.0
 10
42.01076237543069
 20
20.25193571406646
 30
0.0
 10
42.01071682911289
 20
20.25142605320979
 30
0.0
 10
42.01050739064162
 20
20.24903647861547
 30
0.0
 10
42.01029264997283
 20
20.24655930088508
 30
0.0
 10
42.00950362556975
 20
20.23710687093225
 30
0.0
 10
42.00878255795924
 20
20.22803077969118
 30
0.0
 10
42.00734070847242
 20
20.20794250935801
 30
0.0
 10
42.00660179364203
 20
20.19673968846036
 30
0.0
 10
42.00471727241869
 20
20.1648660493701
 30
0.0
 10
42.00363714615214
 20
20.14252578450975
 30
0.0
 10
42.00268940893146
 20
20.11808580414591
 30
0.0
 10
42.00256714943935
 20
20.11480520761293
 30
0.0
 10
42.00240922927529
 20
20.11042564418979
 30
0.0
 10
42.00236230132303
 20
20.10910120431805
 30
0.0
 10
42.00227921116507
 20
20.10672538321404
 30
0.0
 10
42.00224294628918
 20
20.10567121707335
 30
0.0
 10
42.002156827862
 20
20.10314707174384
 30
0.0
 10
42.00213183223121
 20
20.10239094377813
 30
0.0
 10
42.00207976888427
 20
20.10082551517457
 30
0.0
 10
42.00205407044758
 20
20.10006685410631
 30
0.0
 10
42.00188650419793
 20
20.0948166604448
 30
0.0
 10
42.00174003348448
 20
20.09008342584118
 30
0.0
 10
42.00133707522207
 20
20.07601881479755
 30
0.0
 10
42.0010797289153
 20
20.06579207622541
 30
0.0
 10
42.00064494393132
 20
20.04539602767836
 30
0.0
 10
42.00046314804554
 20
20.03514634944959
 30
0.0
 10
42.00017748913441
 20
20.01574022863456
 30
0.0
 10
42.00007420899912
 20
20.00646724365552
 30
0.0
 10
42.00001270370325
 20
19.9999998790194
 30
0.0
  0
SPLINE
  5
AFE9
330
AFE1
100
AcDbEntity
  8
0
100
AcDbSpline
210
0.0
220
0.0
230
1.0
 70
     8
 71
     3
 72
    10
 73
     6
 74
     0
 42
0.000000001
 43
0.0000000001
 40
0.0151313066510609
 40
0.0151313066510609
 40
0.0151313066510609
 40
0.0151313066510609
 40
0.0171749167622658
 40
0.0171749167622658
 40
0.0184199763687471
 40
0.0184199763687471
 40
0.0184199763687471
 40
0.0184199763687471
 10
42.0003464859886
 20
20.02718593602951
 30
0.0
 10
42.00026744372888
 20
20.02166108024299
 30
0.0
 10
42.00019757802379
 20
20.01602967301474
 30
0.0
 10
42.00010254075798
 20
20.00692295613008
 30
0.0
 10
42.00007042306599
 20
20.00346142708393
 30
0.0
 10
42.00004220846268
 20
19.99999966335059
 30
0.0
  0
SPLINE
  5
AFEA
330
AFE1
100
AcDbEntity
  8
0
100
AcDbSpline
210
0.0
220
0.0
230
1.0
 70
     8
 71
     3
 72
     8
 73
     4
 74
     0
 42
0.000000001
 43
0.0000000001
 40
0.0027244406820655
 40
0.0027244406820655
 40
0.0027244406820655
 40
0.0027244406820655
 40
0.0086712917942105
 40
0.0086712917942105
 40
0.0086712917942105
 40
0.0086712917942105
 10
42.00001376180651
 20
20.00201328599729
 30
0.0
 10
42.00001376180651
 20
20.00201328599771
 30
0.0
 10
42.00000357969398
 20
20.00037332460056
 30
0.0
 10
42.00000179639039
 20
19.9999999915989
 30
0.0
  0
SPLINE
  5
AFEB
330
AFE1
100
AcDbEntity
  8
0
100
AcDbSpline
210
0.0
220
0.0
230
1.0
 70
     8
 71
     3
 72
     8
 73
     4
 74
     0
 42
0.000000001
 43
0.0000000001
 40
0.0
 40
0.0
 40
0.0
 40
0.0
 40
0.0009484845470075
 40
0.0009484845470075
 40
0.0009484845470075
 40
0.0009484845470075
 10
39.99956040496371
 20
20.00000098503775
 30
0.0
 10
39.99956427154478
 20
20.00275539288314
 30
0.0
 10
39.99956807790148
 20
20.0054748019789
 30
0.0
 10
39.99957175544648
 20
20.00814870135681
 30
0.0
  0
SPLINE
  5
AFEC
330
AFE1
100
AcDbEntity
  8
0
100
AcDbSpline
210
0.0
220
0.0
230
1.0
 70
     8
 71
     3
 72
    14
 73
    10
 74
     0
 42
0.000000001
 43
0.0000000001
 40
0.0
 40
0.0
 40
0.0
 40
0.0
 40
0.0050538733383474
 40
0.0050538733383474
 40
0.0076267643325249
 40
0.0076267643325249
 40
0.0099758051817385
 40
0.0099758051817385
 40
0.01174602509413
 40
0.01174602509413
 40
0.01174602509413
 40
0.01174602509413
 10
39.999700864231
 20
19.99999537288795
 30
0.0
 10
39.99943696361627
 20
20.01668067543606
 30
0.0
 10
39.9991612998616
 20
20.03394686654176
 30
0.0
 10
39.99876192961116
 20
20.05896090325025
 30
0.0
 10
39.9986282575445
 20
20.06733867634133
 30
0.0
 10
39.99840269992677
 20
20.08149000764449
 30
0.0
 10
39.99830585206625
 20
20.08757028742698
 30
0.0
 10
39.99816732097184
 20
20.09624054971815
 30
0.0
 10
39.99811640302805
 20
20.09941639117251
 30
0.0
 10
39.99807359158928
 20
20.10207293134453
 30
0.0
  0
SPLINE
  5
AFED
330
AFE1
100
AcDbEntity
  8
0
100
AcDbSpline
210
0.0
220
0.0
230
1.0
 70
     8
 71
     3
 72
    34
 73
    30
 74
     0
 42
0.000000001
 43
0.0000000001
 40
0.001953772944036
 40
0.001953772944036
 40
0.001953772944036
 40
0.001953772944036
 40
0.0074296222319506
 40
0.0074296222319506
 40
0.0161449102154976
 40
0.0161449102154976
 40
0.0215828021795727
 40
0.0215828021795727
 40
0.0244030605232388
 40
0.0244030605232388
 40
0.0264866770920584
 40
0.0264866770920584
 40
0.0292232846355698
 40
0.0292232846355698
 40
0.031649015727998
 40
0.031649015727998
 40
0.0348381455324995
 40
0.0348381455324995
 40
0.0399368511466755
 40
0.0399368511466755
 40
0.0496527598392724
 40
0.0496527598392724
 40
0.0742177314867848
 40
0.0742177314867848
 40
0.1473914565474187
 40
0.1473914565474187
 40
0.2287592314716131
 40
0.2287592314716131
 40
0.2661613857130082
 40
0.2661613857130082
 40
0.2661613857130082
 40
0.2661613857130082
 10
39.99993432436141
 20
20.0038044772508
 30
0.0
 10
39.99985929629337
 20
20.0081075238443
 30
0.0
 10
39.99974846523412
 20
20.01435408029459
 30
0.0
 10
39.99939149886248
 20
20.03388637600849
 30
0.0
 10
39.99909597303501
 20
20.04957511791796
 30
0.0
 10
39.99852099968693
 20
20.07925635015566
 30
0.0
 10
39.99828147753414
 20
20.09145849789142
 30
0.0
 10
39.99788180323878
 20
20.11186455038613
 30
0.0
 10
39.99773464510047
 20
20.119386727092
 30
0.0
 10
39.99745969364742
 20
20.13358149433306
 30
0.0
 10
39.997335382373
 20
20.14004259402192
 30
0.0
 10
39.99704179523483
 20
20.15551430627178
 30
0.0
 10
39.9968670003325
 20
20.16489294431561
 30
0.0
 10
39.99655660888819
 20
20.18203506542425
 30
0.0
 10
39.99641574855122
 20
20.19002494828004
 30
0.0
 10
39.99611278292749
 20
20.20773884106906
 30
0.0
 10
39.99595498643076
 20
20.21738285950667
 30
0.0
 10
39.99558160741598
 20
20.24124152573266
 30
0.0
 10
39.99538444589224
 20
20.25494412465058
 30
0.0
 10
39.99488006552398
 20
20.29284306633256
 30
0.0
 10
39.99462962319208
 20
20.31561683665044
 30
0.0
 10
39.99390954561987
 20
20.39339918070866
 30
0.0
 10
39.99367749123021
 20
20.44491803581436
 30
0.0
 10
39.99335846714009
 20
20.65942000030486
 30
0.0
 10
39.99487001963154
 20
20.84900316344615
 30
0.0
 10
39.99832344335446
 20
21.28448346044251
 30
0.0
 10
39.99958615405431
 20
21.54089668668401
 30
0.0
 10
39.99998702916789
 20
21.92753100180577
 30
0.0
 10
39.99998283405022
 20
22.05162147478218
 30
0.0
 10
39.9999893701996
 20
22.17586295994461
 30
0.0
  0
SPLINE
  5
AFEE
330
AFE1
100
AcDbEntity
  8
0
100
AcDbSpline
210
0.0
220
0.0
230
1.0
 70
     8
 71
     3
 72
    12
 73
     8
 74
     0
 42
0.000000001
 43
0.0000000001
 40
0.0
 40
0.0
 40
0.0
 40
0.0
 40
0.0030437044508122
 40
0.0030437044508122
 40
0.0059481042980382
 40
0.0059481042980382
 40
0.0077014659528253
 40
0.0077014659528253
 40
0.0077014659528253
 40
0.0077014659528253
 10
39.99994095223349
 20
19.99999986689709
 30
0.0
 10
39.99992879821974
 20
20.00696126929439
 30
0.0
 10
39.99991751864364
 20
20.012749005548
 30
0.0
 10
39.99989988571207
 20
20.02086801372964
 30
0.0
 10
39.99989321746677
 20
20.02345476065322
 30
0.0
 10
39.99988738789495
 20
20.02558168333587
 30
0.0
 10
39.99988625762897
 20
20.02594367654811
 30
0.0
 10
39.99988625762902
 20
20.02594367653084
 30
0.0
  0
LINE
  5
AFEF
330
AFE1
100
AcDbEntity
  8
0
100
AcDbLine
 10
37.99999999999999
 20
-2.0
 30
0.0
 11
-37.99999999999999
 21
-2.000000000000003
 31
0.0
  0
LINE
  5
AFF0
330
AFE1
100
AcDbEntity
  8
0
100
AcDbLine
 10
-37.99999999999999
 20
0.0
 30
0.0
 11
37.99999999999999
 21
0.0
 31
0.0
  0
LINE
  5
AFF1
330
AFE1
100
AcDbEntity
  8
0
100
AcDbLine
 10
-43.92566083936483
 20
22.56250000000003
 30
0.0
 11
-42.00000000000001
 21
22.56250000000003
 31
0.0
  0
LINE
  5
AFF2
330
AFE1
100
AcDbEntity
  8
0
100
AcDbLine
 10
-44.0
 20
22.56250000000003
 30
0.0
 11
-43.92566083936483
 21
22.56250000000003
 31
0.0
  0
LINE
  5
AFF3
330
AFE1
100
AcDbEntity
  8
0
100
AcDbLine
 10
-44.55691948256592
 20
22.56250000000003
 30
0.0
 11
-44.0
 21
22.56250000000003
 31
0.0
  0
SPLINE
  5
AFF4
330
AFE1
100
AcDbEntity
  8
0
100
AcDbSpline
210
0.0
220
0.0
230
1.0
 70
     8
 71
     3
 72
    17
 73
    13
 74
     0
 42
0.000000001
 43
0.0000000001
 40
0.0
 40
0.0
 40
0.0
 40
0.0
 40
0.3704689058671613
 40
0.3704689058671613
 40
0.3704689058671613
 40
0.7029757053327439
 40
0.7029757053327439
 40
0.7029757053327439
 40
0.9335813790911094
 40
0.9335813790911094
 40
0.9335813790911094
 40
0.9938196524639609
 40
0.9938196524639609
 40
0.9938196524639609
 40
0.9938196524639609
 10
-44.60606060606067
 20
22.56250000000003
 30
0.0
 10
-44.25310981611631
 20
22.27455844103481
 30
0.0
 10
-43.80994835339467
 20
22.04087523495744
 30
0.0
 10
-43.38299606377261
 20
21.78869659270838
 30
0.0
 10
-42.99979375691655
 20
21.56235880322093
 30
0.0
 10
-42.63742190750618
 20
21.32332829808082
 30
0.0
 10
-42.37998709143901
 20
21.01709169609802
 30
0.0
 10
-42.2014465945125
 20
20.80470536883127
 30
0.0
 10
-42.07197149374199
 20
20.55383081505268
 30
0.0
 10
-42.02188707329887
 20
20.26575225714606
 30
0.0
 10
-42.00880413842913
 20
20.19050105173895
 30
0.0
 10
-42.00144719265238
 20
20.11446022497003
 30
0.0
 10
-42.00019293058537
 20
20.02721777763657
 30
0.0
  0
SPLINE
  5
AFF5
330
AFE1
100
AcDbEntity
  8
0
100
AcDbSpline
210
0.0
220
0.0
230
1.0
 70
     8
 71
     3
 72
     8
 73
     4
 74
     0
 42
0.000000001
 43
0.0000000001
 40
0.0207868202491218
 40
0.0207868202491218
 40
0.0207868202491218
 40
0.0207868202491218
 40
0.0217361384033976
 40
0.0217361384033976
 40
0.0217361384033976
 40
0.0217361384033976
 10
-39.99957173038969
 20
20.00814863139741
 30
0.0
 10
-39.99956805660041
 20
20.0054767404985
 30
0.0
 10
-39.99956427491092
 20
20.00275779065021
 30
0.0
 10
-39.99956040493105
 20
20.00000096178035
 30
0.0
  0
SPLINE
  5
AFF6
330
AFE1
100
AcDbEntity
  8
0
100
AcDbSpline
210
0.0
220
0.0
230
1.0
 70
     8
 71
     3
 72
    18
 73
    14
 74
     0
 42
0.000000001
 43
0.0000000001
 40
0.0359813925617439
 40
0.0359813925617439
 40
0.0359813925617439
 40
0.0359813925617439
 40
0.0373929822368504
 40
0.0373929822368504
 40
0.0388269892534904
 40
0.0388269892534904
 40
0.0410735979937258
 40
0.0410735979937258
 40
0.0431426607970276
 40
0.0431426607970276
 40
0.0457467485320546
 40
0.0457467485320546
 40
0.0477385614456134
 40
0.0477385614456134
 40
0.0477385614456134
 40
0.0477385614456134
 10
-39.99807455142174
 20
20.10201300271861
 30
0.0
 10
-39.99810886407947
 20
20.09988351353721
 30
0.0
 10
-39.99814815267911
 20
20.09743574280207
 30
0.0
 10
-39.99823833758166
 20
20.09179797831816
 30
0.0
 10
-39.99828987770151
 20
20.0885680567922
 30
0.0
 10
-39.99843589033473
 20
20.07940947232496
 30
0.0
 10
-39.99854061087503
 20
20.07283553520493
 30
0.0
 10
-39.99875345177742
 20
20.05949162649137
 30
0.0
 10
-39.99886231717283
 20
20.05267337922004
 30
0.0
 10
-39.99910891321627
 20
20.03722798282635
 30
0.0
 10
-39.99924874657757
 20
20.0284668527649
 30
0.0
 10
-39.99949199192286
 20
20.01317835801783
 30
0.0
 10
-39.99959685841003
 20
20.00657121453758
 30
0.0
 10
-39.9997008658865
 20
19.99999526821881
 30
0.0
  0
SPLINE
  5
AFF7
330
AFE1
100
AcDbEntity
  8
0
100
AcDbSpline
210
0.0
220
0.0
230
1.0
 70
     8
 71
     3
 72
    12
 73
     8
 74
     0
 42
0.000000001
 43
0.0000000001
 40
0.0138054894972111
 40
0.0138054894972111
 40
0.0138054894972111
 40
0.0138054894972111
 40
0.016984079806906
 40
0.016984079806906
 40
0.0189304809606146
 40
0.0189304809606146
 40
0.0215081408550536
 40
0.0215081408550536
 40
0.0215081408550536
 40
0.0215081408550536
 10
-39.99988625762903
 20
20.02594367652372
 30
0.0
 10
-39.99988625767154
 20
20.02594366282495
 30
0.0
 10
-39.99989009445996
 20
20.02472368561722
 30
0.0
 10
-39.99990126117224
 20
20.0201653029197
 30
0.0
 10
-39.99990666459093
 20
20.01781779047805
 30
0.0
 10
-39.99992101925723
 20
20.01095227698055
 30
0.0
 10
-39.9999306592262
 20
20.00589534898503
 30
0.0
 10
-39.99994095224792
 20
19.99999985862992
 30
0.0
  0
SPLINE
  5
AFF8
330
AFE1
100
AcDbEntity
  8
0
100
AcDbSpline
210
0.0
220
0.0
230
1.0
 70
     8
 71
     3
 72
    30
 73
    26
 74
     0
 42
0.000000001
 43
0.0000000001
 40
0.0
 40
0.0
 40
0.0
 40
0.0
 40
0.0655513941049453
 40
0.0655513941049453
 40
0.1471085409322632
 40
0.1471085409322632
 40
0.186491491150274
 40
0.186491491150274
 40
0.2244274003827049
 40
0.2244274003827049
 40
0.23389703036812
 40
0.23389703036812
 40
0.236043776782132
 40
0.236043776782132
 40
0.2376777553409977
 40
0.2376777553409977
 40
0.2393143597311424
 40
0.2393143597311424
 40
0.2426382943781855
 40
0.2426382943781855
 40
0.2492479826782656
 40
0.2492479826782656
 40
0.2568381430273379
 40
0.2568381430273379
 40
0.264280073289565
 40
0.264280073289565
 40
0.264280073289565
 40
0.264280073289565
 10
-39.99998937019839
 20
22.17586293684744
 30
0.0
 10
-39.99997791488038
 20
21.95811605249156
 30
0.0
 10
-39.99997499597819
 20
21.73955106042793
 30
0.0
 10
-39.99847087097942
 20
21.27766035228932
 30
0.0
 10
-39.99618388489799
 20
21.03633039840226
 30
0.0
 10
-39.99399786198578
 20
20.72034889340984
 30
0.0
 10
-39.99356154882158
 20
20.62409927753449
 30
0.0
 10
-39.99357532422633
 20
20.45119826022028
 30
0.0
 10
-39.99385398016245
 20
20.37644398963427
 30
0.0
 10
-39.99531467333228
 20
20.25914931783814
 30
0.0
 10
-39.99567968974965
 20
20.23366877549618
 30
0.0
 10
-39.99628238032194
 20
20.19776127128914
 30
0.0
 10
-39.99640113190316
 20
20.19088000895078
 30
0.0
 10
-39.99662003601007
 20
20.17852172893443
 30
0.0
 10
-39.99671857863901
 20
20.17306129872834
 30
0.0
 10
-39.99691847796505
 20
20.16216147801921
 30
0.0
 10
-39.99702080488783
 20
20.15666954493528
 30
0.0
 10
-39.99732567149988
 20
20.14049906885632
 30
0.0
 10
-39.99752640837586
 20
20.13011017517904
 30
0.0
 10
-39.99806112934914
 20
20.10263412985666
 30
0.0
 10
-39.99835872238158
 20
20.08757029919697
 30
0.0
 10
-39.99895363772863
 20
20.05697283948558
 30
0.0
 10
-39.99922978962774
 20
20.0424772068075
 30
0.0
 10
-39.99966420499276
 20
20.01907612763218
 30
0.0
 10
-39.99983258532699
 20
20.00962387640328
 30
0.0
 10
-39.99993418282719
 20
20.00380978823209
 30
0.0
  0
SPLINE
  5
AFF9
330
AFE1
100
AcDbEntity
  8
0
100
AcDbSpline
210
0.0
220
0.0
230
1.0
 70
     8
 71
     3
 72
    16
 73
    12
 74
     0
 42
0.000000001
 43
0.0000000001
 40
0.0
 40
0.0
 40
0.0
 40
0.0
 40
0.0048245586843595
 40
0.0048245586843595
 40
0.0084632883519437
 40
0.0084632883519437
 40
0.009479880338158
 40
0.009479880338158
 40
0.009966289233737
 40
0.009966289233737
 40
0.010023458746389
 40
0.010023458746389
 40
0.010023458746389
 40
0.010023458746389
 10
-42.00004220846266
 20
19.99999966335058
 30
0.0
 10
-42.00015153897883
 20
20.01341386633008
 30
0.0
 10
-42.00032268954568
 20
20.02687141485962
 30
0.0
 10
-42.00070285065436
 20
20.04890462635394
 30
0.0
 10
-42.00090173275966
 20
20.05824125543762
 30
0.0
 10
-42.00111304293296
 20
20.06712883612991
 30
0.0
 10
-42.00115674470829
 20
20.06889787699846
 30
0.0
 10
-42.00119778519849
 20
20.07053633750024
 30
0.0
 10
-42.00120726678356
 20
20.0709104433314
 30
0.0
 10
-42.00120931527878
 20
20.07099134008253
 30
0.0
 10
-42.00120942614382
 20
20.0709957168583
 30
0.0
 10
-42.00120942614128
 20
20.07099571675833
 30
0.0
  0
SPLINE
  5
AFFA
330
AFE1
100
AcDbEntity
  8
0
100
AcDbSpline
210
0.0
220
0.0
230
1.0
 70
     8
 71
     3
 72
    22
 73
    18
 74
     0
 42
0.000000001
 43
0.0000000001
 40
0.0
 40
0.0
 40
0.0
 40
0.0
 40
0.0032700619227695
 40
0.0032700619227695
 40
0.0073547718382365
 40
0.0073547718382365
 40
0.0134790968036386
 40
0.0134790968036386
 40
0.0266727728522782
 40
0.0266727728522782
 40
0.0338106028139718
 40
0.0338106028139718
 40
0.0369602728649609
 40
0.0369602728649609
 40
0.0386157496634521
 40
0.0386157496634521
 40
0.0391357752420362
 40
0.0391357752420362
 40
0.0391357752420362
 40
0.0391357752420362
 10
-42.00001270370325
 20
19.99999987901941
 30
0.0
 10
-42.00006057221447
 20
20.00503331739615
 30
0.0
 10
-42.00013333231942
 20
20.01178538144995
 30
0.0
 10
-42.00035309008578
 20
20.02820532025977
 30
0.0
 10
-42.00051468966158
 20
20.03822469467354
 30
0.0
 10
-42.00100170867571
 20
20.06300878315066
 30
0.0
 10
-42.0013787551476
 20
20.07796058951555
 30
0.0
 10
-42.00257920052206
 20
20.11791955110085
 30
0.0
 10
-42.00367212461979
 20
20.14669817926674
 30
0.0
 10
-42.00692053692076
 20
20.2023739966081
 30
0.0
 10
-42.00823603379365
 20
20.22096280443845
 30
0.0
 10
-42.0097735058226
 20
20.24041358337697
 30
0.0
 10
-42.01019627936463
 20
20.24542617555504
 30
0.0
 10
-42.01060631397692
 20
20.25017448465906
 30
0.0
 10
-42.01070578013955
 20
20.25129826427149
 30
0.0
 10
-42.01075616954357
 20
20.25186613871543
 30
0.0
 10
-42.01076237534524
 20
20.25193571310847
 30
0.0
 10
-42.01076237536311
 20
20.25193571330889
 30
0.0
  0
SPLINE
  5
AFFB
330
AFE1
100
AcDbEntity
  8
0
100
AcDbSpline
210
0.0
220
0.0
230
1.0
 70
     8
 71
     3
 72
     8
 73
     4
 74
     0
 42
0.000000001
 43
0.0000000001
 40
0.0
 40
0.0
 40
0.0
 40
0.0
 40
0.0059468510998565
 40
0.0059468510998565
 40
0.0059468510998565
 40
0.0059468510998565
 10
-42.00000179639039
 20
19.99999999159892
 30
0.0
 10
-42.000003579694
 20
20.00037332460117
 30
0.0
 10
-42.00001376180653
 20
20.00201328599727
 30
0.0
 10
-42.00001376180653
 20
20.00201328599779
 30
0.0
  0
ARC
  5
AFFC
330
AFE1
100
AcDbEntity
  8
0
100
AcDbCircle
 10
-37.99999999999999
 20
2.0
 30
0.0
 40
4.000000000000003
100
AcDbArc
 50
180.0
 51
270.0
  0
ARC
  5
AFFD
330
AFE1
100
AcDbEntity
  8
0
100
AcDbCircle
 10
-37.99999999999999
 20
2.0
 30
0.0
 40
2.000000000000001
100
AcDbArc
 50
180.0
 51
270.0
  0
ARC
  5
AFFE
330
AFE1
100
AcDbEntity
  8
0
100
AcDbCircle
 10
37.99999999999999
 20
2.0
 30
0.0
 40
4.000000000000003
100
AcDbArc
 50
270.0
 51
0.0
  0
LINE
  5
AFFF
330
AFE1
100
AcDbEntity
  8
0
100
AcDbLine
 10
44.60606060606064
 20
22.56250000000003
 30
0.0
 11
81.50000000000005
 21
52.99999999999997
 31
0.0
  0
LINE
  5
B000
330
AFE1
100
AcDbEntity
  8
0
100
AcDbLine
 10
39.99999999999998
 20
20.0
 30
0.0
 11
39.99999999999999
 21
52.99999999999997
 31
0.0
  0
LINE
  5
B001
330
AFE1
100
AcDbEntity
  8
0
100
AcDbLine
 10
41.99999999999998
 20
20.0
 30
0.0
 11
39.99999999999998
 21
20.0
 31
0.0
  0
LINE
  5
B002
330
AFE1
100
AcDbEntity
  8
0
100
AcDbLine
 10
41.99999999999999
 20
52.99999999999997
 30
0.0
 11
41.99999999999998
 21
20.0
 31
0.0
  0
LINE
  5
B003
330
AFE1
100
AcDbEntity
  8
0
100
AcDbLine
 10
41.99999999999999
 20
52.99999999999997
 30
0.0
 11
39.99999999999999
 21
52.99999999999997
 31
0.0
  0
LINE
  5
B004
330
AFE1
100
AcDbEntity
  8
0
100
AcDbLine
 10
39.99999999999999
 20
52.99999999999997
 30
0.0
 11
39.99999999999999
 21
180.0
 31
0.0
  0
LINE
  5
B005
330
AFE1
100
AcDbEntity
  8
0
100
AcDbLine
 10
41.99999999999999
 20
180.0
 30
0.0
 11
41.99999999999999
 21
52.99999999999997
 31
0.0
  0
LINE
  5
B006
330
AFE1
100
AcDbEntity
  8
0
100
AcDbLine
 10
39.99999999999999
 20
180.0
 30
0.0
 11
41.99999999999999
 21
180.0
 31
0.0
  0
LINE
  5
B007
330
AFE1
100
AcDbEntity
  8
0
100
AcDbLine
 10
41.99999999999998
 20
20.0
 30
0.0
 11
41.99999999999999
 21
1.999999999999999
 31
0.0
  0
LINE
  5
B008
330
AFE1
100
AcDbEntity
  8
0
100
AcDbLine
 10
39.99999999999999
 20
2.0
 30
0.0
 11
39.99999999999998
 21
20.0
 31
0.0
  0
ARC
  5
B009
330
AFE1
100
AcDbEntity
  8
0
100
AcDbCircle
 10
37.99999999999999
 20
2.0
 30
0.0
 40
2.000000000000001
100
AcDbArc
 50
270.0
 51
0.0
  0
LINE
  5
B00A
330
AFE1
100
AcDbEntity
  8
0
100
AcDbLine
 10
44.0
 20
180.0
 30
0.0
 11
42.0
 21
180.0
 31
0.0
  0
LINE
  5
B00B
330
AFE1
100
AcDbEntity
  8
0
100
AcDbLine
 10
81.50000000000005
 20
52.99999999999997
 30
0.0
 11
81.5
 21
180.0
 31
0.0
  0
LINE
  5
B00C
330
AFE1
100
AcDbEntity
  8
0
100
AcDbLine
 10
81.5
 20
180.0
 30
0.0
 11
44.0
 21
180.0
 31
0.0
  0
CIRCLE
  5
B00D
330
AFE1
100
AcDbEntity
  8
0
100
AcDbCircle
 10
62.0
 20
160.0
 30
0.0
 40
6.5
  0
CIRCLE
  5
B00E
330
AFE1
100
AcDbEntity
  8
0
100
AcDbCircle
 10
73.0
 20
175.0
 30
0.0
 40
2.5
  0
LINE
  5
B00F
330
AFE1
100
AcDbEntity
  8
0
100
AcDbLine
 10
-81.50000000000005
 20
52.99999999999997
 30
0.0
 11
-44.60606060606064
 21
22.56250000000003
 31
0.0
  0
LINE
  5
B010
330
AFE1
100
AcDbEntity
  8
0
100
AcDbLine
 10
-39.99999999999999
 20
52.99999999999997
 30
0.0
 11
-39.99999999999998
 21
20.0
 31
0.0
  0
LINE
  5
B011
330
AFE1
100
AcDbEntity
  8
0
100
AcDbLine
 10
-41.99999999999999
 20
52.99999999999997
 30
0.0
 11
-39.99999999999999
 21
52.99999999999997
 31
0.0
  0
LINE
  5
B012
330
AFE1
100
AcDbEntity
  8
0
100
AcDbLine
 10
-41.99999999999998
 20
20.0
 30
0.0
 11
-41.99999999999999
 21
52.99999999999997
 31
0.0
  0
LINE
  5
B013
330
AFE1
100
AcDbEntity
  8
0
100
AcDbLine
 10
-39.99999999999998
 20
20.0
 30
0.0
 11
-41.99999999999998
 21
20.0
 31
0.0
  0
LINE
  5
B014
330
AFE1
100
AcDbEntity
  8
0
100
AcDbLine
 10
-39.99999999999999
 20
180.0
 30
0.0
 11
-39.99999999999999
 21
52.99999999999997
 31
0.0
  0
LINE
  5
B015
330
AFE1
100
AcDbEntity
  8
0
100
AcDbLine
 10
-41.99999999999999
 20
180.0
 30
0.0
 11
-39.99999999999999
 21
180.0
 31
0.0
  0
LINE
  5
B016
330
AFE1
100
AcDbEntity
  8
0
100
AcDbLine
 10
-41.99999999999999
 20
52.99999999999997
 30
0.0
 11
-41.99999999999999
 21
180.0
 31
0.0
  0
CIRCLE
  5
B017
330
AFE1
100
AcDbEntity
  8
0
100
AcDbCircle
 10
-62.0
 20
60.0
 30
0.0
 40
6.5
  0
CIRCLE
  5
B018
330
AFE1
100
AcDbEntity
  8
0
100
AcDbCircle
 10
62.0
 20
60.0
 30
0.0
 40
6.5
  0
CIRCLE
  5
B019
330
AFE1
100
AcDbEntity
  8
0
100
AcDbCircle
 10
-62.0
 20
160.0
 30
0.0
 40
6.5
  0
CIRCLE
  5
B01A
330
AFE1
100
AcDbEntity
  8
0
100
AcDbCircle
 10
-51.0
 20
45.0
 30
0.0
 40
2.5
  0
CIRCLE
  5
B01B
330
AFE1
100
AcDbEntity
  8
0
100
AcDbCircle
 10
-51.0
 20
65.0
 30
0.0
 40
2.5
  0
CIRCLE
  5
B01C
330
AFE1
100
AcDbEntity
  8
0
100
AcDbCircle
 10
-51.0
 20
85.0
 30
0.0
 40
2.5
  0
CIRCLE
  5
B01D
330
AFE1
100
AcDbEntity
  8
0
100
AcDbCircle
 10
-51.0
 20
105.0
 30
0.0
 40
2.5
  0
CIRCLE
  5
B01E
330
AFE1
100
AcDbEntity
  8
0
100
AcDbCircle
 10
-51.0
 20
125.0
 30
0.0
 40
2.5
  0
CIRCLE
  5
B01F
330
AFE1
100
AcDbEntity
  8
0
100
AcDbCircle
 10
-51.0
 20
145.0
 30
0.0
 40
2.5
  0
CIRCLE
  5
B020
330
AFE1
100
AcDbEntity
  8
0
100
AcDbCircle
 10
51.0
 20
45.0
 30
0.0
 40
2.5
  0
CIRCLE
  5
B021
330
AFE1
100
AcDbEntity
  8
0
100
AcDbCircle
 10
51.0
 20
65.0
 30
0.0
 40
2.5
  0
CIRCLE
  5
B022
330
AFE1
100
AcDbEntity
  8
0
100
AcDbCircle
 10
51.0
 20
85.0
 30
0.0
 40
2.5
  0
CIRCLE
  5
B023
330
AFE1
100
AcDbEntity
  8
0
100
AcDbCircle
 10
51.0
 20
105.0
 30
0.0
 40
2.5
  0
CIRCLE
  5
B024
330
AFE1
100
AcDbEntity
  8
0
100
AcDbCircle
 10
51.0
 20
125.0
 30
0.0
 40
2.5
  0
CIRCLE
  5
B025
330
AFE1
100
AcDbEntity
  8
0
100
AcDbCircle
 10
51.0
 20
145.0
 30
0.0
 40
2.5
  0
CIRCLE
  5
B026
330
AFE1
100
AcDbEntity
  8
0
100
AcDbCircle
 10
-51.0
 20
165.0
 30
0.0
 40
2.5
  0
CIRCLE
  5
B027
330
AFE1
100
AcDbEntity
  8
0
100
AcDbCircle
 10
51.0
 20
165.0
 30
0.0
 40
2.5
  0
CIRCLE
  5
B028
330
AFE1
100
AcDbEntity
  8
0
100
AcDbCircle
 10
-73.0
 20
55.0
 30
0.0
 40
2.5
  0
CIRCLE
  5
B029
330
AFE1
100
AcDbEntity
  8
0
100
AcDbCircle
 10
-73.0
 20
75.0
 30
0.0
 40
2.5
  0
CIRCLE
  5
B02A
330
AFE1
100
AcDbEntity
  8
0
100
AcDbCircle
 10
-73.0
 20
95.0
 30
0.0
 40
2.5
  0
CIRCLE
  5
B02B
330
AFE1
100
AcDbEntity
  8
0
100
AcDbCircle
 10
-73.0
 20
115.0
 30
0.0
 40
2.5
  0
CIRCLE
  5
B02C
330
AFE1
100
AcDbEntity
  8
0
100
AcDbCircle
 10
-73.0
 20
135.0
 30
0.0
 40
2.5
  0
CIRCLE
  5
B02D
330
AFE1
100
AcDbEntity
  8
0
100
AcDbCircle
 10
-73.0
 20
155.0
 30
0.0
 40
2.5
  0
CIRCLE
  5
B02E
330
AFE1
100
AcDbEntity
  8
0
100
AcDbCircle
 10
73.0
 20
55.0
 30
0.0
 40
2.5
  0
CIRCLE
  5
B02F
330
AFE1
100
AcDbEntity
  8
0
100
AcDbCircle
 10
73.0
 20
75.0
 30
0.0
 40
2.5
  0
CIRCLE
  5
B030
330
AFE1
100
AcDbEntity
  8
0
100
AcDbCircle
 10
73.0
 20
95.0
 30
0.0
 40
2.5
  0
CIRCLE
  5
B031
330
AFE1
100
AcDbEntity
  8
0
100
AcDbCircle
 10
73.0
 20
115.0
 30
0.0
 40
2.5
  0
CIRCLE
  5
B032
330
AFE1
100
AcDbEntity
  8
0
100
AcDbCircle
 10
73.0
 20
135.0
 30
0.0
 40
2.5
  0
CIRCLE
  5
B033
330
AFE1
100
AcDbEntity
  8
0
100
AcDbCircle
 10
73.0
 20
155.0
 30
0.0
 40
2.5
  0
CIRCLE
  5
B034
330
AFE1
100
AcDbEntity
  8
0
100
AcDbCircle
 10
-73.0
 20
175.0
 30
0.0
 40
2.5
  0
LINE
  5
B035
330
AFE1
100
AcDbEntity
  8
0
100
AcDbLine
 10
-81.5
 20
180.0
 30
0.0
 11
-44.0
 21
180.0
 31
0.0
  0
LINE
  5
B036
330
AFE1
100
AcDbEntity
  8
0
100
AcDbLine
 10
-81.50000000000005
 20
52.99999999999997
 30
0.0
 11
-81.5
 21
180.0
 31
0.0
  0
LINE
  5
B037
330
AFE1
100
AcDbEntity
  8
0
100
AcDbLine
 10
-39.99999999999999
 20
2.0
 30
0.0
 11
-39.99999999999998
 21
20.0
 31
0.0
  0
LINE
  5
B038
330
AFE1
100
AcDbEntity
  8
0
100
AcDbLine
 10
-41.99999999999998
 20
20.0
 30
0.0
 11
-41.99999999999999
 21
1.999999999999999
 31
0.0
  0
LINE
  5
B039
330
AFE1
100
AcDbEntity
  8
0
100
AcDbLine
 10
-44.0
 20
180.0
 30
0.0
 11
-42.0
 21
180.0
 31
0.0
  0
ENDBLK
  5
AFE3
330
AFE1
100
AcDbEntity
  8
0
100
AcDbBlockEnd
  0
BLOCK
  5
B03B
330
B03A
100
AcDbEntity
  8
0
100
AcDbBlockBegin
  2
SAE440_80_2-Left
 70
     0
 10
0.0
 20
0.0
 30
0.0
  3
SAE440_80_2-Left
  1

  0
LINE
  5
B03D
330
B03A
100
AcDbEntity
  8
0
100
AcDbLine
 10
1.999999999999992
 20
-2.0
 30
0.0
 11
86.00000000000001
 21
-2.000000000000003
 31
0.0
  0
LINE
  5
B03E
330
B03A
100
AcDbEntity
  8
0
100
AcDbLine
 10
1.999999999999997
 20
2.000000000000004
 30
0.0
 11
1.999999999999992
 21
-1.999999999999999
 31
0.0
  0
LINE
  5
B03F
330
B03A
100
AcDbEntity
  8
0
100
AcDbLine
 10
86.00000000000001
 20
-2.000000000000003
 30
0.0
 11
86.00000000000001
 21
2.0
 31
0.0
  0
SPLINE
  5
B040
330
B03A
100
AcDbEntity
  8
0
100
AcDbSpline
210
0.0
220
0.0
230
1.0
 70
     8
 71
     3
 72
    17
 73
    13
 74
     0
 42
0.000000001
 43
0.0000000001
 40
-0.9642391866692349
 40
-0.9642391866692349
 40
-0.9642391866692349
 40
-0.9642391866692349
 40
-0.7907552673954182
 40
-0.7907552673954182
 40
-0.7907552673954182
 40
-0.3883396848793531
 40
-0.3883396848793531
 40
-0.3883396848793531
 40
-0.1053184206051852
 40
-0.1053184206051852
 40
-0.1053184206051852
 40
0.0
 40
0.0
 40
0.0
 40
0.0
 10
1.991418259917647
 20
20.23869885965481
 30
0.0
 10
1.966312612898409
 20
20.60755087107009
 30
0.0
 10
1.887915385278615
 20
20.89349071917512
 30
0.0
 10
1.773393535468489
 20
21.10014472425746
 30
0.0
 10
1.507747145330043
 20
21.5795020743945
 30
0.0
 10
1.052077259790874
 20
21.69581939513039
 30
0.0
 10
0.6711423121776945
 20
21.82272340324598
 30
0.0
 10
0.403228505745032
 20
21.91197574430537
 30
0.0
 10
0.1693290542218162
 20
22.01102292128593
 30
0.0
 10
0.0606817918192052
 20
22.23987558700417
 30
0.0
 10
0.0202517622641273
 20
22.32503668387986
 30
0.0
 10
0.0000166268648459
 20
22.43287618702659
 30
0.0
 10
0.000000000000001
 20
22.56249999999999
 30
0.0
  0
LINE
  5
B041
330
B03A
100
AcDbEntity
  8
0
100
AcDbLine
 10
2.000000000000011
 20
22.56250000000003
 30
0.0
 11
2.001382055220155
 21
22.56250000000003
 31
0.0
  0
SPLINE
  5
B042
330
B03A
100
AcDbEntity
  8
0
100
AcDbSpline
210
0.0
220
0.0
230
1.0
 70
     8
 71
     3
 72
    17
 73
    13
 74
     0
 42
0.000000001
 43
0.0000000001
 40
0.0
 40
0.0
 40
0.0
 40
0.0
 40
0.3704689058671613
 40
0.3704689058671613
 40
0.3704689058671613
 40
0.7029757053327439
 40
0.7029757053327439
 40
0.7029757053327439
 40
0.9335813790911094
 40
0.9335813790911094
 40
0.9335813790911094
 40
1.0
 40
1.0
 40
1.0
 40
1.0
 10
2.000000000000012
 20
22.56250000000003
 30
0.0
 10
2.000006377019317
 20
22.27455844103481
 30
0.0
 10
2.000465619612654
 20
22.04087523495744
 30
0.0
 10
1.99985113731888
 20
21.78869659270838
 30
0.0
 10
1.999299621287183
 20
21.56235880322093
 30
0.0
 10
2.000043886462047
 20
21.32332829808082
 30
0.0
 10
2.000290307240787
 20
21.01709169609802
 30
0.0
 10
2.000461209098435
 20
20.80470536883127
 30
0.0
 10
2.000344409457332
 20
20.55383081505268
 30
0.0
 10
2.000001688218303
 20
20.26575225714606
 30
0.0
 10
1.999902978279031
 20
20.18278040212731
 30
0.0
 10
2.00056570178206
 20
20.09884858615949
 30
0.0
 10
2.000000000000109
 20
20.00000000000801
 30
0.0
  0
LINE
  5
B043
330
B03A
100
AcDbEntity
  8
0
100
AcDbLine
 10
0.0
 20
22.56250000000003
 30
0.0
 11
2.000000000000011
 21
22.56250000000003
 31
0.0
  0
SPLINE
  5
B044
330
B03A
100
AcDbEntity
  8
0
100
AcDbSpline
210
0.0
220
0.0
230
1.0
 70
     8
 71
     3
 72
    10
 73
     6
 74
     0
 42
0.000000001
 43
0.0000000001
 40
0.0
 40
0.0
 40
0.0
 40
0.0
 40
0.0047607362106785
 40
0.0047607362106785
 40
0.0080493786476825
 40
0.0080493786476825
 40
0.0080493786476825
 40
0.0080493786476825
 10
1.999902873730001
 20
20.00000018211956
 30
0.0
 10
1.999919832282143
 20
20.00926085574035
 30
0.0
 10
1.999899923496808
 20
20.01651830793669
 30
0.0
 10
1.999868525598316
 20
20.02379454522833
 30
0.0
 10
1.999856752219399
 20
20.02541231401715
 30
0.0
 10
1.999856752219841
 20
20.02541231395412
 30
0.0
  0
SPLINE
  5
B045
330
B03A
100
AcDbEntity
  8
0
100
AcDbSpline
210
0.0
220
0.0
230
1.0
 70
     8
 71
     3
 72
    10
 73
     6
 74
     0
 42
0.000000001
 43
0.0000000001
 40
0.0020467532241487
 40
0.0020467532241487
 40
0.0020467532241487
 40
0.0020467532241487
 40
0.0073144447831953
 40
0.0073144447831953
 40
0.0086350904512965
 40
0.0086350904512965
 40
0.0086350904512965
 40
0.0086350904512965
 10
1.999908300990418
 20
20.00771467872354
 30
0.0
 10
1.999839447266913
 20
20.01413217308951
 30
0.0
 10
1.999765915930797
 20
20.01970304235794
 30
0.0
 10
1.999731266051755
 20
20.02222108524339
 30
0.0
 10
1.999727350802875
 20
20.02249947719191
 30
0.0
 10
1.999727350674436
 20
20.02249948635878
 30
0.0
  0
SPLINE
  5
B046
330
B03A
100
AcDbEntity
  8
0
100
AcDbSpline
210
0.0
220
0.0
230
1.0
 70
     8
 71
     3
 72
    32
 73
    28
 74
     0
 42
0.000000001
 43
0.0000000001
 40
0.0018359692703894
 40
0.0018359692703894
 40
0.0018359692703894
 40
0.0018359692703894
 40
0.0049362173802263
 40
0.0049362173802263
 40
0.0136075453310451
 40
0.0136075453310451
 40
0.0157017063884474
 40
0.0157017063884474
 40
0.0187307323989266
 40
0.0187307323989266
 40
0.0214823019874585
 40
0.0214823019874585
 40
0.0252519500298121
 40
0.0252519500298121
 40
0.0315875431810268
 40
0.0315875431810268
 40
0.0456644159229319
 40
0.0456644159229319
 40
0.066773237545503
 40
0.066773237545503
 40
0.0825165682637362
 40
0.0825165682637362
 40
0.0966730599035402
 40
0.0966730599035402
 40
0.1029028078038936
 40
0.1029028078038936
 40
0.106592042360571
 40
0.106592042360571
 40
0.106592042360571
 40
0.106592042360571
 10
1.999904133475991
 20
20.00816309307784
 30
0.0
 10
1.999842958910485
 20
20.01322155608882
 30
0.0
 10
1.999768542113842
 20
20.01887577792775
 30
0.0
 10
1.999447828841185
 20
20.04063924731672
 30
0.0
 10
1.999163921226767
 20
20.05694762582783
 30
0.0
 10
1.998493513245342
 20
20.0850206356186
 30
0.0
 10
1.998344337752774
 20
20.0909520248368
 30
0.0
 10
1.997931874881002
 20
20.10633445565095
 30
0.0
 10
1.99764054853184
 20
20.11638174640791
 30
0.0
 10
1.997035115439376
 20
20.13554603666545
 30
0.0
 10
1.996720979251834
 20
20.14483095173688
 30
0.0
 10
1.995945012595485
 20
20.16636017241219
 30
0.0
 10
1.995465610142351
 20
20.17861339743843
 30
0.0
 10
1.994126232508954
 20
20.21052009980889
 30
0.0
 10
1.993220590527713
 20
20.22978942153015
 30
0.0
 10
1.990080783491107
 20
20.29046212860885
 30
0.0
 10
1.987547905567143
 20
20.33076288135977
 30
0.0
 10
1.980029006546721
 20
20.43019732434562
 30
0.0
 10
1.974401036481099
 20
20.48869773356236
 30
0.0
 10
1.962499624129037
 20
20.58544578858294
 30
0.0
 10
1.956677294130464
 20
20.62534443158304
 30
0.0
 10
1.945516042033064
 20
20.69167792172242
 30
0.0
 10
1.940045049417293
 20
20.71965030238743
 30
0.0
 10
1.934901777267307
 20
20.74437060916174
 30
0.0
 10
1.933704313887707
 20
20.74987665261497
 30
0.0
 10
1.932673977885309
 20
20.75457717901058
 30
0.0
 10
1.932477075508714
 20
20.7554597619974
 30
0.0
 10
1.932477075507237
 20
20.75545976200404
 30
0.0
  0
LINE
  5
B047
330
B03A
100
AcDbEntity
  8
0
100
AcDbLine
 10
1.999999999999997
 20
2.000000000000003
 30
0.0
 11
1.999999999999997
 21
20.0
 31
0.0
  0
LINE
  5
B048
330
B03A
100
AcDbEntity
  8
0
100
AcDbLine
 10
1.999999999999992
 20
52.99999999999997
 30
0.0
 11
2.000000000000011
 21
22.56250000000003
 31
0.0
  0
LINE
  5
B049
330
B03A
100
AcDbEntity
  8
0
100
AcDbLine
 10
0.0
 20
52.99999999999997
 30
0.0
 11
1.999999999999992
 21
52.99999999999997
 31
0.0
  0
LINE
  5
B04A
330
B03A
100
AcDbEntity
  8
0
100
AcDbLine
 10
0.0
 20
22.56250000000003
 30
0.0
 11
0.0
 21
52.99999999999997
 31
0.0
  0
LINE
  5
B04B
330
B03A
100
AcDbEntity
  8
0
100
AcDbLine
 10
86.00000000000006
 20
20.0
 30
0.0
 11
46.00000000000004
 21
52.99999999999997
 31
0.0
  0
LINE
  5
B04C
330
B03A
100
AcDbEntity
  8
0
100
AcDbLine
 10
46.00000000000004
 20
52.99999999999997
 30
0.0
 11
46.00000000000001
 21
180.0
 31
0.0
  0
LINE
  5
B04D
330
B03A
100
AcDbEntity
  8
0
100
AcDbLine
 10
1.999999999999992
 20
52.99999999999997
 30
0.0
 11
2.000000000000019
 21
180.0
 31
0.0
  0
LINE
  5
B04E
330
B03A
100
AcDbEntity
  8
0
100
AcDbLine
 10
86.00000000000006
 20
20.0
 30
0.0
 11
86.00000000000001
 21
1.999999999999999
 31
0.0
  0
LINE
  5
B04F
330
B03A
100
AcDbEntity
  8
0
100
AcDbLine
 10
4.000000000000003
 20
180.0
 30
0.0
 11
46.00000000000001
 21
180.0
 31
0.0
  0
LINE
  5
B050
330
B03A
100
AcDbEntity
  8
0
100
AcDbLine
 10
0.0
 20
180.0
 30
0.0
 11
2.000000000000019
 21
180.0
 31
0.0
  0
LINE
  5
B051
330
B03A
100
AcDbEntity
  8
0
100
AcDbLine
 10
0.0
 20
52.99999999999997
 30
0.0
 11
0.0
 21
180.0
 31
0.0
  0
LINE
  5
B052
330
B03A
100
AcDbEntity
  8
0
100
AcDbLine
 10
2.000000000000002
 20
180.0
 30
0.0
 11
4.000000000000003
 21
180.0
 31
0.0
  0
CIRCLE
  5
B053
330
B03A
100
AcDbEntity
  8
0
100
AcDbCircle
 10
38.50000000000001
 20
35.0
 30
0.0
 40
2.5
  0
CIRCLE
  5
B054
330
B03A
100
AcDbEntity
  8
0
100
AcDbCircle
 10
38.50000000000001
 20
55.0
 30
0.0
 40
2.5
  0
CIRCLE
  5
B055
330
B03A
100
AcDbEntity
  8
0
100
AcDbCircle
 10
38.50000000000001
 20
75.0
 30
0.0
 40
2.5
  0
CIRCLE
  5
B056
330
B03A
100
AcDbEntity
  8
0
100
AcDbCircle
 10
38.50000000000001
 20
95.0
 30
0.0
 40
2.5
  0
CIRCLE
  5
B057
330
B03A
100
AcDbEntity
  8
0
100
AcDbCircle
 10
38.50000000000001
 20
115.0
 30
0.0
 40
2.5
  0
CIRCLE
  5
B058
330
B03A
100
AcDbEntity
  8
0
100
AcDbCircle
 10
38.50000000000001
 20
135.0
 30
0.0
 40
2.5
  0
CIRCLE
  5
B059
330
B03A
100
AcDbEntity
  8
0
100
AcDbCircle
 10
38.50000000000001
 20
155.0
 30
0.0
 40
2.5
  0
CIRCLE
  5
B05A
330
B03A
100
AcDbEntity
  8
0
100
AcDbCircle
 10
38.50000000000001
 20
175.0
 30
0.0
 40
2.5
  0
SPLINE
  5
B05B
330
B03A
100
AcDbEntity
  8
0
100
AcDbSpline
210
0.0
220
0.0
230
1.0
 70
     8
 71
     3
 72
     8
 73
     4
 74
     0
 42
0.000000001
 43
0.0000000001
 40
0.0
 40
0.0
 40
0.0
 40
0.0
 40
0.0014030538961121
 40
0.0014030538961121
 40
0.0014030538961121
 40
0.0014030538961121
 10
1.999903006614033
 20
20.00007310948579
 30
0.0
 10
1.999907948939007
 20
20.00279910041697
 30
0.0
 10
1.999909659073176
 20
20.005348165473
 30
0.0
 10
1.999909229019617
 20
20.0077042485617
 30
0.0
  0
SPLINE
  5
B05C
330
B03A
100
AcDbEntity
  8
0
100
AcDbSpline
210
0.0
220
0.0
230
1.0
 70
     8
 71
     3
 72
    20
 73
    16
 74
     0
 42
0.000000001
 43
0.0000000001
 40
0.0018355756251218
 40
0.0018355756251218
 40
0.0018355756251218
 40
0.0018355756251218
 40
0.0049367400931238
 40
0.0049367400931238
 40
0.0136098041290722
 40
0.0136098041290722
 40
0.0157024875928438
 40
0.0157024875928438
 40
0.0187307473346273
 40
0.0187307473346273
 40
0.0214824226490645
 40
0.0214824226490645
 40
0.0252523477658762
 40
0.0252523477658762
 40
0.0305682324252273
 40
0.0305682324252273
 40
0.0305682324252273
 40
0.0305682324252273
 10
1.999904133604515
 20
20.00816308223917
 30
0.0
 10
1.999842941034995
 20
20.01322303398386
 30
0.0
 10
1.999768498549793
 20
20.01887905653833
 30
0.0
 10
1.999447688727553
 20
20.04064785324399
 30
0.0
 10
1.999163708915561
 20
20.05695986130072
 30
0.0
 10
1.998493054220147
 20
20.08503904802012
 30
0.0
 10
1.998343946186956
 20
20.09096705414853
 30
0.0
 10
1.99793160735684
 20
20.10634381504005
 30
0.0
 10
1.997640337106362
 20
20.11638866738729
 30
0.0
 10
1.997034956689627
 20
20.13555085393651
 30
0.0
 10
1.996720801665795
 20
20.14483610081627
 30
0.0
 10
1.995944774410056
 20
20.16636647663657
 30
0.0
 10
1.995465328002768
 20
20.17862048173858
 30
0.0
 10
1.994261044154353
 20
20.20730809954888
 30
0.0
 10
1.993510226850411
 20
20.22356751617011
 30
0.0
 10
1.992710896851998
 20
20.23950034954037
 30
0.0
  0
ENDBLK
  5
B03C
330
B03A
100
AcDbEntity
  8
0
100
AcDbBlockEnd
  0
BLOCK
  5
B05E
330
B05D
100
AcDbEntity
  8
0
100
AcDbBlockBegin
  2
SAE440_80_2-Right
 70
     0
 10
0.0
 20
0.0
 30
0.0
  3
SAE440_80_2-Right
  1

  0
SPLINE
  5
B060
330
B05D
100
AcDbEntity
  8
0
100
AcDbSpline
210
0.0
220
0.0
230
1.0
 70
     8
 71
     3
 72
    17
 73
    13
 74
     0
 42
0.000000001
 43
0.0000000001
 40
0.0
 40
0.0
 40
0.0
 40
0.0
 40
0.3704689058671613
 40
0.3704689058671613
 40
0.3704689058671613
 40
0.7029757053327439
 40
0.7029757053327439
 40
0.7029757053327439
 40
0.9335813790911094
 40
0.9335813790911094
 40
0.9335813790911094
 40
1.0
 40
1.0
 40
1.0
 40
1.0
 10
-2.000000000000012
 20
22.56250000000003
 30
0.0
 10
-2.000006377019317
 20
22.27455844103481
 30
0.0
 10
-2.000465619612654
 20
22.04087523495744
 30
0.0
 10
-1.99985113731888
 20
21.78869659270838
 30
0.0
 10
-1.999299621287183
 20
21.56235880322093
 30
0.0
 10
-2.000043886462047
 20
21.32332829808082
 30
0.0
 10
-2.000290307240787
 20
21.01709169609802
 30
0.0
 10
-2.000461209098435
 20
20.80470536883127
 30
0.0
 10
-2.000344409457332
 20
20.55383081505268
 30
0.0
 10
-2.000001688218303
 20
20.26575225714606
 30
0.0
 10
-1.999902978279031
 20
20.18278040212731
 30
0.0
 10
-2.00056570178206
 20
20.09884858615949
 30
0.0
 10
-2.000000000000109
 20
20.00000000000801
 30
0.0
  0
LINE
  5
B061
330
B05D
100
AcDbEntity
  8
0
100
AcDbLine
 10
-2.001382055220155
 20
22.56250000000003
 30
0.0
 11
-2.000000000000012
 21
22.56250000000003
 31
0.0
  0
SPLINE
  5
B062
330
B05D
100
AcDbEntity
  8
0
100
AcDbSpline
210
0.0
220
0.0
230
1.0
 70
     8
 71
     3
 72
    17
 73
    13
 74
     0
 42
0.000000001
 43
0.0000000001
 40
-0.964239186669255
 40
-0.964239186669255
 40
-0.964239186669255
 40
-0.964239186669255
 40
-0.7907552673954182
 40
-0.7907552673954182
 40
-0.7907552673954182
 40
-0.3883396848793531
 40
-0.3883396848793531
 40
-0.3883396848793531
 40
-0.1053184206051852
 40
-0.1053184206051852
 40
-0.1053184206051852
 40
0.0
 40
0.0
 40
0.0
 40
0.0
 10
-1.991418259917656
 20
20.23869885965468
 30
0.0
 10
-1.966312612898427
 20
20.60755087107003
 30
0.0
 10
-1.887915385278629
 20
20.8934907191751
 30
0.0
 10
-1.773393535468489
 20
21.10014472425746
 30
0.0
 10
-1.507747145330043
 20
21.5795020743945
 30
0.0
 10
-1.052077259790874
 20
21.69581939513039
 30
0.0
 10
-0.6711423121776945
 20
21.82272340324598
 30
0.0
 10
-0.403228505745032
 20
21.91197574430537
 30
0.0
 10
-0.1693290542218162
 20
22.01102292128593
 30
0.0
 10
-0.0606817918192052
 20
22.23987558700417
 30
0.0
 10
-0.0202517622641273
 20
22.32503668387986
 30
0.0
 10
-0.0000166268648459
 20
22.43287618702659
 30
0.0
 10
-0.000000000000001
 20
22.56249999999999
 30
0.0
  0
LINE
  5
B063
330
B05D
100
AcDbEntity
  8
0
100
AcDbLine
 10
-2.000000000000011
 20
22.56250000000003
 30
0.0
 11
0.0
 21
22.56250000000003
 31
0.0
  0
SPLINE
  5
B064
330
B05D
100
AcDbEntity
  8
0
100
AcDbSpline
210
0.0
220
0.0
230
1.0
 70
     8
 71
     3
 72
    12
 73
     8
 74
     0
 42
0.000000001
 43
0.0000000001
 40
0.0088758238980119
 40
0.0088758238980119
 40
0.0088758238980119
 40
0.0088758238980119
 40
0.0107384842370408
 40
0.0107384842370408
 40
0.0145689123479198
 40
0.0145689123479198
 40
0.0169346048285831
 40
0.0169346048285831
 40
0.0169346048285831
 40
0.0169346048285831
 10
-1.999856752219842
 20
20.02541231395413
 30
0.0
 10
-1.999856752219599
 20
20.02541231398883
 30
0.0
 10
-1.99986032314683
 20
20.02491143763146
 30
0.0
 10
-1.999877451002911
 20
20.02190279747182
 30
0.0
 10
-1.999897426166105
 20
20.0178428999468
 30
0.0
 10
-1.99991075217046
 20
20.00875966480287
 30
0.0
 10
-1.999911339879819
 20
20.00466940921892
 30
0.0
 10
-1.999903006614033
 20
20.00007310948579
 30
0.0
  0
SPLINE
  5
B065
330
B05D
100
AcDbEntity
  8
0
100
AcDbSpline
210
0.0
220
0.0
230
1.0
 70
     8
 71
     3
 72
    10
 73
     6
 74
     0
 42
0.000000001
 43
0.0000000001
 40
0.007834810347435
 40
0.007834810347435
 40
0.007834810347435
 40
0.007834810347435
 40
0.0103553344057599
 40
0.0103553344057599
 40
0.0144240101273675
 40
0.0144240101273675
 40
0.0144240101273675
 40
0.0144240101273675
 10
-1.999727350674406
 20
20.02249948636085
 30
0.0
 10
-1.999727350897009
 20
20.02249947047349
 30
0.0
 10
-1.999741826408332
 20
20.02147663462121
 30
0.0
 10
-1.999800393228249
 20
20.01707679002726
 30
0.0
 10
-1.999855677317617
 20
20.01265142386086
 30
0.0
 10
-1.999908645510097
 20
20.00771453650735
 30
0.0
  0
SPLINE
  5
B066
330
B05D
100
AcDbEntity
  8
0
100
AcDbSpline
210
0.0
220
0.0
230
1.0
 70
     8
 71
     3
 72
    32
 73
    28
 74
     0
 42
0.000000001
 43
0.0000000001
 40
0.1058692645694716
 40
0.1058692645694716
 40
0.1058692645694716
 40
0.1058692645694716
 40
0.1125569509339848
 40
0.1125569509339848
 40
0.1206920077965935
 40
0.1206920077965935
 40
0.1302126426327472
 40
0.1302126426327472
 40
0.1446947356250118
 40
0.1446947356250118
 40
0.1722964940291042
 40
0.1722964940291042
 40
0.18268964524383
 40
0.18268964524383
 40
0.1903277462612253
 40
0.1903277462612253
 40
0.1926314617453109
 40
0.1926314617453109
 40
0.1948044331532667
 40
0.1948044331532667
 40
0.1979890219538887
 40
0.1979890219538887
 40
0.2007031779921391
 40
0.2007031779921391
 40
0.2045775165089826
 40
0.2045775165089826
 40
0.2106422669187506
 40
0.2106422669187506
 40
0.2106422669187506
 40
0.2106422669187506
 10
-1.93247707550722
 20
20.75545976200412
 30
0.0
 10
-1.932477075510211
 20
20.75545976199067
 30
0.0
 10
-1.933145344274469
 20
20.75248053341822
 30
0.0
 10
-1.935847388717329
 20
20.73988902438113
 30
0.0
 10
-1.93816077776392
 20
20.72886273924889
 30
0.0
 10
-1.943928512908223
 20
20.69936975547598
 30
0.0
 10
-1.947524992059104
 20
20.67982953658304
 30
0.0
 10
-1.956486449203031
 20
20.62633056133694
 30
0.0
 10
-1.961841000232995
 20
20.58988507985789
 30
0.0
 10
-1.975646087260829
 20
20.48006692793809
 30
0.0
 10
-1.98264443560069
 20
20.40282396625472
 30
0.0
 10
-1.989806521511461
 20
20.29390061701602
 30
0.0
 10
-1.99152793495296
 20
20.26374781084508
 30
0.0
 10
-1.99418717541655
 20
20.20943311679998
 30
0.0
 10
-1.995228625990766
 20
20.18541844693733
 30
0.0
 10
-1.996437847892017
 20
20.15281167268034
 30
0.0
 10
-1.996708907466764
 20
20.14512492620052
 30
0.0
 10
-1.997206733392221
 20
20.13021118582155
 30
0.0
 10
-1.99743729952657
 20
20.12291279910598
 30
0.0
 10
-1.997958141631151
 20
20.10547434039837
 30
0.0
 10
-1.998231327293335
 20
20.09539759656491
 30
0.0
 10
-1.998641257291318
 20
20.07903042471002
 30
0.0
 10
-1.99879825799021
 20
20.07220700287223
 30
0.0
 10
-1.999125382157466
 20
20.05706923094932
 30
0.0
 10
-1.999277298364536
 20
20.04916717064548
 30
0.0
 10
-1.999618737456615
 20
20.02969156596929
 30
0.0
 10
-1.999785503657269
 20
20.01793066292733
 30
0.0
 10
-1.99990502025702
 20
20.00804795605251
 30
0.0
  0
LINE
  5
B067
330
B05D
100
AcDbEntity
  8
0
100
AcDbLine
 10
-1.999999999999992
 20
-2.0
 30
0.0
 11
-86.00000000000001
 21
-2.0
 31
0.0
  0
LINE
  5
B068
330
B05D
100
AcDbEntity
  8
0
100
AcDbLine
 10
-1.999999999999997
 20
2.000000000000003
 30
0.0
 11
-1.999999999999997
 21
20.0
 31
0.0
  0
LINE
  5
B069
330
B05D
100
AcDbEntity
  8
0
100
AcDbLine
 10
-1.999999999999997
 20
2.000000000000004
 30
0.0
 11
-1.999999999999992
 21
-1.999999999999999
 31
0.0
  0
LINE
  5
B06A
330
B05D
100
AcDbEntity
  8
0
100
AcDbLine
 10
-86.00000000000001
 20
-2.000000000000003
 30
0.0
 11
-86.00000000000001
 21
2.0
 31
0.0
  0
LINE
  5
B06B
330
B05D
100
AcDbEntity
  8
0
100
AcDbLine
 10
0.0
 20
52.99999999999997
 30
0.0
 11
0.0
 21
22.56250000000003
 31
0.0
  0
LINE
  5
B06C
330
B05D
100
AcDbEntity
  8
0
100
AcDbLine
 10
-1.999999999999992
 20
52.99999999999997
 30
0.0
 11
0.0
 21
52.99999999999997
 31
0.0
  0
LINE
  5
B06D
330
B05D
100
AcDbEntity
  8
0
100
AcDbLine
 10
-2.000000000000011
 20
22.56250000000003
 30
0.0
 11
-1.999999999999992
 21
52.99999999999997
 31
0.0
  0
LINE
  5
B06E
330
B05D
100
AcDbEntity
  8
0
100
AcDbLine
 10
0.0
 20
52.99999999999997
 30
0.0
 11
0.0
 21
180.0
 31
0.0
  0
CIRCLE
  5
B06F
330
B05D
100
AcDbEntity
  8
0
100
AcDbCircle
 10
-38.50000000000002
 20
165.0
 30
0.0
 40
2.5
  0
LINE
  5
B070
330
B05D
100
AcDbEntity
  8
0
100
AcDbLine
 10
-46.00000000000004
 20
52.99999999999997
 30
0.0
 11
-86.00000000000006
 21
20.0
 31
0.0
  0
LINE
  5
B071
330
B05D
100
AcDbEntity
  8
0
100
AcDbLine
 10
-46.00000000000001
 20
180.0
 30
0.0
 11
-46.00000000000004
 21
52.99999999999997
 31
0.0
  0
LINE
  5
B072
330
B05D
100
AcDbEntity
  8
0
100
AcDbLine
 10
-86.00000000000006
 20
20.0
 30
0.0
 11
-86.00000000000001
 21
1.999999999999999
 31
0.0
  0
LINE
  5
B073
330
B05D
100
AcDbEntity
  8
0
100
AcDbLine
 10
-4.000000000000003
 20
180.0
 30
0.0
 11
-46.00000000000001
 21
180.0
 31
0.0
  0
LINE
  5
B074
330
B05D
100
AcDbEntity
  8
0
100
AcDbLine
 10
-2.000000000000002
 20
180.0
 30
0.0
 11
-4.000000000000003
 21
180.0
 31
0.0
  0
LINE
  5
B075
330
B05D
100
AcDbEntity
  8
0
100
AcDbLine
 10
0.0
 20
180.0
 30
0.0
 11
-2.000000000000019
 21
180.0
 31
0.0
  0
LINE
  5
B076
330
B05D
100
AcDbEntity
  8
0
100
AcDbLine
 10
-1.999999999999992
 20
52.99999999999997
 30
0.0
 11
-2.000000000000019
 21
180.0
 31
0.0
  0
CIRCLE
  5
B077
330
B05D
100
AcDbEntity
  8
0
100
AcDbCircle
 10
-38.50000000000002
 20
45.0
 30
0.0
 40
2.5
  0
CIRCLE
  5
B078
330
B05D
100
AcDbEntity
  8
0
100
AcDbCircle
 10
-38.50000000000002
 20
65.0
 30
0.0
 40
2.5
  0
CIRCLE
  5
B079
330
B05D
100
AcDbEntity
  8
0
100
AcDbCircle
 10
-38.50000000000002
 20
85.0
 30
0.0
 40
2.5
  0
CIRCLE
  5
B07A
330
B05D
100
AcDbEntity
  8
0
100
AcDbCircle
 10
-38.50000000000002
 20
105.0
 30
0.0
 40
2.5
  0
CIRCLE
  5
B07B
330
B05D
100
AcDbEntity
  8
0
100
AcDbCircle
 10
-38.50000000000002
 20
125.0
 30
0.0
 40
2.5
  0
CIRCLE
  5
B07C
330
B05D
100
AcDbEntity
  8
0
100
AcDbCircle
 10
-38.50000000000002
 20
145.0
 30
0.0
 40
2.5
  0
LINE
  5
B07D
330
B05D
100
AcDbEntity
  8
0
100
AcDbLine
 10
-1.999903006606085
 20
20.00007310921191
 30
0.0
 11
-1.999902873730002
 21
20.00000018211956
 31
0.0
  0
SPLINE
  5
B07E
330
B05D
100
AcDbEntity
  8
0
100
AcDbSpline
210
0.0
220
0.0
230
1.0
 70
     8
 71
     3
 72
     8
 73
     4
 74
     0
 42
0.000000001
 43
0.0000000001
 40
0.0142875376595842
 40
0.0142875376595842
 40
0.0142875376595842
 40
0.0142875376595842
 40
0.0144230186256145
 40
0.0144230186256145
 40
0.0144230186256145
 40
0.0144230186256145
 10
-1.999903298955495
 20
20.00820627486996
 30
0.0
 10
-1.999905067041569
 20
20.00804306593526
 30
0.0
 10
-1.999906874595374
 20
20.00787896352723
 30
0.0
 10
-1.999908638434878
 20
20.00771456530008
 30
0.0
  0
ENDBLK
  5
B05F
330
B05D
100
AcDbEntity
  8
0
100
AcDbBlockEnd
  0
BLOCK
  5
B080
330
B07F
100
AcDbEntity
  8
0
100
AcDbBlockBegin
  2
SAE440_80_2-Top
 70
     0
 10
0.0
 20
0.0
 30
0.0
  3
SAE440_80_2-Top
  1

  0
LINE
  5
B082
330
B07F
100
AcDbEntity
  8
0
100
AcDbLine
 10
40.0
 20
-1.999999999999995
 30
0.0
 11
40.0
 21
-2.070206720563895
 31
0.0
  0
SPLINE
  5
B083
330
B07F
100
AcDbEntity
  8
0
100
AcDbSpline
210
0.0
220
0.0
230
1.0
 70
     8
 71
     3
 72
    11
 73
     7
 74
     0
 42
0.000000001
 43
0.0000000001
 40
-1.0
 40
-1.0
 40
-1.0
 40
-1.0
 40
-0.7907552673954182
 40
-0.7907552673954182
 40
-0.7907552673954182
 40
-0.6535033875453805
 40
-0.6535033875453805
 40
-0.6535033875453805
 40
-0.6535033875453805
 10
40.00000000000002
 20
-1.999999999999836
 30
0.0
 10
40.00001724877418
 20
-1.997098202772763
 30
0.0
 10
40.13515725660202
 20
-1.911522152467739
 30
0.0
 10
40.36463729125238
 20
-1.773393535468489
 30
0.0
 10
40.51516230448335
 20
-1.682789523084295
 30
0.0
 10
40.70501487259753
 20
-1.570080316905892
 30
0.0
 10
40.9222967243702
 20
-1.445770536744895
 30
0.0
  0
SPLINE
  5
B084
330
B07F
100
AcDbEntity
  8
0
100
AcDbSpline
210
0.0
220
0.0
230
1.0
 70
     8
 71
     3
 72
    10
 73
     6
 74
     0
 42
0.000000001
 43
0.0000000001
 40
0.0
 40
0.0
 40
0.0
 40
0.0
 40
0.067058416238602
 40
0.067058416238602
 40
0.1015857294878427
 40
0.1015857294878427
 40
0.1015857294878427
 40
0.1015857294878427
 10
44.58980804090504
 20
-2.000030232669507
 30
0.0
 10
44.39154521972401
 20
-2.000297119479851
 30
0.0
 10
44.18834991722643
 20
-2.001422490699209
 30
0.0
 10
43.87453551237874
 20
-2.013511332966046
 30
0.0
 10
43.76446343913902
 20
-2.019552871706835
 30
0.0
 10
43.65274930207814
 20
-2.030278825412401
 30
0.0
  0
SPLINE
  5
B085
330
B07F
100
AcDbEntity
  8
0
100
AcDbSpline
210
0.0
220
0.0
230
1.0
 70
     8
 71
     3
 72
    10
 73
     6
 74
     0
 42
0.000000001
 43
0.0000000001
 40
0.058931302206975
 40
0.058931302206975
 40
0.058931302206975
 40
0.058931302206975
 40
0.059977986056152
 40
0.059977986056152
 40
0.0663268531298373
 40
0.0663268531298373
 40
0.0663268531298373
 40
0.0663268531298373
 10
42.00026149195294
 20
-3.967645940185788
 30
0.0
 10
42.00024336833442
 20
-3.969383514691037
 30
0.0
 10
42.00022834572054
 20
-3.970951905550561
 30
0.0
 10
42.00012589227625
 20
-3.981754123534792
 30
0.0
 10
42.00006999202734
 20
-3.989563038569411
 30
0.0
 10
42.00002531920687
 20
-4.000000108971983
 30
0.0
  0
SPLINE
  5
B086
330
B07F
100
AcDbEntity
  8
0
100
AcDbSpline
210
0.0
220
0.0
230
1.0
 70
     8
 71
     3
 72
    28
 73
    24
 74
     0
 42
0.000000001
 43
0.0000000001
 40
0.0059924478241806
 40
0.0059924478241806
 40
0.0059924478241806
 40
0.0059924478241806
 40
0.0060018595075083
 40
0.0060018595075083
 40
0.0060343963674372
 40
0.0060343963674372
 40
0.0061001472290531
 40
0.0061001472290531
 40
0.0063666105885922
 40
0.0063666105885922
 40
0.0733641904293408
 40
0.0733641904293408
 40
0.1461240505398886
 40
0.1461240505398886
 40
0.182135546170364
 40
0.182135546170364
 40
0.2003591140695438
 40
0.2003591140695438
 40
0.209908274176241
 40
0.209908274176241
 40
0.2149920969033303
 40
0.2149920969033303
 40
0.220228344037328
 40
0.220228344037328
 40
0.220228344037328
 40
0.220228344037328
 10
39.99996683550281
 20
-3.998262424359737
 30
0.0
 10
39.99996641761599
 20
-3.998238386866312
 30
0.0
 10
39.99996598918527
 20
-3.998213741736222
 30
0.0
 10
39.99996403333826
 20
-3.998101227578374
 30
0.0
 10
39.9999623814174
 20
-3.998006181945243
 30
0.0
 10
39.99995717903519
 20
-3.997706792758471
 30
0.0
 10
39.99995335025263
 20
-3.997486366558471
 30
0.0
 10
39.99993420056429
 20
-3.996383397429607
 30
0.0
 10
39.99991873595755
 20
-3.995491068887998
 30
0.0
 10
39.99618163188602
 20
-3.779488505928616
 30
0.0
 10
39.99444384475526
 20
-3.585324924646851
 30
0.0
 10
39.99316955533441
 20
-3.164248280106188
 30
0.0
 10
39.99375436380247
 20
-2.938375307214843
 30
0.0
 10
39.99571986616763
 20
-2.597639698592612
 30
0.0
 10
39.99649315583361
 20
-2.486557853008369
 30
0.0
 10
39.99791978986952
 20
-2.320163091257513
 30
0.0
 10
39.99860261227972
 20
-2.262010867675478
 30
0.0
 10
39.99934828558156
 20
-2.181744893765599
 30
0.0
 10
39.9995124975358
 20
-2.155839347680022
 30
0.0
 10
39.99960892908493
 20
-2.120401028621148
 30
0.0
 10
39.99961740246705
 20
-2.108750333219036
 30
0.0
 10
39.99960908192195
 20
-2.087225514439441
 30
0.0
 10
39.99959154665788
 20
-2.077011052306418
 30
0.0
 10
39.99957591650154
 20
-2.070206720563895
 30
0.0
  0
SPLINE
  5
B087
330
B07F
100
AcDbEntity
  8
0
100
AcDbSpline
210
0.0
220
0.0
230
1.0
 70
     8
 71
     3
 72
    12
 73
     8
 74
     0
 42
0.000000001
 43
0.0000000001
 40
0.0
 40
0.0
 40
0.0
 40
0.0
 40
0.0073680638623023
 40
0.0073680638623023
 40
0.0094714794565447
 40
0.0094714794565447
 40
0.0106892344323231
 40
0.0106892344323231
 40
0.0106892344323231
 40
0.0106892344323231
 10
39.9999605385382
 20
-3.999985503002876
 30
0.0
 10
40.00000120689111
 20
-3.988738678362144
 30
0.0
 10
40.00005705426699
 20
-3.976817397476982
 30
0.0
 10
40.0001147591148
 20
-3.966829073041982
 30
0.0
 10
40.00012596496208
 20
-3.965004429901343
 30
0.0
 10
40.00013624741448
 20
-3.96334074942157
 30
0.0
 10
40.00013843227593
 20
-3.962989239745226
 30
0.0
 10
40.00013843227588
 20
-3.962989239753208
 30
0.0
  0
LINE
  5
B088
330
B07F
100
AcDbEntity
  8
0
100
AcDbLine
 10
-40.0
 20
-1.999999999999995
 30
0.0
 11
-40.0
 21
-2.070206707129233
 31
0.0
  0
SPLINE
  5
B089
330
B07F
100
AcDbEntity
  8
0
100
AcDbSpline
210
0.0
220
0.0
230
1.0
 70
     8
 71
     3
 72
    11
 73
     7
 74
     0
 42
0.000000001
 43
0.0000000001
 40
-1.0
 40
-1.0
 40
-1.0
 40
-1.0
 40
-0.7907552673954182
 40
-0.7907552673954182
 40
-0.7907552673954182
 40
-0.6535033875453805
 40
-0.6535033875453805
 40
-0.6535033875453805
 40
-0.6535033875453805
 10
-40.00000000000002
 20
-1.999999999999836
 30
0.0
 10
-40.00001724877418
 20
-1.997098202772763
 30
0.0
 10
-40.13515725660202
 20
-1.911522152467739
 30
0.0
 10
-40.36463729125238
 20
-1.773393535468489
 30
0.0
 10
-40.51516230448335
 20
-1.682789523084295
 30
0.0
 10
-40.70501487259753
 20
-1.570080316905892
 30
0.0
 10
-40.9222967243702
 20
-1.445770536744895
 30
0.0
  0
SPLINE
  5
B08A
330
B07F
100
AcDbEntity
  8
0
100
AcDbSpline
210
0.0
220
0.0
230
1.0
 70
     8
 71
     3
 72
    32
 73
    28
 74
     0
 42
0.000000001
 43
0.0000000001
 40
0.0
 40
0.0
 40
0.0
 40
0.0
 40
0.0038186228240307
 40
0.0038186228240307
 40
0.0092110675553082
 40
0.0092110675553082
 40
0.0200768483520033
 40
0.0200768483520033
 40
0.0329596181753557
 40
0.0329596181753557
 40
0.0591156286306268
 40
0.0591156286306268
 40
0.1345379430620641
 40
0.1345379430620641
 40
0.2001702304627035
 40
0.2001702304627035
 40
0.2079232314810489
 40
0.2079232314810489
 40
0.2137381562924525
 40
0.2137381562924525
 40
0.2141055896635464
 40
0.2141055896635464
 40
0.2142111752583752
 40
0.2142111752583752
 40
0.2142590670512146
 40
0.2142590670512146
 40
0.2142670224645903
 40
0.2142670224645903
 40
0.2142670224645903
 40
0.2142670224645903
 10
-39.99957591647066
 20
-2.070206707129233
 30
0.0
 10
-39.99958731502712
 20
-2.075168878748584
 30
0.0
 10
-39.99959979178044
 20
-2.082042293840947
 30
0.0
 10
-39.99961779109572
 20
-2.100031757275058
 30
0.0
 10
-39.99961861328164
 20
-2.112003586016706
 30
0.0
 10
-39.99954447449649
 20
-2.150334416716316
 30
0.0
 10
-39.99937038941477
 20
-2.179691780667489
 30
0.0
 10
-39.99872414223353
 20
-2.248520767113248
 30
0.0
 10
-39.99825137417616
 20
-2.288793208721114
 30
0.0
 10
-39.99709519754842
 20
-2.409488768121096
 30
0.0
 10
-39.99652476220518
 20
-2.488727980952389
 30
0.0
 10
-39.99434506714701
 20
-2.804258774227359
 30
0.0
 10
-39.99335912946705
 20
-3.042923358766043
 30
0.0
 10
-39.99382077644293
 20
-3.470540352717636
 30
0.0
 10
-39.99501453141244
 20
-3.66570122301846
 30
0.0
 10
-39.99823444030724
 20
-3.891292806598395
 30
0.0
 10
-39.99859626948276
 20
-3.915179306180788
 30
0.0
 10
-39.99926639251518
 20
-3.957058008271991
 30
0.0
 10
-39.99956020366012
 20
-3.974730216978249
 30
0.0
 10
-39.9998984499454
 20
-3.994319387041547
 30
0.0
 10
-39.99991895126383
 20
-3.995504005689003
 30
0.0
 10
-39.99994624769597
 20
-3.997077336670653
 30
0.0
 10
-39.99995261116163
 20
-3.997443849806283
 30
0.0
 10
-39.99996101205598
 20
-3.997927392071691
 30
0.0
 10
-39.99996353631448
 20
-3.998072637126526
 30
0.0
 10
-39.99996612119711
 20
-3.998221335576062
 30
0.0
 10
-39.99996648211048
 20
-3.998242096661843
 30
0.0
 10
-39.99996683550296
 20
-3.998262424318689
 30
0.0
  0
SPLINE
  5
B08B
330
B07F
100
AcDbEntity
  8
0
100
AcDbSpline
210
0.0
220
0.0
230
1.0
 70
     8
 71
     3
 72
    14
 73
    10
 74
     0
 42
0.000000001
 43
0.0000000001
 40
0.0077869310888221
 40
0.0077869310888221
 40
0.0077869310888221
 40
0.0077869310888221
 40
0.0083970870821309
 40
0.0083970870821309
 40
0.0105239916302434
 40
0.0105239916302434
 40
0.0138625983139702
 40
0.0138625983139702
 40
0.0184831595377983
 40
0.0184831595377983
 40
0.0184831595377983
 40
0.0184831595377983
 10
-40.00013843227585
 20
-3.962989239752874
 30
0.0
 10
-40.00013843227582
 20
-3.962989239757981
 30
0.0
 10
-40.00013788681158
 20
-3.963077560606404
 30
0.0
 10
-40.00013332068028
 20
-3.963814023532899
 30
0.0
 10
-40.0001239557273
 20
-3.965312366540043
 30
0.0
 10
-40.00009367437491
 20
-3.970419893706335
 30
0.0
 10
-40.00006963987012
 20
-3.974731410005371
 30
0.0
 10
-40.00001544109488
 20
-3.985809378259972
 30
0.0
 10
-39.99998599055312
 20
-3.992945634999692
 30
0.0
 10
-39.99996049099706
 20
-3.999998651544005
 30
0.0
  0
SPLINE
  5
B08C
330
B07F
100
AcDbEntity
  8
0
100
AcDbSpline
210
0.0
220
0.0
230
1.0
 70
     8
 71
     3
 72
    10
 73
     6
 74
     0
 42
0.000000001
 43
0.0000000001
 40
0.0
 40
0.0
 40
0.0
 40
0.0
 40
0.0049906878470973
 40
0.0049906878470973
 40
0.0073950152627745
 40
0.0073950152627745
 40
0.0073950152627745
 40
0.0073950152627745
 10
-42.00002531920688
 20
-4.000000108971985
 30
0.0
 10
-42.00006043540944
 20
-3.991795785300877
 30
0.0
 10
-42.00010543804072
 20
-3.985044488957487
 30
0.0
 10
-42.00019029816965
 20
-3.97491331971868
 30
0.0
 10
-42.00022128444607
 20
-3.971546284322693
 30
0.0
 10
-42.00026242521199
 20
-3.967601975639165
 30
0.0
  0
SPLINE
  5
B08D
330
B07F
100
AcDbEntity
  8
0
100
AcDbSpline
210
0.0
220
0.0
230
1.0
 70
     8
 71
     3
 72
    12
 73
     8
 74
     0
 42
0.000000001
 43
0.0000000001
 40
0.1006407255262613
 40
0.1006407255262613
 40
0.1006407255262613
 40
0.1006407255262613
 40
0.1211256635491161
 40
0.1211256635491161
 40
0.178406418954425
 40
0.178406418954425
 40
0.2023979344810677
 40
0.2023979344810677
 40
0.2023979344810677
 40
0.2023979344810677
 10
-43.6522535562395
 20
-2.030463909734751
 30
0.0
 10
-43.71837693381303
 20
-2.024115238887178
 30
0.0
 10
-43.78376124665451
 20
-2.019390814223594
 30
0.0
 10
-44.02830126559028
 20
-2.005407957725692
 30
0.0
 10
-44.20098786197285
 20
-2.002606029119039
 30
0.0
 10
-44.44720089236629
 20
-2.000365144870498
 30
0.0
 10
-44.51887547464957
 20
-2.000125716866922
 30
0.0
 10
-44.58980804090342
 20
-2.00003023266951
 30
0.0
  0
LINE
  5
B08E
330
B07F
100
AcDbEntity
  8
0
100
AcDbLine
 10
-40.0
 20
-1.999999999999995
 30
0.0
 11
-38.00000000000001
 21
-1.999999999999992
 31
0.0
  0
LINE
  5
B08F
330
B07F
100
AcDbEntity
  8
0
100
AcDbLine
 10
-40.0
 20
-86.00000000000001
 30
0.0
 11
-37.99999999999999
 21
-86.00000000000001
 31
0.0
  0
LINE
  5
B090
330
B07F
100
AcDbEntity
  8
0
100
AcDbLine
 10
38.00000000000002
 20
-1.999999999999992
 30
0.0
 11
-38.00000000000002
 21
-1.999999999999992
 31
0.0
  0
LINE
  5
B091
330
B07F
100
AcDbEntity
  8
0
100
AcDbLine
 10
-37.99999999999999
 20
-86.00000000000001
 30
0.0
 11
37.99999999999999
 21
-86.00000000000001
 31
0.0
  0
CIRCLE
  5
B092
330
B07F
100
AcDbEntity
  8
0
100
AcDbCircle
 10
0.0
 20
-47.99999999999998
 30
0.0
 40
2.5
  0
CIRCLE
  5
B093
330
B07F
100
AcDbEntity
  8
0
100
AcDbCircle
 10
0.0
 20
-67.99999999999998
 30
0.0
 40
2.5
  0
LINE
  5
B094
330
B07F
100
AcDbEntity
  8
0
100
AcDbLine
 10
40.0
 20
-1.999999999999995
 30
0.0
 11
38.00000000000001
 21
-1.999999999999992
 31
0.0
  0
LINE
  5
B095
330
B07F
100
AcDbEntity
  8
0
100
AcDbLine
 10
44.0
 20
0.0
 30
0.0
 11
81.5
 21
0.0
 31
0.0
  0
ARC
  5
B096
330
B07F
100
AcDbEntity
  8
0
100
AcDbCircle
 10
44.0
 20
-4.000000000000004
 30
0.0
 40
4.000000000000003
100
AcDbArc
 50
90.0
 51
180.0
  0
LINE
  5
B097
330
B07F
100
AcDbEntity
  8
0
100
AcDbLine
 10
39.99999999999998
 20
-86.00000000000006
 30
0.0
 11
39.99999999999999
 21
-46.00000000000004
 31
0.0
  0
LINE
  5
B098
330
B07F
100
AcDbEntity
  8
0
100
AcDbLine
 10
41.99999999999998
 20
-86.00000000000006
 30
0.0
 11
39.99999999999998
 21
-86.00000000000006
 31
0.0
  0
LINE
  5
B099
330
B07F
100
AcDbEntity
  8
0
100
AcDbLine
 10
41.99999999999999
 20
-46.00000000000004
 30
0.0
 11
41.99999999999998
 21
-86.00000000000006
 31
0.0
  0
LINE
  5
B09A
330
B07F
100
AcDbEntity
  8
0
100
AcDbLine
 10
39.99999999999999
 20
-46.00000000000001
 30
0.0
 11
41.99999999999999
 21
-46.00000000000001
 31
0.0
  0
LINE
  5
B09B
330
B07F
100
AcDbEntity
  8
0
100
AcDbLine
 10
42.0
 20
-4.000000000000003
 30
0.0
 11
41.99999999999999
 21
-46.00000000000001
 31
0.0
  0
LINE
  5
B09C
330
B07F
100
AcDbEntity
  8
0
100
AcDbLine
 10
39.99999999999999
 20
-46.00000000000001
 30
0.0
 11
40.0
 21
-4.000000000000003
 31
0.0
  0
LINE
  5
B09D
330
B07F
100
AcDbEntity
  8
0
100
AcDbLine
 10
40.0
 20
-86.00000000000001
 30
0.0
 11
37.99999999999999
 21
-86.00000000000001
 31
0.0
  0
ARC
  5
B09E
330
B07F
100
AcDbEntity
  8
0
100
AcDbCircle
 10
44.0
 20
-4.000000000000004
 30
0.0
 40
2.000000000000001
100
AcDbArc
 50
90.0
 51
180.0
  0
LINE
  5
B09F
330
B07F
100
AcDbEntity
  8
0
100
AcDbLine
 10
81.5
 20
0.0
 30
0.0
 11
81.5
 21
-2.000000000000019
 31
0.0
  0
LINE
  5
B0A0
330
B07F
100
AcDbEntity
  8
0
100
AcDbLine
 10
81.5
 20
-2.000000000000019
 30
0.0
 11
44.0
 21
-2.000000000000001
 31
0.0
  0
LINE
  5
B0A1
330
B07F
100
AcDbEntity
  8
0
100
AcDbLine
 10
-81.5
 20
-2.000000000000019
 30
0.0
 11
-44.0
 21
-2.000000000000001
 31
0.0
  0
LINE
  5
B0A2
330
B07F
100
AcDbEntity
  8
0
100
AcDbLine
 10
-39.99999999999999
 20
-46.00000000000001
 30
0.0
 11
-40.0
 21
-4.000000000000003
 31
0.0
  0
LINE
  5
B0A3
330
B07F
100
AcDbEntity
  8
0
100
AcDbLine
 10
-42.0
 20
-4.000000000000003
 30
0.0
 11
-41.99999999999999
 21
-46.00000000000001
 31
0.0
  0
LINE
  5
B0A4
330
B07F
100
AcDbEntity
  8
0
100
AcDbLine
 10
-44.0
 20
0.0
 30
0.0
 11
-81.5
 21
0.0
 31
0.0
  0
LINE
  5
B0A5
330
B07F
100
AcDbEntity
  8
0
100
AcDbLine
 10
-81.5
 20
0.0
 30
0.0
 11
-81.5
 21
-2.000000000000019
 31
0.0
  0
ARC
  5
B0A6
330
B07F
100
AcDbEntity
  8
0
100
AcDbCircle
 10
-44.0
 20
-4.000000000000004
 30
0.0
 40
2.000000000000001
100
AcDbArc
 50
0.0
 51
90.0
  0
ARC
  5
B0A7
330
B07F
100
AcDbEntity
  8
0
100
AcDbCircle
 10
-44.0
 20
-4.000000000000004
 30
0.0
 40
4.000000000000003
100
AcDbArc
 50
0.0
 51
90.0
  0
LINE
  5
B0A8
330
B07F
100
AcDbEntity
  8
0
100
AcDbLine
 10
-39.99999999999999
 20
-46.00000000000004
 30
0.0
 11
-39.99999999999998
 21
-86.00000000000006
 31
0.0
  0
LINE
  5
B0A9
330
B07F
100
AcDbEntity
  8
0
100
AcDbLine
 10
-41.99999999999998
 20
-86.00000000000006
 30
0.0
 11
-41.99999999999999
 21
-46.00000000000004
 31
0.0
  0
LINE
  5
B0AA
330
B07F
100
AcDbEntity
  8
0
100
AcDbLine
 10
-39.99999999999998
 20
-86.00000000000006
 30
0.0
 11
-41.99999999999998
 21
-86.00000000000006
 31
0.0
  0
LINE
  5
B0AB
330
B07F
100
AcDbEntity
  8
0
100
AcDbLine
 10
-41.99999999999999
 20
-46.00000000000001
 30
0.0
 11
-39.99999999999999
 21
-46.00000000000001
 31
0.0
  0
ENDBLK
  5
B081
330
B07F
100
AcDbEntity
  8
0
100
AcDbBlockEnd
  0
BLOCK
  5
B0AD
330
B0AC
100
AcDbEntity
  8
0
100
AcDbBlockBegin
  2
SAE440_80_2-Bottom
 70
     0
 10
0.0
 20
0.0
 30
0.0
  3
SAE440_80_2-Bottom
  1

  0
SPLINE
  5
B0AF
330
B0AC
100
AcDbEntity
  8
0
100
AcDbSpline
210
0.0
220
0.0
230
1.0
 70
     8
 71
     3
 72
    17
 73
    13
 74
     0
 42
0.000000001
 43
0.0000000001
 40
0.0
 40
0.0
 40
0.0
 40
0.0
 40
0.3704689058671613
 40
0.3704689058671613
 40
0.3704689058671613
 40
0.7029757053327439
 40
0.7029757053327439
 40
0.7029757053327439
 40
0.9335813790911094
 40
0.9335813790911094
 40
0.9335813790911094
 40
1.0
 40
1.0
 40
1.0
 40
1.0
 10
44.60606060606067
 20
2.000000000000012
 30
0.0
 10
44.25310981611631
 20
2.000006377019317
 30
0.0
 10
43.80994835339467
 20
2.000465619612654
 30
0.0
 10
43.38299606377261
 20
1.99985113731888
 30
0.0
 10
42.99979375691655
 20
1.999299621287183
 30
0.0
 10
42.63742190750618
 20
2.000043886462047
 30
0.0
 10
42.37998709143901
 20
2.000290307240787
 30
0.0
 10
42.2014465945125
 20
2.000461209098435
 30
0.0
 10
42.07197149374199
 20
2.000344409457332
 30
0.0
 10
42.02188707329887
 20
2.000001688218303
 30
0.0
 10
42.00746185088071
 20
1.999902978279031
 30
0.0
 10
41.99999784581293
 20
2.00056570178206
 30
0.0
 10
42.00000000001908
 20
2.000000000000109
 30
0.0
  0
ARC
  5
B0B0
330
B0AC
100
AcDbEntity
  8
0
100
AcDbCircle
 10
44.0
 20
4.000000000000004
 30
0.0
 40
1.999999999999992
100
AcDbArc
 50
180.1766999807556
 51
259.9841446490857
  0
ARC
  5
B0B1
330
B0AC
100
AcDbEntity
  8
0
100
AcDbCircle
 10
44.0
 20
4.000000000000004
 30
0.0
 40
3.999999999999994
100
AcDbArc
 50
219.6735598722788
 51
270.0
  0
LINE
  5
B0B2
330
B0AC
100
AcDbEntity
  8
0
100
AcDbLine
 10
44.60606060606063
 20
0.0
 30
0.0
 11
44.0
 21
0.0
 31
0.0
  0
SPLINE
  5
B0B3
330
B0AC
100
AcDbEntity
  8
0
100
AcDbSpline
210
0.0
220
0.0
230
1.0
 70
     8
 71
     3
 72
    17
 73
    13
 74
     0
 42
0.000000001
 43
0.0000000001
 40
-1.0
 40
-1.0
 40
-1.0
 40
-1.0
 40
-0.7907552673954182
 40
-0.7907552673954182
 40
-0.7907552673954182
 40
-0.3883396848793531
 40
-0.3883396848793531
 40
-0.3883396848793531
 40
-0.1053184206051852
 40
-0.1053184206051852
 40
-0.1053184206051852
 40
0.0
 40
0.0
 40
0.0
 40
0.0
 10
40.00000000000002
 20
1.999999999999836
 30
0.0
 10
40.00001724877418
 20
1.997098202772763
 30
0.0
 10
40.13515725660202
 20
1.911522152467739
 30
0.0
 10
40.36463729125238
 20
1.773393535468489
 30
0.0
 10
40.80596903074303
 20
1.507747145330043
 30
0.0
 10
41.58537332974355
 20
1.052077259790874
 30
0.0
 10
42.40296616529589
 20
0.6711423121776945
 30
0.0
 10
42.97798405235868
 20
0.403228505745032
 30
0.0
 10
43.57892350316341
 20
0.1693290542218162
 30
0.0
 10
44.0825936267323
 20
0.0606817918192052
 30
0.0
 10
44.27002032788966
 20
0.0202517622641273
 30
0.0
 10
44.44467332043713
 20
0.0000166268648459
 30
0.0
 10
44.60606060606065
 20
0.000000000000001
 30
0.0
  0
LINE
  5
B0B4
330
B0AC
100
AcDbEntity
  8
0
100
AcDbLine
 10
44.60606060606064
 20
2.000000000000011
 30
0.0
 11
44.60606060606064
 21
0.0
 31
0.0
  0
SPLINE
  5
B0B5
330
B0AC
100
AcDbEntity
  8
0
100
AcDbSpline
210
0.0
220
0.0
230
1.0
 70
     8
 71
     3
 72
    28
 73
    24
 74
     0
 42
0.000000001
 43
0.0000000001
 40
0.0690822590120949
 40
0.0690822590120949
 40
0.0690822590120949
 40
0.0690822590120949
 40
0.069537337694617
 40
0.069537337694617
 40
0.0705592775770666
 40
0.0705592775770666
 40
0.0715813611851551
 40
0.0715813611851551
 40
0.072599104209758
 40
0.072599104209758
 40
0.0746451822654382
 40
0.0746451822654382
 40
0.078729732683101
 40
0.078729732683101
 40
0.0838653754381615
 40
0.0838653754381615
 40
0.0955614324949213
 40
0.0955614324949213
 40
0.1211256635439754
 40
0.1211256635439754
 40
0.178406418944156
 40
0.178406418944156
 40
0.179846507591525
 40
0.179846507591525
 40
0.179846507591525
 40
0.179846507591525
 10
43.36371670695469
 20
2.070841470803003
 30
0.0
 10
43.36371670696265
 20
2.070841470801389
 30
0.0
 10
43.36380214744521
 20
2.070824147944922
 30
0.0
 10
43.36438361945877
 20
2.070706910031508
 30
0.0
 10
43.36528572234996
 20
2.070525432049462
 30
0.0
 10
43.36805655518796
 20
2.06997565940705
 30
0.0
 10
43.36994902274677
 20
2.069602926366897
 30
0.0
 10
43.37436619550245
 20
2.068744968899089
 30
0.0
 10
43.37691522268099
 20
2.068255027858341
 30
0.0
 10
43.38509412282889
 20
2.066704419211301
 30
0.0
 10
43.39131852210488
 20
2.065552216830318
 30
0.0
 10
43.41032146366372
 20
2.062130588048663
 30
0.0
 10
43.42381689207176
 20
2.059823029340981
 30
0.0
 10
43.45405151580141
 20
2.054909058546534
 30
0.0
 10
43.47106069528741
 20
2.052318623664228
 30
0.0
 10
43.52650619137752
 20
2.044365323489523
 30
0.0
 10
43.56492454355228
 20
2.039625143308204
 30
0.0
 10
43.68595330089864
 20
2.026494701273144
 30
0.0
 10
43.76778903112005
 20
2.020304109310826
 30
0.0
 10
44.02830126552678
 20
2.005407957727912
 30
0.0
 10
44.200987861894
 20
2.002606029120529
 30
0.0
 10
44.37888170926052
 20
2.000986945353784
 30
0.0
 10
44.38323776589026
 20
2.000948997470026
 30
0.0
 10
44.38759632901579
 20
2.000912033595529
 30
0.0
  0
SPLINE
  5
B0B6
330
B0AC
100
AcDbEntity
  8
0
100
AcDbSpline
210
0.0
220
0.0
230
1.0
 70
     8
 71
     3
 72
    30
 73
    26
 74
     0
 42
0.000000001
 43
0.0000000001
 40
0.0
 40
0.0
 40
0.0
 40
0.0
 40
0.0049906878317053
 40
0.0049906878317053
 40
0.0087372356115174
 40
0.0087372356115174
 40
0.0097952253547826
 40
0.0097952253547826
 40
0.01048996889493
 40
0.01048996889493
 40
0.0114835377077102
 40
0.0114835377077102
 40
0.0123917508528195
 40
0.0123917508528195
 40
0.0135259377183964
 40
0.0135259377183964
 40
0.0151743814183007
 40
0.0151743814183007
 40
0.0177233276153199
 40
0.0177233276153199
 40
0.021477753041198
 40
0.021477753041198
 40
0.0261198063018705
 40
0.0261198063018705
 40
0.0306018019099489
 40
0.0306018019099489
 40
0.0306018019099489
 40
0.0306018019099489
 10
42.00002531920687
 20
4.000000108971985
 30
0.0
 10
42.00006043540931
 20
3.991795785326228
 30
0.0
 10
42.00010543804047
 20
3.985044488998612
 30
0.0
 10
42.0002057005704
 20
3.973074478188093
 30
0.0
 10
42.00025216705357
 20
3.968020206760929
 30
0.0
 10
42.00037082767526
 20
3.958018886771055
 30
0.0
 10
42.00040161077932
 20
3.955539561194335
 30
0.0
 10
42.00046347754745
 20
3.950898298332914
 30
0.0
 10
42.00049113795697
 20
3.948899177666812
 30
0.0
 10
42.00056545829098
 20
3.943776693454747
 30
0.0
 10
42.00061636413413
 20
3.940467859401983
 30
0.0
 10
42.00072033177993
 20
3.934149189025724
 30
0.0
 10
42.00077372346471
 20
3.931079682811234
 30
0.0
 10
42.00089659630378
 20
3.924378859842433
 30
0.0
 10
42.00096786689157
 20
3.920734150255266
 30
0.0
 10
42.00114460639591
 20
3.912180966279417
 30
0.0
 10
42.00125249031045
 20
3.907368437878795
 30
0.0
 10
42.00152755709328
 20
3.89585385710856
 30
0.0
 10
42.00169749326947
 20
3.889446305966725
 30
0.0
 10
42.00210476729049
 20
3.875140054788746
 30
0.0
 10
42.00233985504703
 20
3.867834574896233
 30
0.0
 10
42.00278976726327
 20
3.854669012649749
 30
0.0
 10
42.00298851218186
 20
3.849467628812103
 30
0.0
 10
42.0032299797499
 20
3.843272573627203
 30
0.0
 10
42.00328099785325
 20
3.842057251291902
 30
0.0
 10
42.00328099785269
 20
3.842057251305624
 30
0.0
  0
SPLINE
  5
B0B7
330
B0AC
100
AcDbEntity
  8
0
100
AcDbSpline
210
0.0
220
0.0
230
1.0
 70
     8
 71
     3
 72
     8
 73
     4
 74
     0
 42
0.000000001
 43
0.0000000001
 40
0.0
 40
0.0
 40
0.0
 40
0.0
 40
0.000415136748576
 40
0.000415136748576
 40
0.000415136748576
 40
0.000415136748576
 10
42.00002109558387
 20
4.000000267145733
 30
0.0
 10
42.00001411393831
 20
3.999222903658552
 30
0.0
 10
42.00000714111354
 20
3.998428973611762
 30
0.0
 10
42.0000000847867
 20
3.997615301483746
 30
0.0
  0
CIRCLE
  5
B0B8
330
B0AC
100
AcDbEntity
  8
0
100
AcDbCircle
 10
0.0
 20
67.99999999999998
 30
0.0
 40
2.5
  0
CIRCLE
  5
B0B9
330
B0AC
100
AcDbEntity
  8
0
100
AcDbCircle
 10
0.0
 20
47.99999999999998
 30
0.0
 40
2.5
  0
LINE
  5
B0BA
330
B0AC
100
AcDbEntity
  8
0
100
AcDbLine
 10
38.00000000000002
 20
1.999999999999992
 30
0.0
 11
-38.00000000000002
 21
1.999999999999992
 31
0.0
  0
LINE
  5
B0BB
330
B0AC
100
AcDbEntity
  8
0
100
AcDbLine
 10
37.99999999999999
 20
86.00000000000001
 30
0.0
 11
-37.99999999999999
 21
86.00000000000001
 31
0.0
  0
SPLINE
  5
B0BC
330
B0AC
100
AcDbEntity
  8
0
100
AcDbSpline
210
0.0
220
0.0
230
1.0
 70
     8
 71
     3
 72
    17
 73
    13
 74
     0
 42
0.000000001
 43
0.0000000001
 40
-1.0
 40
-1.0
 40
-1.0
 40
-1.0
 40
-0.7907552673954182
 40
-0.7907552673954182
 40
-0.7907552673954182
 40
-0.3883396848793531
 40
-0.3883396848793531
 40
-0.3883396848793531
 40
-0.1053184206051852
 40
-0.1053184206051852
 40
-0.1053184206051852
 40
0.0
 40
0.0
 40
0.0
 40
0.0
 10
-40.00000000000002
 20
1.999999999999836
 30
0.0
 10
-40.00001724877418
 20
1.997098202772763
 30
0.0
 10
-40.13515725660202
 20
1.911522152467739
 30
0.0
 10
-40.36463729125238
 20
1.773393535468489
 30
0.0
 10
-40.80596903074303
 20
1.507747145330043
 30
0.0
 10
-41.58537332974355
 20
1.052077259790874
 30
0.0
 10
-42.40296616529589
 20
0.6711423121776945
 30
0.0
 10
-42.97798405235868
 20
0.403228505745032
 30
0.0
 10
-43.57892350316341
 20
0.1693290542218162
 30
0.0
 10
-44.0825936267323
 20
0.0606817918192052
 30
0.0
 10
-44.27002032788966
 20
0.0202517622641273
 30
0.0
 10
-44.44467332043713
 20
0.0000166268648459
 30
0.0
 10
-44.60606060606065
 20
0.000000000000001
 30
0.0
  0
LINE
  5
B0BD
330
B0AC
100
AcDbEntity
  8
0
100
AcDbLine
 10
-44.0
 20
0.0
 30
0.0
 11
-44.60606060606063
 21
0.0
 31
0.0
  0
ARC
  5
B0BE
330
B0AC
100
AcDbEntity
  8
0
100
AcDbCircle
 10
-44.0
 20
4.000000000000004
 30
0.0
 40
3.999999999999994
100
AcDbArc
 50
270.0
 51
320.3264401277211
  0
ARC
  5
B0BF
330
B0AC
100
AcDbEntity
  8
0
100
AcDbCircle
 10
-44.0
 20
4.000000000000004
 30
0.0
 40
1.999999999999992
100
AcDbArc
 50
280.0158553509143
 51
359.8269243547891
  0
SPLINE
  5
B0C0
330
B0AC
100
AcDbEntity
  8
0
100
AcDbSpline
210
0.0
220
0.0
230
1.0
 70
     8
 71
     3
 72
    17
 73
    13
 74
     0
 42
0.000000001
 43
0.0000000001
 40
0.0
 40
0.0
 40
0.0
 40
0.0
 40
0.3704689058671613
 40
0.3704689058671613
 40
0.3704689058671613
 40
0.7029757053327439
 40
0.7029757053327439
 40
0.7029757053327439
 40
0.9335813790911094
 40
0.9335813790911094
 40
0.9335813790911094
 40
1.0
 40
1.0
 40
1.0
 40
1.0
 10
-44.60606060606067
 20
2.000000000000012
 30
0.0
 10
-44.25310981611631
 20
2.000006377019317
 30
0.0
 10
-43.80994835339467
 20
2.000465619612654
 30
0.0
 10
-43.38299606377261
 20
1.99985113731888
 30
0.0
 10
-42.99979375691655
 20
1.999299621287183
 30
0.0
 10
-42.63742190750618
 20
2.000043886462047
 30
0.0
 10
-42.37998709143901
 20
2.000290307240787
 30
0.0
 10
-42.2014465945125
 20
2.000461209098435
 30
0.0
 10
-42.07197149374199
 20
2.000344409457332
 30
0.0
 10
-42.02188707329887
 20
2.000001688218303
 30
0.0
 10
-42.00746185088071
 20
1.999902978279031
 30
0.0
 10
-41.99999784581293
 20
2.00056570178206
 30
0.0
 10
-42.00000000001908
 20
2.000000000000109
 30
0.0
  0
LINE
  5
B0C1
330
B0AC
100
AcDbEntity
  8
0
100
AcDbLine
 10
-44.60606060606064
 20
0.0
 30
0.0
 11
-44.60606060606064
 21
2.000000000000011
 31
0.0
  0
SPLINE
  5
B0C2
330
B0AC
100
AcDbEntity
  8
0
100
AcDbSpline
210
0.0
220
0.0
230
1.0
 70
     8
 71
     3
 72
    28
 73
    24
 74
     0
 42
0.000000001
 43
0.0000000001
 40
0.0357732034750167
 40
0.0357732034750167
 40
0.0357732034750167
 40
0.0357732034750167
 40
0.0390422753050694
 40
0.0390422753050694
 40
0.0452611504695748
 40
0.0452611504695748
 40
0.048337492610674
 40
0.048337492610674
 40
0.0514208781838941
 40
0.0514208781838941
 40
0.0529575420435479
 40
0.0529575420435479
 40
0.0545062596999383
 40
0.0545062596999383
 40
0.0552768638701526
 40
0.0552768638701526
 40
0.0560490422995336
 40
0.0560490422995336
 40
0.0568196216728754
 40
0.0568196216728754
 40
0.059977985933233
 40
0.059977985933233
 40
0.0663268531290796
 40
0.0663268531290796
 40
0.0663268531290796
 40
0.0663268531290796
 10
-42.00328099785262
 20
3.842057251307009
 30
0.0
 10
-42.00328099785097
 20
3.842057251347228
 30
0.0
 10
-42.00325370309001
 20
3.84271512687845
 30
0.0
 10
-42.00307566836863
 20
3.847192838109548
 30
0.0
 10
-42.00281926781864
 20
3.853659085017104
 30
0.0
 10
-42.0023049058217
 20
3.868952895523568
 30
0.0
 10
-42.00211373394416
 20
3.87495316930527
 30
0.0
 10
-42.00171824159149
 20
3.888620143456573
 30
0.0
 10
-42.00151123848494
 20
3.896381733235459
 30
0.0
 10
-42.00120926594246
 20
3.9092884256431
 30
0.0
 10
-42.00110914438385
 20
3.91383853921781
 30
0.0
 10
-42.0009141242751
 20
3.923413603543454
 30
0.0
 10
-42.0008169972673
 20
3.92856999785453
 30
0.0
 10
-42.00068438694204
 20
3.936297115214181
 30
0.0
 10
-42.0006418943531
 20
3.93889618396397
 30
0.0
 10
-42.0005637280859
 20
3.943909393158233
 30
0.0
 10
-42.00052749021807
 20
3.946359798274643
 30
0.0
 10
-42.00046356992806
 20
3.950879018478186
 30
0.0
 10
-42.00043532220629
 20
3.952983956681092
 30
0.0
 10
-42.00030935107611
 20
3.962745419118516
 30
0.0
 10
-42.00025759965676
 20
3.96786750567602
 30
0.0
 10
-42.00012589227781
 20
3.981754123272025
 30
0.0
 10
-42.00006999202819
 20
3.989563038369344
 30
0.0
 10
-42.00002531920687
 20
4.000000108971985
 30
0.0
  0
SPLINE
  5
B0C3
330
B0AC
100
AcDbEntity
  8
0
100
AcDbSpline
210
0.0
220
0.0
230
1.0
 70
     8
 71
     3
 72
    24
 73
    20
 74
     0
 42
0.000000001
 43
0.0000000001
 40
0.022545504377253
 40
0.022545504377253
 40
0.022545504377253
 40
0.022545504377253
 40
0.0670584162379669
 40
0.0670584162379669
 40
0.1176569867013026
 40
0.1176569867013026
 40
0.1255739065101936
 40
0.1255739065101936
 40
0.1275474478301909
 40
0.1275474478301909
 40
0.1295305931733936
 40
0.1295305931733936
 40
0.1305201881160031
 40
0.1305201881160031
 40
0.1315137658221965
 40
0.1315137658221965
 40
0.1325098131148055
 40
0.1325098131148055
 40
0.1331618384356571
 40
0.1331618384356571
 40
0.1331618384356571
 40
0.1331618384356571
 10
-44.38760111845748
 20
2.000911654798971
 30
0.0
 10
-44.2527743787948
 20
2.002055086370394
 30
0.0
 10
-44.11870328404853
 20
2.004105436892656
 30
0.0
 10
-43.82488885391
 20
2.015423834795147
 30
0.0
 10
-43.66175508157762
 20
2.025387294091154
 30
0.0
 10
-43.46909929982034
 20
2.052544208536374
 30
0.0
 10
-43.44256094187605
 20
2.056642799816284
 30
0.0
 10
-43.41059037345894
 20
2.062112997558473
 30
0.0
 10
-43.40425431456181
 20
2.063224475564033
 30
0.0
 10
-43.3919687543745
 20
2.065433787114667
 30
0.0
 10
-43.38592496886761
 20
2.066549999260323
 30
0.0
 10
-43.37787001135186
 20
2.068072833925821
 30
0.0
 10
-43.37533670141282
 20
2.068558169605828
 30
0.0
 10
-43.37086743401029
 20
2.069423429017211
 30
0.0
 10
-43.36890767129741
 20
2.069807989834884
 30
0.0
 10
-43.36590446991623
 20
2.070401936428488
 30
0.0
 10
-43.36484122812447
 20
2.070615025787411
 30
0.0
 10
-43.36389298454225
 20
2.070805715020261
 30
0.0
 10
-43.3637167148255
 20
2.070841469207894
 30
0.0
 10
-43.3637167069551
 20
2.070841470802924
 30
0.0
  0
LINE
  5
B0C4
330
B0AC
100
AcDbEntity
  8
0
100
AcDbLine
 10
-42.00000000000001
 20
1.999999999999997
 30
0.0
 11
-38.00000000000001
 21
1.999999999999992
 31
0.0
  0
LINE
  5
B0C5
330
B0AC
100
AcDbEntity
  8
0
100
AcDbLine
 10
-37.99999999999999
 20
86.00000000000001
 30
0.0
 11
-41.99999999999999
 21
86.00000000000001
 31
0.0
  0
LINE
  5
B0C6
330
B0AC
100
AcDbEntity
  8
0
100
AcDbLine
 10
-42.0
 20
1.999999999999997
 30
0.0
 11
-41.99999999999999
 21
86.00000000000001
 31
0.0
  0
LINE
  5
B0C7
330
B0AC
100
AcDbEntity
  8
0
100
AcDbLine
 10
42.00000000000001
 20
1.999999999999997
 30
0.0
 11
38.00000000000001
 21
1.999999999999992
 31
0.0
  0
LINE
  5
B0C8
330
B0AC
100
AcDbEntity
  8
0
100
AcDbLine
 10
42.0
 20
1.999999999999997
 30
0.0
 11
41.99999999999999
 21
86.00000000000001
 31
0.0
  0
LINE
  5
B0C9
330
B0AC
100
AcDbEntity
  8
0
100
AcDbLine
 10
37.99999999999999
 20
86.00000000000001
 30
0.0
 11
41.99999999999999
 21
86.00000000000001
 31
0.0
  0
LINE
  5
B0CA
330
B0AC
100
AcDbEntity
  8
0
100
AcDbLine
 10
81.50000000000005
 20
0.0
 30
0.0
 11
44.60606060606063
 21
0.0
 31
0.0
  0
LINE
  5
B0CB
330
B0AC
100
AcDbEntity
  8
0
100
AcDbLine
 10
81.50000000000005
 20
1.999999999999992
 30
0.0
 11
81.50000000000005
 21
0.0
 31
0.0
  0
LINE
  5
B0CC
330
B0AC
100
AcDbEntity
  8
0
100
AcDbLine
 10
44.60606060606064
 20
2.000000000000011
 30
0.0
 11
81.50000000000005
 21
1.999999999999992
 31
0.0
  0
LINE
  5
B0CD
330
B0AC
100
AcDbEntity
  8
0
100
AcDbLine
 10
-81.50000000000005
 20
1.999999999999992
 30
0.0
 11
-44.60606060606064
 21
2.000000000000011
 31
0.0
  0
LINE
  5
B0CE
330
B0AC
100
AcDbEntity
  8
0
100
AcDbLine
 10
-81.50000000000005
 20
0.0
 30
0.0
 11
-81.50000000000005
 21
1.999999999999992
 31
0.0
  0
LINE
  5
B0CF
330
B0AC
100
AcDbEntity
  8
0
100
AcDbLine
 10
-44.60606060606063
 20
0.0
 30
0.0
 11
-81.50000000000005
 21
0.0
 31
0.0
  0
ENDBLK
  5
B0AE
330
B0AC
100
AcDbEntity
  8
0
100
AcDbBlockEnd
  0
BLOCK
  5
B0D1
330
B0D0
100
AcDbEntity
  8
0
100
AcDbBlockBegin
  2
SAE440_80_2-ISO
 70
     0
 10
0.0
 20
0.0
 30
0.0
  3
SAE440_80_2-ISO
  1

  0
LINE
  5
B0D3
330
B0D0
100
AcDbEntity
  8
0
100
AcDbLine
 10
58.68143083525026
 20
-56.75138059381348
 30
0.0
 11
58.55628743923703
 21
-56.82363216718903
 31
0.0
  0
SPLINE
  5
B0D4
330
B0D0
100
AcDbEntity
  8
0
100
AcDbSpline
210
0.0
220
0.0
230
1.0
 70
     8
 71
     3
 72
    17
 73
    13
 74
     0
 42
0.000000001
 43
0.0000000001
 40
0.0
 40
0.0
 40
0.0
 40
0.0
 40
0.3704689058671613
 40
0.3704689058671613
 40
0.3704689058671613
 40
0.7029757053327439
 40
0.7029757053327439
 40
0.7029757053327439
 40
0.9335813790911094
 40
0.9335813790911094
 40
0.9335813790911094
 40
1.0
 40
1.0
 40
1.0
 40
1.0
 10
60.52419396197885
 20
-55.72302789245565
 30
0.0
 10
60.27461555575047
 20
-55.81404223765233
 30
0.0
 10
59.96092834674748
 20
-55.82411135188279
 30
0.0
 10
59.65946199210944
 20
-55.85546094736835
 30
0.0
 10
59.38888702309114
 20
-55.8835981364667
 30
0.0
 10
59.13212515610982
 20
-55.93113188360231
 30
0.0
 10
58.94991700615154
 20
-56.07617629937253
 30
0.0
 10
58.82354896419593
 20
-56.17676992716404
 30
0.0
 10
58.73207883226456
 20
-56.32870247076503
 30
0.0
 10
58.6969061394496
 20
-56.54333083394966
 30
0.0
 10
58.68677576532504
 20
-56.60514769932996
 30
0.0
 10
58.68102930044374
 20
-56.67090112852696
 30
0.0
 10
58.68143083526367
 20
-56.75138059381477
 30
0.0
  0
LINE
  5
B0D5
330
B0D0
100
AcDbEntity
  8
0
100
AcDbLine
 10
60.48944594032059
 20
-55.70296611279744
 30
0.0
 11
60.52419396197884
 21
-55.72302789245563
 31
0.0
  0
LINE
  5
B0D6
330
B0D0
100
AcDbEntity
  8
0
100
AcDbLine
 10
60.09564439762335
 20
-55.47560468611388
 30
0.0
 11
60.48944594032059
 21
-55.70296611279744
 31
0.0
  0
ELLIPSE
  5
B0D7
330
B0D0
100
AcDbEntity
  8
0
100
AcDbEllipse
 10
58.68143083525025
 20
-56.29210126704162
 30
0.0
 11
1.999999999999992
 21
0.0
 31
0.0
210
0.0
220
0.0
230
1.0
 40
0.5773502691896259
 41
0.7853981633974457
 42
0.8225763078177088
  0
ELLIPSE
  5
B0D8
330
B0D0
100
AcDbEntity
  8
0
100
AcDbEllipse
 10
58.68143083525025
 20
-56.29210126704162
 30
0.0
 11
1.999999999999992
 21
-0.0000000000001195
 31
0.0
210
0.0
220
0.0
230
1.0
 40
0.5773502691896259
 41
0.8225763078179415
 42
2.35619449019261
  0
LINE
  5
B0D9
330
B0D0
100
AcDbEntity
  8
0
100
AcDbLine
 10
57.26721727287716
 20
-56.29871942920383
 30
0.0
 11
57.26721727287716
 21
-55.47560468611388
 31
0.0
  0
LINE
  5
B0DA
330
B0D0
100
AcDbEntity
  8
0
100
AcDbLine
 10
57.26721727287716
 20
-57.56787717474121
 30
0.0
 11
57.26721727287716
 21
-56.29871942920383
 31
0.0
  0
LINE
  5
B0DB
330
B0D0
100
AcDbEntity
  8
0
100
AcDbLine
 10
58.5562874391541
 20
-56.8236321672369
 30
0.0
 11
57.26721727287716
 21
-57.56787717474121
 31
0.0
  0
ELLIPSE
  5
B0DC
330
B0D0
100
AcDbEntity
  8
0
100
AcDbEllipse
 10
-17.68610153289686
 20
-84.51226434535616
 30
0.0
 11
-2.5
 21
-0.0000000000001493
 31
0.0
210
0.0
220
0.0
230
1.0
 40
0.5773502691896259
 41
3.742856870268575
 42
5.68192109050012
  0
ELLIPSE
  5
B0DD
330
B0D0
100
AcDbEntity
  8
0
100
AcDbEllipse
 10
-3.543965909165915
 20
-76.34729853607891
 30
0.0
 11
-2.5
 21
-0.0000000000001493
 31
0.0
210
0.0
220
0.0
230
1.0
 40
0.5773502691896259
 41
3.742856870268582
 42
5.681921090500122
  0
LINE
  5
B0DE
330
B0D0
100
AcDbEntity
  8
0
100
AcDbLine
 10
-3.543965909165955
 20
-107.3741686113325
 30
0.0
 11
-57.28408127934354
 21
-76.34729853607891
 31
0.0
  0
LINE
  5
B0DF
330
B0D0
100
AcDbEntity
  8
0
100
AcDbLine
 10
0.6986747779533565
 20
-23.2750207757767
 30
0.0
 11
0.6986747779533609
 21
-37.97195923247578
 31
0.0
  0
LINE
  5
B0E0
330
B0D0
100
AcDbEntity
  8
0
100
AcDbLine
 10
22.66741696605045
 20
-52.28861161038658
 30
0.0
 11
2.112888340326444
 21
-40.42144897525894
 31
0.0
  0
LINE
  5
B0E1
330
B0D0
100
AcDbEntity
  8
0
100
AcDbLine
 10
-57.28408127934354
 20
-74.71430537422347
 30
0.0
 11
-3.543965909165951
 21
-105.741175449477
 31
0.0
  0
ELLIPSE
  5
B0E2
330
B0D0
100
AcDbEntity
  8
0
100
AcDbEllipse
 10
-3.543965909165915
 20
-74.71430537422344
 30
0.0
 11
-2.5
 21
0.0000000000001493
 31
0.0
210
0.0
220
0.0
230
1.0
 40
0.5773502691896258
 41
0.0
 42
6.283185307179586
  0
ELLIPSE
  5
B0E3
330
B0D0
100
AcDbEntity
  8
0
100
AcDbEllipse
 10
-17.68610153289686
 20
-82.8792711835007
 30
0.0
 11
-2.5
 21
0.0000000000001493
 31
0.0
210
0.0
220
0.0
230
1.0
 40
0.5773502691896258
 41
0.0
 42
6.283185307179586
  0
LINE
  5
B0E4
330
B0D0
100
AcDbEntity
  8
0
100
AcDbLine
 10
0.6986747779533565
 20
-23.2750207757767
 30
0.0
 11
-0.7155387844197448
 21
-24.09151735670443
 31
0.0
  0
SPLINE
  5
B0E5
330
B0D0
100
AcDbEntity
  8
0
100
AcDbSpline
210
0.0
220
0.0
230
1.0
 70
     8
 71
     3
 72
    11
 73
     7
 74
     0
 42
0.000000001
 43
0.0000000001
 40
-1.0
 40
-1.0
 40
-1.0
 40
-1.0
 40
-0.7907552673954182
 40
-0.7907552673954182
 40
-0.7907552673954182
 40
-0.6580591676567106
 40
-0.6580591676567106
 40
-0.6580591676567106
 40
-0.6580591676567106
 10
0.6986747779534542
 20
-23.27502077577663
 30
0.0
 10
0.7007144617251715
 20
-22.87676802554198
 30
0.0
 10
0.6656674512583516
 20
-22.48897135353031
 30
0.0
 10
0.6010722443662431
 20
-22.13538211734861
 30
0.0
 10
0.5601080972180484
 20
-21.91114749998519
 30
0.0
 10
0.5077609325040334
 20
-21.6957015133115
 30
0.0
 10
0.4449213010929665
 20
-21.48637114253734
 30
0.0
  0
ELLIPSE
  5
B0E6
330
B0D0
100
AcDbEntity
  8
0
100
AcDbEllipse
 10
-3.543965909165933
 20
-20.36625170622166
 30
0.0
 11
3.999999999999994
 21
-0.0000000000000003
 31
0.0
210
0.0
220
0.0
230
1.0
 40
0.5773502691896259
 41
6.058746940095137
 42
6.283185307179586
  0
ELLIPSE
  5
B0E7
330
B0D0
100
AcDbEntity
  8
0
100
AcDbEllipse
 10
-3.543965909165933
 20
-20.36625170622166
 30
0.0
 11
3.999999999999994
 21
0.0
 31
0.0
210
0.0
220
0.0
230
1.0
 40
0.5773502691896259
 41
5.497787143782125
 42
6.058746940095136
  0
LINE
  5
B0E8
330
B0D0
100
AcDbEntity
  8
0
100
AcDbLine
 10
-0.7155387844197403
 20
-21.99924486807711
 30
0.0
 11
-0.7155387844197403
 21
-24.09151735670444
 31
0.0
  0
SPLINE
  5
B0E9
330
B0D0
100
AcDbEntity
  8
0
100
AcDbSpline
210
0.0
220
0.0
230
1.0
 70
     8
 71
     3
 72
    16
 73
    12
 74
     0
 42
0.000000001
 43
0.0000000001
 40
0.0
 40
0.0
 40
0.0
 40
0.0
 40
0.0351246640710866
 40
0.0351246640710866
 40
0.0553378226195985
 40
0.0553378226195985
 40
0.0803966030613224
 40
0.0803966030613224
 40
0.1060253987408718
 40
0.1060253987408718
 40
0.1164299121979219
 40
0.1164299121979219
 40
0.1164299121979219
 40
0.1164299121979219
 10
0.4446614189204956
 20
-20.54027946605976
 30
0.0
 10
0.4294667946464426
 20
-20.65636769899125
 30
0.0
 10
0.4145369214860484
 20
-20.77459596410208
 30
0.0
 10
0.3996842847445681
 20
-20.95196111563165
 30
0.0
 10
0.3961083103591845
 20
-21.01547406050913
 30
0.0
 10
0.3938645374770244
 20
-21.14656827241906
 30
0.0
 10
0.3965985654699455
 20
-21.21242143898262
 30
0.0
 10
0.4084636641327411
 20
-21.32786236319493
 30
0.0
 10
0.4175202333098227
 20
-21.37848866089721
 30
0.0
 10
0.4343549238623235
 20
-21.44729918832088
 30
0.0
 10
0.4397464648976302
 20
-21.46702946374941
 30
0.0
 10
0.4458611333194318
 20
-21.48735039890497
 30
0.0
  0
ELLIPSE
  5
B0EA
330
B0D0
100
AcDbEntity
  8
0
100
AcDbEllipse
 10
2.112888340326453
 20
-38.7884558134035
 30
0.0
 11
1.000000000000104
 21
-1.732050807568816
 31
0.0
210
0.0
220
0.0
230
1.0
 40
0.5773502691896263
 41
3.926990816987
 42
5.497787143781897
  0
LINE
  5
B0EB
330
B0D0
100
AcDbEntity
  8
0
100
AcDbLine
 10
2.112888340326444
 20
-40.42144897525894
 30
0.0
 11
-57.28408127934354
 21
-74.71430537422347
 31
0.0
  0
ELLIPSE
  5
B0EC
330
B0D0
100
AcDbEntity
  8
0
100
AcDbEllipse
 10
-57.28408127934354
 20
-73.081312212368
 30
0.0
 11
2.000000000000208
 21
-3.464101615137639
 31
0.0
210
0.0
220
0.0
230
1.0
 40
0.5773502691896255
 41
3.926990816986997
 42
5.497787143781893
  0
LINE
  5
B0ED
330
B0D0
100
AcDbEntity
  8
0
100
AcDbLine
 10
-58.69829484171663
 20
-72.26481563144028
 30
0.0
 11
0.6986747779533609
 21
-37.97195923247578
 31
0.0
  0
LINE
  5
B0EE
330
B0D0
100
AcDbEntity
  8
0
100
AcDbLine
 10
-60.11250840408973
 20
-71.44831905051255
 30
0.0
 11
-58.69829484171663
 21
-72.26481563144028
 31
0.0
  0
LINE
  5
B0EF
330
B0D0
100
AcDbEntity
  8
0
100
AcDbLine
 10
-57.28408127934354
 20
-76.34729853607892
 30
0.0
 11
-57.28408127934354
 21
-74.71430537422347
 31
0.0
  0
ELLIPSE
  5
B0F0
330
B0D0
100
AcDbEntity
  8
0
100
AcDbEllipse
 10
-57.28408127934354
 20
-73.081312212368
 30
0.0
 11
1.000000000000104
 21
-1.732050807568819
 31
0.0
210
0.0
220
0.0
230
1.0
 40
0.5773502691896255
 41
3.926990816986997
 42
5.497787143781896
  0
LINE
  5
B0F1
330
B0D0
100
AcDbEntity
  8
0
100
AcDbLine
 10
58.68143083525025
 20
-71.44831905051254
 30
0.0
 11
58.68143083525026
 21
-56.75138059381348
 31
0.0
  0
ELLIPSE
  5
B0F2
330
B0D0
100
AcDbEntity
  8
0
100
AcDbEllipse
 10
55.85300371050408
 20
-69.8153258886571
 30
0.0
 11
2.0
 21
-3.464101615137754
 31
0.0
210
0.0
220
0.0
230
1.0
 40
0.5773502691896251
 41
0.0
 42
0.7853981633974465
  0
LINE
  5
B0F3
330
B0D0
100
AcDbEntity
  8
0
100
AcDbLine
 10
-3.543965909165955
 20
-105.741175449477
 30
0.0
 11
-2.129752346792863
 21
-104.9246788685493
 31
0.0
  0
LINE
  5
B0F4
330
B0D0
100
AcDbEntity
  8
0
100
AcDbLine
 10
58.68143083525025
 20
-71.44831905051254
 30
0.0
 11
-0.715538784419767
 21
-105.741175449477
 31
0.0
  0
ELLIPSE
  5
B0F5
330
B0D0
100
AcDbEntity
  8
0
100
AcDbEllipse
 10
-3.543965909165951
 20
-104.1081822876216
 30
0.0
 11
2.000000000000001
 21
-3.464101615137758
 31
0.0
210
0.0
220
0.0
230
0.9999999999999998
 40
0.5773502691896257
 41
5.497787143782137
 42
7.068583470577033
  0
LINE
  5
B0F6
330
B0D0
100
AcDbEntity
  8
0
100
AcDbLine
 10
86.61214869211892
 20
-45.93280089652115
 30
0.0
 11
88.02636225449203
 21
-45.11630431559343
 31
0.0
  0
LINE
  5
B0F7
330
B0D0
100
AcDbEntity
  8
0
100
AcDbLine
 10
60.52419396197884
 20
-55.72302789245563
 30
0.0
 11
86.61214869211892
 21
-45.93280089652115
 31
0.0
  0
ELLIPSE
  5
B0F8
330
B0D0
100
AcDbEntity
  8
0
100
AcDbEllipse
 10
74.2377800213543
 20
50.20967150771863
 30
0.0
 11
-3.249999999999997
 21
5.629165124598853
 31
0.0
210
0.0
220
0.0
230
1.0
 40
0.5773502691896255
 41
0.2193254863005931
 42
2.922267167289198
  0
ELLIPSE
  5
B0F9
330
B0D0
100
AcDbEntity
  8
0
100
AcDbEllipse
 10
82.0159546144063
 20
57.96638902653201
 30
0.0
 11
1.250000000000128
 21
-2.165063509461022
 31
0.0
210
0.0
220
0.0
230
1.0
 40
0.5773502691896255
 41
3.742856870268601
 42
5.681921090500121
  0
LINE
  5
B0FA
330
B0D0
100
AcDbEntity
  8
0
100
AcDbLine
 10
61.50985795999645
 20
73.88807235462268
 30
0.0
 11
88.02636225449196
 21
58.5787614622278
 31
0.0
  0
LINE
  5
B0FB
330
B0D0
100
AcDbEntity
  8
0
100
AcDbLine
 10
88.02636225449203
 20
-45.11630431559343
 30
0.0
 11
88.02636225449196
 21
58.5787614622278
 31
0.0
  0
ELLIPSE
  5
B0FC
330
B0D0
100
AcDbEntity
  8
0
100
AcDbEllipse
 10
58.68143083525025
 20
72.25507919276722
 30
0.0
 11
4.000000000000003
 21
-0.0000000000002381
 31
0.0
210
0.0
220
0.0
230
1.0
 40
0.5773502691896259
 41
0.7853981633976881
 42
2.356194490192585
  0
ELLIPSE
  5
B0FD
330
B0D0
100
AcDbEntity
  8
0
100
AcDbEllipse
 10
31.45781975956815
 20
47.5560576197035
 30
0.0
 11
1.24999999999987
 21
2.16506350946117
 31
0.0
210
0.0
220
0.0
230
1.0
 40
0.5773502691896259
 41
3.742856870268584
 42
5.681921090500103
  0
ELLIPSE
  5
B0FE
330
B0D0
100
AcDbEntity
  8
0
100
AcDbEllipse
 10
32.87203332194125
 20
46.73956103877578
 30
0.0
 11
-1.25
 21
-2.165063509461096
 31
0.0
210
0.0
220
0.0
230
1.0
 40
0.577350269189626
 41
0.0
 42
6.283185307179586
  0
LINE
  5
B0FF
330
B0D0
100
AcDbEntity
  8
0
100
AcDbLine
 10
-2.129752346792894
 20
-90.22774041185025
 30
0.0
 11
26.15451890066903
 21
-46.9534216226808
 31
0.0
  0
LINE
  5
B100
330
B0D0
100
AcDbEntity
  8
0
100
AcDbLine
 10
-0.7155387844197936
 20
-91.044236992778
 30
0.0
 11
-2.129752346792894
 21
-90.22774041185025
 31
0.0
  0
LINE
  5
B101
330
B0D0
100
AcDbEntity
  8
0
100
AcDbLine
 10
27.56873246304213
 20
-47.76991820360854
 30
0.0
 11
-0.7155387844197936
 21
-91.044236992778
 31
0.0
  0
LINE
  5
B102
330
B0D0
100
AcDbEntity
  8
0
100
AcDbLine
 10
27.56873246304213
 20
-47.76991820360854
 30
0.0
 11
26.15451890066903
 21
-46.9534216226808
 31
0.0
  0
LINE
  5
B103
330
B0D0
100
AcDbEntity
  8
0
100
AcDbLine
 10
26.15451890066903
 20
-46.9534216226808
 30
0.0
 11
26.15451890066904
 21
56.74164415514045
 31
0.0
  0
LINE
  5
B104
330
B0D0
100
AcDbEntity
  8
0
100
AcDbLine
 10
27.56873246304214
 20
55.9251475742127
 30
0.0
 11
27.56873246304213
 21
-47.76991820360854
 31
0.0
  0
LINE
  5
B105
330
B0D0
100
AcDbEntity
  8
0
100
AcDbLine
 10
26.15451890066904
 20
56.74164415514043
 30
0.0
 11
27.56873246304214
 21
55.9251475742127
 31
0.0
  0
LINE
  5
B106
330
B0D0
100
AcDbEntity
  8
0
100
AcDbLine
 10
-0.7155387844197936
 20
-91.044236992778
 30
0.0
 11
-0.7155387844197625
 21
-105.741175449477
 31
0.0
  0
LINE
  5
B107
330
B0D0
100
AcDbEntity
  8
0
100
AcDbLine
 10
57.26721727287716
 20
-55.47560468611388
 30
0.0
 11
57.26721727287716
 21
73.07157577369496
 31
0.0
  0
LINE
  5
B108
330
B0D0
100
AcDbEntity
  8
0
100
AcDbLine
 10
57.26721727287716
 20
73.07157577369496
 30
0.0
 11
27.56873246304214
 21
55.9251475742127
 31
0.0
  0
LINE
  5
B109
330
B0D0
100
AcDbEntity
  8
0
100
AcDbLine
 10
26.15451890066904
 20
56.74164415514043
 30
0.0
 11
55.85300371050405
 21
73.88807235462268
 31
0.0
  0
LINE
  5
B10A
330
B0D0
100
AcDbEntity
  8
0
100
AcDbLine
 10
-2.129752346792863
 20
-104.9246788685493
 30
0.0
 11
-2.129752346792894
 21
-90.22774041185025
 31
0.0
  0
LINE
  5
B10B
330
B0D0
100
AcDbEntity
  8
0
100
AcDbLine
 10
-3.543965909165955
 20
-105.741175449477
 30
0.0
 11
-3.543965909165955
 21
-107.3741686113325
 31
0.0
  0
LINE
  5
B10C
330
B0D0
100
AcDbEntity
  8
0
100
AcDbLine
 10
-2.129752346792863
 20
-104.9246788685493
 30
0.0
 11
-0.7155387844197625
 21
-105.741175449477
 31
0.0
  0
ELLIPSE
  5
B10D
330
B0D0
100
AcDbEntity
  8
0
100
AcDbEllipse
 10
-3.543965909165951
 20
-104.1081822876216
 30
0.0
 11
1.0
 21
-1.732050807568879
 31
0.0
210
0.0
220
0.0
230
0.9999999999999998
 40
0.5773502691896257
 41
5.497787143782143
 42
7.068583470577039
  0
LINE
  5
B10E
330
B0D0
100
AcDbEntity
  8
0
100
AcDbLine
 10
60.09564439762335
 20
-55.47560468611388
 30
0.0
 11
60.09564439762335
 21
73.07157577369496
 31
0.0
  0
ELLIPSE
  5
B10F
330
B0D0
100
AcDbEntity
  8
0
100
AcDbEllipse
 10
58.68143083525025
 20
72.25507919276722
 30
0.0
 11
-2.000000000000001
 21
-0.0000000000001193
 31
0.0
210
0.0
220
0.0
230
1.0
 40
0.5773502691896259
 41
3.926990816986995
 42
5.497787143781891
  0
LINE
  5
B110
330
B0D0
100
AcDbEntity
  8
0
100
AcDbLine
 10
88.02636225449196
 20
58.5787614622278
 30
0.0
 11
86.61214869211887
 21
57.76226488130008
 31
0.0
  0
LINE
  5
B111
330
B0D0
100
AcDbEntity
  8
0
100
AcDbLine
 10
86.61214869211892
 20
-45.93280089652115
 30
0.0
 11
86.61214869211887
 21
57.7622648813001
 31
0.0
  0
LINE
  5
B112
330
B0D0
100
AcDbEntity
  8
0
100
AcDbLine
 10
57.26721727287716
 20
73.07157577369496
 30
0.0
 11
55.85300371050405
 21
73.88807235462268
 31
0.0
  0
LINE
  5
B113
330
B0D0
100
AcDbEntity
  8
0
100
AcDbLine
 10
60.09564439762335
 20
73.07157577369496
 30
0.0
 11
61.50985795999645
 21
73.88807235462268
 31
0.0
  0
LINE
  5
B114
330
B0D0
100
AcDbEntity
  8
0
100
AcDbLine
 10
86.61214869211887
 20
57.76226488130008
 30
0.0
 11
60.09564439762335
 21
73.07157577369496
 31
0.0
  0
ELLIPSE
  5
B115
330
B0D0
100
AcDbEntity
  8
0
100
AcDbEllipse
 10
72.8235664589812
 20
49.39317492679091
 30
0.0
 11
-3.249999999999999
 21
5.629165124598853
 31
0.0
210
0.0
220
0.0
230
1.0
 40
0.5773502691896255
 41
0.0
 42
6.283185307179586
  0
ELLIPSE
  5
B116
330
B0D0
100
AcDbEntity
  8
0
100
AcDbEllipse
 10
80.60174105203319
 20
57.14989244560428
 30
0.0
 11
-1.249999999999999
 21
2.165063509461097
 31
0.0
210
0.0
220
0.0
230
1.0
 40
0.5773502691896255
 41
0.0
 42
6.283185307179586
  0
LINE
  5
B117
330
B0D0
100
AcDbEntity
  8
0
100
AcDbLine
 10
-1.543965909165949
 20
-107.5722839027593
 30
0.0
 11
57.85300371050407
 21
-73.27942750379486
 31
0.0
  0
ELLIPSE
  5
B118
330
B0D0
100
AcDbEntity
  8
0
100
AcDbEllipse
 10
74.2377800213543
 20
-31.43998658505398
 30
0.0
 11
-3.249999999999997
 21
5.629165124598853
 31
0.0
210
0.0
220
0.0
230
1.0
 40
0.5773502691896257
 41
0.2193254863005929
 42
2.9222671672892
  0
ELLIPSE
  5
B119
330
B0D0
100
AcDbEntity
  8
0
100
AcDbEllipse
 10
72.8235664589812
 20
-32.25648316598171
 30
0.0
 11
-3.249999999999999
 21
5.629165124598853
 31
0.0
210
0.0
220
0.0
230
1.0
 40
0.5773502691896255
 41
0.0
 42
6.283185307179586
  0
ELLIPSE
  5
B11A
330
B0D0
100
AcDbEntity
  8
0
100
AcDbEllipse
 10
66.45960542830227
 20
-39.19670410386737
 30
0.0
 11
1.250000000000128
 21
-2.165063509461023
 31
0.0
210
0.0
220
0.0
230
0.9999999999999998
 40
0.5773502691896254
 41
3.742856870268578
 42
5.681921090500122
  0
ELLIPSE
  5
B11B
330
B0D0
100
AcDbEntity
  8
0
100
AcDbEllipse
 10
66.45960542830227
 20
-22.86677248531285
 30
0.0
 11
1.250000000000128
 21
-2.165063509461023
 31
0.0
210
0.0
220
0.0
230
0.9999999999999998
 40
0.5773502691896254
 41
3.742856870268578
 42
5.681921090500122
  0
ELLIPSE
  5
B11C
330
B0D0
100
AcDbEntity
  8
0
100
AcDbEllipse
 10
66.45960542830227
 20
-6.536840866758328
 30
0.0
 11
1.250000000000128
 21
-2.165063509461023
 31
0.0
210
0.0
220
0.0
230
0.9999999999999998
 40
0.5773502691896254
 41
3.742856870268578
 42
5.681921090500122
  0
ELLIPSE
  5
B11D
330
B0D0
100
AcDbEntity
  8
0
100
AcDbEllipse
 10
66.45960542830227
 20
9.793090751796196
 30
0.0
 11
1.250000000000128
 21
-2.165063509461023
 31
0.0
210
0.0
220
0.0
230
0.9999999999999998
 40
0.5773502691896254
 41
3.742856870268578
 42
5.681921090500122
  0
ELLIPSE
  5
B11E
330
B0D0
100
AcDbEntity
  8
0
100
AcDbEllipse
 10
66.45960542830227
 20
26.1230223703507
 30
0.0
 11
1.250000000000128
 21
-2.165063509461023
 31
0.0
210
0.0
220
0.0
230
0.9999999999999998
 40
0.5773502691896254
 41
3.742856870268578
 42
5.681921090500122
  0
ELLIPSE
  5
B11F
330
B0D0
100
AcDbEntity
  8
0
100
AcDbEllipse
 10
66.45960542830227
 20
42.45295398890522
 30
0.0
 11
1.250000000000128
 21
-2.165063509461023
 31
0.0
210
0.0
220
0.0
230
0.9999999999999998
 40
0.5773502691896254
 41
3.742856870268578
 42
5.681921090500122
  0
ELLIPSE
  5
B120
330
B0D0
100
AcDbEntity
  8
0
100
AcDbEllipse
 10
65.04539186592919
 20
-40.01320068479509
 30
0.0
 11
-1.249999999999999
 21
2.165063509461097
 31
0.0
210
0.0
220
0.0
230
1.0
 40
0.5773502691896255
 41
0.0
 42
6.283185307179586
  0
ELLIPSE
  5
B121
330
B0D0
100
AcDbEntity
  8
0
100
AcDbEllipse
 10
65.04539186592919
 20
-23.68326906624058
 30
0.0
 11
-1.249999999999999
 21
2.165063509461097
 31
0.0
210
0.0
220
0.0
230
1.0
 40
0.5773502691896255
 41
0.0
 42
6.283185307179586
  0
ELLIPSE
  5
B122
330
B0D0
100
AcDbEntity
  8
0
100
AcDbEllipse
 10
65.04539186592919
 20
-7.353337447686048
 30
0.0
 11
-1.249999999999999
 21
2.165063509461097
 31
0.0
210
0.0
220
0.0
230
1.0
 40
0.5773502691896255
 41
0.0
 42
6.283185307179586
  0
ELLIPSE
  5
B123
330
B0D0
100
AcDbEntity
  8
0
100
AcDbEllipse
 10
65.04539186592919
 20
8.976594170868477
 30
0.0
 11
-1.249999999999999
 21
2.165063509461097
 31
0.0
210
0.0
220
0.0
230
1.0
 40
0.5773502691896255
 41
0.0
 42
6.283185307179586
  0
ELLIPSE
  5
B124
330
B0D0
100
AcDbEntity
  8
0
100
AcDbEllipse
 10
65.04539186592919
 20
25.30652578942298
 30
0.0
 11
-1.249999999999999
 21
2.165063509461097
 31
0.0
210
0.0
220
0.0
230
1.0
 40
0.5773502691896255
 41
0.0
 42
6.283185307179586
  0
ELLIPSE
  5
B125
330
B0D0
100
AcDbEntity
  8
0
100
AcDbEllipse
 10
65.04539186592919
 20
41.6364574079775
 30
0.0
 11
-1.249999999999999
 21
2.165063509461097
 31
0.0
210
0.0
220
0.0
230
1.0
 40
0.5773502691896255
 41
0.0
 42
6.283185307179586
  0
ELLIPSE
  5
B126
330
B0D0
100
AcDbEntity
  8
0
100
AcDbEllipse
 10
66.45960542830227
 20
58.78288560745975
 30
0.0
 11
1.250000000000128
 21
-2.165063509461022
 31
0.0
210
0.0
220
0.0
230
1.0
 40
0.5773502691896255
 41
3.742856870268585
 42
5.681921090500116
  0
ELLIPSE
  5
B127
330
B0D0
100
AcDbEntity
  8
0
100
AcDbEllipse
 10
65.04539186592919
 20
57.96638902653203
 30
0.0
 11
-1.249999999999999
 21
2.165063509461097
 31
0.0
210
0.0
220
0.0
230
1.0
 40
0.5773502691896255
 41
0.0
 42
6.283185307179586
  0
ELLIPSE
  5
B128
330
B0D0
100
AcDbEntity
  8
0
100
AcDbEllipse
 10
82.0159546144063
 20
-40.01320068479511
 30
0.0
 11
1.250000000000128
 21
-2.165063509461023
 31
0.0
210
0.0
220
0.0
230
0.9999999999999998
 40
0.5773502691896254
 41
3.742856870268576
 42
5.681921090500112
  0
ELLIPSE
  5
B129
330
B0D0
100
AcDbEntity
  8
0
100
AcDbEllipse
 10
82.0159546144063
 20
-23.68326906624059
 30
0.0
 11
1.250000000000128
 21
-2.165063509461023
 31
0.0
210
0.0
220
0.0
230
0.9999999999999998
 40
0.5773502691896254
 41
3.742856870268576
 42
5.681921090500112
  0
ELLIPSE
  5
B12A
330
B0D0
100
AcDbEntity
  8
0
100
AcDbEllipse
 10
82.0159546144063
 20
-7.353337447686065
 30
0.0
 11
1.250000000000128
 21
-2.165063509461023
 31
0.0
210
0.0
220
0.0
230
0.9999999999999998
 40
0.5773502691896254
 41
3.742856870268576
 42
5.681921090500111
  0
ELLIPSE
  5
B12B
330
B0D0
100
AcDbEntity
  8
0
100
AcDbEllipse
 10
82.0159546144063
 20
8.976594170868459
 30
0.0
 11
1.250000000000128
 21
-2.165063509461023
 31
0.0
210
0.0
220
0.0
230
0.9999999999999998
 40
0.5773502691896254
 41
3.742856870268576
 42
5.681921090500111
  0
ELLIPSE
  5
B12C
330
B0D0
100
AcDbEntity
  8
0
100
AcDbEllipse
 10
82.0159546144063
 20
25.30652578942297
 30
0.0
 11
1.250000000000128
 21
-2.165063509461023
 31
0.0
210
0.0
220
0.0
230
0.9999999999999998
 40
0.5773502691896254
 41
3.742856870268576
 42
5.681921090500112
  0
ELLIPSE
  5
B12D
330
B0D0
100
AcDbEntity
  8
0
100
AcDbEllipse
 10
82.0159546144063
 20
41.63645740797749
 30
0.0
 11
1.250000000000128
 21
-2.165063509461023
 31
0.0
210
0.0
220
0.0
230
0.9999999999999998
 40
0.5773502691896254
 41
3.742856870268575
 42
5.681921090500112
  0
ELLIPSE
  5
B12E
330
B0D0
100
AcDbEntity
  8
0
100
AcDbEllipse
 10
-22.63584900120275
 20
100.4242112347738
 30
0.0
 11
1.25
 21
-2.165063509461096
 31
0.0
210
0.0
220
0.0
230
1.0
 40
0.577350269189626
 41
0.0
 42
6.283185307179586
  0
ELLIPSE
  5
B12F
330
B0D0
100
AcDbEntity
  8
0
100
AcDbEllipse
 10
-21.22163543882965
 20
101.2407078157015
 30
0.0
 11
1.25000000000013
 21
-2.165063509461022
 31
0.0
210
0.0
220
0.0
230
1.0
 40
0.5773502691896259
 41
3.742856870268576
 42
5.681921090500115
  0
ELLIPSE
  5
B130
330
B0D0
100
AcDbEntity
  8
0
100
AcDbEllipse
 10
80.60174105203319
 20
-40.82969726572283
 30
0.0
 11
-1.249999999999999
 21
2.165063509461097
 31
0.0
210
0.0
220
0.0
230
1.0
 40
0.5773502691896255
 41
0.0
 42
6.283185307179586
  0
ELLIPSE
  5
B131
330
B0D0
100
AcDbEntity
  8
0
100
AcDbEllipse
 10
80.60174105203319
 20
-24.49976564716832
 30
0.0
 11
-1.249999999999999
 21
2.165063509461097
 31
0.0
210
0.0
220
0.0
230
1.0
 40
0.5773502691896255
 41
0.0
 42
6.283185307179586
  0
ELLIPSE
  5
B132
330
B0D0
100
AcDbEntity
  8
0
100
AcDbEllipse
 10
80.60174105203319
 20
-8.169834028613793
 30
0.0
 11
-1.249999999999999
 21
2.165063509461097
 31
0.0
210
0.0
220
0.0
230
1.0
 40
0.5773502691896255
 41
0.0
 42
6.283185307179586
  0
ELLIPSE
  5
B133
330
B0D0
100
AcDbEntity
  8
0
100
AcDbEllipse
 10
80.60174105203319
 20
8.160097589940731
 30
0.0
 11
-1.249999999999999
 21
2.165063509461097
 31
0.0
210
0.0
220
0.0
230
1.0
 40
0.5773502691896255
 41
0.0
 42
6.283185307179586
  0
ELLIPSE
  5
B134
330
B0D0
100
AcDbEntity
  8
0
100
AcDbEllipse
 10
80.60174105203319
 20
24.49002920849524
 30
0.0
 11
-1.249999999999999
 21
2.165063509461097
 31
0.0
210
0.0
220
0.0
230
1.0
 40
0.5773502691896255
 41
0.0
 42
6.283185307179586
  0
ELLIPSE
  5
B135
330
B0D0
100
AcDbEntity
  8
0
100
AcDbEllipse
 10
80.60174105203319
 20
40.81996082704975
 30
0.0
 11
-1.249999999999999
 21
2.165063509461097
 31
0.0
210
0.0
220
0.0
230
1.0
 40
0.5773502691896255
 41
0.0
 42
6.283185307179586
  0
ELLIPSE
  5
B136
330
B0D0
100
AcDbEntity
  8
0
100
AcDbEllipse
 10
-14.85767440815068
 20
100.0159629443099
 30
0.0
 11
-3.250000000000004
 21
5.629165124598848
 31
0.0
210
0.0
220
0.0
230
0.9999999999999998
 40
0.577350269189626
 41
4.71238898038469
 42
7.853981633974483
  0
ELLIPSE
  5
B137
330
B0D0
100
AcDbEntity
  8
0
100
AcDbEllipse
 10
-13.44346084577759
 20
100.8324595252376
 30
0.0
 11
-3.250000000000001
 21
5.629165124598852
 31
0.0
210
0.0
220
0.0
230
1.0
 40
0.5773502691896259
 41
0.2193254863005931
 42
1.570796326794897
  0
ELLIPSE
  5
B138
330
B0D0
100
AcDbEntity
  8
0
100
AcDbEllipse
 10
-22.63584900120275
 20
116.7541428533283
 30
0.0
 11
1.25
 21
-2.165063509461096
 31
0.0
210
0.0
220
0.0
230
1.0
 40
0.577350269189626
 41
0.0
 42
6.283185307179586
  0
ELLIPSE
  5
B139
330
B0D0
100
AcDbEntity
  8
0
100
AcDbEllipse
 10
-21.22163543882965
 20
117.570639434256
 30
0.0
 11
1.25000000000013
 21
-2.165063509461022
 31
0.0
210
0.0
220
0.0
230
1.0
 40
0.5773502691896259
 41
3.742856870268576
 42
5.681921090500118
  0
LINE
  5
B13A
330
B0D0
100
AcDbEntity
  8
0
100
AcDbLine
 10
-2.129752346792841
 20
107.3644321726594
 30
0.0
 11
-2.129752346792836
 21
108.9974253345149
 31
0.0
  0
ELLIPSE
  5
B13B
330
B0D0
100
AcDbEntity
  8
0
100
AcDbEllipse
 10
-3.543965909165933
 20
108.1809287535872
 30
0.0
 11
2.000000000000001
 21
0.0000000000000001
 31
0.0
210
0.0
220
0.0
230
1.0
 40
0.5773502691896259
 41
5.497787143782129
 42
7.068583470577026
  0
LINE
  5
B13C
330
B0D0
100
AcDbEntity
  8
0
100
AcDbLine
 10
-0.7155387844197403
 20
106.5479355917317
 30
0.0
 11
-0.7155387844197403
 21
-21.99924486807712
 31
0.0
  0
ELLIPSE
  5
B13D
330
B0D0
100
AcDbEntity
  8
0
100
AcDbEllipse
 10
-3.543965909165933
 20
108.1809287535872
 30
0.0
 11
4.000000000000003
 21
-0.0000000000000001
 31
0.0
210
0.0
220
0.0
230
1.0
 40
0.5773502691896259
 41
5.497787143782137
 42
7.068583470577034
  0
LINE
  5
B13E
330
B0D0
100
AcDbEntity
  8
0
100
AcDbLine
 10
-2.129752346792836
 20
108.9974253345149
 30
0.0
 11
-0.7155387844197403
 21
109.8139219154426
 31
0.0
  0
LINE
  5
B13F
330
B0D0
100
AcDbEntity
  8
0
100
AcDbLine
 10
-2.129752346792836
 20
107.3644321726594
 30
0.0
 11
-0.7155387844197403
 21
106.5479355917317
 31
0.0
  0
LINE
  5
B140
330
B0D0
100
AcDbEntity
  8
0
100
AcDbLine
 10
0.456034090834061
 20
-20.36625170622166
 30
0.0
 11
0.456034090834061
 21
108.1809287535872
 31
0.0
  0
LINE
  5
B141
330
B0D0
100
AcDbEntity
  8
0
100
AcDbLine
 10
-28.64625664128838
 20
124.3067362269097
 30
0.0
 11
-2.129752346792836
 21
108.9974253345149
 31
0.0
  0
LINE
  5
B142
330
B0D0
100
AcDbEntity
  8
0
100
AcDbLine
 10
-28.64625664128841
 20
92.05512128026457
 30
0.0
 11
-28.64625664128838
 21
124.3067362269097
 31
0.0
  0
LINE
  5
B143
330
B0D0
100
AcDbEntity
  8
0
100
AcDbLine
 10
-58.69829484171663
 20
-72.26481563144028
 30
0.0
 11
-58.69829484171666
 21
-57.56787717474122
 31
0.0
  0
LINE
  5
B144
330
B0D0
100
AcDbEntity
  8
0
100
AcDbLine
 10
-30.41402359425474
 20
89.40150739224947
 30
0.0
 11
-0.7155387844197403
 21
106.5479355917317
 31
0.0
  0
LINE
  5
B145
330
B0D0
100
AcDbEntity
  8
0
100
AcDbLine
 10
-60.11250840408976
 20
-56.7513805938135
 30
0.0
 11
-60.11250840408973
 21
-71.44831905051255
 31
0.0
  0
LINE
  5
B146
330
B0D0
100
AcDbEntity
  8
0
100
AcDbLine
 10
-2.129752346792836
 20
107.3644321726594
 30
0.0
 11
-31.82823715662783
 21
90.2180039731772
 31
0.0
  0
LINE
  5
B147
330
B0D0
100
AcDbEntity
  8
0
100
AcDbLine
 10
-0.7155387844197403
 20
109.8139219154426
 30
0.0
 11
-27.23204307891528
 21
125.1232328078375
 31
0.0
  0
LINE
  5
B148
330
B0D0
100
AcDbEntity
  8
0
100
AcDbLine
 10
-27.23204307891528
 20
125.1232328078375
 30
0.0
 11
-28.64625664128838
 21
124.3067362269097
 31
0.0
  0
ELLIPSE
  5
B149
330
B0D0
100
AcDbEntity
  8
0
100
AcDbEllipse
 10
31.45781975956815
 20
-50.4235320916236
 30
0.0
 11
1.24999999999987
 21
2.16506350946117
 31
0.0
210
0.0
220
0.0
230
1.0
 40
0.5773502691896259
 41
3.742856870268584
 42
5.681921090500112
  0
ELLIPSE
  5
B14A
330
B0D0
100
AcDbEntity
  8
0
100
AcDbEllipse
 10
32.87203332194125
 20
-51.24002867255135
 30
0.0
 11
-1.25
 21
-2.165063509461096
 31
0.0
210
0.0
220
0.0
230
1.0
 40
0.577350269189626
 41
0.0
 42
6.283185307179586
  0
ELLIPSE
  5
B14B
330
B0D0
100
AcDbEntity
  8
0
100
AcDbEllipse
 10
31.45781975956815
 20
-34.0936004730691
 30
0.0
 11
1.24999999999987
 21
2.16506350946117
 31
0.0
210
0.0
220
0.0
230
1.0
 40
0.5773502691896259
 41
3.742856870268584
 42
5.681921090500109
  0
ELLIPSE
  5
B14C
330
B0D0
100
AcDbEntity
  8
0
100
AcDbEllipse
 10
32.87203332194125
 20
-34.91009705399682
 30
0.0
 11
-1.25
 21
-2.165063509461096
 31
0.0
210
0.0
220
0.0
230
1.0
 40
0.577350269189626
 41
0.0
 42
6.283185307179586
  0
ELLIPSE
  5
B14D
330
B0D0
100
AcDbEntity
  8
0
100
AcDbEllipse
 10
31.45781975956815
 20
-17.76366885451457
 30
0.0
 11
1.24999999999987
 21
2.16506350946117
 31
0.0
210
0.0
220
0.0
230
1.0
 40
0.5773502691896259
 41
3.742856870268584
 42
5.681921090500118
  0
ELLIPSE
  5
B14E
330
B0D0
100
AcDbEntity
  8
0
100
AcDbEllipse
 10
32.87203332194125
 20
-18.5801654354423
 30
0.0
 11
-1.25
 21
-2.165063509461096
 31
0.0
210
0.0
220
0.0
230
1.0
 40
0.577350269189626
 41
0.0
 42
6.283185307179586
  0
ELLIPSE
  5
B14F
330
B0D0
100
AcDbEntity
  8
0
100
AcDbEllipse
 10
31.45781975956815
 20
-1.433737235960048
 30
0.0
 11
1.24999999999987
 21
2.16506350946117
 31
0.0
210
0.0
220
0.0
230
1.0
 40
0.5773502691896259
 41
3.742856870268584
 42
5.681921090500118
  0
ELLIPSE
  5
B150
330
B0D0
100
AcDbEntity
  8
0
100
AcDbEllipse
 10
32.87203332194125
 20
-2.250233816887767
 30
0.0
 11
-1.25
 21
-2.165063509461096
 31
0.0
210
0.0
220
0.0
230
1.0
 40
0.577350269189626
 41
0.0
 42
6.283185307179586
  0
ELLIPSE
  5
B151
330
B0D0
100
AcDbEntity
  8
0
100
AcDbEllipse
 10
31.45781975956815
 20
14.89619438259446
 30
0.0
 11
1.24999999999987
 21
2.16506350946117
 31
0.0
210
0.0
220
0.0
230
1.0
 40
0.5773502691896259
 41
3.742856870268584
 42
5.681921090500118
  0
ELLIPSE
  5
B152
330
B0D0
100
AcDbEntity
  8
0
100
AcDbEllipse
 10
32.87203332194125
 20
14.07969780166674
 30
0.0
 11
-1.25
 21
-2.165063509461096
 31
0.0
210
0.0
220
0.0
230
1.0
 40
0.577350269189626
 41
0.0
 42
6.283185307179586
  0
ELLIPSE
  5
B153
330
B0D0
100
AcDbEntity
  8
0
100
AcDbEllipse
 10
31.45781975956815
 20
31.22612600114898
 30
0.0
 11
1.24999999999987
 21
2.16506350946117
 31
0.0
210
0.0
220
0.0
230
1.0
 40
0.5773502691896259
 41
3.742856870268584
 42
5.681921090500118
  0
ELLIPSE
  5
B154
330
B0D0
100
AcDbEntity
  8
0
100
AcDbEllipse
 10
32.87203332194125
 20
30.40962942022126
 30
0.0
 11
-1.25
 21
-2.165063509461096
 31
0.0
210
0.0
220
0.0
230
1.0
 40
0.577350269189626
 41
0.0
 42
6.283185307179586
  0
ELLIPSE
  5
B155
330
B0D0
100
AcDbEntity
  8
0
100
AcDbEllipse
 10
-26.52493629772874
 20
-25.1121380828641
 30
0.0
 11
1.24999999999987
 21
2.165063509461171
 31
0.0
210
0.0
220
0.0
230
1.0
 40
0.5773502691896258
 41
3.742856870268584
 42
5.681921090500115
  0
ELLIPSE
  5
B156
330
B0D0
100
AcDbEntity
  8
0
100
AcDbEllipse
 10
-25.11072273535563
 20
-25.92863466379183
 30
0.0
 11
1.249999999999999
 21
2.165063509461097
 31
0.0
210
0.0
220
0.0
230
0.9999999999999998
 40
0.5773502691896258
 41
0.0
 42
6.283185307179586
  0
ELLIPSE
  5
B157
330
B0D0
100
AcDbEntity
  8
0
100
AcDbEllipse
 10
-26.52493629772874
 20
-8.782206464309574
 30
0.0
 11
1.24999999999987
 21
2.165063509461171
 31
0.0
210
0.0
220
0.0
230
1.0
 40
0.5773502691896258
 41
3.742856870268584
 42
5.68192109050011
  0
ELLIPSE
  5
B158
330
B0D0
100
AcDbEntity
  8
0
100
AcDbEllipse
 10
-25.11072273535563
 20
-9.598703045237302
 30
0.0
 11
1.249999999999999
 21
2.165063509461097
 31
0.0
210
0.0
220
0.0
230
0.9999999999999998
 40
0.5773502691896258
 41
0.0
 42
6.283185307179586
  0
ELLIPSE
  5
B159
330
B0D0
100
AcDbEntity
  8
0
100
AcDbEllipse
 10
-26.52493629772874
 20
7.547725154244941
 30
0.0
 11
1.24999999999987
 21
2.165063509461171
 31
0.0
210
0.0
220
0.0
230
1.0
 40
0.5773502691896258
 41
3.742856870268584
 42
5.68192109050011
  0
ELLIPSE
  5
B15A
330
B0D0
100
AcDbEntity
  8
0
100
AcDbEllipse
 10
-25.11072273535563
 20
6.731228573317213
 30
0.0
 11
1.249999999999999
 21
2.165063509461097
 31
0.0
210
0.0
220
0.0
230
0.9999999999999998
 40
0.5773502691896258
 41
0.0
 42
6.283185307179586
  0
ELLIPSE
  5
B15B
330
B0D0
100
AcDbEntity
  8
0
100
AcDbEllipse
 10
-26.52493629772874
 20
23.87765677279947
 30
0.0
 11
1.24999999999987
 21
2.165063509461171
 31
0.0
210
0.0
220
0.0
230
1.0
 40
0.5773502691896258
 41
3.742856870268584
 42
5.681921090500117
  0
ELLIPSE
  5
B15C
330
B0D0
100
AcDbEntity
  8
0
100
AcDbEllipse
 10
-25.11072273535563
 20
23.06116019187174
 30
0.0
 11
1.249999999999999
 21
2.165063509461097
 31
0.0
210
0.0
220
0.0
230
0.9999999999999998
 40
0.5773502691896258
 41
0.0
 42
6.283185307179586
  0
ELLIPSE
  5
B15D
330
B0D0
100
AcDbEntity
  8
0
100
AcDbEllipse
 10
-26.52493629772874
 20
40.207588391354
 30
0.0
 11
1.24999999999987
 21
2.165063509461171
 31
0.0
210
0.0
220
0.0
230
1.0
 40
0.5773502691896258
 41
3.742856870268584
 42
5.681921090500117
  0
ELLIPSE
  5
B15E
330
B0D0
100
AcDbEntity
  8
0
100
AcDbEllipse
 10
-25.11072273535563
 20
39.39109181042626
 30
0.0
 11
1.249999999999999
 21
2.165063509461097
 31
0.0
210
0.0
220
0.0
230
0.9999999999999998
 40
0.5773502691896258
 41
0.0
 42
6.283185307179586
  0
ELLIPSE
  5
B15F
330
B0D0
100
AcDbEntity
  8
0
100
AcDbEllipse
 10
-26.52493629772874
 20
56.5375200099085
 30
0.0
 11
1.24999999999987
 21
2.165063509461171
 31
0.0
210
0.0
220
0.0
230
1.0
 40
0.5773502691896258
 41
3.742856870268584
 42
5.681921090500117
  0
ELLIPSE
  5
B160
330
B0D0
100
AcDbEntity
  8
0
100
AcDbEllipse
 10
-25.11072273535563
 20
55.72102342898077
 30
0.0
 11
1.249999999999999
 21
2.165063509461097
 31
0.0
210
0.0
220
0.0
230
0.9999999999999998
 40
0.5773502691896258
 41
0.0
 42
6.283185307179586
  0
ELLIPSE
  5
B161
330
B0D0
100
AcDbEntity
  8
0
100
AcDbEllipse
 10
-26.52493629772874
 20
72.86745162846303
 30
0.0
 11
1.24999999999987
 21
2.165063509461171
 31
0.0
210
0.0
220
0.0
230
1.0
 40
0.5773502691896258
 41
3.742856870268584
 42
5.681921090500117
  0
ELLIPSE
  5
B162
330
B0D0
100
AcDbEntity
  8
0
100
AcDbEllipse
 10
-25.11072273535563
 20
72.05095504753529
 30
0.0
 11
1.249999999999999
 21
2.165063509461097
 31
0.0
210
0.0
220
0.0
230
0.9999999999999998
 40
0.5773502691896258
 41
0.0
 42
6.283185307179586
  0
ELLIPSE
  5
B163
330
B0D0
100
AcDbEntity
  8
0
100
AcDbEllipse
 10
-26.52493629772874
 20
89.19738324701755
 30
0.0
 11
1.24999999999987
 21
2.165063509461171
 31
0.0
210
0.0
220
0.0
230
1.0
 40
0.5773502691896258
 41
3.742856870268584
 42
5.681921090500103
  0
ELLIPSE
  5
B164
330
B0D0
100
AcDbEntity
  8
0
100
AcDbEllipse
 10
-25.11072273535563
 20
88.38088666608982
 30
0.0
 11
1.249999999999999
 21
2.165063509461097
 31
0.0
210
0.0
220
0.0
230
0.9999999999999998
 40
0.5773502691896258
 41
0.0
 42
6.283185307179586
  0
LINE
  5
B165
330
B0D0
100
AcDbEntity
  8
0
100
AcDbLine
 10
-30.41402359425476
 20
-14.29355838557176
 30
0.0
 11
-58.69829484171666
 21
-57.56787717474122
 31
0.0
  0
LINE
  5
B166
330
B0D0
100
AcDbEntity
  8
0
100
AcDbLine
 10
-31.82823715662785
 20
-13.47706180464405
 30
0.0
 11
-30.41402359425476
 21
-14.29355838557176
 31
0.0
  0
LINE
  5
B167
330
B0D0
100
AcDbEntity
  8
0
100
AcDbLine
 10
-60.11250840408976
 20
-56.7513805938135
 30
0.0
 11
-31.82823715662785
 21
-13.47706180464405
 31
0.0
  0
LINE
  5
B168
330
B0D0
100
AcDbEntity
  8
0
100
AcDbLine
 10
-58.69829484171666
 20
-57.56787717474122
 30
0.0
 11
-60.11250840408976
 21
-56.7513805938135
 31
0.0
  0
LINE
  5
B169
330
B0D0
100
AcDbEntity
  8
0
100
AcDbLine
 10
-30.41402359425474
 20
89.40150739224947
 30
0.0
 11
-30.41402359425476
 21
-14.29355838557176
 31
0.0
  0
LINE
  5
B16A
330
B0D0
100
AcDbEntity
  8
0
100
AcDbLine
 10
-31.82823715662783
 20
90.2180039731772
 30
0.0
 11
-30.41402359425474
 21
89.40150739224947
 31
0.0
  0
LINE
  5
B16B
330
B0D0
100
AcDbEntity
  8
0
100
AcDbLine
 10
-31.82823715662785
 20
-13.47706180464405
 30
0.0
 11
-31.82823715662783
 21
90.2180039731772
 31
0.0
  0
ENDBLK
  5
B0D2
330
B0D0
100
AcDbEntity
  8
0
100
AcDbBlockEnd
  0
ENDSEC
  0
SECTION
  2
ENTITIES
  0
INSERT
  5
B16C
330
1F
100
AcDbEntity
  8
0
100
AcDbBlockReference
  2
SAE440_80_2-Front
 10
0.0
 20
0.0
 30
0.0
  0
INSERT
  5
B16D
330
1F
100
AcDbEntity
  8
0
100
AcDbBlockReference
  2
SAE440_80_2-Left
 10
136.1
 20
0.0
 30
0.0
  0
INSERT
  5
B16E
330
1F
100
AcDbEntity
  8
0
100
AcDbBlockReference
  2
SAE440_80_2-Right
 10
-136.1
 20
0.0
 30
0.0
  0
INSERT
  5
B16F
330
1F
100
AcDbEntity
  8
0
100
AcDbBlockReference
  2
SAE440_80_2-Top
 10
0.0
 20
-56.6
 30
0.0
  0
INSERT
  5
B170
330
1F
100
AcDbEntity
  8
0
100
AcDbBlockReference
  2
SAE440_80_2-Bottom
 10
0.0
 20
234.6
 30
0.0
  0
INSERT
  5
B171
330
1F
100
AcDbEntity
  8
0
100
AcDbBlockReference
  2
SAE440_80_2-ISO
 10
196.2125084040899
 20
-181.7232328078375
 30
0.0
  0
MTEXT
  5
B172
330
1F
100
AcDbEntity
  8
0
100
AcDbMText
 10
0.0
 20
-197.2
 30
0.0
 40
17.0125
 41
0.0
 71
     5
 72
     5
  1
SAE440/80/2
 73
     1
 44
1.0
1001
ACAD
1000
MTEXTBEGIN
1070
    73
1070
     1
1070
    44
1040
1.0
1070
    74
1070
     0
1000
MTEXTEND
  0
ENDSEC
  0
SECTION
  2
OBJECTS
  0
DICTIONARY
  5
C
330
0
100
AcDbDictionary
281
     1
  3
ACAD_CIP_PREVIOUS_PRODUCT_INFO
350
216
  3
ACAD_COLOR
350
6B
  3
ACAD_DETAILVIEWSTYLE
350
21B
  3
ACAD_GROUP
350
D
  3
ACAD_LAYOUT
350
1A
  3
ACAD_MATERIAL
350
6A
  3
ACAD_MLEADERSTYLE
350
12D
  3
ACAD_MLINESTYLE
350
17
  3
ACAD_PLOTSETTINGS
350
19
  3
ACAD_PLOTSTYLENAME
350
E
  3
ACAD_SCALELIST
350
10C
  3
ACAD_SECTIONVIEWSTYLE
350
219
  3
ACAD_TABLESTYLE
350
7E
  3
ACAD_VISUALSTYLE
350
EF
  3
ACDB_RECOMPOSE_DATA
350
B273
  3
AcDbVariableDictionary
350
5E
  3
DWGPROPS
350
B274
  0
DICTIONARY
  5
B1C3
330
8
100
AcDbDictionary
280
     1
281
     1
  0
DICTIONARY
  5
1FF
330
2
100
AcDbDictionary
280
     1
281
     1
  3
ACAD_LAYERSTATES
360
200
  0
DICTIONARY
  5
13C
330
10
100
AcDbDictionary
280
     1
281
     1
  0
DICTIONARY
  5
1CE
330
1F
100
AcDbDictionary
280
     1
281
     1
  3
ACAD_LAYOUTSELFREF
360
B1CB
  0
DICTIONARY
  5
B176
330
D2
100
AcDbDictionary
280
     1
281
     1
  3
ACAD_LAYOUTSELFREF
360
B1D4
  0
DICTIONARY
  5
B178
330
D6
100
AcDbDictionary
280
     1
281
     1
  3
ACAD_LAYOUTSELFREF
360
B1D7
  0
XRECORD
  5
216
102
{ACAD_REACTORS
330
C
102
}
330
C
100
AcDbXrecord
280
     1
300
ACD
300
2021
300
87393ACD_2021_0F
  0
DICTIONARY
  5
6B
102
{ACAD_REACTORS
330
C
102
}
330
C
100
AcDbDictionary
281
     1
  0
DICTIONARY
  5
21B
102
{ACAD_REACTORS
330
C
102
}
330
C
100
AcDbDictionary
281
     1
  3
Metric50
350
21C
  0
DICTIONARY
  5
D
102
{ACAD_REACTORS
330
C
102
}
330
C
100
AcDbDictionary
281
     1
  0
DICTIONARY
  5
1A
102
{ACAD_REACTORS
330
C
102
}
330
C
100
AcDbDictionary
281
     1
  3
Layout1
350
D3
  3
Layout2
350
D7
  3
Model
350
22
  0
DICTIONARY
  5
6A
102
{ACAD_REACTORS
330
C
102
}
330
C
100
AcDbDictionary
281
     1
  3
ByBlock
350
ED
  3
ByLayer
350
EC
  3
Global
350
EE
  0
DICTIONARY
  5
12D
102
{ACAD_REACTORS
330
C
102
}
330
C
100
AcDbDictionary
281
     1
  3
Standard
350
12E
  0
DICTIONARY
  5
17
102
{ACAD_REACTORS
330
C
102
}
330
C
100
AcDbDictionary
281
     1
  3
Standard
350
18
  0
DICTIONARY
  5
19
102
{ACAD_REACTORS
330
C
102
}
330
C
100
AcDbDictionary
281
     1
  0
ACDBDICTIONARYWDFLT
  5
E
102
{ACAD_REACTORS
330
C
102
}
330
C
100
AcDbDictionary
281
     1
  3
Normal
350
F
100
AcDbDictionaryWithDefault
340
F
  0
DICTIONARY
  5
10C
102
{ACAD_REACTORS
330
C
102
}
330
C
100
AcDbDictionary
281
     1
  3
A0
350
10D
  3
A1
350
1BE
  3
A2
350
1BF
  3
A3
350
1C0
  3
A4
350
1C1
  3
A5
350
1C2
  3
A6
350
1C3
  3
A7
350
1C4
  3
A8
350
1C5
  3
A9
350
1C6
  3
B0
350
1C7
  3
B1
350
1C8
  3
B2
350
1C9
  3
B3
350
1CA
  3
B4
350
1CB
  3
B5
350
1CC
  3
B6
350
1CD
  0
DICTIONARY
  5
219
102
{ACAD_REACTORS
330
C
102
}
330
C
100
AcDbDictionary
281
     1
  3
Metric50
350
21A
  0
DICTIONARY
  5
7E
102
{ACAD_REACTORS
330
C
102
}
330
C
100
AcDbDictionary
281
     1
  3
Standard
350
7F
  0
DICTIONARY
  5
EF
102
{ACAD_REACTORS
330
C
102
}
330
C
100
AcDbDictionary
281
     1
  3
2dWireframe
350
F5
  3
Basic
350
F4
  3
Brighten
350
FB
  3
ColorChange
350
FF
  3
Conceptual
350
F8
  3
Dim
350
FA
  3
EdgeColorOff
350
1E6
  3
Facepattern
350
FE
  3
Flat
350
F0
  3
FlatWithEdges
350
F1
  3
Gouraud
350
F2
  3
GouraudWithEdges
350
F3
  3
Hidden
350
F7
  3
JitterOff
350
1E4
  3
Linepattern
350
FD
  3
OverhangOff
350
1E5
  3
Realistic
350
F9
  3
Shaded
350
1F3
  3
Shaded with edges
350
1F2
  3
Shades of Gray
350
1EF
  3
Sketchy
350
1F0
  3
Thicken
350
FC
  3
Wireframe
350
F6
  3
X-Ray
350
1F1
  0
XRECORD
  5
B273
102
{ACAD_REACTORS
330
C
102
}
330
C
100
AcDbXrecord
280
     1
 90
        1
330
7F
  0
DICTIONARY
  5
5E
102
{ACAD_REACTORS
330
C
102
}
330
C
100
AcDbDictionary
281
     1
  3
CANNOSCALE
350
146
  3
CENTEREXE
350
259
  3
CENTERLTYPEFILE
350
25A
  3
CMLEADERSTYLE
350
145
  3
CTABLESTYLE
350
84
  3
CVIEWDETAILSTYLE
350
227
  3
CVIEWSECTIONSTYLE
350
228
  3
DIMASSOC
350
5F
  3
HIDETEXT
350
63
  3
INDEXCTL
350
B220
  3
LAYEREVAL
350
1AE
  3
LAYERNOTIFY
350
1AF
  3
LIGHTINGUNITS
350
B21E
  3
MSLTSCALE
350
B21D
  3
PSOLHEIGHT
350
B270
  3
PSOLWIDTH
350
B26F
  3
SORTENTS
350
B21F
  3
XCLIPFRAME
350
B271
  0
XRECORD
  5
B274
102
{ACAD_REACTORS
330
C
102
}
330
C
100
AcDbXrecord
280
     1
  1
DWGPROPS COOKIE
  2

  3

  4

  6

  7

  8
truole
  9

300
=
301
=
302
=
303
=
304
=
305
=
306
=
307
=
308
=
309
=
 40
0.0079282407407407
 41
2460398.356956019
 42
2460398.375787037
  1

 90
        0
  0
DICTIONARY
  5
200
102
{ACAD_REACTORS
330
1FF
102
}
330
1FF
100
AcDbDictionary
281
     1
  0
XRECORD
  5
B1CB
102
{ACAD_REACTORS
330
1CE
102
}
330
1CE
100
AcDbXrecord
280
     1
340
1F
  0
XRECORD
  5
B1D4
102
{ACAD_REACTORS
330
B176
102
}
330
B176
100
AcDbXrecord
280
     1
340
D2
  0
XRECORD
  5
B1D7
102
{ACAD_REACTORS
330
B178
102
}
330
B178
100
AcDbXrecord
280
     1
340
D6
  0
ACDBDETAILVIEWSTYLE
  5
21C
102
{ACAD_XDICTIONARY
360
B2B3
102
}
102
{ACAD_REACTORS
330
21B
102
}
330
21B
100
AcDbModelDocViewStyle
 70
     0
  3
Metric50
290
     0
100
AcDbDetailViewStyle
 70
     0
 71
     0
 90
        3
 71
     1
340
11
 40
5.0
340
0
 40
5.0
300

 40
0.0
280
     1
 71
     2
340
16
 90
       25
 71
     3
340
11
 40
5.0
 90
        0
 40
15.0
 90
        1
300
%<\AcVar ViewDetailId>% (%<\AcVar ViewScale \f "%sn">%)
 71
     4
340
16
 90
       25
340
16
 90
       25
280
     0
  0
LAYOUT
  5
D3
102
{ACAD_XDICTIONARY
360
B278
102
}
102
{ACAD_REACTORS
330
1A
102
}
330
1A
100
AcDbPlotSettings
  1

  2
C:\Documents and Settings\basas\Application Data\Autodesk\AutoCAD 2005\R16.1\enu\plotters\Default Windows System Printer.pc3
  4

  6

 40
0.0
 41
0.0
 42
0.0
 43
0.0
 44
0.0
 45
0.0
 46
0.0
 47
0.0
 48
0.0
 49
0.0
140
0.0
141
0.0
142
1.0
143
1.0
 70
   688
 72
     0
 73
     0
 74
     5
  7

 75
    16
147
1.0
148
0.0
149
0.0
100
AcDbLayout
  1
Layout1
 70
     1
 71
     1
 10
0.0
 20
0.0
 11
12.0
 21
9.0
 12
0.0
 22
0.0
 32
0.0
 14
0.0
 24
0.0
 34
0.0
 15
0.0
 25
0.0
 35
0.0
146
0.0
 13
0.0
 23
0.0
 33
0.0
 16
1.0
 26
0.0
 36
0.0
 17
0.0
 27
1.0
 37
0.0
 76
     0
330
D2
  0
LAYOUT
  5
D7
102
{ACAD_XDICTIONARY
360
B27A
102
}
102
{ACAD_REACTORS
330
1A
102
}
330
1A
100
AcDbPlotSettings
  1

  2
C:\Documents and Settings\basas\Application Data\Autodesk\AutoCAD 2005\R16.1\enu\plotters\Default Windows System Printer.pc3
  4

  6

 40
0.0
 41
0.0
 42
0.0
 43
0.0
 44
0.0
 45
0.0
 46
0.0
 47
0.0
 48
0.0
 49
0.0
140
0.0
141
0.0
142
1.0
143
1.0
 70
   688
 72
     0
 73
     0
 74
     5
  7

 75
    16
147
1.0
148
0.0
149
0.0
100
AcDbLayout
  1
Layout2
 70
     1
 71
     2
 10
0.0
 20
0.0
 11
12.0
 21
9.0
 12
0.0
 22
0.0
 32
0.0
 14
0.0
 24
0.0
 34
0.0
 15
0.0
 25
0.0
 35
0.0
146
0.0
 13
0.0
 23
0.0
 33
0.0
 16
1.0
 26
0.0
 36
0.0
 17
0.0
 27
1.0
 37
0.0
 76
     0
330
D6
  0
LAYOUT
  5
22
102
{ACAD_XDICTIONARY
360
B275
102
}
102
{ACAD_REACTORS
330
1A
102
}
330
1A
100
AcDbPlotSettings
  1

  2
none_device
  4
ISO_A4_(210.00_x_297.00_MM)
  6

 40
7.5
 41
20.0
 42
7.5
 43
20.0
 44
210.0
 45
297.0
 46
11.54999923706054
 47
-13.65000009536743
 48
0.0
 49
0.0
140
0.0
141
0.0
142
1.0
143
8.704084754739808
 70
 11952
 72
     1
 73
     0
 74
     0
  7

 75
     0
147
0.1148885871608098
148
0.0
149
0.0
100
AcDbLayout
  1
Model
 70
     1
 71
     0
 10
0.0
 20
0.0
 11
12.0
 21
9.0
 12
0.0
 22
0.0
 32
0.0
 14
0.0
 24
0.0
 34
0.0
 15
0.0
 25
0.0
 35
0.0
146
0.0
 13
0.0
 23
0.0
 33
0.0
 16
1.0
 26
0.0
 36
0.0
 17
0.0
 27
1.0
 37
0.0
 76
     0
330
1F
331
EA
1001
ACAD_PSEXT
1000
None
1000
None
1000
Not applicable
1000
The layout will not be plotted unless a new plotter configuration name is selected.
1070
     0
  0
MATERIAL
  5
ED
102
{ACAD_XDICTIONARY
360
1F9
102
}
102
{ACAD_REACTORS
330
6A
102
}
330
6A
100
AcDbMaterial
  1
ByBlock
  0
MATERIAL
  5
EC
102
{ACAD_XDICTIONARY
360
1F7
102
}
102
{ACAD_REACTORS
330
6A
102
}
330
6A
100
AcDbMaterial
  1
ByLayer
  0
MATERIAL
  5
EE
102
{ACAD_XDICTIONARY
360
173
102
}
102
{ACAD_REACTORS
330
6A
102
}
330
6A
100
AcDbMaterial
  1
Global
 43
0.0007999999797903
 43
0.0
 43
0.0
 43
0.0
 43
0.0
 43
0.0007999999797903
 43
0.0
 43
0.0
 43
0.0
 43
0.0
 43
1.0
 43
0.0
 43
0.0
 43
0.0
 43
0.0
 43
1.0
 49
0.0007999999797903
 49
0.0
 49
0.0
 49
0.0
 49
0.0
 49
0.0007999999797903
 49
0.0
 49
0.0
 49
0.0
 49
0.0
 49
1.0
 49
0.0
 49
0.0
 49
0.0
 49
0.0
 49
1.0
142
0.0007999999797903
142
0.0
142
0.0
142
0.0
142
0.0
142
0.0007999999797903
142
0.0
142
0.0
142
0.0
142
0.0
142
1.0
142
0.0
142
0.0
142
0.0
142
0.0
142
1.0
144
0.0007999999797903
144
0.0
144
0.0
144
0.0
144
0.0
144
0.0007999999797903
144
0.0
144
0.0
144
0.0
144
0.0
144
1.0
144
0.0
144
0.0
144
0.0
144
0.0
144
1.0
1001
ACAD
1070
    -1
1070
     3
1070
     0
1000

1071
        0
1070
     0
  0
MLEADERSTYLE
  5
12E
102
{ACAD_XDICTIONARY
360
B29F
102
}
102
{ACAD_REACTORS
330
12D
102
}
330
12D
100
AcDbMLeaderStyle
170
     2
171
     1
172
     0
 90
        2
 40
0.0
 41
0.0
173
     1
 91
-1056964608
340
14
 92
       -2
290
     1
 42
2.0
291
     1
 43
8.0
  3
Standard
 44
4.0
300

342
11
174
     1
178
     1
175
     1
176
     0
 93
-1056964608
 45
4.0
292
     0
297
     0
 46
4.0
 94
-1056964608
 47
1.0
 49
1.0
140
1.0
293
     1
141
0.0
294
     1
177
     0
142
1.0
295
     0
296
     0
143
3.75
1001
ACAD_MLEADERVER
1070
     2
  0
MLINESTYLE
  5
18
102
{ACAD_REACTORS
330
17
102
}
330
17
100
AcDbMlineStyle
  2
STANDARD
 70
     0
  3

 62
   256
 51
90.0
 52
90.0
 71
     2
 49
0.5
 62
   256
  6
BYLAYER
 49
-0.5
 62
   256
  6
BYLAYER
  0
ACDBPLACEHOLDER
  5
F
102
{ACAD_REACTORS
330
E
102
}
330
E
  0
SCALE
  5
10D
102
{ACAD_REACTORS
330
10C
102
}
330
10C
100
AcDbScale
 70
     0
300
1:1
140
1.0
141
1.0
290
     1
  0
SCALE
  5
1BE
102
{ACAD_REACTORS
330
10C
102
}
330
10C
100
AcDbScale
 70
     0
300
1:2
140
1.0
141
2.0
290
     0
  0
SCALE
  5
1BF
102
{ACAD_REACTORS
330
10C
102
}
330
10C
100
AcDbScale
 70
     0
300
1:4
140
1.0
141
4.0
290
     0
  0
SCALE
  5
1C0
102
{ACAD_REACTORS
330
10C
102
}
330
10C
100
AcDbScale
 70
     0
300
1:5
140
1.0
141
5.0
290
     0
  0
SCALE
  5
1C1
102
{ACAD_REACTORS
330
10C
102
}
330
10C
100
AcDbScale
 70
     0
300
1:8
140
1.0
141
8.0
290
     0
  0
SCALE
  5
1C2
102
{ACAD_REACTORS
330
10C
102
}
330
10C
100
AcDbScale
 70
     0
300
1:10
140
1.0
141
10.0
290
     0
  0
SCALE
  5
1C3
102
{ACAD_REACTORS
330
10C
102
}
330
10C
100
AcDbScale
 70
     0
300
1:16
140
1.0
141
16.0
290
     0
  0
SCALE
  5
1C4
102
{ACAD_REACTORS
330
10C
102
}
330
10C
100
AcDbScale
 70
     0
300
1:20
140
1.0
141
20.0
290
     0
  0
SCALE
  5
1C5
102
{ACAD_REACTORS
330
10C
102
}
330
10C
100
AcDbScale
 70
     0
300
1:30
140
1.0
141
30.0
290
     0
  0
SCALE
  5
1C6
102
{ACAD_REACTORS
330
10C
102
}
330
10C
100
AcDbScale
 70
     0
300
1:40
140
1.0
141
40.0
290
     0
  0
SCALE
  5
1C7
102
{ACAD_REACTORS
330
10C
102
}
330
10C
100
AcDbScale
 70
     0
300
1:50
140
1.0
141
50.0
290
     0
  0
SCALE
  5
1C8
102
{ACAD_REACTORS
330
10C
102
}
330
10C
100
AcDbScale
 70
     0
300
1:100
140
1.0
141
100.0
290
     0
  0
SCALE
  5
1C9
102
{ACAD_REACTORS
330
10C
102
}
330
10C
100
AcDbScale
 70
     0
300
2:1
140
2.0
141
1.0
290
     0
  0
SCALE
  5
1CA
102
{ACAD_REACTORS
330
10C
102
}
330
10C
100
AcDbScale
 70
     0
300
4:1
140
4.0
141
1.0
290
     0
  0
SCALE
  5
1CB
102
{ACAD_REACTORS
330
10C
102
}
330
10C
100
AcDbScale
 70
     0
300
8:1
140
8.0
141
1.0
290
     0
  0
SCALE
  5
1CC
102
{ACAD_REACTORS
330
10C
102
}
330
10C
100
AcDbScale
 70
     0
300
10:1
140
10.0
141
1.0
290
     0
  0
SCALE
  5
1CD
102
{ACAD_REACTORS
330
10C
102
}
330
10C
100
AcDbScale
 70
     0
300
100:1
140
100.0
141
1.0
290
     0
  0
ACDBSECTIONVIEWSTYLE
  5
21A
102
{ACAD_XDICTIONARY
360
B2B1
102
}
102
{ACAD_REACTORS
330
219
102
}
330
219
100
AcDbModelDocViewStyle
 70
     0
  3
Metric50
290
     0
100
AcDbSectionViewStyle
 70
     0
 71
     0
 90
      102
 71
     1
340
11
 40
5.0
340
0
340
0
 40
5.0
300
I, O, Q, S, X, Z
 40
10.0
 90
        0
 40
2.5
 90
        0
 71
     2
340
16
 90
       25
340
16
 90
       50
 40
5.0
 40
2.5
 40
5.0
 71
     3
340
11
 40
5.0
 90
        0
 40
15.0
 90
        1
300
%<\AcVar ViewSectionStartId>%-%<\AcVar ViewSectionEndId>% (%<\AcVar ViewScale \f "%sn">%)
 71
     4
300
ANSI31
 40
1.0
 90
        0
290
     0
290
     0
 90
        6
 40
0.0
 40
1.570796326794896
 40
0.2617993877991494
 40
1.308996938995747
 40
-0.2617993877991494
 40
1.832595714594046
  0
TABLESTYLE
  5
7F
102
{ACAD_XDICTIONARY
360
162
102
}
102
{ACAD_REACTORS
330
7E
102
}
330
7E
100
AcDbTableStyle
  3
Standard
 70
     0
 71
     0
 40
1.5
 41
1.5
280
     0
281
     0
  7
Standard
140
4.5
170
     2
 62
     0
 63
     7
283
     0
274
    -2
284
     1
 64
     0
275
    -2
285
     1
 65
     0
276
    -2
286
     1
 66
     0
277
    -2
287
     1
 67
     0
278
    -2
288
     1
 68
     0
279
    -2
289
     1
 69
     0
  7
Standard
140
6.0
170
     5
 62
     0
 63
     7
283
     0
274
    -2
284
     1
 64
     0
275
    -2
285
     1
 65
     0
276
    -2
286
     1
 66
     0
277
    -2
287
     1
 67
     0
278
    -2
288
     1
 68
     0
279
    -2
289
     1
 69
     0
  7
Standard
140
4.5
170
     5
 62
     0
 63
     7
283
     0
274
    -2
284
     1
 64
     0
275
    -2
285
     1
 65
     0
276
    -2
286
     1
 66
     0
277
    -2
287
     1
 67
     0
278
    -2
288
     1
 68
     0
279
    -2
289
     1
 69
     0
  0
VISUALSTYLE
  5
F5
102
{ACAD_XDICTIONARY
360
B289
102
}
102
{ACAD_REACTORS
330
EF
102
}
330
EF
100
AcDbVisualStyle
  2
2dWireframe
 70
     4
 71
     0
 72
     2
 73
     1
 90
        0
 40
-0.6
 41
-30.0
 62
     5
 63
     7
 74
     1
 91
        4
 64
     7
 65
   257
 75
     1
175
     1
 42
1.0
 92
        0
 66
   257
 43
1.0
 76
     1
 77
     6
 78
     2
 67
     7
 79
     5
170
     0
171
     0
290
     0
174
     0
 93
        1
 44
0.0
173
     0
291
     0
 45
0.0
1001
ACAD
1000
AcDbSavedByObjectVersion
1070
     0
  0
VISUALSTYLE
  5
F4
102
{ACAD_XDICTIONARY
360
B287
102
}
102
{ACAD_REACTORS
330
EF
102
}
330
EF
100
AcDbVisualStyle
  2
Basic
 70
     7
 71
     1
 72
     0
 73
     1
 90
        0
 40
-0.6
 41
-30.0
 62
     5
 63
     7
 74
     0
 91
        4
 64
     7
 65
   257
 75
     1
175
     1
 42
1.0
 92
        8
 66
     7
 43
1.0
 76
     1
 77
     6
 78
     2
 67
     7
 79
     5
170
     0
171
     0
290
     0
174
     0
 93
        1
 44
0.0
173
     0
291
     1
 45
0.0
1001
ACAD
1000
AcDbSavedByObjectVersion
1070
     0
  0
VISUALSTYLE
  5
FB
102
{ACAD_XDICTIONARY
360
B295
102
}
102
{ACAD_REACTORS
330
EF
102
}
330
EF
100
AcDbVisualStyle
  2
Brighten
 70
    12
 71
     2
 72
     2
 73
     1
 90
        0
 40
-0.6
 41
-30.0
 62
     5
 63
     7
 74
     1
 91
        4
 64
     7
 65
   257
 75
     1
175
     1
 42
1.0
 92
        8
 66
     7
 43
1.0
 76
     1
 77
     6
 78
     2
 67
     7
 79
     5
170
     0
171
     0
290
     0
174
     0
 93
        1
 44
50.0
173
     0
291
     1
 45
0.0
1001
ACAD
1000
AcDbSavedByObjectVersion
1070
     0
  0
VISUALSTYLE
  5
FF
102
{ACAD_XDICTIONARY
360
B29D
102
}
102
{ACAD_REACTORS
330
EF
102
}
330
EF
100
AcDbVisualStyle
  2
ColorChange
 70
    16
 71
     2
 72
     2
 73
     3
 90
        0
 40
-0.6
 41
-30.0
 62
     5
 63
     8
 74
     1
 91
        4
 64
     7
 65
   257
 75
     1
175
     1
 42
1.0
 92
        8
 66
     8
 43
1.0
 76
     1
 77
     6
 78
     2
 67
     7
 79
     5
170
     0
171
     0
290
     0
174
     0
 93
        1
 44
0.0
173
     0
291
     1
 45
0.0
1001
ACAD
1000
AcDbSavedByObjectVersion
1070
     0
  0
VISUALSTYLE
  5
F8
102
{ACAD_XDICTIONARY
360
B28F
102
}
102
{ACAD_REACTORS
330
EF
102
}
330
EF
100
AcDbVisualStyle
  2
Conceptual
 70
     9
 71
     3
 72
     2
 73
     1
 90
        0
 40
-0.6
 41
-30.0
 62
     5
 63
     7
 74
     2
 91
        2
 64
     7
 65
   257
 75
     1
175
     1
 42
40.0
 92
        8
 66
     7
 43
1.0
 76
     1
 77
     6
 78
     2
 67
     7
 79
     3
170
     0
171
     0
290
     0
174
     0
 93
        1
 44
0.0
173
     0
291
     0
 45
0.0
1001
ACAD
1000
AcDbSavedByObjectVersion
1070
     0
  0
VISUALSTYLE
  5
FA
102
{ACAD_XDICTIONARY
360
B293
102
}
102
{ACAD_REACTORS
330
EF
102
}
330
EF
100
AcDbVisualStyle
  2
Dim
 70
    11
 71
     2
 72
     2
 73
     1
 90
        0
 40
-0.6
 41
-30.0
 62
     5
 63
     7
 74
     1
 91
        4
 64
     7
 65
   257
 75
     1
175
     1
 42
1.0
 92
        8
 66
     7
 43
1.0
 76
     1
 77
     6
 78
     2
 67
     7
 79
     5
170
     0
171
     0
290
     0
174
     0
 93
        1
 44
-50.0
173
     0
291
     1
 45
0.0
1001
ACAD
1000
AcDbSavedByObjectVersion
1070
     0
  0
VISUALSTYLE
  5
1E6
102
{ACAD_XDICTIONARY
360
B2A5
102
}
102
{ACAD_REACTORS
330
EF
102
}
330
EF
100
AcDbVisualStyle
  2
EdgeColorOff
 70
    22
 71
     2
 72
     2
 73
     0
 90
        0
 40
-0.6
 41
-30.0
 62
     5
 63
     7
 74
     1
 91
        4
 64
     7
 65
   257
 75
     1
175
     1
 42
1.0
 92
        8
 66
     7
 43
1.0
 76
     1
 77
     6
 78
     2
 67
     7
 79
     5
170
     0
171
     0
290
     0
174
     0
 93
        1
 44
0.0
173
     0
291
     1
 45
0.0
1001
ACAD
1000
AcDbSavedByObjectVersion
1070
     0
  0
VISUALSTYLE
  5
FE
102
{ACAD_XDICTIONARY
360
B29B
102
}
102
{ACAD_REACTORS
330
EF
102
}
330
EF
100
AcDbVisualStyle
  2
Facepattern
 70
    15
 71
     2
 72
     2
 73
     1
 90
        0
 40
-0.6
 41
-30.0
 62
     5
 63
     7
 74
     1
 91
        4
 64
     7
 65
   257
 75
     1
175
     1
 42
1.0
 92
        8
 66
     7
 43
1.0
 76
     1
 77
     6
 78
     2
 67
     7
 79
     5
170
     0
171
     0
290
     0
174
     0
 93
        1
 44
0.0
173
     0
291
     1
 45
0.0
1001
ACAD
1000
AcDbSavedByObjectVersion
1070
     0
  0
VISUALSTYLE
  5
F0
102
{ACAD_XDICTIONARY
360
B27F
102
}
102
{ACAD_REACTORS
330
EF
102
}
330
EF
100
AcDbVisualStyle
  2
Flat
 70
     0
 71
     2
 72
     1
 73
     1
 90
        2
 40
-0.6
 41
30.0
 62
     5
 63
     7
 74
     0
 91
        0
 64
     7
 65
   257
 75
     1
175
     1
 42
1.0
 92
        8
 66
     7
 43
1.0
 76
     1
 77
     6
 78
     2
 67
     7
 79
     5
170
     0
171
     0
290
     0
174
     0
 93
       13
 44
0.0
173
     0
291
     1
 45
0.0
1001
ACAD
1000
AcDbSavedByObjectVersion
1070
     0
  0
VISUALSTYLE
  5
F1
102
{ACAD_XDICTIONARY
360
B281
102
}
102
{ACAD_REACTORS
330
EF
102
}
330
EF
100
AcDbVisualStyle
  2
FlatWithEdges
 70
     1
 71
     2
 72
     1
 73
     1
 90
        2
 40
-0.6
 41
30.0
 62
     5
 63
     7
 74
     1
 91
        0
 64
     7
 65
   257
 75
     1
175
     1
 42
1.0
 92
        0
 66
   257
 43
1.0
 76
     1
 77
     6
 78
     2
 67
     7
 79
     5
170
     0
171
     0
290
     0
174
     0
 93
       13
 44
0.0
173
     0
291
     1
 45
0.0
1001
ACAD
1000
AcDbSavedByObjectVersion
1070
     0
  0
VISUALSTYLE
  5
F2
102
{ACAD_XDICTIONARY
360
B283
102
}
102
{ACAD_REACTORS
330
EF
102
}
330
EF
100
AcDbVisualStyle
  2
Gouraud
 70
     2
 71
     2
 72
     2
 73
     1
 90
        2
 40
-0.6
 41
30.0
 62
     5
 63
     7
 74
     0
 91
        0
 64
     7
 65
   257
 75
     1
175
     1
 42
1.0
 92
        0
 66
     7
 43
1.0
 76
     1
 77
     6
 78
     2
 67
     7
 79
     5
170
     0
171
     0
290
     0
174
     0
 93
       13
 44
0.0
173
     0
291
     1
 45
0.0
1001
ACAD
1000
AcDbSavedByObjectVersion
1070
     0
  0
VISUALSTYLE
  5
F3
102
{ACAD_XDICTIONARY
360
B285
102
}
102
{ACAD_REACTORS
330
EF
102
}
330
EF
100
AcDbVisualStyle
  2
GouraudWithEdges
 70
     3
 71
     2
 72
     2
 73
     1
 90
        2
 40
-0.6
 41
30.0
 62
     5
 63
     7
 74
     1
 91
        0
 64
     7
 65
   257
 75
     1
175
     1
 42
1.0
 92
        0
 66
   257
 43
1.0
 76
     1
 77
     6
 78
     2
 67
     7
 79
     5
170
     0
171
     0
290
     0
174
     0
 93
       13
 44
0.0
173
     0
291
     1
 45
0.0
1001
ACAD
1000
AcDbSavedByObjectVersion
1070
     0
  0
VISUALSTYLE
  5
F7
102
{ACAD_XDICTIONARY
360
B28D
102
}
102
{ACAD_REACTORS
330
EF
102
}
330
EF
100
AcDbVisualStyle
  2
Hidden
 70
     6
 71
     1
 72
     2
 73
     2
 90
        0
 40
-0.6
 41
-30.0
 62
     5
 63
     7
 74
     2
 91
        2
 64
     7
 65
   257
 75
     2
175
     1
 42
40.0
 92
        0
 66
   257
 43
1.0
 76
     1
 77
     6
 78
     2
 67
     7
 79
     3
170
     0
171
     0
290
     0
174
     0
 93
        1
 44
0.0
173
     0
291
     0
 45
0.0
1001
ACAD
1000
AcDbSavedByObjectVersion
1070
     0
  0
VISUALSTYLE
  5
1E4
102
{ACAD_XDICTIONARY
360
B2A1
102
}
102
{ACAD_REACTORS
330
EF
102
}
330
EF
100
AcDbVisualStyle
  2
JitterOff
 70
    20
 71
     2
 72
     2
 73
     0
 90
        0
 40
-0.6
 41
-30.0
 62
     5
 63
     7
 74
     1
 91
        4
 64
     7
 65
   257
 75
     1
175
     1
 42
1.0
 92
       10
 66
     7
 43
1.0
 76
     1
 77
     6
 78
     2
 67
     7
 79
     5
170
     0
171
     0
290
     0
174
     0
 93
        1
 44
0.0
173
     0
291
     1
 45
0.0
1001
ACAD
1000
AcDbSavedByObjectVersion
1070
     0
  0
VISUALSTYLE
  5
FD
102
{ACAD_XDICTIONARY
360
B299
102
}
102
{ACAD_REACTORS
330
EF
102
}
330
EF
100
AcDbVisualStyle
  2
Linepattern
 70
    14
 71
     2
 72
     2
 73
     1
 90
        0
 40
-0.6
 41
-30.0
 62
     5
 63
     7
 74
     1
 91
        4
 64
     7
 65
   257
 75
     7
175
     7
 42
1.0
 92
        8
 66
     7
 43
1.0
 76
     1
 77
     6
 78
     2
 67
     7
 79
     5
170
     0
171
     0
290
     0
174
     0
 93
        1
 44
0.0
173
     0
291
     1
 45
0.0
1001
ACAD
1000
AcDbSavedByObjectVersion
1070
     0
  0
VISUALSTYLE
  5
1E5
102
{ACAD_XDICTIONARY
360
B2A3
102
}
102
{ACAD_REACTORS
330
EF
102
}
330
EF
100
AcDbVisualStyle
  2
OverhangOff
 70
    21
 71
     2
 72
     2
 73
     0
 90
        0
 40
-0.6
 41
-30.0
 62
     5
 63
     7
 74
     1
 91
        4
 64
     7
 65
   257
 75
     1
175
     1
 42
1.0
 92
        9
 66
     7
 43
1.0
 76
     1
 77
     6
 78
     2
 67
     7
 79
     5
170
     0
171
     0
290
     0
174
     0
 93
        1
 44
0.0
173
     0
291
     1
 45
0.0
1001
ACAD
1000
AcDbSavedByObjectVersion
1070
     0
  0
VISUALSTYLE
  5
F9
102
{ACAD_XDICTIONARY
360
B291
102
}
102
{ACAD_REACTORS
330
EF
102
}
330
EF
100
AcDbVisualStyle
  2
Realistic
 70
     8
 71
     2
 72
     2
 73
     0
 90
        2
 40
-0.6
 41
30.0
 62
     5
 63
     7
 74
     0
 91
        0
 64
     7
 65
   257
 75
     1
175
     1
 42
1.0
 92
        8
 66
   257
 43
1.0
 76
     1
 77
     6
 78
     2
 67
     7
 79
     3
170
     0
171
     0
290
     0
174
     0
 93
       13
 44
0.0
173
     0
291
     0
 45
0.0
1001
ACAD
1000
AcDbSavedByObjectVersion
1070
     0
  0
VISUALSTYLE
  5
1F3
102
{ACAD_XDICTIONARY
360
B2AF
102
}
102
{ACAD_REACTORS
330
EF
102
}
330
EF
100
AcDbVisualStyle
  2
Shaded
 70
    27
 71
     2
 72
     2
 73
     1
 90
        2
 40
-0.6
 41
30.0
 62
     5
 63
     7
 74
     0
 91
        4
 64
     7
 65
   257
 75
     1
175
     1
 42
1.0
 92
        8
 66
   257
 43
1.0
 76
     1
 77
     6
 78
     2
 67
     8
 79
     3
170
     0
171
     0
290
     0
174
     0
 93
        5
 44
0.0
173
     0
291
     0
 45
0.0
1001
ACAD
1000
AcDbSavedByObjectVersion
1070
     0
  0
VISUALSTYLE
  5
1F2
102
{ACAD_XDICTIONARY
360
B2AD
102
}
102
{ACAD_REACTORS
330
EF
102
}
330
EF
100
AcDbVisualStyle
  2
Shaded with edges
 70
    26
 71
     2
 72
     2
 73
     1
 90
        2
 40
-0.6
 41
30.0
 62
     5
 63
     7
 74
     1
 91
        2
 64
     7
 65
   257
 75
     2
175
     1
 42
1.0
 92
        8
 66
   257
 43
1.0
 76
     1
 77
     6
 78
     2
 67
     7
 79
     3
170
     0
171
     0
290
     0
174
     0
 93
        5
 44
0.0
173
     0
291
     0
 45
0.0
1001
ACAD
1000
AcDbSavedByObjectVersion
1070
     0
  0
VISUALSTYLE
  5
1EF
102
{ACAD_XDICTIONARY
360
B2A7
102
}
102
{ACAD_REACTORS
330
EF
102
}
330
EF
100
AcDbVisualStyle
  2
Shades of Gray
 70
    23
 71
     2
 72
     2
 73
     3
 90
        0
 40
-0.6
 41
-30.0
 62
     5
 63
     7
 74
     2
 91
        2
 64
     7
 65
     7
 75
     1
175
     1
 42
40.0
 92
        8
 66
     7
 43
1.0
 76
     1
 77
     6
 78
     2
 67
     7
 79
     3
170
     0
171
     0
290
     0
174
     0
 93
        1
 44
0.0
173
     0
291
     0
 45
0.0
1001
ACAD
1000
AcDbSavedByObjectVersion
1070
     0
  0
VISUALSTYLE
  5
1F0
102
{ACAD_XDICTIONARY
360
B2A9
102
}
102
{ACAD_REACTORS
330
EF
102
}
330
EF
100
AcDbVisualStyle
  2
Sketchy
 70
    24
 71
     1
 72
     2
 73
     2
 90
        0
 40
-0.6
 41
-30.0
 62
     5
 63
     7
 74
     2
 91
        2
 64
     7
 65
     7
 75
     1
175
     1
 42
40.0
 92
       11
 66
     7
 43
1.0
 76
     1
 77
     6
 78
     2
 67
     7
 79
     6
170
     0
171
     0
290
     0
174
     0
 93
        1
 44
0.0
173
     0
291
     0
 45
0.0
1001
ACAD
1000
AcDbSavedByObjectVersion
1070
     0
  0
VISUALSTYLE
  5
FC
102
{ACAD_XDICTIONARY
360
B297
102
}
102
{ACAD_REACTORS
330
EF
102
}
330
EF
100
AcDbVisualStyle
  2
Thicken
 70
    13
 71
     2
 72
     2
 73
     1
 90
        0
 40
-0.6
 41
-30.0
 62
     5
 63
     7
 74
     1
 91
        4
 64
     7
 65
   257
 75
     1
175
     1
 42
1.0
 92
       12
 66
     7
 43
1.0
 76
     1
 77
     6
 78
     2
 67
     7
 79
     5
170
     0
171
     0
290
     0
174
     0
 93
        1
 44
0.0
173
     0
291
     1
 45
0.0
1001
ACAD
1000
AcDbSavedByObjectVersion
1070
     0
  0
VISUALSTYLE
  5
F6
102
{ACAD_XDICTIONARY
360
B28B
102
}
102
{ACAD_REACTORS
330
EF
102
}
330
EF
100
AcDbVisualStyle
  2
Wireframe
 70
     5
 71
     0
 72
     2
 73
     0
 90
        0
 40
-0.6
 41
-30.0
 62
     5
 63
     7
 74
     1
 91
        4
 64
     7
 65
   257
 75
     1
175
     1
 42
1.0
 92
        0
 66
   257
 43
1.0
 76
     1
 77
     6
 78
     2
 67
     7
 79
     3
170
     0
171
     0
290
     0
174
     0
 93
        1
 44
0.0
173
     0
291
     0
 45
0.0
1001
ACAD
1000
AcDbSavedByObjectVersion
1070
     0
  0
VISUALSTYLE
  5
1F1
102
{ACAD_XDICTIONARY
360
B2AB
102
}
102
{ACAD_REACTORS
330
EF
102
}
330
EF
100
AcDbVisualStyle
  2
X-Ray
 70
    25
 71
     2
 72
     2
 73
     1
 90
        1
 40
0.5
 41
-30.0
 62
     5
 63
     7
 74
     1
 91
        0
 64
     7
 65
   257
 75
     1
175
     1
 42
1.0
 92
        8
 66
     7
 43
1.0
 76
     1
 77
     6
 78
     2
 67
     7
 79
     3
170
     0
171
     0
290
     0
174
     0
 93
       13
 44
0.0
173
     0
291
     0
 45
0.0
1001
ACAD
1000
AcDbSavedByObjectVersion
1070
     0
  0
DICTIONARYVAR
  5
146
102
{ACAD_REACTORS
330
5E
102
}
330
5E
100
DictionaryVariables
280
     0
  1
1:1
  0
DICTIONARYVAR
  5
259
102
{ACAD_REACTORS
330
5E
102
}
330
5E
100
DictionaryVariables
280
     0
  1
3.500000
  0
DICTIONARYVAR
  5
25A
102
{ACAD_REACTORS
330
5E
102
}
330
5E
100
DictionaryVariables
280
     0
  1
acadiso.lin
  0
DICTIONARYVAR
  5
145
102
{ACAD_REACTORS
330
5E
102
}
330
5E
100
DictionaryVariables
280
     0
  1
STANDARD
  0
DICTIONARYVAR
  5
84
102
{ACAD_REACTORS
330
5E
102
}
330
5E
100
DictionaryVariables
280
     0
  1
STANDARD
  0
DICTIONARYVAR
  5
227
102
{ACAD_REACTORS
330
5E
102
}
330
5E
100
DictionaryVariables
280
     0
  1
Metric50
  0
DICTIONARYVAR
  5
228
102
{ACAD_REACTORS
330
5E
102
}
330
5E
100
DictionaryVariables
280
     0
  1
Metric50
  0
DICTIONARYVAR
  5
5F
102
{ACAD_REACTORS
330
5E
102
}
330
5E
100
DictionaryVariables
280
     0
  1
2
  0
DICTIONARYVAR
  5
63
102
{ACAD_REACTORS
330
5E
102
}
330
5E
100
DictionaryVariables
280
     0
  1
1
  0
DICTIONARYVAR
  5
B220
102
{ACAD_REACTORS
330
5E
102
}
330
5E
100
DictionaryVariables
280
     0
  1
0
  0
DICTIONARYVAR
  5
1AE
102
{ACAD_REACTORS
330
5E
102
}
330
5E
100
DictionaryVariables
280
     0
  1
0
  0
DICTIONARYVAR
  5
1AF
102
{ACAD_REACTORS
330
5E
102
}
330
5E
100
DictionaryVariables
280
     0
  1
0
  0
DICTIONARYVAR
  5
B21E
102
{ACAD_REACTORS
330
5E
102
}
330
5E
100
DictionaryVariables
280
     0
  1
2
  0
DICTIONARYVAR
  5
B21D
102
{ACAD_REACTORS
330
5E
102
}
330
5E
100
DictionaryVariables
280
     0
  1
1
  0
DICTIONARYVAR
  5
B270
102
{ACAD_REACTORS
330
5E
102
}
330
5E
100
DictionaryVariables
280
     0
  1
80.000000
  0
DICTIONARYVAR
  5
B26F
102
{ACAD_REACTORS
330
5E
102
}
330
5E
100
DictionaryVariables
280
     0
  1
5.000000
  0
DICTIONARYVAR
  5
B21F
102
{ACAD_REACTORS
330
5E
102
}
330
5E
100
DictionaryVariables
280
     0
  1
127
  0
DICTIONARYVAR
  5
B271
102
{ACAD_REACTORS
330
5E
102
}
330
5E
100
DictionaryVariables
280
     0
  1
2
  0
DICTIONARY
  5
B2B3
330
21C
100
AcDbDictionary
280
     1
281
     1
  3
ACAD_XREC_ROUNDTRIP
360
B2B4
  0
DICTIONARY
  5
B278
330
D3
100
AcDbDictionary
280
     1
281
     1
  3
ACAD_XREC_ROUNDTRIP
360
B279
  0
DICTIONARY
  5
B27A
330
D7
100
AcDbDictionary
280
     1
281
     1
  3
ACAD_XREC_ROUNDTRIP
360
B27B
  0
DICTIONARY
  5
B275
330
22
100
AcDbDictionary
280
     1
281
     1
  3
ACAD_XREC_ROUNDTRIP
360
B276
  0
DICTIONARY
  5
1F9
330
ED
100
AcDbDictionary
280
     1
281
     1
  3
ACAD_XREC_ROUNDTRIP
360
B27D
  3
FBXASSET
360
1FA
  0
DICTIONARY
  5
1F7
330
EC
100
AcDbDictionary
280
     1
281
     1
  3
ACAD_XREC_ROUNDTRIP
360
B27C
  3
FBXASSET
360
1F8
  0
DICTIONARY
  5
173
330
EE
100
AcDbDictionary
280
     1
281
     1
  3
ACAD_XREC_ROUNDTRIP
360
B27E
  3
BUMPTILE
360
175
  3
DIFFUSETILE
360
174
  3
FBXASSET
360
1FB
  3
OPACITYTILE
360
176
  3
REFLECTIONTILE
360
177
  0
DICTIONARY
  5
B29F
330
12E
100
AcDbDictionary
280
     1
281
     1
  3
ACAD_XREC_ROUNDTRIP
360
B2A0
  0
DICTIONARY
  5
B2B1
330
21A
100
AcDbDictionary
280
     1
281
     1
  3
ACAD_XREC_ROUNDTRIP
360
B2B2
  0
DICTIONARY
  5
162
330
7F
100
AcDbDictionary
280
     1
281
     1
  3
ACAD_ROUNDTRIP_2008_TABLESTYLE_CELLSTYLEMAP
360
B272
  3
ACAD_XREC_ROUNDTRIP
360
B277
  0
DICTIONARY
  5
B289
330
F5
100
AcDbDictionary
280
     1
281
     1
  3
ACAD_XREC_ROUNDTRIP
360
B28A
  0
DICTIONARY
  5
B287
330
F4
100
AcDbDictionary
280
     1
281
     1
  3
ACAD_XREC_ROUNDTRIP
360
B288
  0
DICTIONARY
  5
B295
330
FB
100
AcDbDictionary
280
     1
281
     1
  3
ACAD_XREC_ROUNDTRIP
360
B296
  0
DICTIONARY
  5
B29D
330
FF
100
AcDbDictionary
280
     1
281
     1
  3
ACAD_XREC_ROUNDTRIP
360
B29E
  0
DICTIONARY
  5
B28F
330
F8
100
AcDbDictionary
280
     1
281
     1
  3
ACAD_XREC_ROUNDTRIP
360
B290
  0
DICTIONARY
  5
B293
330
FA
100
AcDbDictionary
280
     1
281
     1
  3
ACAD_XREC_ROUNDTRIP
360
B294
  0
DICTIONARY
  5
B2A5
330
1E6
100
AcDbDictionary
280
     1
281
     1
  3
ACAD_XREC_ROUNDTRIP
360
B2A6
  0
DICTIONARY
  5
B29B
330
FE
100
AcDbDictionary
280
     1
281
     1
  3
ACAD_XREC_ROUNDTRIP
360
B29C
  0
DICTIONARY
  5
B27F
330
F0
100
AcDbDictionary
280
     1
281
     1
  3
ACAD_XREC_ROUNDTRIP
360
B280
  0
DICTIONARY
  5
B281
330
F1
100
AcDbDictionary
280
     1
281
     1
  3
ACAD_XREC_ROUNDTRIP
360
B282
  0
DICTIONARY
  5
B283
330
F2
100
AcDbDictionary
280
     1
281
     1
  3
ACAD_XREC_ROUNDTRIP
360
B284
  0
DICTIONARY
  5
B285
330
F3
100
AcDbDictionary
280
     1
281
     1
  3
ACAD_XREC_ROUNDTRIP
360
B286
  0
DICTIONARY
  5
B28D
330
F7
100
AcDbDictionary
280
     1
281
     1
  3
ACAD_XREC_ROUNDTRIP
360
B28E
  0
DICTIONARY
  5
B2A1
330
1E4
100
AcDbDictionary
280
     1
281
     1
  3
ACAD_XREC_ROUNDTRIP
360
B2A2
  0
DICTIONARY
  5
B299
330
FD
100
AcDbDictionary
280
     1
281
     1
  3
ACAD_XREC_ROUNDTRIP
360
B29A
  0
DICTIONARY
  5
B2A3
330
1E5
100
AcDbDictionary
280
     1
281
     1
  3
ACAD_XREC_ROUNDTRIP
360
B2A4
  0
DICTIONARY
  5
B291
330
F9
100
AcDbDictionary
280
     1
281
     1
  3
ACAD_XREC_ROUNDTRIP
360
B292
  0
DICTIONARY
  5
B2AF
330
1F3
100
AcDbDictionary
280
     1
281
     1
  3
ACAD_XREC_ROUNDTRIP
360
B2B0
  0
DICTIONARY
  5
B2AD
330
1F2
100
AcDbDictionary
280
     1
281
     1
  3
ACAD_XREC_ROUNDTRIP
360
B2AE
  0
DICTIONARY
  5
B2A7
330
1EF
100
AcDbDictionary
280
     1
281
     1
  3
ACAD_XREC_ROUNDTRIP
360
B2A8
  0
DICTIONARY
  5
B2A9
330
1F0
100
AcDbDictionary
280
     1
281
     1
  3
ACAD_XREC_ROUNDTRIP
360
B2AA
  0
DICTIONARY
  5
B297
330
FC
100
AcDbDictionary
280
     1
281
     1
  3
ACAD_XREC_ROUNDTRIP
360
B298
  0
DICTIONARY
  5
B28B
330
F6
100
AcDbDictionary
280
     1
281
     1
  3
ACAD_XREC_ROUNDTRIP
360
B28C
  0
DICTIONARY
  5
B2AB
330
1F1
100
AcDbDictionary
280
     1
281
     1
  3
ACAD_XREC_ROUNDTRIP
360
B2AC
  0
XRECORD
  5
B2B4
102
{ACAD_REACTORS
330
B2B3
102
}
330
B2B3
100
AcDbXrecord
280
     1
102
DISPLAYNAME
  1
Metric50
102
FLAGS
 90
        0
  0
XRECORD
  5
B279
102
{ACAD_REACTORS
330
B278
102
}
330
B278
100
AcDbXrecord
280
     1
102
SHADEPLOT
 70
     0
102
SHADEPLOTRESLEVEL
 70
     2
102
SHADEPLOTCUSTOMDPI
 70
   300
  0
XRECORD
  5
B27B
102
{ACAD_REACTORS
330
B27A
102
}
330
B27A
100
AcDbXrecord
280
     1
102
SHADEPLOT
 70
     0
102
SHADEPLOTRESLEVEL
 70
     2
102
SHADEPLOTCUSTOMDPI
 70
   300
  0
XRECORD
  5
B276
102
{ACAD_REACTORS
330
B275
102
}
330
B275
100
AcDbXrecord
280
     1
102
SHADEPLOT
 70
     0
102
SHADEPLOTRESLEVEL
 70
     2
102
SHADEPLOTCUSTOMDPI
 70
   300
  0
XRECORD
  5
B27D
102
{ACAD_REACTORS
330
1F9
102
}
330
1F9
100
AcDbXrecord
280
     1
102
MATERIAL
148
0.0
149
0.0
149
0.0
 93
        0
 94
       63
282
     0
 72
     1
 77
     1
171
     1
175
     1
179
     1
273
     0
  0
XRECORD
  5
1FA
102
{ACAD_REACTORS
330
1F9
102
}
330
1F9
100
AcDbXrecord
280
     1
 70
     1
 90
429727718
  1
D62C5603-E3A1-4AEA-B7FB-FE5D8D0755AF
310
504B03040A0000080000CC70623B3DEE336E79000000790000001B0000006175746F6465736B2D64657369676E2D7061636B6167652E786D6C3C3F786D6C2076657273696F6E3D22312E302220656E636F64696E673D227574662D3822203F3E3C666F726D6174733E3C666F726D61743E687474703A2F2F736368656D612E
310
6175746F6465736B2E636F6D2F64657369676E2D7061636B6167652F323030393C2F666F726D61743E3C2F666F726D6174733E504B0304140006080800CC70623BD486FD9CA0000000F4000000130000005B436F6E74656E745F54797065735D2E786D6C7D8EC10E82300C865F65E91D8A1E8C310C0EEA1BF002731658846E
310
D98AC1B77784ABF1D8FE5FBFBF75BBCE937A534CCEB38643598122B6FEE978D0B0485F9C41B54DDD7D022595594E1A469170414C76A4D9A4D207E29CF43ECE46F218070CC6BECC4078ACAA135ACF422C856C0E68EA1BF5669944DDD7BCDE7B1F8E415D77AECB980613C2E4AC91FC167A2B244592486606FC29C8FD7F045B9A
310
EF7053A7E60B504B0304140006080800CC70623B853B8169EB0000007C01000008000000636F72652E786D6C8D90416EC3201045AF62CDB6C206821CC7C244919D9CA01740401C94182C03558F5F9C3852BBEB6A467FFE9B197D7EFC9E1EC5975982F5AE035262288C535E5B377690E21535501C055FBC8FBF6C503839990E
310
5619041F179FE64D52DE45E362569DD7661365082642A11EB9E920A89B99642953CC8E702F67A9EE7234257977194EC9EAE275C4EABCCF5EAD5940D4AC6F0E35A568B8F43562CD7046CD199FD07E60174276A7BE677B5EADB0E0D14EEFFB6A31321A0D82627C4084204C3F096B71DD52F6819B16635EADF63F509AF53FA164
310
5DDCD1EDDD17164090FCC8732078B56691CB33A85CD7DCC40F504B0304140006080800CC70623B55019EA25F0000007C00000007000000636E782E786D6C4DCB3B0E80201045D1AD90E915ED2CF8AC45050C11660C8261F98AB1B07AC9C97D42D718D865D3E909258CFD00CCE24AC6E326A164D74DC0B4128928FF32603847
310
2BA13128B1252AC747C6BAB984FC68F0B87FE8960A5C09FE86CFB69FBA01504B0304140006080800CC70623BDBABAAF470010000D40300000C0000006662782F636F72652E786D6CC553D16E823014FD95A6AF4B694182CC941A83FA05FB810A9511A125A5257EFE2E82712ECEB8A7F100CD39F7F69E734AF9FADC366850B6
310
AF8DCE7018308C942E4C59EB2AC3DE1D498AD15A706B8CFB56869196ADCAF00863C12B6B7C374385D14E6907A836A59A41D9F7CA615434B0C8705F7CAA5606D23BA8E84F41278B93AC54100640439DE0BDB320004D43C63716C7C399D30917DCFBBA9CD9BA8469F5B156168B24CED3F7248AC8769F27244EB73B92EED8862C
310
B7F13E0C179B3C8F979C8ECD82BBBABDAA2BAC924E9558448CBD9330242CFA08E3154B5651FCC6D215639C8EE5774DBE2B5F6CF2B5768B68963BB5F5588420E442FC700B1139D4CB01F450C1E918227C2E09DF070D8140C84E1E9AAB8F1340832A9CB13130A5F1376A908D57309505ECF2A0DF179C4E9D30F5B239B87E3823
310
7A79C6F31DE1A8A5AEC08474B03C7837EAE4938639B44E5932B833D2C6B6B279CDC613877FA26EE21F4A2A4C63EC7F29A2F301D1F9F7A0E37D145F504B0304140006080800CC70623B9C113CC27E0000009D0000000B0000006662782F636E782E786D6C4DCCDF0A83201C86E15B91DFB94BFB330DD428C8FB886521330DA7
310
6397BF1A1DECE883878F57749FCDA1B7892F1BBC047A23808C7F84D9FA55424E0BE6803A256208E9EF06C84F9B91703228B1C690F78B66B34CD9A5439DF5CF0BFBF65E35BCA1B8D6A5C6F540381E886698B5741C695F9503EBA150A2F8958E3DC3EA0B504B0304140006080800CC70623B7DF2F77C2A010000120200003100
310
00006662782F41393633353835312D344632462D344230382D423046372D3739314545314133324237412F636F72652E786D6C8D51DB8EC22014FC15C2939B0D2DB4B45643319AE817EC0F6041255A68B86CFCFC856D4D76DF7CE190393373060EDB3DC707F856CE6B6B7A480A0C81328395DA5C7B18C3057510EC3873D686
310
3F34088C18550F330C39BB3A1BA7051AAC09CA84841A2BD5020AEF55806078A44B0FFD7053A328440C89E1EFC52486BBB8AA8214A99D789CF9E05200300FC927E4FB4D5B375D43103D5527440FB843077C5AA3F5861C8F645F5787F59E95B390B318B55CE45AA638FAA2957BD7248B390B7A7CC51F9C124149C82B8C378810
310
84AB2F42B7B8DD56F413775B8C5999E9FF4471926F8AA236A1AE96B8B3CC434E5839373893369E1FAF30EA395917409EB7F26AF8801C171837A4A6AC9C89E9F9C9B1A58BA30FD6A5EF5DDDCF894B9AD9B6A59C957943A9FCAE2FD5BC4DFE03504B0304140006080800CC70623BAD7543B64E01000033030000300000006662
310
782F41393633353835312D344632462D344230382D423046372D3739314545314133324237412F636E782E786D6CD593CD6EC32010845F0571AD6CE3D48AD20813A9873E410FBD12D82434182C7EAAE6EDBB2424CD25871E7B41D6EC30B3FA84F9E67BB2E40B4234DE8DB46F1925E094D7C6ED479AD3AE5951B2113C789FEE
310
6C943839C1488B4C05DF079FE72A69D8C96C13AAD6B8631503449F83828872B949AC57D26200B826A308D316B4064D6E46FCDA41C05550DC9E483A00797BFD207EFB092A45DE9514C1BBD22178396BD39D891265658C238DEA00936C654E5E433CB65A26D9F6EDB5EBC14EBF49A45CB856E66048291F6939A9A81BB5C89177
310
38143CA680F4AA299D66A042CEB3354A2684DC9D8D178FE0D9B8B41CAAD720F880EE7EF93C0C18769E099ECC04D5A102C8049A8A05632F4DDF376CF1DE0F6BB65C2F8627B65A33C6BB62177CEBBDAD973006829F89F22E814B54F4BC2BE347F8AA8F681390B50FA73F804400B5F542E796F19FF974E7F78DB802FE05E20750
310
4B0304140006080800CC70623BE75B7789680500003C100000340000006662782F41393633353835312D344632462D344230382D423046372D3739314545314133324237412F6F626A656374732E786D6CAD575B8F9B3818FD2B887D06C22499CB8AA1CA655245D5B455A356FB305264C061D8018C6C3393D95FBFC7600890
310
A4CD5EF210B0B1BFEBF98E3F7B1FF6596ABC522E1296DF9BAE3D320D9A872C4AF2F8DE2CE5CEBA358D0FBEC719939D65A691938CDE9B6ADAF4BD98B3B2D05311DD91329583D9D5FC0F438434A7A611A644887B5384CF34233629258BA878B12322891DEFF6B66BD70BFB62634E8AE781D082709A4B588AF91C528CDA28B73F
310
1C998EEF39EABBEFA97FBD6A7C7E9553F9D3D79FE442923C3C523610337627CB87ABE99D359D4CC6D6E4FACAB5E6ABF9D2726FC6A3C5F56271377BB88362213924694B38DD99FE47C48627A1E7D49F5A8BB5E1A74C0A599ED3B0F21F1E56366B89112D681E218F0915D0D6F17AD41FBA2A369DCF6335D62ABBD39779D5DDD1
310
11D4D8DE3CBB96B2E04FB8202E41051754A1AA8E8F76B4C6DFE810B580B1547F4B84911149794252234D024EF8BBE963A95AE27B3D310A9D5C215C7960FAEE415ED75694C6AFB17BCACA5D99A60A9AA65F217B0BFC53292ACB92BF283FAD0D3621576592CB5BED907C2FA8E9DF794E35E97BEA31BED21FEB401ABB94C44839
310
DCACBF0E1C5DA8DA5B2F4DFFD32AD86F543D9E565E7056502E157C00AD2671CD534549AB752FCA9CDA00677A313F04E51B22FF19E57B300579E3C97EB29F682D92935CEC18CF901B7B54FD8C51F362B56FC72FE0B3C1EAE335EDCCBF5AEC39ADB17DC238973F804BA5E6F6BFE7AF1FB32E523BE9F3BD571418E3631DCA4D48
310
5250CF639223210A9446CA30052EDF057BD35F8329C1ECD84552BF0DC8D18BE7BCE23BFE6BD960AB4A7DE79923A103BEBD80F911CBAA2C60DB19B01CF164A5583B772EE6D3FFA56666CBCDA74DC97724A48F9A58967497E489C4D979006FD7A05E227A1EBDD0F737C623387A9C844D3709995625106D157315F8B8392CD4E0
310
A0B9A720C4BE9829CEF37EA1E13111214D53925356365ADA634861B52519DD27A00AEB808EAF0628E6F435519D446F45CF2C9CF5214F0A15B2F6D06B79DA3EE3CBF7F56780D2F4E7EF73A0F5E5B02A38D07DC852C6B7C1FBB6664213E0C39E3EBA7FF4E1AD23EA2829407C85E586727488B751B2DB9502BC7B228A3FD68B6E
310
A65A22397E690AA8D158D7E404EC8CDA235CC3B7D1898680131CEC2CDF2638C65196279577750F15884AEE19F94199155B92B13297978469D4F8D358DF0AEF7631E28DC8F0D9F437D5D39A83B2231A1D52D543813A824EF8D44BCFF2FA6A31BD1E8DAD87F1CCB526B3879935BF59CDADD5C37479BB1CDD4CA7B3556B516589
310
EF352754B706114D9C885EC9131DE6EFEB43D99AFE2391C2F958179413D7CFEF6B1B6DB1E7600F00DE6E5C67454A339A4BA2E0FBA85ED26F045D454F463DBFCE484C2F90F2E5E3666003662ED8F755951A7D1BECD5B30B550B2785C8E7320B7292A4838DDA71BBC863ED7613CAF659337A3354231D4FF4A182A54904C2898C
310
98B28C4AD0CE056CCF332A80986E571EE9DBC305BB5FEB7E509220A58D25CF042D712A806AC0AD0C657FDEF80D2D9CEAA2EE4D1C76F60BFE74219A06527D6F82DF6412526107381E55E353090704D085B52408A8913C4ED159D79BDA71BB4BC506F4831350EB6F975CD22D69BF7AC49B91A2C0A9DDA3D5CA36AD20FC478E37
310
E61844E2352865EBCB61A275A65283CAAA9DD27703B4102F5AF51EF5F573B75CBB5AD38BC845F7A49F82A0966A49C2E3EA5EA0ECD326CD965F1DB402C6FA8B51A4658C5C5E2EC9E214602E55810345408596591009A82E7E7FFACA19EEA299B14A0081A705CB3296EBC14CDF658DCD336EA6D1136881AAEB87B81AB9EE53D5
310
F5EB8BC8362082DA24122F98680A4E7930C01A0079749CEA14382A0783E5EBA5A10F8C098456A03D6A4AEB6BB881E2513747552A5DB22C7EDAF83BD5528081A365F7FF06504B0304140006080000CC70623B000000000000000000000000350000006662782F41393633353835312D344632462D344230382D423046372D37
310
39314545314133324237412F76657274696365732E62696E504B0304140006080800CC70623BF270F1330600000004000000360000006662782F41393633353835312D344632462D344230382D423046372D3739314545314133324237412F747269616E676C65732E62696E636660600000504B0304140006080000CC7062
310
3B000000000000000000000000370000006662782F41393633353835312D344632462D344230382D423046372D3739314545314133324237412F617474726962757465732E62696E504B0304140006080800CC70623B08DA0BD19000000041010000360000006662782F41393633353835312D344632462D344230382D4230
310
46372D3739314545314133324237412F6469726563746F72792E786D6C858F410AC3201045AF22B36F53E9A60B35CBEEBAE80D244E44489C6234F4F835464A48035D0DF398FF9F8AF63D0E6CC63039F212F8F9020C7D47C6792B21C5FE7403D62A1188E2E60C98D7234A5830286103A55745067B9D86B8A3CF9C7F90C11DE6
310
07FB144396D7B6A82D282E9A152AD114D5EF2CB866EEE831B8EEA07A7BB5A8D7D61A2BAAEB7FD5F70921FF497D00504B0304140006080800CC70623BEDD1DC58FD000000A00100003B0000006662782F41393633353835312D344632462D344230382D423046372D3739314545314133324237412F7265736F75726365732F
310
636F72652E786D6C8D504B6E833010BD0A9A6D65B00922041947112427E8052C33A156828DFCA97AFC9A40A576D7CDCCE87D344F8F9FBFE667F689CE6B6B3A6039850C8DB2A336530731DC4903D95970676DF82583CCC8193B5861107C72362E3BA4AC096842428D1D7107A5F7182053CF7474E0D507CE32973124857FE48B
310
540F3961CEF244279DE03EB81420DB9EAC1384436FA353E879B1B182C7A8C75DA3C7F453DF353A1075D537A7BA6464B8F535A99AE14A9A2BBD90E350DD183B5CFABE3AF262350B1EF4FC9351399401471025A527C218A1E53BAB5A5AB765F5469B96525EACF23FA6B88CFF34456DC2A1DCE36E360F82A5202F42F062ED2BAD
310
579969AFDD8A6F504B010214000A0000080000CC70623B3DEE336E79000000790000001B00000000000000000000000000000000006175746F6465736B2D64657369676E2D7061636B6167652E786D6C504B01021400140006080800CC70623BD486FD9CA0000000F40000001300000000000000000000000000B20000005B
310
436F6E74656E745F54797065735D2E786D6C504B01021400140006080800CC70623B853B8169EB0000007C010000080000000000000000000000000083010000636F72652E786D6C504B01021400140006080800CC70623B55019EA25F0000007C000000070000000000000000000000000094020000636E782E786D6C504B
310
01021400140006080800CC70623BDBABAAF470010000D40300000C00000000000000000000000000180300006662782F636F72652E786D6C504B01021400140006080800CC70623B9C113CC27E0000009D0000000B00000000000000000000000000B20400006662782F636E782E786D6C504B01021400140006080800CC70
310
623B7DF2F77C2A010000120200003100000000000000000000000000590500006662782F41393633353835312D344632462D344230382D423046372D3739314545314133324237412F636F72652E786D6C504B01021400140006080800CC70623BAD7543B64E010000330300003000000000000000000000000000D2060000
310
6662782F41393633353835312D344632462D344230382D423046372D3739314545314133324237412F636E782E786D6C504B01021400140006080800CC70623BE75B7789680500003C10000034000000000000000000000000006E0800006662782F41393633353835312D344632462D344230382D423046372D3739314545
310
314133324237412F6F626A656374732E786D6C504B01021400140006080000CC70623B0000000000000000000000003500000000000000000000000000280E00006662782F41393633353835312D344632462D344230382D423046372D3739314545314133324237412F76657274696365732E62696E504B01021400140006
310
080800CC70623BF270F133060000000400000036000000000000000000000000007B0E00006662782F41393633353835312D344632462D344230382D423046372D3739314545314133324237412F747269616E676C65732E62696E504B01021400140006080000CC70623B0000000000000000000000003700000000000000
310
000000000000D50E00006662782F41393633353835312D344632462D344230382D423046372D3739314545314133324237412F617474726962757465732E62696E504B01021400140006080800CC70623B08DA0BD1900000004101000036000000000000000000000000002A0F00006662782F41393633353835312D344632
310
462D344230382D423046372D3739314545314133324237412F6469726563746F72792E786D6C504B01021400140006080800CC70623BEDD1DC58FD000000A00100003B000000000000000000000000000E1000006662782F41393633353835312D344632462D344230382D423046372D3739314545314133324237412F7265
310
736F75726365732F636F72652E786D6C504B0506000000000E000E0080040000641100000000
  0
XRECORD
  5
B27C
102
{ACAD_REACTORS
330
1F7
102
}
330
1F7
100
AcDbXrecord
280
     1
102
MATERIAL
148
0.0
149
0.0
149
0.0
 93
        0
 94
       63
282
     0
 72
     1
 77
     1
171
     1
175
     1
179
     1
273
     0
  0
XRECORD
  5
1F8
102
{ACAD_REACTORS
330
1F7
102
}
330
1F7
100
AcDbXrecord
280
     1
 70
     1
 90
429727718
  1
30362254-06B7-45E0-A893-8CFA70E3D6BC
310
504B03040A0000080000CC70623B3DEE336E79000000790000001B0000006175746F6465736B2D64657369676E2D7061636B6167652E786D6C3C3F786D6C2076657273696F6E3D22312E302220656E636F64696E673D227574662D3822203F3E3C666F726D6174733E3C666F726D61743E687474703A2F2F736368656D612E
310
6175746F6465736B2E636F6D2F64657369676E2D7061636B6167652F323030393C2F666F726D61743E3C2F666F726D6174733E504B0304140006080800CC70623BD486FD9CA0000000F4000000130000005B436F6E74656E745F54797065735D2E786D6C7D8EC10E82300C865F65E91D8A1E8C310C0EEA1BF002731658846E
310
D98AC1B77784ABF1D8FE5FBFBF75BBCE937A534CCEB38643598122B6FEE978D0B0485F9C41B54DDD7D022595594E1A469170414C76A4D9A4D207E29CF43ECE46F218070CC6BECC4078ACAA135ACF422C856C0E68EA1BF5669944DDD7BCDE7B1F8E415D77AECB980613C2E4AC91FC167A2B244592486606FC29C8FD7F045B9A
310
EF7053A7E60B504B0304140006080800CC70623B1EC5D7A3EB0000007C01000008000000636F72652E786D6C8D90416EC3201045AF82665B6103C6756C6122AB4D4ED00B204C5C94182C03558F5F9C3852BBEB6A467FFE9B197D71FC9E6FE8CBACC17AD7032D0820E3B41FAD9B7A48F1820F808E52ACDEC75F36404ECDA687
310
4D0629A6D5A76597B477D1B89855E747B38B2A041301E95B6E7A08FAD3CCAA50296647B8168BD2573599823EBB0CA76447F43862C7BCCF5EAC59410E4DDD9C7973C2755553CCCFA4C603E3040F1565ED3B1FDE4E432BCA0D9622DAF9795FAF464533826484B498524CD807E51D79ED187F21878E10516EF63F505AC67F42C9
310
BA58B1FDDD071640D2FCC87D2045B96591CB3DA85CB7DCE40F504B0304140006080800CC70623B55019EA25F0000007C00000007000000636E782E786D6C4DCB3B0E80201045D1AD90E915ED2CF8AC45050C11660C8261F98AB1B07AC9C97D42D718D865D3E909258CFD00CCE24AC6E326A164D74DC0B4128928FF32603847
310
2BA13128B1252AC747C6BAB984FC68F0B87FE8960A5C09FE86CFB69FBA01504B0304140006080800CC70623B8C9102E971010000D40300000C0000006662782F636F72652E786D6CC5535B6E833010BC8AE5DF0A6C08340F1947A84D4ED00B38C6A128602363A31CBFCB234A53A551FA553EC09AD9F5CE8C31DB9E9B1AF5CA
310
7695D1198E428A91D2D214952E33ECDD315861B4E5CC1AE3BE9561A445A3323CC098B3D21ADFCE9034DA29ED00D5A6503328BA4E398C640D8B0C77F253352214DE4145770A5B214FA2546114020D759C75CE8200340D19DE981F0F6746269C33EFAB6266AB02A655C74A59CCF365BADC27CB5D902ED22848F6340DF238A141
310
BE88E2F57B92BFEDF23523433367AE6A2EEAA455C2A902F398D2751045018D3FA264435F3771F242571B4A1919CA6F9A7C5B3CD9E42BED16F12C776AEB308F40C848FC700B1139D4891EF410CEC810227CC6846F8386402064270EF5C5C709A05E49676C024C61FC95EA45ED154CA5211D1FF4FB8291A913A68E9B83EBBB33
310
E2A7673CDE118E5AE8124C0807CB8377834E366998436B950D7A7746DAD846D4CFD978E0F04FD455FC5D49D2D4C6FE9722321F10997F0F32DC47FE05504B0304140006080800CC70623BFFEA85907E0000009D0000000B0000006662782F636E782E786D6C4DCCD10A83201886E15B91FFDC95D95A811AB6F23E625948A6C3
310
E9D8E5AF46073BFAE0E1E365ED67B3E8ADC3CB78C7815C7240DA3DFC64DCC221C519D7805AC182F7F1EF06C88D9BE6703008B6049F9E274D7A1E938DBB5AE3D6131B2589BA0D3D965551E0B2EA732C9B9A624AAEB41E3A557677029960D9AFB4EF11165F504B0304140006080800CC70623B4FEEA4082C0100001202000031
310
0000006662782F39464131463745442D413632322D343644302D413938332D3331353338454246344243312F636F72652E786D6C8D515B6EC32010BC0AE2AB55850DD871ED0813254D72825EC00192A2C460F1A872FC42ED48ED5F7E00CDCECCCEB26C731F6FE05B39AFADE921293004CA082BB5B9F43086336A21D870E6AC
310
0D7F68109861543DCC30E4ECE26C9C164858139409093556AA051CBC570102714B8F1E7AF1A5C6A11862480C7F2DA6415C878B2A4891CA89C7990F2E050073937C42DE1DB7E4F87ED8A36D4329AA9B3D46DBAEAD504556557BD81DEBDD0761E52CE42C462D17B996298E3E6BE59E35C962CE821E1FF18553435012728A7187
310
0841987E927A8D9B35ADDF70BBC6989599FE4F1427F9A4286A132ABAC49D651EF234CD5CE04CDA78BA3DC2A8FB645D00B9DF8B57E215725C60BCA2A463E54C4CE327C7A65E1C7DB02E7DEFCBF594B864C5CA6CDBD49C957943E9FA5D5FBAF336F90F504B0304140006080800CC70623BAD7543B64E01000033030000300000
310
006662782F39464131463745442D413632322D343644302D413938332D3331353338454246344243312F636E782E786D6CD593CD6EC32010845F0571AD6CE3D48AD20813A9873E410FBD12D82434182C7EAAE6EDBB2424CD25871E7B41D6EC30B3FA84F9E67BB2E40B4234DE8DB46F1925E094D7C6ED479AD3AE5951B2113C
310
789FEE6C943839C1488B4C05DF079FE72A69D8C96C13AAD6B8631503449F83828872B949AC57D26200B826A308D316B4064D6E46FCDA41C05550DC9E483A00797BFD207EFB092A45DE9514C1BBD22178396BD39D891265658C238DEA00936C654E5E433CB65A26D9F6EDB5EBC14EBF49A45CB856E66048291F6939A9A81BB5
310
C8917738143CA680F4AA299D66A042CEB3354A2684DC9D8D178FE0D9B8B41CAAD720F880EE7EF93C0C18769E099ECC04D5A102C8049A8A05632F4DDF376CF1DE0F6BB65C2F8627B65A33C6BB62177CEBBDAD973006829F89F22E814B54F4BC2BE347F8AA8F681390B50FA73F804400B5F542E796F19FF974E7F78DB802FE05
310
E207504B0304140006080800CC70623B16AB87BA640500003C100000340000006662782F39464131463745442D413632322D343644302D413938332D3331353338454246344243312F6F626A656374732E786D6CAD575B6FA33818FD2B887DE6924B3BED8A326A92B68A663B534DD4D13E548A0C38942D60649B369D5FBFC7
310
600890A493BDE42160637FD7F31D7FF63E6FB3D478A55C242CBF3247B66B1A340F5994E4F19559CA8D75611A9F7D8F33263BCB4C232719BD32D5B4E97B316765A1A722BA21652A07B3B7B33F0D11D29C9A46981221AE4C113ED38CD8A4942CA2E2C58E882476BCD9DA23BB5ED8171B73523C0F841684D35CC252CCE79062D4
310
468DFA43D7747CCF51DF7D4FFDEB5593E3AB9CCA9FBEFE241792E4E19EB28198C968BAB8199F5D5A67D3E9C49A9E8F47D6EC76B6B0469F26EEFC7C3EBFBCBEB98462213924694B38DD98FE1D62C393D073EA4FADC5DAF04326852CCF6958F90F0F2B9BB5C48816348F90C7840A68EB78EDF68723159BCEE7891A6B95DDE9D3
310
BCEAEEE8086A6C6F9E5D4B59F0175C10A7A0820BAA5055C7473B5AE3CFDD452D602CD5DF12616444529E90D448938013FE6EFA58AA96F85E4F8C42275708571E98FE6827AF6B2B4AE3D7D83D64E5A64C53054DD3AF90BD06FEA9149565C94FCA0F6B834DC85599E4F2423B24DF0B6AFA979E534DFA9E7A4CC6FA631D486393
310
921829879BF5D781A373557BCB85E97FB90DB62B558F8795179C15944B051F40AB495CF35451D26A4727654E6D8033BD98EF82F21D91FF8AF2DD9982BCF1643BDD4EB516C9492E368C67C88DED563FC36D5EACF66DFF057C3658BDBFA69DF9578B3DA735B64F18C7F20770A9D45CFCF7FCF563D6456A277DBEF78A02637CA2
310
43B90A490AEAB94F72244481D24819A6C0E59B606BFA4B3025981DBB48EAB701D97BF19C577CC77F2D1B6C55A9EF3C732474C0B727303F625995056C3B02963D9EAC146BE78EC5FCEC7FA999EBC5EACBAAE41B12D27B4D2C0BBA49F244E2ECDC81B76B502F113D8F5EE8FB1BE3111CDD4FC2AA9B844CAB1288B68AB90A7CDC
310
1C166AB0D3DC5310625FCC14E779BFD0709F8890A629C9292B1B2DED31A4B0DA928CEE135085754027E3018A397D4D5427D15BD1330B677DC8934285AC3DF45A9EB68FF8F2B8FC0A509AFEECFD0FF2DE25CC6047F7214B195F07EFEB9A094D800F7BFAE8FED187B78EA8A3A400F115961BCAD1215E47C966530AF0EE8128FE
310
58CEBB996A8964FFA529A046635D9353B0336A8F700DDF46271A024E70B0B37C9DE01847591E54DED53D54202AB947E4076556AC49C6CA5C9E1226B7F1A7B1BE15DEED62C41B91E1B3E9AFAAA735036547343A925075041DF0A9979E893B391F8FCFA6967B3EFB644DCF6E5CEBFAE272625DCC6FAF3FB93793C5F90CE1EF57
310
407342756B10D1C489E8953CD1617E5CEECAD6F4EF8914CE5D5D504E5C3F1F9736DA62CFC11E00BCDDB8CC8A9466349744C1F75EBDA4DF09BA8A9E8C7A7E9991989E20E5DBDD6A6003664ED8F7A04A8DBE0DF6EAD9B9AA858342E47399053949D2C146EDB85DE4B176BB0965FBAC19BD19AA918E27FA50C1D22402E144464C
310
59462568E704B6E71915404CB72B8FF4EDE184DDAF753F284990D2C6926782963815403548A70C657FDEF80D2D9CEAA2AE4C1C76F60BFE74219A06527D6582DF6412526107381E55E353090704D085B52408D0933C4ED159D79BDA71BB4BC506F4831350EB6F979CD22D69BF7AC49B91A2C0A9DDA3D5CA36AD20FC478E37E6
310
1844E2352865EBCB6EA275A652E3836BE04EFB400BF1A2556F515F1FBB35B2AB35BD889C744FFA1004B5544B121E57F70215746DD2F5E2C1412B602CBF19455AC6C8E5E9922C4E01E65215385004546899059180EAFCF7A707CE7017CD8CDB0410789AB32C63B91E5CEBBBACB17AC6CD347A022D5075FD106377347AAABA7E
310
7D11590744509B44E205134DC1290F06580320F78E537D3D73540E06CB970B431F185308AD40BBD794D6D77003C5A36E8EAA54BA64597CD8F83BD552A080A365F7FF06504B0304140006080000CC70623B000000000000000000000000350000006662782F39464131463745442D413632322D343644302D413938332D3331
310
353338454246344243312F76657274696365732E62696E504B0304140006080800CC70623BF270F1330600000004000000360000006662782F39464131463745442D413632322D343644302D413938332D3331353338454246344243312F747269616E676C65732E62696E636660600000504B0304140006080000CC70623B
310
000000000000000000000000370000006662782F39464131463745442D413632322D343644302D413938332D3331353338454246344243312F617474726962757465732E62696E504B0304140006080800CC70623B08DA0BD19000000041010000360000006662782F39464131463745442D413632322D343644302D413938
310
332D3331353338454246344243312F6469726563746F72792E786D6C858F410AC3201045AF22B36F53E9A60B35CBEEBAE80D244E44489C6234F4F835464A48035D0DF398FF9F8AF63D0E6CC63039F212F8F9020C7D47C6792B21C5FE7403D62A1188E2E60C98D7234A5830286103A55745067B9D86B8A3CF9C7F90C11DE607
310
FB144396D7B6A82D282E9A152AD114D5EF2CB866EEE831B8EEA07A7BB5A8D7D61A2BAAEB7FD5F70921FF497D00504B0304140006080800CC70623B0D6EF93BFE000000A00100003B0000006662782F39464131463745442D413632322D343644302D413938332D3331353338454246344243312F7265736F75726365732F63
310
6F72652E786D6C8D50596E833010BD0A9ADFCA60B334011947A8694ED00B586642AC041B79A97AFC9A40A5F6AF3F33A3B7689E1E3F7DCD8FEC139DD7D6F4C0720A191A65476DA61E62B892236427C19DB5E1970C322367EC618541F0C9D9B8EC90B226A009093576C41D94DE63804C3DD2D18357379C652E63480A7FCF17A9
310
EE72C29CE5894E3AC17D702940B63D59270887DE46A7D0F36263058F518FBB468FE9A7BE6A7420864373B8D4873369AA8691FA421B3294352543C5CAF65C0F6FEF43CB8BD52C78D0F34F46E550061C419494B6843142CB0F5677F4B52BEB177AEC28E5C52AFF638ACBF84F53D42654E51E77B379102C05791282176B5F693D
310
CB4C7BED567C03504B010214000A0000080000CC70623B3DEE336E79000000790000001B00000000000000000000000000000000006175746F6465736B2D64657369676E2D7061636B6167652E786D6C504B01021400140006080800CC70623BD486FD9CA0000000F40000001300000000000000000000000000B20000005B
310
436F6E74656E745F54797065735D2E786D6C504B01021400140006080800CC70623B1EC5D7A3EB0000007C010000080000000000000000000000000083010000636F72652E786D6C504B01021400140006080800CC70623B55019EA25F0000007C000000070000000000000000000000000094020000636E782E786D6C504B
310
01021400140006080800CC70623B8C9102E971010000D40300000C00000000000000000000000000180300006662782F636F72652E786D6C504B01021400140006080800CC70623BFFEA85907E0000009D0000000B00000000000000000000000000B30400006662782F636E782E786D6C504B01021400140006080800CC70
310
623B4FEEA4082C0100001202000031000000000000000000000000005A0500006662782F39464131463745442D413632322D343644302D413938332D3331353338454246344243312F636F72652E786D6C504B01021400140006080800CC70623BAD7543B64E010000330300003000000000000000000000000000D5060000
310
6662782F39464131463745442D413632322D343644302D413938332D3331353338454246344243312F636E782E786D6C504B01021400140006080800CC70623B16AB87BA640500003C1000003400000000000000000000000000710800006662782F39464131463745442D413632322D343644302D413938332D3331353338
310
454246344243312F6F626A656374732E786D6C504B01021400140006080000CC70623B0000000000000000000000003500000000000000000000000000270E00006662782F39464131463745442D413632322D343644302D413938332D3331353338454246344243312F76657274696365732E62696E504B01021400140006
310
080800CC70623BF270F133060000000400000036000000000000000000000000007A0E00006662782F39464131463745442D413632322D343644302D413938332D3331353338454246344243312F747269616E676C65732E62696E504B01021400140006080000CC70623B0000000000000000000000003700000000000000
310
000000000000D40E00006662782F39464131463745442D413632322D343644302D413938332D3331353338454246344243312F617474726962757465732E62696E504B01021400140006080800CC70623B08DA0BD190000000410100003600000000000000000000000000290F00006662782F39464131463745442D413632
310
322D343644302D413938332D3331353338454246344243312F6469726563746F72792E786D6C504B01021400140006080800CC70623B0D6EF93BFE000000A00100003B000000000000000000000000000D1000006662782F39464131463745442D413632322D343644302D413938332D3331353338454246344243312F7265
310
736F75726365732F636F72652E786D6C504B0506000000000E000E0080040000641100000000
  0
XRECORD
  5
B27E
102
{ACAD_REACTORS
330
173
102
}
330
173
100
AcDbXrecord
280
     1
102
MATERIAL
148
0.0
149
0.0
149
0.0
 93
        0
 94
       63
282
     0
 72
     1
 77
     1
171
     1
175
     1
179
     1
273
     0
  0
XRECORD
  5
175
102
{ACAD_REACTORS
330
173
102
}
330
173
100
AcDbXrecord
280
     1
270
     1
271
     1
  0
XRECORD
  5
174
102
{ACAD_REACTORS
330
173
102
}
330
173
100
AcDbXrecord
280
     1
270
     1
271
     1
  0
XRECORD
  5
1FB
102
{ACAD_REACTORS
330
173
102
}
330
173
100
AcDbXrecord
280
     1
 70
     0
 90
1673772943
  1
ECE7A1D2-D628-4531-984C-D00F80459256
310
504B03040A0000080000CC70623B3DEE336E79000000790000001B0000006175746F6465736B2D64657369676E2D7061636B6167652E786D6C3C3F786D6C2076657273696F6E3D22312E302220656E636F64696E673D227574662D3822203F3E3C666F726D6174733E3C666F726D61743E687474703A2F2F736368656D612E
310
6175746F6465736B2E636F6D2F64657369676E2D7061636B6167652F323030393C2F666F726D61743E3C2F666F726D6174733E504B0304140006080800CC70623BD486FD9CA0000000F4000000130000005B436F6E74656E745F54797065735D2E786D6C7D8EC10E82300C865F65E91D8A1E8C310C0EEA1BF002731658846E
310
D98AC1B77784ABF1D8FE5FBFBF75BBCE937A534CCEB38643598122B6FEE978D0B0485F9C41B54DDD7D022595594E1A469170414C76A4D9A4D207E29CF43ECE46F218070CC6BECC4078ACAA135ACF422C856C0E68EA1BF5669944DDD7BCDE7B1F8E415D77AECB980613C2E4AC91FC167A2B244592486606FC29C8FD7F045B9A
310
EF7053A7E60B504B0304140006080800CC70623BD9DDAED0EC0000007C01000008000000636F72652E786D6C8D90416EC3201045AF82665B61836D9CD8C2444DD39CA01740405C94182C03558F5F9C3852BBEB6A467FFE9B197D7EF89E6EE8CB2CC17A37002D0820E394D7D68D03A478C17B4007C117EFE32F1B20272733C0
310
2A83E0E3E2D3BC49CABB685CCCAAF3DA6CA20CC14440EA969B0182FA34932C648AD911AEC52CD5558EA6A0CF2EC329598D1E47ACCEFBECC59A050463A7EA5833865FEBDD0E37353BE3EE8DBDE3F6786A48D375FBF6CC78B9C282473B3DEFABC5C86834888A900E538A49F5419B9EB47DD5BC907D4F082F57FB1F28CDFA9F50
310
B22ED6D5F6EE030B20687EE43E10BC5CB3C8E51E54AE6B6EE207504B0304140006080800CC70623B55019EA25F0000007C00000007000000636E782E786D6C4DCB3B0E80201045D1AD90E915ED2CF8AC45050C11660C8261F98AB1B07AC9C97D42D718D865D3E909258CFD00CCE24AC6E326A164D74DC0B4128928FF326038
310
472BA13128B1252AC747C6BAB984FC68F0B87FE8960A5C09FE86CFB69FBA01504B0304140006080800CC70623BA24EB22D72010000D40300000C0000006662782F636F72652E786D6CC5535B6E833010BC8AE5DF0A6C5E49888CA3A6694ED00B38E05014B091B1518EDFE511A5A9D228FD2A1F60CDEC7A67C6986DCE4D8D7A
310
69BA4AAB0C073EC548AA5C17952A33ECECD15B61B4E1CC686DBF9561A44423333CC098B3D268D7CE50AE9595CA02AA74216750749DB418E5352C32DCE59FB211BE70162ABA93DF8AFC244AE9073ED050C759670D0840D390E18DF9F1706664C23973AE2A66B62A605A75ACA4C13C4976E1364A12EF355A2EBD384AF65EFA96
310
BC7B8BED2EA6719AAE16FB8491A199335B351775B991C2CA02F390D2D40B028F861F41BCA68B7518BFD0D59A524686F29B26D7164F36B94AD9289CE54E6D1DE6010819891F6E21228B3AD1831EC219194284CF98F06DD01008846CC5A1BEF83801D4CBDC6A1303536877A57A513B0953A94FC707FDBE6064EA84A9E3E6E0FA
310
EE8CF0E9198F7784A316AA0413C2C2F2E0ECA0934D1AE6D05A69BCDE9E91D2A611F573361E38FC1375157F5752AE6B6DFE4B11990F88CCBF0719EE23FF02504B0304140006080800CC70623B408A7D3B7C0000009D0000000B0000006662782F636E782E786D6C4DCCD10A83201886E15B91FFDC552A92A0064DBC8F581632
310
D3703A76F9ABD1C18E3E78F878E5F0D9027ABBFCF2292AE86E2D20171F69F6715550CB827B40839639A5F2770314A7CD293819B45C73AAFB45B35BA61ACAA1C1C7E7855C58C15BC331339661262CC762340413D68D77DA5B42298546CBE6573AF60CEB2F504B0304140006080800CC70623B449FB9BD290100001202000031
310
0000006662782F36394639363044362D344446342D343946362D394244322D3234314243333846323333332F636F72652E786D6C8D515B6EC32010BC0AE22B55850D98B871848994463E412FE002495162B07854397EA176A4F62F3F2C9A9D991D587EB84F37F0AD7D30CEF6905418026DA553C65E7A98E219ED203808EE9D
310
8B7F6810D871D23D2C3014FCE25D9A57483A1BB58D19B54EE9151C43D0110279CB971E06F9A5A7B11A53CC8C70ADE6515EC78BAE4895DB992778883E0700CB907242D17643D7E2538BD869608875438BBAE38922CAC8F1BDD90DB4691A5E2F42C153326A951B95E398B3D1FE599322163C9AE9115F7A3D46ADA0A018778810
310
84E907617BDCEE297BC5BB3DC6BC2EF47FA234AB2745C9D8D8D035EE220B50105E2F0DC1954B9FB747187D9F9D8FA0CCDB042D5FA0C015C65B42DF78BD10F3F3B363CB56C7109DCFDFBBB97E662ED92EB62D13BC2E1BCAE5777DB9966D8A1F504B0304140006080800CC70623BAD7543B64E01000033030000300000006662
310
782F36394639363044362D344446342D343946362D394244322D3234314243333846323333332F636E782E786D6CD593CD6EC32010845F0571AD6CE3D48AD20813A9873E410FBD12D82434182C7EAAE6EDBB2424CD25871E7B41D6EC30B3FA84F9E67BB2E40B4234DE8DB46F1925E094D7C6ED479AD3AE5951B2113C789FEE
310
6C943839C1488B4C05DF079FE72A69D8C96C13AAD6B8631503449F83828872B949AC57D26200B826A308D316B4064D6E46FCDA41C05550DC9E483A00797BFD207EFB092A45DE9514C1BBD22178396BD39D891265658C238DEA00936C654E5E433CB65A26D9F6EDB5EBC14EBF49A45CB856E66048291F6939A9A81BB5C89177
310
38143CA680F4AA299D66A042CEB3354A2684DC9D8D178FE0D9B8B41CAAD720F880EE7EF93C0C18769E099ECC04D5A102C8049A8A05632F4DDF376CF1DE0F6BB65C2F8627B65A33C6BB62177CEBBDAD973006829F89F22E814B54F4BC2BE347F8AA8F681390B50FA73F804400B5F542E796F19FF974E7F78DB802FE05E20750
310
4B0304140006080800CC70623B8D05915C650500003B100000340000006662782F36394639363044362D344446342D343946362D394244322D3234314243333846323333332F6F626A656374732E786D6CAD575B6FA33814FE2B887D06429276DA1565D4266D158D3A339A6846FB502932E050B66023DB74D2FDF5FB190C01
310
9276B2973C046C8ECFF53B17071F77456EBD502133CEAE6CDF9DD81665314F32965ED995DA3A17B6F5310C04E7AA47665B8C14F4CAD6DB7618A48257A5D94AE89654B91AEDDEDDFC61C998326A5B714EA4BCB265FC440BE2924AF184CA6737218AB8E976E7FA6E4338649B0A523E8D98964450A6A029F619B8588D52FE7039
310
B1BD30F0F4F730D0FF866AF6369557DB33949F31A9088B0F848DD8CCFCF9F2767A76E99CCDE733677E3EF59D9BBB9BA5E37F984D16E78BC5E5F5ED25044B25C0C96822E8D60EEFE11B91C581D77CEA34368A1F5329E68CD1B8B61F16D63A1B8E092D294B10C78C4A48EB593D192E7DED9BDEE7995E1B91FDEDD3ACEA9FE831
310
6A756F9F7D4D79F4274C90A7A04248AA51D5F8C718DAE06FB2F75AC4796EBE65D22A88A22223B995679120E2D50E41AA49C260C046A35368846B0BECD0DFF3EBEB8AD4F835768F69B9ADF25C43D30E6B646F807FAA64AD59F61715C7A54127C4AACA98BA3006A9D792DAE165E0D59B61A01FB3A9F9D838D2DAE62445C86166
310
F37564E842E7DE6A69879FEEA2DD5AE7E371E1A5E025154AC307D06A03D73EB5978C58FFA4C8E9033066E0F3BD53BEC1F39F91BE7B55103791EDE6BBB991A2046172CB4581D8B893FA674DDA17A77B3B7C413D1B511FD2743BFF8A38F03A658705E3ADF8015C3A3417FF3D7E439FF591DA0B5F18BC20C1B8981957AE6392A3
310
F43C640C01D1A0B4728E2DD4F26DB4B3C3152A252A3B4E913CEC1C72F012782FF88EFF8637AA552DBEF76408E8A8DE9E50F9E1CB3A2DA0DB1B6039A893B56063DC5B3E3FFB5F72E67AB9FEB4AEC496C4F4C1149625DD662C53E89D7BF0F6151A046260D1337DFDC94502430F83B0EE07A130A224BCAD7DAE1D9FB6CD422FF6
310
920702629C4BB9AE79C12F243C6432A6794E18E5552BA56B431AAB5D91317302B2B071E86C3A42B1A02F999E24061403B5D0EB639195DA655DD3EBEAB4FB862DDF579F014AD0E73C22F99E28DA57FB98E75C6CA2D74D53086D600F4786E0FE3144B771A8A7B900F03594DB8A633CBC49B2EDB69228BB479CF863B5E807AAAB
310
23872F6DFEB4129B949CA33823F58830E86D65621E10047D9DB34D862E8EAC3C2ABC2F7B2C40D67CDFE01F5545B92105AF983AC54D93D69E56FB8E797F88913F898A9FEC705D3F9D1B54EC8426FB500D40A03BD0119B06E1B95DDC7EB8F6975367793EBD70E66733DFB9BC982F9CE564727731999F5D4ECFCE3B8D6A4DC2A0
310
6D50FD148437D110834A64C6CDDF57FBACB5C307A2A477DFE4939736CFEF2B175371E0E10CF0DD1D5C15654E0BCA14D1E87DD02FF93782A162C0A3D95F1524A52770F972BF1EE9809D13CE7DD599467F8ECE9ADD85CE85A34CD45355448C64F9E8A031DC2D596ACC6E5DD93D9B82DE2EF5CAF81363A8E47996A0DE24564A79
310
4115AACE09C55E14540231FDA13C319787134EBF34E3A022514E5B4D9E0826E25C02D5805B15ABE1BEF51B26383D445DD9E875EE33FE4C22DA16427D65A3BCA92CA6D28DD01DF5DC53330704308475351050232CCD31583787BA75774AFB06E5070DD0C8EF484E19968C5D83BA5B90B244D31E54D55A372320FE4786B7EA58
310
44E135AA5467CB7EA333A61683CC6A8C3257034C10CF46F40EF9F5BE59BE5BD30C3C72D235E95D10345C1D45445A5F0BB47E46A5EBE5570F9380B5FA629579952296A773720405982B9DE04011506178964401AA8BDF1FBF0A8EAB6861DD6580C0E38217056766716DAEB2D6FA0917D3E4116581EADB879C4E7CFFB11EFACD
310
3D641311495D92C8676CB409A72D18610D803CE8A626049E8EC1887CB5B44CC39883690DDA8399B4B9855B481E7D71D4A9D22F96E5BB73BF5793020C02137BF837504B0304140006080000CC70623B000000000000000000000000350000006662782F36394639363044362D344446342D343946362D394244322D32343142
310
43333846323333332F76657274696365732E62696E504B0304140006080800CC70623BF270F1330600000004000000360000006662782F36394639363044362D344446342D343946362D394244322D3234314243333846323333332F747269616E676C65732E62696E636660600000504B0304140006080000CC70623B0000
310
00000000000000000000370000006662782F36394639363044362D344446342D343946362D394244322D3234314243333846323333332F617474726962757465732E62696E504B0304140006080800CC70623B08DA0BD19000000041010000360000006662782F36394639363044362D344446342D343946362D394244322D
310
3234314243333846323333332F6469726563746F72792E786D6C858F410AC3201045AF22B36F53E9A60B35CBEEBAE80D244E44489C6234F4F835464A48035D0DF398FF9F8AF63D0E6CC63039F212F8F9020C7D47C6792B21C5FE7403D62A1188E2E60C98D7234A5830286103A55745067B9D86B8A3CF9C7F90C11DE607FB14
310
4396D7B6A82D282E9A152AD114D5EF2CB866EEE831B8EEA07A7BB5A8D7D61A2BAAEB7FD5F70921FF497D00504B0304140006080800CC70623BCA768048FE000000A00100003B0000006662782F36394639363044362D344446342D343946362D394244322D3234314243333846323333332F7265736F75726365732F636F72
310
652E786D6C8D50596E833010BD0A9ADFCA60D600328E9AA639412F609909B1126CE4A5EAF16B0295DABFFECC8CDEA2797AECF8353F924FB44E193D409E5248504B332A3D0D10FC95B4901C39B3C6F85F3248B49871801506CE266BC2B243D2688FDA47549B11775038871E12F988C7004EDE7016A9083E2ADC3D5D84BC8B09
310
D33C8D74D471E6BC8D0192EDC93A815B742658898E651BCB59086ADC356A8C3FD555A1055ED7E7E254D615792D0F075295F585746FF53B694EE78A565DD736979A65AB9933AFE69F8CD2A2F038022F28ED489E135A7CE4554F9BBEA85E68DB53CAB255FEC71496F19FA6A0B42F8B3DEE6673C0F318E4497096AD7DC5F52C33
310
EEB55BFE0D504B010214000A0000080000CC70623B3DEE336E79000000790000001B00000000000000000000000000000000006175746F6465736B2D64657369676E2D7061636B6167652E786D6C504B01021400140006080800CC70623BD486FD9CA0000000F40000001300000000000000000000000000B20000005B436F
310
6E74656E745F54797065735D2E786D6C504B01021400140006080800CC70623BD9DDAED0EC0000007C010000080000000000000000000000000083010000636F72652E786D6C504B01021400140006080800CC70623B55019EA25F0000007C000000070000000000000000000000000095020000636E782E786D6C504B0102
310
1400140006080800CC70623BA24EB22D72010000D40300000C00000000000000000000000000190300006662782F636F72652E786D6C504B01021400140006080800CC70623B408A7D3B7C0000009D0000000B00000000000000000000000000B50400006662782F636E782E786D6C504B01021400140006080800CC70623B
310
449FB9BD290100001202000031000000000000000000000000005A0500006662782F36394639363044362D344446342D343946362D394244322D3234314243333846323333332F636F72652E786D6C504B01021400140006080800CC70623BAD7543B64E010000330300003000000000000000000000000000D20600006662
310
782F36394639363044362D344446342D343946362D394244322D3234314243333846323333332F636E782E786D6C504B01021400140006080800CC70623B8D05915C650500003B10000034000000000000000000000000006E0800006662782F36394639363044362D344446342D343946362D394244322D32343142433338
310
46323333332F6F626A656374732E786D6C504B01021400140006080000CC70623B0000000000000000000000003500000000000000000000000000250E00006662782F36394639363044362D344446342D343946362D394244322D3234314243333846323333332F76657274696365732E62696E504B010214001400060808
310
00CC70623BF270F13306000000040000003600000000000000000000000000780E00006662782F36394639363044362D344446342D343946362D394244322D3234314243333846323333332F747269616E676C65732E62696E504B01021400140006080000CC70623B00000000000000000000000037000000000000000000
310
00000000D20E00006662782F36394639363044362D344446342D343946362D394244322D3234314243333846323333332F617474726962757465732E62696E504B01021400140006080800CC70623B08DA0BD190000000410100003600000000000000000000000000270F00006662782F36394639363044362D344446342D
310
343946362D394244322D3234314243333846323333332F6469726563746F72792E786D6C504B01021400140006080800CC70623BCA768048FE000000A00100003B000000000000000000000000000B1000006662782F36394639363044362D344446342D343946362D394244322D3234314243333846323333332F7265736F
310
75726365732F636F72652E786D6C504B0506000000000E000E0080040000621100000000
  0
XRECORD
  5
176
102
{ACAD_REACTORS
330
173
102
}
330
173
100
AcDbXrecord
280
     1
270
     1
271
     1
  0
XRECORD
  5
177
102
{ACAD_REACTORS
330
173
102
}
330
173
100
AcDbXrecord
280
     1
270
     1
271
     1
  0
XRECORD
  5
B2A0
102
{ACAD_REACTORS
330
B29F
102
}
330
B29F
100
AcDbXrecord
280
     1
102
ACAD_ROUNDTRIP_2012_MLEADER_STYLE
298
     1
  0
XRECORD
  5
B2B2
102
{ACAD_REACTORS
330
B2B1
102
}
330
B2B1
100
AcDbXrecord
280
     1
102
DISPLAYNAME
  1
Metric50
102
FLAGS
 90
        0
  0
CELLSTYLEMAP
  5
B272
102
{ACAD_REACTORS
330
162
102
}
330
162
100
AcDbCellStyleMap
 90
        3
300
CELLSTYLE
  1
TABLEFORMAT_BEGIN
 90
        5
170
     1
 91
        0
 92
    32768
 62
   257
 93
        1
300
CONTENTFORMAT
  1
CONTENTFORMAT_BEGIN
 90
        0
 91
        0
 92
      512
 93
        0
300

 40
0.0
140
1.0
 94
        5
 62
     0
340
11
144
6.0
309
CONTENTFORMAT_END
171
     1
301
MARGIN
  1
CELLMARGIN_BEGIN
 40
1.5
 40
1.5
 40
1.5
 40
1.5
 40
4.5
 40
4.5
309
CELLMARGIN_END
 94
        6
 95
        1
302
GRIDFORMAT
  1
GRIDFORMAT_BEGIN
 90
        0
 91
        1
 62
     0
 92
       -2
340
14
 93
        0
 40
1.125
309
GRIDFORMAT_END
 95
        2
302
GRIDFORMAT
  1
GRIDFORMAT_BEGIN
 90
        0
 91
        1
 62
     0
 92
       -2
340
14
 93
        0
 40
1.125
309
GRIDFORMAT_END
 95
        4
302
GRIDFORMAT
  1
GRIDFORMAT_BEGIN
 90
        0
 91
        1
 62
     0
 92
       -2
340
14
 93
        0
 40
1.125
309
GRIDFORMAT_END
 95
        8
302
GRIDFORMAT
  1
GRIDFORMAT_BEGIN
 90
        0
 91
        1
 62
     0
 92
       -2
340
14
 93
        0
 40
1.125
309
GRIDFORMAT_END
 95
       16
302
GRIDFORMAT
  1
GRIDFORMAT_BEGIN
 90
        0
 91
        1
 62
     0
 92
       -2
340
14
 93
        0
 40
1.125
309
GRIDFORMAT_END
 95
       32
302
GRIDFORMAT
  1
GRIDFORMAT_BEGIN
 90
        0
 91
        1
 62
     0
 92
       -2
340
14
 93
        0
 40
1.125
309
GRIDFORMAT_END
309
TABLEFORMAT_END
  1
CELLSTYLE_BEGIN
 90
        1
 91
        1
300
_TITLE
309
CELLSTYLE_END
300
CELLSTYLE
  1
TABLEFORMAT_BEGIN
 90
        5
170
     1
 91
        0
 92
        0
 62
   257
 93
        1
300
CONTENTFORMAT
  1
CONTENTFORMAT_BEGIN
 90
        0
 91
        0
 92
      512
 93
        0
300

 40
0.0
140
1.0
 94
        5
 62
     0
340
11
144
4.5
309
CONTENTFORMAT_END
171
     1
301
MARGIN
  1
CELLMARGIN_BEGIN
 40
1.5
 40
1.5
 40
1.5
 40
1.5
 40
4.5
 40
4.5
309
CELLMARGIN_END
 94
        6
 95
        1
302
GRIDFORMAT
  1
GRIDFORMAT_BEGIN
 90
        0
 91
        1
 62
     0
 92
       -2
340
14
 93
        0
 40
1.125
309
GRIDFORMAT_END
 95
        2
302
GRIDFORMAT
  1
GRIDFORMAT_BEGIN
 90
        0
 91
        1
 62
     0
 92
       -2
340
14
 93
        0
 40
1.125
309
GRIDFORMAT_END
 95
        4
302
GRIDFORMAT
  1
GRIDFORMAT_BEGIN
 90
        0
 91
        1
 62
     0
 92
       -2
340
14
 93
        0
 40
1.125
309
GRIDFORMAT_END
 95
        8
302
GRIDFORMAT
  1
GRIDFORMAT_BEGIN
 90
        0
 91
        1
 62
     0
 92
       -2
340
14
 93
        0
 40
1.125
309
GRIDFORMAT_END
 95
       16
302
GRIDFORMAT
  1
GRIDFORMAT_BEGIN
 90
        0
 91
        1
 62
     0
 92
       -2
340
14
 93
        0
 40
1.125
309
GRIDFORMAT_END
 95
       32
302
GRIDFORMAT
  1
GRIDFORMAT_BEGIN
 90
        0
 91
        1
 62
     0
 92
       -2
340
14
 93
        0
 40
1.125
309
GRIDFORMAT_END
309
TABLEFORMAT_END
  1
CELLSTYLE_BEGIN
 90
        2
 91
        1
300
_HEADER
309
CELLSTYLE_END
300
CELLSTYLE
  1
TABLEFORMAT_BEGIN
 90
        5
170
     1
 91
        0
 92
        0
 62
   257
 93
        1
300
CONTENTFORMAT
  1
CONTENTFORMAT_BEGIN
 90
        0
 91
        0
 92
      512
 93
        0
300

 40
0.0
140
1.0
 94
        2
 62
     0
340
11
144
4.5
309
CONTENTFORMAT_END
171
     1
301
MARGIN
  1
CELLMARGIN_BEGIN
 40
1.5
 40
1.5
 40
1.5
 40
1.5
 40
4.5
 40
4.5
309
CELLMARGIN_END
 94
        6
 95
        1
302
GRIDFORMAT
  1
GRIDFORMAT_BEGIN
 90
        0
 91
        1
 62
     0
 92
       -2
340
14
 93
        0
 40
1.125
309
GRIDFORMAT_END
 95
        2
302
GRIDFORMAT
  1
GRIDFORMAT_BEGIN
 90
        0
 91
        1
 62
     0
 92
       -2
340
14
 93
        0
 40
1.125
309
GRIDFORMAT_END
 95
        4
302
GRIDFORMAT
  1
GRIDFORMAT_BEGIN
 90
        0
 91
        1
 62
     0
 92
       -2
340
14
 93
        0
 40
1.125
309
GRIDFORMAT_END
 95
        8
302
GRIDFORMAT
  1
GRIDFORMAT_BEGIN
 90
        0
 91
        1
 62
     0
 92
       -2
340
14
 93
        0
 40
1.125
309
GRIDFORMAT_END
 95
       16
302
GRIDFORMAT
  1
GRIDFORMAT_BEGIN
 90
        0
 91
        1
 62
     0
 92
       -2
340
14
 93
        0
 40
1.125
309
GRIDFORMAT_END
 95
       32
302
GRIDFORMAT
  1
GRIDFORMAT_BEGIN
 90
        0
 91
        1
 62
     0
 92
       -2
340
14
 93
        0
 40
1.125
309
GRIDFORMAT_END
309
TABLEFORMAT_END
  1
CELLSTYLE_BEGIN
 90
        3
 91
        2
300
_DATA
309
CELLSTYLE_END
  0
XRECORD
  5
B277
102
{ACAD_REACTORS
330
162
102
}
330
162
100
AcDbXrecord
280
     1
102
ACAD_ROUNDTRIP_PRE2007_TABLESTYLE
 90
      512
 91
        0
  1

 92
      512
 93
        0
  2

 94
      512
 95
        0
  3

  0
XRECORD
  5
B28A
102
{ACAD_REACTORS
330
B289
102
}
330
B289
100
AcDbXrecord
280
     1
102
RTVSPost2010Prop28
280
     1
102
RTVSPost2010PropOp28
 70
     1
102
RTVSPost2010Prop29
280
     1
102
RTVSPost2010PropOp29
 70
     1
102
RTVSPost2010Prop30
280
     0
102
RTVSPost2010PropOp30
 70
     1
102
RTVSPost2010Prop31
280
     0
102
RTVSPost2010PropOp31
 70
     1
102
RTVSPost2010Prop32
280
     0
102
RTVSPost2010PropOp32
 70
     1
102
RTVSPost2010Prop33
280
     0
102
RTVSPost2010PropOp33
 70
     1
102
RTVSPost2010Prop34
280
     0
102
RTVSPost2010PropOp34
 70
     1
102
RTVSPost2010Prop35
280
     0
102
RTVSPost2010PropOp35
 70
     1
102
RTVSPost2010Prop36
280
     0
102
RTVSPost2010PropOp36
 70
     1
102
RTVSPost2010Prop37
 90
       50
102
RTVSPost2010PropOp37
 70
     1
102
RTVSPost2010Prop38
140
0.0
102
RTVSPost2010PropOp38
 70
     1
102
RTVSPost2010Prop39
140
1.0
102
RTVSPost2010PropOp39
 70
     1
102
RTVSPost2010Prop40
 90
        0
102
RTVSPost2010PropOp40
 70
     1
102
RTVSPost2010Prop41ColorIndex
 90
       18
102
RTVSPost2010Prop41ColorRGB
 90
        0
102
RTVSPost2010PropOp41
 70
     1
102
RTVSPost2010Prop42
 90
       50
102
RTVSPost2010PropOp42
 70
     1
102
RTVSPost2010Prop43
 90
        3
102
RTVSPost2010PropOp43
 70
     1
102
RTVSPost2010Prop44ColorIndex
 90
        5
102
RTVSPost2010Prop44ColorRGB
 90
      255
102
RTVSPost2010PropOp44
 70
     1
102
RTVSPost2010Prop45
280
     0
102
RTVSPost2010PropOp45
 70
     1
102
RTVSPost2010Prop46
 90
       50
102
RTVSPost2010PropOp46
 70
     1
102
RTVSPost2010Prop47
 90
       50
102
RTVSPost2010PropOp47
 70
     1
102
RTVSPost2010Prop48
 90
       50
102
RTVSPost2010PropOp48
 70
     1
102
RTVSPost2010Prop49
280
     0
102
RTVSPost2010PropOp49
 70
     1
102
RTVSPost2010Prop50
 90
       50
102
RTVSPost2010PropOp50
 70
     1
102
RTVSPost2010Prop51ColorIndex
 90
      256
102
RTVSPost2010Prop51ColorRGB
 90
-16777216
102
RTVSPost2010PropOp51
 70
     0
102
RTVSPost2010Prop52
140
1.0
102
RTVSPost2010PropOp52
 70
     0
102
RTVSPost2010Prop53
 90
        2
102
RTVSPost2010PropOp53
 70
     1
102
RTVSPost2010Prop54
  1
strokes_ogs.tif
102
RTVSPost2010PropOp54
 70
     1
102
RTVSPost2010Prop55
280
     0
102
RTVSPost2010PropOp55
 70
     1
102
RTVSPost2010Prop56
140
1.0
102
RTVSPost2010PropOp56
 70
     1
102
RTVSPost2010Prop57
140
1.0
102
RTVSPost2010PropOp57
 70
     1
102
RTVSPropertyOp0
 70
     1
102
RTVSPropertyOp1
 70
     1
102
RTVSPropertyOp2
 70
     1
102
RTVSPropertyOp3
 70
     1
102
RTVSPropertyOp4
 70
     1
102
RTVSPropertyOp5
 70
     1
102
RTVSPropertyOp6
 70
     1
102
RTVSPropertyOp7
 70
     1
102
RTVSPropertyOp8
 70
     1
102
RTVSPropertyOp9
 70
     1
102
RTVSPropertyOp10
 70
     1
102
RTVSPropertyOp11
 70
     1
102
RTVSPropertyOp12
 70
     1
102
RTVSPropertyOp13
 70
     1
102
RTVSPropertyOp14
 70
     1
102
RTVSPropertyOp15
 70
     1
102
RTVSPropertyOp16
 70
     1
102
RTVSPropertyOp17
 70
     1
102
RTVSPropertyOp18
 70
     1
102
RTVSPropertyOp19
 70
     1
102
RTVSPropertyOp20
 70
     1
102
RTVSPropertyOp21
 70
     1
102
RTVSPropertyOp22
 70
     1
102
RTVSPropertyOp23
 70
     1
102
RTVSPropertyOp24
 70
     1
102
RTVSPropertyOp25
 70
     1
102
RTVSPropertyOp26
 70
     1
102
RTVSPropertyOp27
 70
     1
102
RTVSPropertyOp28
 70
     1
102
RTVSPropertyOp29
 70
     1
102
RTVSPropertyOp30
 70
     1
102
RTVSPropertyOp31
 70
     1
102
RTVSPropertyOp32
 70
     1
102
RTVSPropertyOp33
 70
     1
102
RTVSPropertyOp34
 70
     1
102
RTVSPropertyOp35
 70
     1
102
RTVSPropertyOp36
 70
     1
102
RTVSPropertyOp37
 70
     1
102
RTVSPropertyOp38
 70
     1
102
RTVSPropertyOp39
 70
     1
102
RTVSPropertyOp40
 70
     1
102
RTVSPropertyOp41
 70
     1
102
RTVSPropertyOp42
 70
     1
102
RTVSPropertyOp43
 70
     1
102
RTVSPropertyOp44
 70
     1
102
RTVSPropertyOp45
 70
     1
102
RTVSPropertyOp46
 70
     1
102
RTVSPropertyOp47
 70
     1
102
RTVSPropertyOp48
 70
     1
102
RTVSPropertyOp49
 70
     1
102
RTVSPropertyOp50
 70
     1
102
RTVSPropertyOp51
 70
     0
102
RTVSPropertyOp52
 70
     0
102
RTVSPropertyOp53
 70
     1
102
RTVSPropertyOp54
 70
     1
102
RTVSPropertyOp55
 70
     1
102
RTVSPropertyOp56
 70
     1
102
RTVSPropertyOp57
 70
     1
102
RTVSPropertyOp58
 70
     1
102
RTVSPropertyOp59
 70
     1
102
RTVSPropertyOp60
 70
     1
102
RTVSPropertyOp61
 70
     1
102
RTVSPropertyOp62
 70
     1
  0
XRECORD
  5
B288
102
{ACAD_REACTORS
330
B287
102
}
330
B287
100
AcDbXrecord
280
     1
102
RTVSPost2010Prop28
280
     0
102
RTVSPost2010PropOp28
 70
     1
102
RTVSPost2010Prop29
280
     1
102
RTVSPost2010PropOp29
 70
     1
102
RTVSPost2010Prop30
280
     1
102
RTVSPost2010PropOp30
 70
     1
102
RTVSPost2010Prop31
280
     0
102
RTVSPost2010PropOp31
 70
     1
102
RTVSPost2010Prop32
280
     0
102
RTVSPost2010PropOp32
 70
     1
102
RTVSPost2010Prop33
280
     0
102
RTVSPost2010PropOp33
 70
     1
102
RTVSPost2010Prop34
280
     0
102
RTVSPost2010PropOp34
 70
     1
102
RTVSPost2010Prop35
280
     0
102
RTVSPost2010PropOp35
 70
     1
102
RTVSPost2010Prop36
280
     0
102
RTVSPost2010PropOp36
 70
     1
102
RTVSPost2010Prop37
 90
       50
102
RTVSPost2010PropOp37
 70
     1
102
RTVSPost2010Prop38
140
0.0
102
RTVSPost2010PropOp38
 70
     1
102
RTVSPost2010Prop39
140
1.0
102
RTVSPost2010PropOp39
 70
     1
102
RTVSPost2010Prop40
 90
        0
102
RTVSPost2010PropOp40
 70
     1
102
RTVSPost2010Prop41ColorIndex
 90
       18
102
RTVSPost2010Prop41ColorRGB
 90
        0
102
RTVSPost2010PropOp41
 70
     1
102
RTVSPost2010Prop42
 90
       50
102
RTVSPost2010PropOp42
 70
     1
102
RTVSPost2010Prop43
 90
        3
102
RTVSPost2010PropOp43
 70
     1
102
RTVSPost2010Prop44ColorIndex
 90
        5
102
RTVSPost2010Prop44ColorRGB
 90
      255
102
RTVSPost2010PropOp44
 70
     1
102
RTVSPost2010Prop45
280
     0
102
RTVSPost2010PropOp45
 70
     1
102
RTVSPost2010Prop46
 90
       50
102
RTVSPost2010PropOp46
 70
     1
102
RTVSPost2010Prop47
 90
       50
102
RTVSPost2010PropOp47
 70
     1
102
RTVSPost2010Prop48
 90
       50
102
RTVSPost2010PropOp48
 70
     1
102
RTVSPost2010Prop49
280
     0
102
RTVSPost2010PropOp49
 70
     1
102
RTVSPost2010Prop50
 90
       50
102
RTVSPost2010PropOp50
 70
     1
102
RTVSPost2010Prop51ColorIndex
 90
      256
102
RTVSPost2010Prop51ColorRGB
 90
-16777216
102
RTVSPost2010PropOp51
 70
     0
102
RTVSPost2010Prop52
140
1.0
102
RTVSPost2010PropOp52
 70
     0
102
RTVSPost2010Prop53
 90
        2
102
RTVSPost2010PropOp53
 70
     1
102
RTVSPost2010Prop54
  1
strokes_ogs.tif
102
RTVSPost2010PropOp54
 70
     1
102
RTVSPost2010Prop55
280
     0
102
RTVSPost2010PropOp55
 70
     1
102
RTVSPost2010Prop56
140
1.0
102
RTVSPost2010PropOp56
 70
     1
102
RTVSPost2010Prop57
140
1.0
102
RTVSPost2010PropOp57
 70
     1
102
RTVSPropertyOp0
 70
     1
102
RTVSPropertyOp1
 70
     1
102
RTVSPropertyOp2
 70
     1
102
RTVSPropertyOp3
 70
     1
102
RTVSPropertyOp4
 70
     1
102
RTVSPropertyOp5
 70
     1
102
RTVSPropertyOp6
 70
     1
102
RTVSPropertyOp7
 70
     1
102
RTVSPropertyOp8
 70
     1
102
RTVSPropertyOp9
 70
     1
102
RTVSPropertyOp10
 70
     1
102
RTVSPropertyOp11
 70
     1
102
RTVSPropertyOp12
 70
     1
102
RTVSPropertyOp13
 70
     1
102
RTVSPropertyOp14
 70
     1
102
RTVSPropertyOp15
 70
     1
102
RTVSPropertyOp16
 70
     1
102
RTVSPropertyOp17
 70
     1
102
RTVSPropertyOp18
 70
     1
102
RTVSPropertyOp19
 70
     1
102
RTVSPropertyOp20
 70
     1
102
RTVSPropertyOp21
 70
     1
102
RTVSPropertyOp22
 70
     1
102
RTVSPropertyOp23
 70
     1
102
RTVSPropertyOp24
 70
     1
102
RTVSPropertyOp25
 70
     1
102
RTVSPropertyOp26
 70
     1
102
RTVSPropertyOp27
 70
     1
102
RTVSPropertyOp28
 70
     1
102
RTVSPropertyOp29
 70
     1
102
RTVSPropertyOp30
 70
     1
102
RTVSPropertyOp31
 70
     1
102
RTVSPropertyOp32
 70
     1
102
RTVSPropertyOp33
 70
     1
102
RTVSPropertyOp34
 70
     1
102
RTVSPropertyOp35
 70
     1
102
RTVSPropertyOp36
 70
     1
102
RTVSPropertyOp37
 70
     1
102
RTVSPropertyOp38
 70
     1
102
RTVSPropertyOp39
 70
     1
102
RTVSPropertyOp40
 70
     1
102
RTVSPropertyOp41
 70
     1
102
RTVSPropertyOp42
 70
     1
102
RTVSPropertyOp43
 70
     1
102
RTVSPropertyOp44
 70
     1
102
RTVSPropertyOp45
 70
     1
102
RTVSPropertyOp46
 70
     1
102
RTVSPropertyOp47
 70
     1
102
RTVSPropertyOp48
 70
     1
102
RTVSPropertyOp49
 70
     1
102
RTVSPropertyOp50
 70
     1
102
RTVSPropertyOp51
 70
     0
102
RTVSPropertyOp52
 70
     0
102
RTVSPropertyOp53
 70
     1
102
RTVSPropertyOp54
 70
     1
102
RTVSPropertyOp55
 70
     1
102
RTVSPropertyOp56
 70
     1
102
RTVSPropertyOp57
 70
     1
102
RTVSPropertyOp58
 70
     1
102
RTVSPropertyOp59
 70
     1
102
RTVSPropertyOp60
 70
     1
102
RTVSPropertyOp61
 70
     1
102
RTVSPropertyOp62
 70
     1
  0
XRECORD
  5
B296
102
{ACAD_REACTORS
330
B295
102
}
330
B295
100
AcDbXrecord
280
     1
102
RTVSPost2010Prop28
280
     0
102
RTVSPost2010PropOp28
 70
     1
102
RTVSPost2010Prop29
280
     1
102
RTVSPost2010PropOp29
 70
     1
102
RTVSPost2010Prop30
280
     1
102
RTVSPost2010PropOp30
 70
     1
102
RTVSPost2010Prop31
280
     0
102
RTVSPost2010PropOp31
 70
     1
102
RTVSPost2010Prop32
280
     0
102
RTVSPost2010PropOp32
 70
     1
102
RTVSPost2010Prop33
280
     0
102
RTVSPost2010PropOp33
 70
     1
102
RTVSPost2010Prop34
280
     0
102
RTVSPost2010PropOp34
 70
     1
102
RTVSPost2010Prop35
280
     0
102
RTVSPost2010PropOp35
 70
     1
102
RTVSPost2010Prop36
280
     0
102
RTVSPost2010PropOp36
 70
     1
102
RTVSPost2010Prop37
 90
       50
102
RTVSPost2010PropOp37
 70
     1
102
RTVSPost2010Prop38
140
0.0
102
RTVSPost2010PropOp38
 70
     1
102
RTVSPost2010Prop39
140
1.0
102
RTVSPost2010PropOp39
 70
     1
102
RTVSPost2010Prop40
 90
        0
102
RTVSPost2010PropOp40
 70
     1
102
RTVSPost2010Prop41ColorIndex
 90
       18
102
RTVSPost2010Prop41ColorRGB
 90
        0
102
RTVSPost2010PropOp41
 70
     1
102
RTVSPost2010Prop42
 90
       50
102
RTVSPost2010PropOp42
 70
     1
102
RTVSPost2010Prop43
 90
        3
102
RTVSPost2010PropOp43
 70
     1
102
RTVSPost2010Prop44ColorIndex
 90
        5
102
RTVSPost2010Prop44ColorRGB
 90
      255
102
RTVSPost2010PropOp44
 70
     1
102
RTVSPost2010Prop45
280
     0
102
RTVSPost2010PropOp45
 70
     1
102
RTVSPost2010Prop46
 90
       50
102
RTVSPost2010PropOp46
 70
     1
102
RTVSPost2010Prop47
 90
       50
102
RTVSPost2010PropOp47
 70
     1
102
RTVSPost2010Prop48
 90
       50
102
RTVSPost2010PropOp48
 70
     1
102
RTVSPost2010Prop49
280
     0
102
RTVSPost2010PropOp49
 70
     1
102
RTVSPost2010Prop50
 90
       50
102
RTVSPost2010PropOp50
 70
     1
102
RTVSPost2010Prop51ColorIndex
 90
      256
102
RTVSPost2010Prop51ColorRGB
 90
-16777216
102
RTVSPost2010PropOp51
 70
     0
102
RTVSPost2010Prop52
140
1.0
102
RTVSPost2010PropOp52
 70
     0
102
RTVSPost2010Prop53
 90
        2
102
RTVSPost2010PropOp53
 70
     1
102
RTVSPost2010Prop54
  1
strokes_ogs.tif
102
RTVSPost2010PropOp54
 70
     1
102
RTVSPost2010Prop55
280
     0
102
RTVSPost2010PropOp55
 70
     1
102
RTVSPost2010Prop56
140
1.0
102
RTVSPost2010PropOp56
 70
     1
102
RTVSPost2010Prop57
140
1.0
102
RTVSPost2010PropOp57
 70
     1
102
RTVSPropertyOp0
 70
     1
102
RTVSPropertyOp1
 70
     1
102
RTVSPropertyOp2
 70
     1
102
RTVSPropertyOp3
 70
     1
102
RTVSPropertyOp4
 70
     1
102
RTVSPropertyOp5
 70
     1
102
RTVSPropertyOp6
 70
     1
102
RTVSPropertyOp7
 70
     1
102
RTVSPropertyOp8
 70
     1
102
RTVSPropertyOp9
 70
     1
102
RTVSPropertyOp10
 70
     1
102
RTVSPropertyOp11
 70
     1
102
RTVSPropertyOp12
 70
     1
102
RTVSPropertyOp13
 70
     1
102
RTVSPropertyOp14
 70
     1
102
RTVSPropertyOp15
 70
     1
102
RTVSPropertyOp16
 70
     1
102
RTVSPropertyOp17
 70
     1
102
RTVSPropertyOp18
 70
     1
102
RTVSPropertyOp19
 70
     1
102
RTVSPropertyOp20
 70
     1
102
RTVSPropertyOp21
 70
     1
102
RTVSPropertyOp22
 70
     1
102
RTVSPropertyOp23
 70
     1
102
RTVSPropertyOp24
 70
     1
102
RTVSPropertyOp25
 70
     1
102
RTVSPropertyOp26
 70
     1
102
RTVSPropertyOp27
 70
     1
102
RTVSPropertyOp28
 70
     1
102
RTVSPropertyOp29
 70
     1
102
RTVSPropertyOp30
 70
     1
102
RTVSPropertyOp31
 70
     1
102
RTVSPropertyOp32
 70
     1
102
RTVSPropertyOp33
 70
     1
102
RTVSPropertyOp34
 70
     1
102
RTVSPropertyOp35
 70
     1
102
RTVSPropertyOp36
 70
     1
102
RTVSPropertyOp37
 70
     1
102
RTVSPropertyOp38
 70
     1
102
RTVSPropertyOp39
 70
     1
102
RTVSPropertyOp40
 70
     1
102
RTVSPropertyOp41
 70
     1
102
RTVSPropertyOp42
 70
     1
102
RTVSPropertyOp43
 70
     1
102
RTVSPropertyOp44
 70
     1
102
RTVSPropertyOp45
 70
     1
102
RTVSPropertyOp46
 70
     1
102
RTVSPropertyOp47
 70
     1
102
RTVSPropertyOp48
 70
     1
102
RTVSPropertyOp49
 70
     1
102
RTVSPropertyOp50
 70
     1
102
RTVSPropertyOp51
 70
     0
102
RTVSPropertyOp52
 70
     0
102
RTVSPropertyOp53
 70
     1
102
RTVSPropertyOp54
 70
     1
102
RTVSPropertyOp55
 70
     1
102
RTVSPropertyOp56
 70
     1
102
RTVSPropertyOp57
 70
     1
102
RTVSPropertyOp58
 70
     1
102
RTVSPropertyOp59
 70
     1
102
RTVSPropertyOp60
 70
     1
102
RTVSPropertyOp61
 70
     1
102
RTVSPropertyOp62
 70
     1
  0
XRECORD
  5
B29E
102
{ACAD_REACTORS
330
B29D
102
}
330
B29D
100
AcDbXrecord
280
     1
102
RTVSPost2010Prop28
280
     0
102
RTVSPost2010PropOp28
 70
     1
102
RTVSPost2010Prop29
280
     1
102
RTVSPost2010PropOp29
 70
     1
102
RTVSPost2010Prop30
280
     1
102
RTVSPost2010PropOp30
 70
     1
102
RTVSPost2010Prop31
280
     0
102
RTVSPost2010PropOp31
 70
     1
102
RTVSPost2010Prop32
280
     0
102
RTVSPost2010PropOp32
 70
     1
102
RTVSPost2010Prop33
280
     0
102
RTVSPost2010PropOp33
 70
     1
102
RTVSPost2010Prop34
280
     0
102
RTVSPost2010PropOp34
 70
     1
102
RTVSPost2010Prop35
280
     0
102
RTVSPost2010PropOp35
 70
     1
102
RTVSPost2010Prop36
280
     0
102
RTVSPost2010PropOp36
 70
     1
102
RTVSPost2010Prop37
 90
       50
102
RTVSPost2010PropOp37
 70
     1
102
RTVSPost2010Prop38
140
0.0
102
RTVSPost2010PropOp38
 70
     1
102
RTVSPost2010Prop39
140
1.0
102
RTVSPost2010PropOp39
 70
     1
102
RTVSPost2010Prop40
 90
        0
102
RTVSPost2010PropOp40
 70
     1
102
RTVSPost2010Prop41ColorIndex
 90
       18
102
RTVSPost2010Prop41ColorRGB
 90
        0
102
RTVSPost2010PropOp41
 70
     1
102
RTVSPost2010Prop42
 90
       50
102
RTVSPost2010PropOp42
 70
     1
102
RTVSPost2010Prop43
 90
        3
102
RTVSPost2010PropOp43
 70
     1
102
RTVSPost2010Prop44ColorIndex
 90
        5
102
RTVSPost2010Prop44ColorRGB
 90
      255
102
RTVSPost2010PropOp44
 70
     1
102
RTVSPost2010Prop45
280
     0
102
RTVSPost2010PropOp45
 70
     1
102
RTVSPost2010Prop46
 90
       50
102
RTVSPost2010PropOp46
 70
     1
102
RTVSPost2010Prop47
 90
       50
102
RTVSPost2010PropOp47
 70
     1
102
RTVSPost2010Prop48
 90
       50
102
RTVSPost2010PropOp48
 70
     1
102
RTVSPost2010Prop49
280
     0
102
RTVSPost2010PropOp49
 70
     1
102
RTVSPost2010Prop50
 90
       50
102
RTVSPost2010PropOp50
 70
     1
102
RTVSPost2010Prop51ColorIndex
 90
      256
102
RTVSPost2010Prop51ColorRGB
 90
-16777216
102
RTVSPost2010PropOp51
 70
     0
102
RTVSPost2010Prop52
140
1.0
102
RTVSPost2010PropOp52
 70
     0
102
RTVSPost2010Prop53
 90
        2
102
RTVSPost2010PropOp53
 70
     1
102
RTVSPost2010Prop54
  1
strokes_ogs.tif
102
RTVSPost2010PropOp54
 70
     1
102
RTVSPost2010Prop55
280
     0
102
RTVSPost2010PropOp55
 70
     1
102
RTVSPost2010Prop56
140
1.0
102
RTVSPost2010PropOp56
 70
     1
102
RTVSPost2010Prop57
140
1.0
102
RTVSPost2010PropOp57
 70
     1
102
RTVSPropertyOp0
 70
     1
102
RTVSPropertyOp1
 70
     1
102
RTVSPropertyOp2
 70
     1
102
RTVSPropertyOp3
 70
     1
102
RTVSPropertyOp4
 70
     1
102
RTVSPropertyOp5
 70
     1
102
RTVSPropertyOp6
 70
     1
102
RTVSPropertyOp7
 70
     1
102
RTVSPropertyOp8
 70
     1
102
RTVSPropertyOp9
 70
     1
102
RTVSPropertyOp10
 70
     1
102
RTVSPropertyOp11
 70
     1
102
RTVSPropertyOp12
 70
     1
102
RTVSPropertyOp13
 70
     1
102
RTVSPropertyOp14
 70
     1
102
RTVSPropertyOp15
 70
     1
102
RTVSPropertyOp16
 70
     1
102
RTVSPropertyOp17
 70
     1
102
RTVSPropertyOp18
 70
     1
102
RTVSPropertyOp19
 70
     1
102
RTVSPropertyOp20
 70
     1
102
RTVSPropertyOp21
 70
     1
102
RTVSPropertyOp22
 70
     1
102
RTVSPropertyOp23
 70
     1
102
RTVSPropertyOp24
 70
     1
102
RTVSPropertyOp25
 70
     1
102
RTVSPropertyOp26
 70
     1
102
RTVSPropertyOp27
 70
     1
102
RTVSPropertyOp28
 70
     1
102
RTVSPropertyOp29
 70
     1
102
RTVSPropertyOp30
 70
     1
102
RTVSPropertyOp31
 70
     1
102
RTVSPropertyOp32
 70
     1
102
RTVSPropertyOp33
 70
     1
102
RTVSPropertyOp34
 70
     1
102
RTVSPropertyOp35
 70
     1
102
RTVSPropertyOp36
 70
     1
102
RTVSPropertyOp37
 70
     1
102
RTVSPropertyOp38
 70
     1
102
RTVSPropertyOp39
 70
     1
102
RTVSPropertyOp40
 70
     1
102
RTVSPropertyOp41
 70
     1
102
RTVSPropertyOp42
 70
     1
102
RTVSPropertyOp43
 70
     1
102
RTVSPropertyOp44
 70
     1
102
RTVSPropertyOp45
 70
     1
102
RTVSPropertyOp46
 70
     1
102
RTVSPropertyOp47
 70
     1
102
RTVSPropertyOp48
 70
     1
102
RTVSPropertyOp49
 70
     1
102
RTVSPropertyOp50
 70
     1
102
RTVSPropertyOp51
 70
     0
102
RTVSPropertyOp52
 70
     0
102
RTVSPropertyOp53
 70
     1
102
RTVSPropertyOp54
 70
     1
102
RTVSPropertyOp55
 70
     1
102
RTVSPropertyOp56
 70
     1
102
RTVSPropertyOp57
 70
     1
102
RTVSPropertyOp58
 70
     1
102
RTVSPropertyOp59
 70
     1
102
RTVSPropertyOp60
 70
     1
102
RTVSPropertyOp61
 70
     1
102
RTVSPropertyOp62
 70
     1
  0
XRECORD
  5
B290
102
{ACAD_REACTORS
330
B28F
102
}
330
B28F
100
AcDbXrecord
280
     1
102
RTVSPost2010Prop28
280
     0
102
RTVSPost2010PropOp28
 70
     1
102
RTVSPost2010Prop29
280
     1
102
RTVSPost2010PropOp29
 70
     1
102
RTVSPost2010Prop30
280
     1
102
RTVSPost2010PropOp30
 70
     1
102
RTVSPost2010Prop31
280
     0
102
RTVSPost2010PropOp31
 70
     1
102
RTVSPost2010Prop32
280
     0
102
RTVSPost2010PropOp32
 70
     1
102
RTVSPost2010Prop33
280
     0
102
RTVSPost2010PropOp33
 70
     1
102
RTVSPost2010Prop34
280
     0
102
RTVSPost2010PropOp34
 70
     1
102
RTVSPost2010Prop35
280
     0
102
RTVSPost2010PropOp35
 70
     1
102
RTVSPost2010Prop36
280
     0
102
RTVSPost2010PropOp36
 70
     1
102
RTVSPost2010Prop37
 90
       50
102
RTVSPost2010PropOp37
 70
     1
102
RTVSPost2010Prop38
140
0.0
102
RTVSPost2010PropOp38
 70
     1
102
RTVSPost2010Prop39
140
1.0
102
RTVSPost2010PropOp39
 70
     1
102
RTVSPost2010Prop40
 90
        0
102
RTVSPost2010PropOp40
 70
     1
102
RTVSPost2010Prop41ColorIndex
 90
       18
102
RTVSPost2010Prop41ColorRGB
 90
        0
102
RTVSPost2010PropOp41
 70
     1
102
RTVSPost2010Prop42
 90
       50
102
RTVSPost2010PropOp42
 70
     1
102
RTVSPost2010Prop43
 90
        3
102
RTVSPost2010PropOp43
 70
     1
102
RTVSPost2010Prop44ColorIndex
 90
        5
102
RTVSPost2010Prop44ColorRGB
 90
      255
102
RTVSPost2010PropOp44
 70
     1
102
RTVSPost2010Prop45
280
     0
102
RTVSPost2010PropOp45
 70
     1
102
RTVSPost2010Prop46
 90
       50
102
RTVSPost2010PropOp46
 70
     1
102
RTVSPost2010Prop47
 90
       50
102
RTVSPost2010PropOp47
 70
     1
102
RTVSPost2010Prop48
 90
       50
102
RTVSPost2010PropOp48
 70
     1
102
RTVSPost2010Prop49
280
     0
102
RTVSPost2010PropOp49
 70
     1
102
RTVSPost2010Prop50
 90
       50
102
RTVSPost2010PropOp50
 70
     1
102
RTVSPost2010Prop51ColorIndex
 90
      256
102
RTVSPost2010Prop51ColorRGB
 90
-16777216
102
RTVSPost2010PropOp51
 70
     0
102
RTVSPost2010Prop52
140
1.0
102
RTVSPost2010PropOp52
 70
     0
102
RTVSPost2010Prop53
 90
        2
102
RTVSPost2010PropOp53
 70
     1
102
RTVSPost2010Prop54
  1
strokes_ogs.tif
102
RTVSPost2010PropOp54
 70
     1
102
RTVSPost2010Prop55
280
     0
102
RTVSPost2010PropOp55
 70
     1
102
RTVSPost2010Prop56
140
1.0
102
RTVSPost2010PropOp56
 70
     1
102
RTVSPost2010Prop57
140
1.0
102
RTVSPost2010PropOp57
 70
     1
102
RTVSPropertyOp0
 70
     1
102
RTVSPropertyOp1
 70
     1
102
RTVSPropertyOp2
 70
     1
102
RTVSPropertyOp3
 70
     1
102
RTVSPropertyOp4
 70
     1
102
RTVSPropertyOp5
 70
     1
102
RTVSPropertyOp6
 70
     1
102
RTVSPropertyOp7
 70
     1
102
RTVSPropertyOp8
 70
     1
102
RTVSPropertyOp9
 70
     1
102
RTVSPropertyOp10
 70
     1
102
RTVSPropertyOp11
 70
     1
102
RTVSPropertyOp12
 70
     1
102
RTVSPropertyOp13
 70
     1
102
RTVSPropertyOp14
 70
     1
102
RTVSPropertyOp15
 70
     1
102
RTVSPropertyOp16
 70
     1
102
RTVSPropertyOp17
 70
     1
102
RTVSPropertyOp18
 70
     1
102
RTVSPropertyOp19
 70
     1
102
RTVSPropertyOp20
 70
     1
102
RTVSPropertyOp21
 70
     1
102
RTVSPropertyOp22
 70
     1
102
RTVSPropertyOp23
 70
     1
102
RTVSPropertyOp24
 70
     1
102
RTVSPropertyOp25
 70
     1
102
RTVSPropertyOp26
 70
     1
102
RTVSPropertyOp27
 70
     1
102
RTVSPropertyOp28
 70
     1
102
RTVSPropertyOp29
 70
     1
102
RTVSPropertyOp30
 70
     1
102
RTVSPropertyOp31
 70
     1
102
RTVSPropertyOp32
 70
     1
102
RTVSPropertyOp33
 70
     1
102
RTVSPropertyOp34
 70
     1
102
RTVSPropertyOp35
 70
     1
102
RTVSPropertyOp36
 70
     1
102
RTVSPropertyOp37
 70
     1
102
RTVSPropertyOp38
 70
     1
102
RTVSPropertyOp39
 70
     1
102
RTVSPropertyOp40
 70
     1
102
RTVSPropertyOp41
 70
     1
102
RTVSPropertyOp42
 70
     1
102
RTVSPropertyOp43
 70
     1
102
RTVSPropertyOp44
 70
     1
102
RTVSPropertyOp45
 70
     1
102
RTVSPropertyOp46
 70
     1
102
RTVSPropertyOp47
 70
     1
102
RTVSPropertyOp48
 70
     1
102
RTVSPropertyOp49
 70
     1
102
RTVSPropertyOp50
 70
     1
102
RTVSPropertyOp51
 70
     0
102
RTVSPropertyOp52
 70
     0
102
RTVSPropertyOp53
 70
     1
102
RTVSPropertyOp54
 70
     1
102
RTVSPropertyOp55
 70
     1
102
RTVSPropertyOp56
 70
     1
102
RTVSPropertyOp57
 70
     1
102
RTVSPropertyOp58
 70
     1
102
RTVSPropertyOp59
 70
     1
102
RTVSPropertyOp60
 70
     1
102
RTVSPropertyOp61
 70
     1
102
RTVSPropertyOp62
 70
     1
  0
XRECORD
  5
B294
102
{ACAD_REACTORS
330
B293
102
}
330
B293
100
AcDbXrecord
280
     1
102
RTVSPost2010Prop28
280
     0
102
RTVSPost2010PropOp28
 70
     1
102
RTVSPost2010Prop29
280
     1
102
RTVSPost2010PropOp29
 70
     1
102
RTVSPost2010Prop30
280
     1
102
RTVSPost2010PropOp30
 70
     1
102
RTVSPost2010Prop31
280
     0
102
RTVSPost2010PropOp31
 70
     1
102
RTVSPost2010Prop32
280
     0
102
RTVSPost2010PropOp32
 70
     1
102
RTVSPost2010Prop33
280
     0
102
RTVSPost2010PropOp33
 70
     1
102
RTVSPost2010Prop34
280
     0
102
RTVSPost2010PropOp34
 70
     1
102
RTVSPost2010Prop35
280
     0
102
RTVSPost2010PropOp35
 70
     1
102
RTVSPost2010Prop36
280
     0
102
RTVSPost2010PropOp36
 70
     1
102
RTVSPost2010Prop37
 90
       50
102
RTVSPost2010PropOp37
 70
     1
102
RTVSPost2010Prop38
140
0.0
102
RTVSPost2010PropOp38
 70
     1
102
RTVSPost2010Prop39
140
1.0
102
RTVSPost2010PropOp39
 70
     1
102
RTVSPost2010Prop40
 90
        0
102
RTVSPost2010PropOp40
 70
     1
102
RTVSPost2010Prop41ColorIndex
 90
       18
102
RTVSPost2010Prop41ColorRGB
 90
        0
102
RTVSPost2010PropOp41
 70
     1
102
RTVSPost2010Prop42
 90
       50
102
RTVSPost2010PropOp42
 70
     1
102
RTVSPost2010Prop43
 90
        3
102
RTVSPost2010PropOp43
 70
     1
102
RTVSPost2010Prop44ColorIndex
 90
        5
102
RTVSPost2010Prop44ColorRGB
 90
      255
102
RTVSPost2010PropOp44
 70
     1
102
RTVSPost2010Prop45
280
     0
102
RTVSPost2010PropOp45
 70
     1
102
RTVSPost2010Prop46
 90
       50
102
RTVSPost2010PropOp46
 70
     1
102
RTVSPost2010Prop47
 90
       50
102
RTVSPost2010PropOp47
 70
     1
102
RTVSPost2010Prop48
 90
       50
102
RTVSPost2010PropOp48
 70
     1
102
RTVSPost2010Prop49
280
     0
102
RTVSPost2010PropOp49
 70
     1
102
RTVSPost2010Prop50
 90
       50
102
RTVSPost2010PropOp50
 70
     1
102
RTVSPost2010Prop51ColorIndex
 90
      256
102
RTVSPost2010Prop51ColorRGB
 90
-16777216
102
RTVSPost2010PropOp51
 70
     0
102
RTVSPost2010Prop52
140
1.0
102
RTVSPost2010PropOp52
 70
     0
102
RTVSPost2010Prop53
 90
        2
102
RTVSPost2010PropOp53
 70
     1
102
RTVSPost2010Prop54
  1
strokes_ogs.tif
102
RTVSPost2010PropOp54
 70
     1
102
RTVSPost2010Prop55
280
     0
102
RTVSPost2010PropOp55
 70
     1
102
RTVSPost2010Prop56
140
1.0
102
RTVSPost2010PropOp56
 70
     1
102
RTVSPost2010Prop57
140
1.0
102
RTVSPost2010PropOp57
 70
     1
102
RTVSPropertyOp0
 70
     1
102
RTVSPropertyOp1
 70
     1
102
RTVSPropertyOp2
 70
     1
102
RTVSPropertyOp3
 70
     1
102
RTVSPropertyOp4
 70
     1
102
RTVSPropertyOp5
 70
     1
102
RTVSPropertyOp6
 70
     1
102
RTVSPropertyOp7
 70
     1
102
RTVSPropertyOp8
 70
     1
102
RTVSPropertyOp9
 70
     1
102
RTVSPropertyOp10
 70
     1
102
RTVSPropertyOp11
 70
     1
102
RTVSPropertyOp12
 70
     1
102
RTVSPropertyOp13
 70
     1
102
RTVSPropertyOp14
 70
     1
102
RTVSPropertyOp15
 70
     1
102
RTVSPropertyOp16
 70
     1
102
RTVSPropertyOp17
 70
     1
102
RTVSPropertyOp18
 70
     1
102
RTVSPropertyOp19
 70
     1
102
RTVSPropertyOp20
 70
     1
102
RTVSPropertyOp21
 70
     1
102
RTVSPropertyOp22
 70
     1
102
RTVSPropertyOp23
 70
     1
102
RTVSPropertyOp24
 70
     1
102
RTVSPropertyOp25
 70
     1
102
RTVSPropertyOp26
 70
     1
102
RTVSPropertyOp27
 70
     1
102
RTVSPropertyOp28
 70
     1
102
RTVSPropertyOp29
 70
     1
102
RTVSPropertyOp30
 70
     1
102
RTVSPropertyOp31
 70
     1
102
RTVSPropertyOp32
 70
     1
102
RTVSPropertyOp33
 70
     1
102
RTVSPropertyOp34
 70
     1
102
RTVSPropertyOp35
 70
     1
102
RTVSPropertyOp36
 70
     1
102
RTVSPropertyOp37
 70
     1
102
RTVSPropertyOp38
 70
     1
102
RTVSPropertyOp39
 70
     1
102
RTVSPropertyOp40
 70
     1
102
RTVSPropertyOp41
 70
     1
102
RTVSPropertyOp42
 70
     1
102
RTVSPropertyOp43
 70
     1
102
RTVSPropertyOp44
 70
     1
102
RTVSPropertyOp45
 70
     1
102
RTVSPropertyOp46
 70
     1
102
RTVSPropertyOp47
 70
     1
102
RTVSPropertyOp48
 70
     1
102
RTVSPropertyOp49
 70
     1
102
RTVSPropertyOp50
 70
     1
102
RTVSPropertyOp51
 70
     0
102
RTVSPropertyOp52
 70
     0
102
RTVSPropertyOp53
 70
     1
102
RTVSPropertyOp54
 70
     1
102
RTVSPropertyOp55
 70
     1
102
RTVSPropertyOp56
 70
     1
102
RTVSPropertyOp57
 70
     1
102
RTVSPropertyOp58
 70
     1
102
RTVSPropertyOp59
 70
     1
102
RTVSPropertyOp60
 70
     1
102
RTVSPropertyOp61
 70
     1
102
RTVSPropertyOp62
 70
     1
  0
XRECORD
  5
B2A6
102
{ACAD_REACTORS
330
B2A5
102
}
330
B2A5
100
AcDbXrecord
280
     1
102
RTVSPost2010Prop28
280
     0
102
RTVSPost2010PropOp28
 70
     1
102
RTVSPost2010Prop29
280
     1
102
RTVSPost2010PropOp29
 70
     1
102
RTVSPost2010Prop30
280
     1
102
RTVSPost2010PropOp30
 70
     1
102
RTVSPost2010Prop31
280
     0
102
RTVSPost2010PropOp31
 70
     1
102
RTVSPost2010Prop32
280
     0
102
RTVSPost2010PropOp32
 70
     1
102
RTVSPost2010Prop33
280
     0
102
RTVSPost2010PropOp33
 70
     1
102
RTVSPost2010Prop34
280
     0
102
RTVSPost2010PropOp34
 70
     1
102
RTVSPost2010Prop35
280
     0
102
RTVSPost2010PropOp35
 70
     1
102
RTVSPost2010Prop36
280
     0
102
RTVSPost2010PropOp36
 70
     1
102
RTVSPost2010Prop37
 90
       50
102
RTVSPost2010PropOp37
 70
     1
102
RTVSPost2010Prop38
140
0.0
102
RTVSPost2010PropOp38
 70
     1
102
RTVSPost2010Prop39
140
1.0
102
RTVSPost2010PropOp39
 70
     1
102
RTVSPost2010Prop40
 90
        0
102
RTVSPost2010PropOp40
 70
     1
102
RTVSPost2010Prop41ColorIndex
 90
       18
102
RTVSPost2010Prop41ColorRGB
 90
        0
102
RTVSPost2010PropOp41
 70
     1
102
RTVSPost2010Prop42
 90
       50
102
RTVSPost2010PropOp42
 70
     1
102
RTVSPost2010Prop43
 90
        3
102
RTVSPost2010PropOp43
 70
     1
102
RTVSPost2010Prop44ColorIndex
 90
        5
102
RTVSPost2010Prop44ColorRGB
 90
      255
102
RTVSPost2010PropOp44
 70
     1
102
RTVSPost2010Prop45
280
     0
102
RTVSPost2010PropOp45
 70
     1
102
RTVSPost2010Prop46
 90
       50
102
RTVSPost2010PropOp46
 70
     1
102
RTVSPost2010Prop47
 90
       50
102
RTVSPost2010PropOp47
 70
     1
102
RTVSPost2010Prop48
 90
       50
102
RTVSPost2010PropOp48
 70
     1
102
RTVSPost2010Prop49
280
     0
102
RTVSPost2010PropOp49
 70
     1
102
RTVSPost2010Prop50
 90
       50
102
RTVSPost2010PropOp50
 70
     1
102
RTVSPost2010Prop51ColorIndex
 90
      256
102
RTVSPost2010Prop51ColorRGB
 90
-16777216
102
RTVSPost2010PropOp51
 70
     0
102
RTVSPost2010Prop52
140
1.0
102
RTVSPost2010PropOp52
 70
     0
102
RTVSPost2010Prop53
 90
        2
102
RTVSPost2010PropOp53
 70
     1
102
RTVSPost2010Prop54
  1
strokes_ogs.tif
102
RTVSPost2010PropOp54
 70
     1
102
RTVSPost2010Prop55
280
     0
102
RTVSPost2010PropOp55
 70
     1
102
RTVSPost2010Prop56
140
1.0
102
RTVSPost2010PropOp56
 70
     1
102
RTVSPost2010Prop57
140
1.0
102
RTVSPost2010PropOp57
 70
     1
102
RTVSPropertyOp0
 70
     0
102
RTVSPropertyOp1
 70
     0
102
RTVSPropertyOp2
 70
     0
102
RTVSPropertyOp3
 70
     0
102
RTVSPropertyOp4
 70
     0
102
RTVSPropertyOp5
 70
     0
102
RTVSPropertyOp6
 70
     0
102
RTVSPropertyOp7
 70
     0
102
RTVSPropertyOp8
 70
     0
102
RTVSPropertyOp9
 70
     0
102
RTVSPropertyOp10
 70
     0
102
RTVSPropertyOp11
 70
     0
102
RTVSPropertyOp12
 70
     0
102
RTVSPropertyOp13
 70
     0
102
RTVSPropertyOp14
 70
     2
102
RTVSPropertyOp15
 70
     0
102
RTVSPropertyOp16
 70
     0
102
RTVSPropertyOp17
 70
     0
102
RTVSPropertyOp18
 70
     0
102
RTVSPropertyOp19
 70
     0
102
RTVSPropertyOp20
 70
     0
102
RTVSPropertyOp21
 70
     0
102
RTVSPropertyOp22
 70
     0
102
RTVSPropertyOp23
 70
     0
102
RTVSPropertyOp24
 70
     0
102
RTVSPropertyOp25
 70
     0
102
RTVSPropertyOp26
 70
     0
102
RTVSPropertyOp27
 70
     0
102
RTVSPropertyOp28
 70
     1
102
RTVSPropertyOp29
 70
     1
102
RTVSPropertyOp30
 70
     1
102
RTVSPropertyOp31
 70
     1
102
RTVSPropertyOp32
 70
     1
102
RTVSPropertyOp33
 70
     1
102
RTVSPropertyOp34
 70
     1
102
RTVSPropertyOp35
 70
     1
102
RTVSPropertyOp36
 70
     1
102
RTVSPropertyOp37
 70
     1
102
RTVSPropertyOp38
 70
     1
102
RTVSPropertyOp39
 70
     1
102
RTVSPropertyOp40
 70
     1
102
RTVSPropertyOp41
 70
     1
102
RTVSPropertyOp42
 70
     1
102
RTVSPropertyOp43
 70
     1
102
RTVSPropertyOp44
 70
     1
102
RTVSPropertyOp45
 70
     1
102
RTVSPropertyOp46
 70
     1
102
RTVSPropertyOp47
 70
     1
102
RTVSPropertyOp48
 70
     1
102
RTVSPropertyOp49
 70
     1
102
RTVSPropertyOp50
 70
     1
102
RTVSPropertyOp51
 70
     0
102
RTVSPropertyOp52
 70
     0
102
RTVSPropertyOp53
 70
     1
102
RTVSPropertyOp54
 70
     1
102
RTVSPropertyOp55
 70
     1
102
RTVSPropertyOp56
 70
     1
102
RTVSPropertyOp57
 70
     1
102
RTVSPropertyOp58
 70
     1
102
RTVSPropertyOp59
 70
     1
102
RTVSPropertyOp60
 70
     1
102
RTVSPropertyOp61
 70
     1
102
RTVSPropertyOp62
 70
     1
  0
XRECORD
  5
B29C
102
{ACAD_REACTORS
330
B29B
102
}
330
B29B
100
AcDbXrecord
280
     1
102
RTVSPost2010Prop28
280
     0
102
RTVSPost2010PropOp28
 70
     1
102
RTVSPost2010Prop29
280
     1
102
RTVSPost2010PropOp29
 70
     1
102
RTVSPost2010Prop30
280
     1
102
RTVSPost2010PropOp30
 70
     1
102
RTVSPost2010Prop31
280
     0
102
RTVSPost2010PropOp31
 70
     1
102
RTVSPost2010Prop32
280
     0
102
RTVSPost2010PropOp32
 70
     1
102
RTVSPost2010Prop33
280
     0
102
RTVSPost2010PropOp33
 70
     1
102
RTVSPost2010Prop34
280
     0
102
RTVSPost2010PropOp34
 70
     1
102
RTVSPost2010Prop35
280
     0
102
RTVSPost2010PropOp35
 70
     1
102
RTVSPost2010Prop36
280
     0
102
RTVSPost2010PropOp36
 70
     1
102
RTVSPost2010Prop37
 90
       50
102
RTVSPost2010PropOp37
 70
     1
102
RTVSPost2010Prop38
140
0.0
102
RTVSPost2010PropOp38
 70
     1
102
RTVSPost2010Prop39
140
1.0
102
RTVSPost2010PropOp39
 70
     1
102
RTVSPost2010Prop40
 90
        0
102
RTVSPost2010PropOp40
 70
     1
102
RTVSPost2010Prop41ColorIndex
 90
       18
102
RTVSPost2010Prop41ColorRGB
 90
        0
102
RTVSPost2010PropOp41
 70
     1
102
RTVSPost2010Prop42
 90
       50
102
RTVSPost2010PropOp42
 70
     1
102
RTVSPost2010Prop43
 90
        3
102
RTVSPost2010PropOp43
 70
     1
102
RTVSPost2010Prop44ColorIndex
 90
        5
102
RTVSPost2010Prop44ColorRGB
 90
      255
102
RTVSPost2010PropOp44
 70
     1
102
RTVSPost2010Prop45
280
     0
102
RTVSPost2010PropOp45
 70
     1
102
RTVSPost2010Prop46
 90
       50
102
RTVSPost2010PropOp46
 70
     1
102
RTVSPost2010Prop47
 90
       50
102
RTVSPost2010PropOp47
 70
     1
102
RTVSPost2010Prop48
 90
       50
102
RTVSPost2010PropOp48
 70
     1
102
RTVSPost2010Prop49
280
     0
102
RTVSPost2010PropOp49
 70
     1
102
RTVSPost2010Prop50
 90
       50
102
RTVSPost2010PropOp50
 70
     1
102
RTVSPost2010Prop51ColorIndex
 90
      256
102
RTVSPost2010Prop51ColorRGB
 90
-16777216
102
RTVSPost2010PropOp51
 70
     0
102
RTVSPost2010Prop52
140
1.0
102
RTVSPost2010PropOp52
 70
     0
102
RTVSPost2010Prop53
 90
        2
102
RTVSPost2010PropOp53
 70
     1
102
RTVSPost2010Prop54
  1
strokes_ogs.tif
102
RTVSPost2010PropOp54
 70
     1
102
RTVSPost2010Prop55
280
     0
102
RTVSPost2010PropOp55
 70
     1
102
RTVSPost2010Prop56
140
1.0
102
RTVSPost2010PropOp56
 70
     1
102
RTVSPost2010Prop57
140
1.0
102
RTVSPost2010PropOp57
 70
     1
102
RTVSPropertyOp0
 70
     1
102
RTVSPropertyOp1
 70
     1
102
RTVSPropertyOp2
 70
     1
102
RTVSPropertyOp3
 70
     1
102
RTVSPropertyOp4
 70
     1
102
RTVSPropertyOp5
 70
     1
102
RTVSPropertyOp6
 70
     1
102
RTVSPropertyOp7
 70
     1
102
RTVSPropertyOp8
 70
     1
102
RTVSPropertyOp9
 70
     1
102
RTVSPropertyOp10
 70
     1
102
RTVSPropertyOp11
 70
     1
102
RTVSPropertyOp12
 70
     1
102
RTVSPropertyOp13
 70
     1
102
RTVSPropertyOp14
 70
     1
102
RTVSPropertyOp15
 70
     1
102
RTVSPropertyOp16
 70
     1
102
RTVSPropertyOp17
 70
     1
102
RTVSPropertyOp18
 70
     1
102
RTVSPropertyOp19
 70
     1
102
RTVSPropertyOp20
 70
     1
102
RTVSPropertyOp21
 70
     1
102
RTVSPropertyOp22
 70
     1
102
RTVSPropertyOp23
 70
     1
102
RTVSPropertyOp24
 70
     1
102
RTVSPropertyOp25
 70
     1
102
RTVSPropertyOp26
 70
     1
102
RTVSPropertyOp27
 70
     1
102
RTVSPropertyOp28
 70
     1
102
RTVSPropertyOp29
 70
     1
102
RTVSPropertyOp30
 70
     1
102
RTVSPropertyOp31
 70
     1
102
RTVSPropertyOp32
 70
     1
102
RTVSPropertyOp33
 70
     1
102
RTVSPropertyOp34
 70
     1
102
RTVSPropertyOp35
 70
     1
102
RTVSPropertyOp36
 70
     1
102
RTVSPropertyOp37
 70
     1
102
RTVSPropertyOp38
 70
     1
102
RTVSPropertyOp39
 70
     1
102
RTVSPropertyOp40
 70
     1
102
RTVSPropertyOp41
 70
     1
102
RTVSPropertyOp42
 70
     1
102
RTVSPropertyOp43
 70
     1
102
RTVSPropertyOp44
 70
     1
102
RTVSPropertyOp45
 70
     1
102
RTVSPropertyOp46
 70
     1
102
RTVSPropertyOp47
 70
     1
102
RTVSPropertyOp48
 70
     1
102
RTVSPropertyOp49
 70
     1
102
RTVSPropertyOp50
 70
     1
102
RTVSPropertyOp51
 70
     0
102
RTVSPropertyOp52
 70
     0
102
RTVSPropertyOp53
 70
     1
102
RTVSPropertyOp54
 70
     1
102
RTVSPropertyOp55
 70
     1
102
RTVSPropertyOp56
 70
     1
102
RTVSPropertyOp57
 70
     1
102
RTVSPropertyOp58
 70
     1
102
RTVSPropertyOp59
 70
     1
102
RTVSPropertyOp60
 70
     1
102
RTVSPropertyOp61
 70
     1
102
RTVSPropertyOp62
 70
     1
  0
XRECORD
  5
B280
102
{ACAD_REACTORS
330
B27F
102
}
330
B27F
100
AcDbXrecord
280
     1
102
RTVSPost2010Prop28
280
     0
102
RTVSPost2010PropOp28
 70
     1
102
RTVSPost2010Prop29
280
     1
102
RTVSPost2010PropOp29
 70
     1
102
RTVSPost2010Prop30
280
     1
102
RTVSPost2010PropOp30
 70
     1
102
RTVSPost2010Prop31
280
     0
102
RTVSPost2010PropOp31
 70
     1
102
RTVSPost2010Prop32
280
     0
102
RTVSPost2010PropOp32
 70
     1
102
RTVSPost2010Prop33
280
     0
102
RTVSPost2010PropOp33
 70
     1
102
RTVSPost2010Prop34
280
     0
102
RTVSPost2010PropOp34
 70
     1
102
RTVSPost2010Prop35
280
     0
102
RTVSPost2010PropOp35
 70
     1
102
RTVSPost2010Prop36
280
     0
102
RTVSPost2010PropOp36
 70
     1
102
RTVSPost2010Prop37
 90
       50
102
RTVSPost2010PropOp37
 70
     1
102
RTVSPost2010Prop38
140
0.0
102
RTVSPost2010PropOp38
 70
     1
102
RTVSPost2010Prop39
140
1.0
102
RTVSPost2010PropOp39
 70
     1
102
RTVSPost2010Prop40
 90
        0
102
RTVSPost2010PropOp40
 70
     1
102
RTVSPost2010Prop41ColorIndex
 90
       18
102
RTVSPost2010Prop41ColorRGB
 90
        0
102
RTVSPost2010PropOp41
 70
     1
102
RTVSPost2010Prop42
 90
       50
102
RTVSPost2010PropOp42
 70
     1
102
RTVSPost2010Prop43
 90
        3
102
RTVSPost2010PropOp43
 70
     1
102
RTVSPost2010Prop44ColorIndex
 90
        5
102
RTVSPost2010Prop44ColorRGB
 90
      255
102
RTVSPost2010PropOp44
 70
     1
102
RTVSPost2010Prop45
280
     0
102
RTVSPost2010PropOp45
 70
     1
102
RTVSPost2010Prop46
 90
       50
102
RTVSPost2010PropOp46
 70
     1
102
RTVSPost2010Prop47
 90
       50
102
RTVSPost2010PropOp47
 70
     1
102
RTVSPost2010Prop48
 90
       50
102
RTVSPost2010PropOp48
 70
     1
102
RTVSPost2010Prop49
280
     0
102
RTVSPost2010PropOp49
 70
     1
102
RTVSPost2010Prop50
 90
       50
102
RTVSPost2010PropOp50
 70
     1
102
RTVSPost2010Prop51ColorIndex
 90
      256
102
RTVSPost2010Prop51ColorRGB
 90
-16777216
102
RTVSPost2010PropOp51
 70
     0
102
RTVSPost2010Prop52
140
1.0
102
RTVSPost2010PropOp52
 70
     0
102
RTVSPost2010Prop53
 90
        2
102
RTVSPost2010PropOp53
 70
     1
102
RTVSPost2010Prop54
  1
strokes_ogs.tif
102
RTVSPost2010PropOp54
 70
     1
102
RTVSPost2010Prop55
280
     0
102
RTVSPost2010PropOp55
 70
     1
102
RTVSPost2010Prop56
140
1.0
102
RTVSPost2010PropOp56
 70
     1
102
RTVSPost2010Prop57
140
1.0
102
RTVSPost2010PropOp57
 70
     1
102
RTVSPropertyOp0
 70
     1
102
RTVSPropertyOp1
 70
     1
102
RTVSPropertyOp2
 70
     1
102
RTVSPropertyOp3
 70
     1
102
RTVSPropertyOp4
 70
     1
102
RTVSPropertyOp5
 70
     1
102
RTVSPropertyOp6
 70
     1
102
RTVSPropertyOp7
 70
     1
102
RTVSPropertyOp8
 70
     1
102
RTVSPropertyOp9
 70
     1
102
RTVSPropertyOp10
 70
     1
102
RTVSPropertyOp11
 70
     1
102
RTVSPropertyOp12
 70
     1
102
RTVSPropertyOp13
 70
     1
102
RTVSPropertyOp14
 70
     1
102
RTVSPropertyOp15
 70
     1
102
RTVSPropertyOp16
 70
     1
102
RTVSPropertyOp17
 70
     1
102
RTVSPropertyOp18
 70
     1
102
RTVSPropertyOp19
 70
     1
102
RTVSPropertyOp20
 70
     1
102
RTVSPropertyOp21
 70
     1
102
RTVSPropertyOp22
 70
     1
102
RTVSPropertyOp23
 70
     1
102
RTVSPropertyOp24
 70
     1
102
RTVSPropertyOp25
 70
     1
102
RTVSPropertyOp26
 70
     1
102
RTVSPropertyOp27
 70
     1
102
RTVSPropertyOp28
 70
     1
102
RTVSPropertyOp29
 70
     1
102
RTVSPropertyOp30
 70
     1
102
RTVSPropertyOp31
 70
     1
102
RTVSPropertyOp32
 70
     1
102
RTVSPropertyOp33
 70
     1
102
RTVSPropertyOp34
 70
     1
102
RTVSPropertyOp35
 70
     1
102
RTVSPropertyOp36
 70
     1
102
RTVSPropertyOp37
 70
     1
102
RTVSPropertyOp38
 70
     1
102
RTVSPropertyOp39
 70
     1
102
RTVSPropertyOp40
 70
     1
102
RTVSPropertyOp41
 70
     1
102
RTVSPropertyOp42
 70
     1
102
RTVSPropertyOp43
 70
     1
102
RTVSPropertyOp44
 70
     1
102
RTVSPropertyOp45
 70
     1
102
RTVSPropertyOp46
 70
     1
102
RTVSPropertyOp47
 70
     1
102
RTVSPropertyOp48
 70
     1
102
RTVSPropertyOp49
 70
     1
102
RTVSPropertyOp50
 70
     1
102
RTVSPropertyOp51
 70
     0
102
RTVSPropertyOp52
 70
     0
102
RTVSPropertyOp53
 70
     1
102
RTVSPropertyOp54
 70
     1
102
RTVSPropertyOp55
 70
     1
102
RTVSPropertyOp56
 70
     1
102
RTVSPropertyOp57
 70
     1
102
RTVSPropertyOp58
 70
     1
102
RTVSPropertyOp59
 70
     1
102
RTVSPropertyOp60
 70
     1
102
RTVSPropertyOp61
 70
     1
102
RTVSPropertyOp62
 70
     1
  0
XRECORD
  5
B282
102
{ACAD_REACTORS
330
B281
102
}
330
B281
100
AcDbXrecord
280
     1
102
RTVSPost2010Prop28
280
     0
102
RTVSPost2010PropOp28
 70
     1
102
RTVSPost2010Prop29
280
     1
102
RTVSPost2010PropOp29
 70
     1
102
RTVSPost2010Prop30
280
     1
102
RTVSPost2010PropOp30
 70
     1
102
RTVSPost2010Prop31
280
     0
102
RTVSPost2010PropOp31
 70
     1
102
RTVSPost2010Prop32
280
     0
102
RTVSPost2010PropOp32
 70
     1
102
RTVSPost2010Prop33
280
     0
102
RTVSPost2010PropOp33
 70
     1
102
RTVSPost2010Prop34
280
     0
102
RTVSPost2010PropOp34
 70
     1
102
RTVSPost2010Prop35
280
     0
102
RTVSPost2010PropOp35
 70
     1
102
RTVSPost2010Prop36
280
     0
102
RTVSPost2010PropOp36
 70
     1
102
RTVSPost2010Prop37
 90
       50
102
RTVSPost2010PropOp37
 70
     1
102
RTVSPost2010Prop38
140
0.0
102
RTVSPost2010PropOp38
 70
     1
102
RTVSPost2010Prop39
140
1.0
102
RTVSPost2010PropOp39
 70
     1
102
RTVSPost2010Prop40
 90
        0
102
RTVSPost2010PropOp40
 70
     1
102
RTVSPost2010Prop41ColorIndex
 90
       18
102
RTVSPost2010Prop41ColorRGB
 90
        0
102
RTVSPost2010PropOp41
 70
     1
102
RTVSPost2010Prop42
 90
       50
102
RTVSPost2010PropOp42
 70
     1
102
RTVSPost2010Prop43
 90
        3
102
RTVSPost2010PropOp43
 70
     1
102
RTVSPost2010Prop44ColorIndex
 90
        5
102
RTVSPost2010Prop44ColorRGB
 90
      255
102
RTVSPost2010PropOp44
 70
     1
102
RTVSPost2010Prop45
280
     0
102
RTVSPost2010PropOp45
 70
     1
102
RTVSPost2010Prop46
 90
       50
102
RTVSPost2010PropOp46
 70
     1
102
RTVSPost2010Prop47
 90
       50
102
RTVSPost2010PropOp47
 70
     1
102
RTVSPost2010Prop48
 90
       50
102
RTVSPost2010PropOp48
 70
     1
102
RTVSPost2010Prop49
280
     0
102
RTVSPost2010PropOp49
 70
     1
102
RTVSPost2010Prop50
 90
       50
102
RTVSPost2010PropOp50
 70
     1
102
RTVSPost2010Prop51ColorIndex
 90
      256
102
RTVSPost2010Prop51ColorRGB
 90
-16777216
102
RTVSPost2010PropOp51
 70
     0
102
RTVSPost2010Prop52
140
1.0
102
RTVSPost2010PropOp52
 70
     0
102
RTVSPost2010Prop53
 90
        2
102
RTVSPost2010PropOp53
 70
     1
102
RTVSPost2010Prop54
  1
strokes_ogs.tif
102
RTVSPost2010PropOp54
 70
     1
102
RTVSPost2010Prop55
280
     0
102
RTVSPost2010PropOp55
 70
     1
102
RTVSPost2010Prop56
140
1.0
102
RTVSPost2010PropOp56
 70
     1
102
RTVSPost2010Prop57
140
1.0
102
RTVSPost2010PropOp57
 70
     1
102
RTVSPropertyOp0
 70
     1
102
RTVSPropertyOp1
 70
     1
102
RTVSPropertyOp2
 70
     1
102
RTVSPropertyOp3
 70
     1
102
RTVSPropertyOp4
 70
     1
102
RTVSPropertyOp5
 70
     1
102
RTVSPropertyOp6
 70
     1
102
RTVSPropertyOp7
 70
     1
102
RTVSPropertyOp8
 70
     1
102
RTVSPropertyOp9
 70
     1
102
RTVSPropertyOp10
 70
     1
102
RTVSPropertyOp11
 70
     1
102
RTVSPropertyOp12
 70
     1
102
RTVSPropertyOp13
 70
     1
102
RTVSPropertyOp14
 70
     1
102
RTVSPropertyOp15
 70
     1
102
RTVSPropertyOp16
 70
     1
102
RTVSPropertyOp17
 70
     1
102
RTVSPropertyOp18
 70
     1
102
RTVSPropertyOp19
 70
     1
102
RTVSPropertyOp20
 70
     1
102
RTVSPropertyOp21
 70
     1
102
RTVSPropertyOp22
 70
     1
102
RTVSPropertyOp23
 70
     1
102
RTVSPropertyOp24
 70
     1
102
RTVSPropertyOp25
 70
     1
102
RTVSPropertyOp26
 70
     1
102
RTVSPropertyOp27
 70
     1
102
RTVSPropertyOp28
 70
     1
102
RTVSPropertyOp29
 70
     1
102
RTVSPropertyOp30
 70
     1
102
RTVSPropertyOp31
 70
     1
102
RTVSPropertyOp32
 70
     1
102
RTVSPropertyOp33
 70
     1
102
RTVSPropertyOp34
 70
     1
102
RTVSPropertyOp35
 70
     1
102
RTVSPropertyOp36
 70
     1
102
RTVSPropertyOp37
 70
     1
102
RTVSPropertyOp38
 70
     1
102
RTVSPropertyOp39
 70
     1
102
RTVSPropertyOp40
 70
     1
102
RTVSPropertyOp41
 70
     1
102
RTVSPropertyOp42
 70
     1
102
RTVSPropertyOp43
 70
     1
102
RTVSPropertyOp44
 70
     1
102
RTVSPropertyOp45
 70
     1
102
RTVSPropertyOp46
 70
     1
102
RTVSPropertyOp47
 70
     1
102
RTVSPropertyOp48
 70
     1
102
RTVSPropertyOp49
 70
     1
102
RTVSPropertyOp50
 70
     1
102
RTVSPropertyOp51
 70
     0
102
RTVSPropertyOp52
 70
     0
102
RTVSPropertyOp53
 70
     1
102
RTVSPropertyOp54
 70
     1
102
RTVSPropertyOp55
 70
     1
102
RTVSPropertyOp56
 70
     1
102
RTVSPropertyOp57
 70
     1
102
RTVSPropertyOp58
 70
     1
102
RTVSPropertyOp59
 70
     1
102
RTVSPropertyOp60
 70
     1
102
RTVSPropertyOp61
 70
     1
102
RTVSPropertyOp62
 70
     1
  0
XRECORD
  5
B284
102
{ACAD_REACTORS
330
B283
102
}
330
B283
100
AcDbXrecord
280
     1
102
RTVSPost2010Prop28
280
     0
102
RTVSPost2010PropOp28
 70
     1
102
RTVSPost2010Prop29
280
     1
102
RTVSPost2010PropOp29
 70
     1
102
RTVSPost2010Prop30
280
     1
102
RTVSPost2010PropOp30
 70
     1
102
RTVSPost2010Prop31
280
     0
102
RTVSPost2010PropOp31
 70
     1
102
RTVSPost2010Prop32
280
     0
102
RTVSPost2010PropOp32
 70
     1
102
RTVSPost2010Prop33
280
     0
102
RTVSPost2010PropOp33
 70
     1
102
RTVSPost2010Prop34
280
     0
102
RTVSPost2010PropOp34
 70
     1
102
RTVSPost2010Prop35
280
     0
102
RTVSPost2010PropOp35
 70
     1
102
RTVSPost2010Prop36
280
     0
102
RTVSPost2010PropOp36
 70
     1
102
RTVSPost2010Prop37
 90
       50
102
RTVSPost2010PropOp37
 70
     1
102
RTVSPost2010Prop38
140
0.0
102
RTVSPost2010PropOp38
 70
     1
102
RTVSPost2010Prop39
140
1.0
102
RTVSPost2010PropOp39
 70
     1
102
RTVSPost2010Prop40
 90
        0
102
RTVSPost2010PropOp40
 70
     1
102
RTVSPost2010Prop41ColorIndex
 90
       18
102
RTVSPost2010Prop41ColorRGB
 90
        0
102
RTVSPost2010PropOp41
 70
     1
102
RTVSPost2010Prop42
 90
       50
102
RTVSPost2010PropOp42
 70
     1
102
RTVSPost2010Prop43
 90
        3
102
RTVSPost2010PropOp43
 70
     1
102
RTVSPost2010Prop44ColorIndex
 90
        5
102
RTVSPost2010Prop44ColorRGB
 90
      255
102
RTVSPost2010PropOp44
 70
     1
102
RTVSPost2010Prop45
280
     0
102
RTVSPost2010PropOp45
 70
     1
102
RTVSPost2010Prop46
 90
       50
102
RTVSPost2010PropOp46
 70
     1
102
RTVSPost2010Prop47
 90
       50
102
RTVSPost2010PropOp47
 70
     1
102
RTVSPost2010Prop48
 90
       50
102
RTVSPost2010PropOp48
 70
     1
102
RTVSPost2010Prop49
280
     0
102
RTVSPost2010PropOp49
 70
     1
102
RTVSPost2010Prop50
 90
       50
102
RTVSPost2010PropOp50
 70
     1
102
RTVSPost2010Prop51ColorIndex
 90
      256
102
RTVSPost2010Prop51ColorRGB
 90
-16777216
102
RTVSPost2010PropOp51
 70
     0
102
RTVSPost2010Prop52
140
1.0
102
RTVSPost2010PropOp52
 70
     0
102
RTVSPost2010Prop53
 90
        2
102
RTVSPost2010PropOp53
 70
     1
102
RTVSPost2010Prop54
  1
strokes_ogs.tif
102
RTVSPost2010PropOp54
 70
     1
102
RTVSPost2010Prop55
280
     0
102
RTVSPost2010PropOp55
 70
     1
102
RTVSPost2010Prop56
140
1.0
102
RTVSPost2010PropOp56
 70
     1
102
RTVSPost2010Prop57
140
1.0
102
RTVSPost2010PropOp57
 70
     1
102
RTVSPropertyOp0
 70
     1
102
RTVSPropertyOp1
 70
     1
102
RTVSPropertyOp2
 70
     1
102
RTVSPropertyOp3
 70
     1
102
RTVSPropertyOp4
 70
     1
102
RTVSPropertyOp5
 70
     1
102
RTVSPropertyOp6
 70
     1
102
RTVSPropertyOp7
 70
     1
102
RTVSPropertyOp8
 70
     1
102
RTVSPropertyOp9
 70
     1
102
RTVSPropertyOp10
 70
     1
102
RTVSPropertyOp11
 70
     1
102
RTVSPropertyOp12
 70
     1
102
RTVSPropertyOp13
 70
     1
102
RTVSPropertyOp14
 70
     1
102
RTVSPropertyOp15
 70
     1
102
RTVSPropertyOp16
 70
     1
102
RTVSPropertyOp17
 70
     1
102
RTVSPropertyOp18
 70
     1
102
RTVSPropertyOp19
 70
     1
102
RTVSPropertyOp20
 70
     1
102
RTVSPropertyOp21
 70
     1
102
RTVSPropertyOp22
 70
     1
102
RTVSPropertyOp23
 70
     1
102
RTVSPropertyOp24
 70
     1
102
RTVSPropertyOp25
 70
     1
102
RTVSPropertyOp26
 70
     1
102
RTVSPropertyOp27
 70
     1
102
RTVSPropertyOp28
 70
     1
102
RTVSPropertyOp29
 70
     1
102
RTVSPropertyOp30
 70
     1
102
RTVSPropertyOp31
 70
     1
102
RTVSPropertyOp32
 70
     1
102
RTVSPropertyOp33
 70
     1
102
RTVSPropertyOp34
 70
     1
102
RTVSPropertyOp35
 70
     1
102
RTVSPropertyOp36
 70
     1
102
RTVSPropertyOp37
 70
     1
102
RTVSPropertyOp38
 70
     1
102
RTVSPropertyOp39
 70
     1
102
RTVSPropertyOp40
 70
     1
102
RTVSPropertyOp41
 70
     1
102
RTVSPropertyOp42
 70
     1
102
RTVSPropertyOp43
 70
     1
102
RTVSPropertyOp44
 70
     1
102
RTVSPropertyOp45
 70
     1
102
RTVSPropertyOp46
 70
     1
102
RTVSPropertyOp47
 70
     1
102
RTVSPropertyOp48
 70
     1
102
RTVSPropertyOp49
 70
     1
102
RTVSPropertyOp50
 70
     1
102
RTVSPropertyOp51
 70
     0
102
RTVSPropertyOp52
 70
     0
102
RTVSPropertyOp53
 70
     1
102
RTVSPropertyOp54
 70
     1
102
RTVSPropertyOp55
 70
     1
102
RTVSPropertyOp56
 70
     1
102
RTVSPropertyOp57
 70
     1
102
RTVSPropertyOp58
 70
     1
102
RTVSPropertyOp59
 70
     1
102
RTVSPropertyOp60
 70
     1
102
RTVSPropertyOp61
 70
     1
102
RTVSPropertyOp62
 70
     1
  0
XRECORD
  5
B286
102
{ACAD_REACTORS
330
B285
102
}
330
B285
100
AcDbXrecord
280
     1
102
RTVSPost2010Prop28
280
     0
102
RTVSPost2010PropOp28
 70
     1
102
RTVSPost2010Prop29
280
     1
102
RTVSPost2010PropOp29
 70
     1
102
RTVSPost2010Prop30
280
     1
102
RTVSPost2010PropOp30
 70
     1
102
RTVSPost2010Prop31
280
     0
102
RTVSPost2010PropOp31
 70
     1
102
RTVSPost2010Prop32
280
     0
102
RTVSPost2010PropOp32
 70
     1
102
RTVSPost2010Prop33
280
     0
102
RTVSPost2010PropOp33
 70
     1
102
RTVSPost2010Prop34
280
     0
102
RTVSPost2010PropOp34
 70
     1
102
RTVSPost2010Prop35
280
     0
102
RTVSPost2010PropOp35
 70
     1
102
RTVSPost2010Prop36
280
     0
102
RTVSPost2010PropOp36
 70
     1
102
RTVSPost2010Prop37
 90
       50
102
RTVSPost2010PropOp37
 70
     1
102
RTVSPost2010Prop38
140
0.0
102
RTVSPost2010PropOp38
 70
     1
102
RTVSPost2010Prop39
140
1.0
102
RTVSPost2010PropOp39
 70
     1
102
RTVSPost2010Prop40
 90
        0
102
RTVSPost2010PropOp40
 70
     1
102
RTVSPost2010Prop41ColorIndex
 90
       18
102
RTVSPost2010Prop41ColorRGB
 90
        0
102
RTVSPost2010PropOp41
 70
     1
102
RTVSPost2010Prop42
 90
       50
102
RTVSPost2010PropOp42
 70
     1
102
RTVSPost2010Prop43
 90
        3
102
RTVSPost2010PropOp43
 70
     1
102
RTVSPost2010Prop44ColorIndex
 90
        5
102
RTVSPost2010Prop44ColorRGB
 90
      255
102
RTVSPost2010PropOp44
 70
     1
102
RTVSPost2010Prop45
280
     0
102
RTVSPost2010PropOp45
 70
     1
102
RTVSPost2010Prop46
 90
       50
102
RTVSPost2010PropOp46
 70
     1
102
RTVSPost2010Prop47
 90
       50
102
RTVSPost2010PropOp47
 70
     1
102
RTVSPost2010Prop48
 90
       50
102
RTVSPost2010PropOp48
 70
     1
102
RTVSPost2010Prop49
280
     0
102
RTVSPost2010PropOp49
 70
     1
102
RTVSPost2010Prop50
 90
       50
102
RTVSPost2010PropOp50
 70
     1
102
RTVSPost2010Prop51ColorIndex
 90
      256
102
RTVSPost2010Prop51ColorRGB
 90
-16777216
102
RTVSPost2010PropOp51
 70
     0
102
RTVSPost2010Prop52
140
1.0
102
RTVSPost2010PropOp52
 70
     0
102
RTVSPost2010Prop53
 90
        2
102
RTVSPost2010PropOp53
 70
     1
102
RTVSPost2010Prop54
  1
strokes_ogs.tif
102
RTVSPost2010PropOp54
 70
     1
102
RTVSPost2010Prop55
280
     0
102
RTVSPost2010PropOp55
 70
     1
102
RTVSPost2010Prop56
140
1.0
102
RTVSPost2010PropOp56
 70
     1
102
RTVSPost2010Prop57
140
1.0
102
RTVSPost2010PropOp57
 70
     1
102
RTVSPropertyOp0
 70
     1
102
RTVSPropertyOp1
 70
     1
102
RTVSPropertyOp2
 70
     1
102
RTVSPropertyOp3
 70
     1
102
RTVSPropertyOp4
 70
     1
102
RTVSPropertyOp5
 70
     1
102
RTVSPropertyOp6
 70
     1
102
RTVSPropertyOp7
 70
     1
102
RTVSPropertyOp8
 70
     1
102
RTVSPropertyOp9
 70
     1
102
RTVSPropertyOp10
 70
     1
102
RTVSPropertyOp11
 70
     1
102
RTVSPropertyOp12
 70
     1
102
RTVSPropertyOp13
 70
     1
102
RTVSPropertyOp14
 70
     1
102
RTVSPropertyOp15
 70
     1
102
RTVSPropertyOp16
 70
     1
102
RTVSPropertyOp17
 70
     1
102
RTVSPropertyOp18
 70
     1
102
RTVSPropertyOp19
 70
     1
102
RTVSPropertyOp20
 70
     1
102
RTVSPropertyOp21
 70
     1
102
RTVSPropertyOp22
 70
     1
102
RTVSPropertyOp23
 70
     1
102
RTVSPropertyOp24
 70
     1
102
RTVSPropertyOp25
 70
     1
102
RTVSPropertyOp26
 70
     1
102
RTVSPropertyOp27
 70
     1
102
RTVSPropertyOp28
 70
     1
102
RTVSPropertyOp29
 70
     1
102
RTVSPropertyOp30
 70
     1
102
RTVSPropertyOp31
 70
     1
102
RTVSPropertyOp32
 70
     1
102
RTVSPropertyOp33
 70
     1
102
RTVSPropertyOp34
 70
     1
102
RTVSPropertyOp35
 70
     1
102
RTVSPropertyOp36
 70
     1
102
RTVSPropertyOp37
 70
     1
102
RTVSPropertyOp38
 70
     1
102
RTVSPropertyOp39
 70
     1
102
RTVSPropertyOp40
 70
     1
102
RTVSPropertyOp41
 70
     1
102
RTVSPropertyOp42
 70
     1
102
RTVSPropertyOp43
 70
     1
102
RTVSPropertyOp44
 70
     1
102
RTVSPropertyOp45
 70
     1
102
RTVSPropertyOp46
 70
     1
102
RTVSPropertyOp47
 70
     1
102
RTVSPropertyOp48
 70
     1
102
RTVSPropertyOp49
 70
     1
102
RTVSPropertyOp50
 70
     1
102
RTVSPropertyOp51
 70
     0
102
RTVSPropertyOp52
 70
     0
102
RTVSPropertyOp53
 70
     1
102
RTVSPropertyOp54
 70
     1
102
RTVSPropertyOp55
 70
     1
102
RTVSPropertyOp56
 70
     1
102
RTVSPropertyOp57
 70
     1
102
RTVSPropertyOp58
 70
     1
102
RTVSPropertyOp59
 70
     1
102
RTVSPropertyOp60
 70
     1
102
RTVSPropertyOp61
 70
     1
102
RTVSPropertyOp62
 70
     1
  0
XRECORD
  5
B28E
102
{ACAD_REACTORS
330
B28D
102
}
330
B28D
100
AcDbXrecord
280
     1
102
RTVSPost2010Prop28
280
     0
102
RTVSPost2010PropOp28
 70
     1
102
RTVSPost2010Prop29
280
     1
102
RTVSPost2010PropOp29
 70
     1
102
RTVSPost2010Prop30
280
     1
102
RTVSPost2010PropOp30
 70
     1
102
RTVSPost2010Prop31
280
     0
102
RTVSPost2010PropOp31
 70
     1
102
RTVSPost2010Prop32
280
     0
102
RTVSPost2010PropOp32
 70
     1
102
RTVSPost2010Prop33
280
     0
102
RTVSPost2010PropOp33
 70
     1
102
RTVSPost2010Prop34
280
     0
102
RTVSPost2010PropOp34
 70
     1
102
RTVSPost2010Prop35
280
     0
102
RTVSPost2010PropOp35
 70
     1
102
RTVSPost2010Prop36
280
     0
102
RTVSPost2010PropOp36
 70
     1
102
RTVSPost2010Prop37
 90
       50
102
RTVSPost2010PropOp37
 70
     1
102
RTVSPost2010Prop38
140
0.0
102
RTVSPost2010PropOp38
 70
     1
102
RTVSPost2010Prop39
140
1.0
102
RTVSPost2010PropOp39
 70
     1
102
RTVSPost2010Prop40
 90
        0
102
RTVSPost2010PropOp40
 70
     1
102
RTVSPost2010Prop41ColorIndex
 90
       18
102
RTVSPost2010Prop41ColorRGB
 90
        0
102
RTVSPost2010PropOp41
 70
     1
102
RTVSPost2010Prop42
 90
       50
102
RTVSPost2010PropOp42
 70
     1
102
RTVSPost2010Prop43
 90
        3
102
RTVSPost2010PropOp43
 70
     1
102
RTVSPost2010Prop44ColorIndex
 90
        5
102
RTVSPost2010Prop44ColorRGB
 90
      255
102
RTVSPost2010PropOp44
 70
     1
102
RTVSPost2010Prop45
280
     0
102
RTVSPost2010PropOp45
 70
     1
102
RTVSPost2010Prop46
 90
       50
102
RTVSPost2010PropOp46
 70
     1
102
RTVSPost2010Prop47
 90
       50
102
RTVSPost2010PropOp47
 70
     1
102
RTVSPost2010Prop48
 90
       50
102
RTVSPost2010PropOp48
 70
     1
102
RTVSPost2010Prop49
280
     0
102
RTVSPost2010PropOp49
 70
     1
102
RTVSPost2010Prop50
 90
       50
102
RTVSPost2010PropOp50
 70
     1
102
RTVSPost2010Prop51ColorIndex
 90
      256
102
RTVSPost2010Prop51ColorRGB
 90
-16777216
102
RTVSPost2010PropOp51
 70
     0
102
RTVSPost2010Prop52
140
1.0
102
RTVSPost2010PropOp52
 70
     0
102
RTVSPost2010Prop53
 90
        2
102
RTVSPost2010PropOp53
 70
     1
102
RTVSPost2010Prop54
  1
strokes_ogs.tif
102
RTVSPost2010PropOp54
 70
     1
102
RTVSPost2010Prop55
280
     0
102
RTVSPost2010PropOp55
 70
     1
102
RTVSPost2010Prop56
140
1.0
102
RTVSPost2010PropOp56
 70
     1
102
RTVSPost2010Prop57
140
1.0
102
RTVSPost2010PropOp57
 70
     1
102
RTVSPropertyOp0
 70
     1
102
RTVSPropertyOp1
 70
     1
102
RTVSPropertyOp2
 70
     1
102
RTVSPropertyOp3
 70
     1
102
RTVSPropertyOp4
 70
     1
102
RTVSPropertyOp5
 70
     1
102
RTVSPropertyOp6
 70
     1
102
RTVSPropertyOp7
 70
     1
102
RTVSPropertyOp8
 70
     1
102
RTVSPropertyOp9
 70
     1
102
RTVSPropertyOp10
 70
     1
102
RTVSPropertyOp11
 70
     1
102
RTVSPropertyOp12
 70
     1
102
RTVSPropertyOp13
 70
     1
102
RTVSPropertyOp14
 70
     1
102
RTVSPropertyOp15
 70
     1
102
RTVSPropertyOp16
 70
     1
102
RTVSPropertyOp17
 70
     1
102
RTVSPropertyOp18
 70
     1
102
RTVSPropertyOp19
 70
     1
102
RTVSPropertyOp20
 70
     1
102
RTVSPropertyOp21
 70
     1
102
RTVSPropertyOp22
 70
     1
102
RTVSPropertyOp23
 70
     1
102
RTVSPropertyOp24
 70
     1
102
RTVSPropertyOp25
 70
     1
102
RTVSPropertyOp26
 70
     1
102
RTVSPropertyOp27
 70
     1
102
RTVSPropertyOp28
 70
     1
102
RTVSPropertyOp29
 70
     1
102
RTVSPropertyOp30
 70
     1
102
RTVSPropertyOp31
 70
     1
102
RTVSPropertyOp32
 70
     1
102
RTVSPropertyOp33
 70
     1
102
RTVSPropertyOp34
 70
     1
102
RTVSPropertyOp35
 70
     1
102
RTVSPropertyOp36
 70
     1
102
RTVSPropertyOp37
 70
     1
102
RTVSPropertyOp38
 70
     1
102
RTVSPropertyOp39
 70
     1
102
RTVSPropertyOp40
 70
     1
102
RTVSPropertyOp41
 70
     1
102
RTVSPropertyOp42
 70
     1
102
RTVSPropertyOp43
 70
     1
102
RTVSPropertyOp44
 70
     1
102
RTVSPropertyOp45
 70
     1
102
RTVSPropertyOp46
 70
     1
102
RTVSPropertyOp47
 70
     1
102
RTVSPropertyOp48
 70
     1
102
RTVSPropertyOp49
 70
     1
102
RTVSPropertyOp50
 70
     1
102
RTVSPropertyOp51
 70
     0
102
RTVSPropertyOp52
 70
     0
102
RTVSPropertyOp53
 70
     1
102
RTVSPropertyOp54
 70
     1
102
RTVSPropertyOp55
 70
     1
102
RTVSPropertyOp56
 70
     1
102
RTVSPropertyOp57
 70
     1
102
RTVSPropertyOp58
 70
     1
102
RTVSPropertyOp59
 70
     1
102
RTVSPropertyOp60
 70
     1
102
RTVSPropertyOp61
 70
     1
102
RTVSPropertyOp62
 70
     1
  0
XRECORD
  5
B2A2
102
{ACAD_REACTORS
330
B2A1
102
}
330
B2A1
100
AcDbXrecord
280
     1
102
RTVSPost2010Prop28
280
     0
102
RTVSPost2010PropOp28
 70
     1
102
RTVSPost2010Prop29
280
     1
102
RTVSPost2010PropOp29
 70
     1
102
RTVSPost2010Prop30
280
     1
102
RTVSPost2010PropOp30
 70
     1
102
RTVSPost2010Prop31
280
     0
102
RTVSPost2010PropOp31
 70
     1
102
RTVSPost2010Prop32
280
     0
102
RTVSPost2010PropOp32
 70
     1
102
RTVSPost2010Prop33
280
     0
102
RTVSPost2010PropOp33
 70
     1
102
RTVSPost2010Prop34
280
     0
102
RTVSPost2010PropOp34
 70
     1
102
RTVSPost2010Prop35
280
     0
102
RTVSPost2010PropOp35
 70
     1
102
RTVSPost2010Prop36
280
     0
102
RTVSPost2010PropOp36
 70
     1
102
RTVSPost2010Prop37
 90
       50
102
RTVSPost2010PropOp37
 70
     1
102
RTVSPost2010Prop38
140
0.0
102
RTVSPost2010PropOp38
 70
     1
102
RTVSPost2010Prop39
140
1.0
102
RTVSPost2010PropOp39
 70
     1
102
RTVSPost2010Prop40
 90
        0
102
RTVSPost2010PropOp40
 70
     1
102
RTVSPost2010Prop41ColorIndex
 90
       18
102
RTVSPost2010Prop41ColorRGB
 90
        0
102
RTVSPost2010PropOp41
 70
     1
102
RTVSPost2010Prop42
 90
       50
102
RTVSPost2010PropOp42
 70
     1
102
RTVSPost2010Prop43
 90
        3
102
RTVSPost2010PropOp43
 70
     1
102
RTVSPost2010Prop44ColorIndex
 90
        5
102
RTVSPost2010Prop44ColorRGB
 90
      255
102
RTVSPost2010PropOp44
 70
     1
102
RTVSPost2010Prop45
280
     0
102
RTVSPost2010PropOp45
 70
     1
102
RTVSPost2010Prop46
 90
       50
102
RTVSPost2010PropOp46
 70
     1
102
RTVSPost2010Prop47
 90
       50
102
RTVSPost2010PropOp47
 70
     1
102
RTVSPost2010Prop48
 90
       50
102
RTVSPost2010PropOp48
 70
     1
102
RTVSPost2010Prop49
280
     0
102
RTVSPost2010PropOp49
 70
     1
102
RTVSPost2010Prop50
 90
       50
102
RTVSPost2010PropOp50
 70
     1
102
RTVSPost2010Prop51ColorIndex
 90
      256
102
RTVSPost2010Prop51ColorRGB
 90
-16777216
102
RTVSPost2010PropOp51
 70
     0
102
RTVSPost2010Prop52
140
1.0
102
RTVSPost2010PropOp52
 70
     0
102
RTVSPost2010Prop53
 90
        2
102
RTVSPost2010PropOp53
 70
     1
102
RTVSPost2010Prop54
  1
strokes_ogs.tif
102
RTVSPost2010PropOp54
 70
     1
102
RTVSPost2010Prop55
280
     0
102
RTVSPost2010PropOp55
 70
     1
102
RTVSPost2010Prop56
140
1.0
102
RTVSPost2010PropOp56
 70
     1
102
RTVSPost2010Prop57
140
1.0
102
RTVSPost2010PropOp57
 70
     1
102
RTVSPropertyOp0
 70
     0
102
RTVSPropertyOp1
 70
     0
102
RTVSPropertyOp2
 70
     0
102
RTVSPropertyOp3
 70
     0
102
RTVSPropertyOp4
 70
     0
102
RTVSPropertyOp5
 70
     0
102
RTVSPropertyOp6
 70
     0
102
RTVSPropertyOp7
 70
     0
102
RTVSPropertyOp8
 70
     0
102
RTVSPropertyOp9
 70
     0
102
RTVSPropertyOp10
 70
     0
102
RTVSPropertyOp11
 70
     0
102
RTVSPropertyOp12
 70
     0
102
RTVSPropertyOp13
 70
     0
102
RTVSPropertyOp14
 70
     2
102
RTVSPropertyOp15
 70
     0
102
RTVSPropertyOp16
 70
     0
102
RTVSPropertyOp17
 70
     0
102
RTVSPropertyOp18
 70
     0
102
RTVSPropertyOp19
 70
     0
102
RTVSPropertyOp20
 70
     0
102
RTVSPropertyOp21
 70
     0
102
RTVSPropertyOp22
 70
     0
102
RTVSPropertyOp23
 70
     0
102
RTVSPropertyOp24
 70
     0
102
RTVSPropertyOp25
 70
     0
102
RTVSPropertyOp26
 70
     0
102
RTVSPropertyOp27
 70
     0
102
RTVSPropertyOp28
 70
     1
102
RTVSPropertyOp29
 70
     1
102
RTVSPropertyOp30
 70
     1
102
RTVSPropertyOp31
 70
     1
102
RTVSPropertyOp32
 70
     1
102
RTVSPropertyOp33
 70
     1
102
RTVSPropertyOp34
 70
     1
102
RTVSPropertyOp35
 70
     1
102
RTVSPropertyOp36
 70
     1
102
RTVSPropertyOp37
 70
     1
102
RTVSPropertyOp38
 70
     1
102
RTVSPropertyOp39
 70
     1
102
RTVSPropertyOp40
 70
     1
102
RTVSPropertyOp41
 70
     1
102
RTVSPropertyOp42
 70
     1
102
RTVSPropertyOp43
 70
     1
102
RTVSPropertyOp44
 70
     1
102
RTVSPropertyOp45
 70
     1
102
RTVSPropertyOp46
 70
     1
102
RTVSPropertyOp47
 70
     1
102
RTVSPropertyOp48
 70
     1
102
RTVSPropertyOp49
 70
     1
102
RTVSPropertyOp50
 70
     1
102
RTVSPropertyOp51
 70
     0
102
RTVSPropertyOp52
 70
     0
102
RTVSPropertyOp53
 70
     1
102
RTVSPropertyOp54
 70
     1
102
RTVSPropertyOp55
 70
     1
102
RTVSPropertyOp56
 70
     1
102
RTVSPropertyOp57
 70
     1
102
RTVSPropertyOp58
 70
     1
102
RTVSPropertyOp59
 70
     1
102
RTVSPropertyOp60
 70
     1
102
RTVSPropertyOp61
 70
     1
102
RTVSPropertyOp62
 70
     1
  0
XRECORD
  5
B29A
102
{ACAD_REACTORS
330
B299
102
}
330
B299
100
AcDbXrecord
280
     1
102
RTVSPost2010Prop28
280
     0
102
RTVSPost2010PropOp28
 70
     1
102
RTVSPost2010Prop29
280
     1
102
RTVSPost2010PropOp29
 70
     1
102
RTVSPost2010Prop30
280
     1
102
RTVSPost2010PropOp30
 70
     1
102
RTVSPost2010Prop31
280
     0
102
RTVSPost2010PropOp31
 70
     1
102
RTVSPost2010Prop32
280
     0
102
RTVSPost2010PropOp32
 70
     1
102
RTVSPost2010Prop33
280
     0
102
RTVSPost2010PropOp33
 70
     1
102
RTVSPost2010Prop34
280
     0
102
RTVSPost2010PropOp34
 70
     1
102
RTVSPost2010Prop35
280
     0
102
RTVSPost2010PropOp35
 70
     1
102
RTVSPost2010Prop36
280
     0
102
RTVSPost2010PropOp36
 70
     1
102
RTVSPost2010Prop37
 90
       50
102
RTVSPost2010PropOp37
 70
     1
102
RTVSPost2010Prop38
140
0.0
102
RTVSPost2010PropOp38
 70
     1
102
RTVSPost2010Prop39
140
1.0
102
RTVSPost2010PropOp39
 70
     1
102
RTVSPost2010Prop40
 90
        0
102
RTVSPost2010PropOp40
 70
     1
102
RTVSPost2010Prop41ColorIndex
 90
       18
102
RTVSPost2010Prop41ColorRGB
 90
        0
102
RTVSPost2010PropOp41
 70
     1
102
RTVSPost2010Prop42
 90
       50
102
RTVSPost2010PropOp42
 70
     1
102
RTVSPost2010Prop43
 90
        3
102
RTVSPost2010PropOp43
 70
     1
102
RTVSPost2010Prop44ColorIndex
 90
        5
102
RTVSPost2010Prop44ColorRGB
 90
      255
102
RTVSPost2010PropOp44
 70
     1
102
RTVSPost2010Prop45
280
     0
102
RTVSPost2010PropOp45
 70
     1
102
RTVSPost2010Prop46
 90
       50
102
RTVSPost2010PropOp46
 70
     1
102
RTVSPost2010Prop47
 90
       50
102
RTVSPost2010PropOp47
 70
     1
102
RTVSPost2010Prop48
 90
       50
102
RTVSPost2010PropOp48
 70
     1
102
RTVSPost2010Prop49
280
     0
102
RTVSPost2010PropOp49
 70
     1
102
RTVSPost2010Prop50
 90
       50
102
RTVSPost2010PropOp50
 70
     1
102
RTVSPost2010Prop51ColorIndex
 90
      256
102
RTVSPost2010Prop51ColorRGB
 90
-16777216
102
RTVSPost2010PropOp51
 70
     0
102
RTVSPost2010Prop52
140
1.0
102
RTVSPost2010PropOp52
 70
     0
102
RTVSPost2010Prop53
 90
        2
102
RTVSPost2010PropOp53
 70
     1
102
RTVSPost2010Prop54
  1
strokes_ogs.tif
102
RTVSPost2010PropOp54
 70
     1
102
RTVSPost2010Prop55
280
     0
102
RTVSPost2010PropOp55
 70
     1
102
RTVSPost2010Prop56
140
1.0
102
RTVSPost2010PropOp56
 70
     1
102
RTVSPost2010Prop57
140
1.0
102
RTVSPost2010PropOp57
 70
     1
102
RTVSPropertyOp0
 70
     1
102
RTVSPropertyOp1
 70
     1
102
RTVSPropertyOp2
 70
     1
102
RTVSPropertyOp3
 70
     1
102
RTVSPropertyOp4
 70
     1
102
RTVSPropertyOp5
 70
     1
102
RTVSPropertyOp6
 70
     1
102
RTVSPropertyOp7
 70
     1
102
RTVSPropertyOp8
 70
     1
102
RTVSPropertyOp9
 70
     1
102
RTVSPropertyOp10
 70
     1
102
RTVSPropertyOp11
 70
     1
102
RTVSPropertyOp12
 70
     1
102
RTVSPropertyOp13
 70
     1
102
RTVSPropertyOp14
 70
     1
102
RTVSPropertyOp15
 70
     1
102
RTVSPropertyOp16
 70
     1
102
RTVSPropertyOp17
 70
     1
102
RTVSPropertyOp18
 70
     1
102
RTVSPropertyOp19
 70
     1
102
RTVSPropertyOp20
 70
     1
102
RTVSPropertyOp21
 70
     1
102
RTVSPropertyOp22
 70
     1
102
RTVSPropertyOp23
 70
     1
102
RTVSPropertyOp24
 70
     1
102
RTVSPropertyOp25
 70
     1
102
RTVSPropertyOp26
 70
     1
102
RTVSPropertyOp27
 70
     1
102
RTVSPropertyOp28
 70
     1
102
RTVSPropertyOp29
 70
     1
102
RTVSPropertyOp30
 70
     1
102
RTVSPropertyOp31
 70
     1
102
RTVSPropertyOp32
 70
     1
102
RTVSPropertyOp33
 70
     1
102
RTVSPropertyOp34
 70
     1
102
RTVSPropertyOp35
 70
     1
102
RTVSPropertyOp36
 70
     1
102
RTVSPropertyOp37
 70
     1
102
RTVSPropertyOp38
 70
     1
102
RTVSPropertyOp39
 70
     1
102
RTVSPropertyOp40
 70
     1
102
RTVSPropertyOp41
 70
     1
102
RTVSPropertyOp42
 70
     1
102
RTVSPropertyOp43
 70
     1
102
RTVSPropertyOp44
 70
     1
102
RTVSPropertyOp45
 70
     1
102
RTVSPropertyOp46
 70
     1
102
RTVSPropertyOp47
 70
     1
102
RTVSPropertyOp48
 70
     1
102
RTVSPropertyOp49
 70
     1
102
RTVSPropertyOp50
 70
     1
102
RTVSPropertyOp51
 70
     0
102
RTVSPropertyOp52
 70
     0
102
RTVSPropertyOp53
 70
     1
102
RTVSPropertyOp54
 70
     1
102
RTVSPropertyOp55
 70
     1
102
RTVSPropertyOp56
 70
     1
102
RTVSPropertyOp57
 70
     1
102
RTVSPropertyOp58
 70
     1
102
RTVSPropertyOp59
 70
     1
102
RTVSPropertyOp60
 70
     1
102
RTVSPropertyOp61
 70
     1
102
RTVSPropertyOp62
 70
     1
  0
XRECORD
  5
B2A4
102
{ACAD_REACTORS
330
B2A3
102
}
330
B2A3
100
AcDbXrecord
280
     1
102
RTVSPost2010Prop28
280
     0
102
RTVSPost2010PropOp28
 70
     1
102
RTVSPost2010Prop29
280
     1
102
RTVSPost2010PropOp29
 70
     1
102
RTVSPost2010Prop30
280
     1
102
RTVSPost2010PropOp30
 70
     1
102
RTVSPost2010Prop31
280
     0
102
RTVSPost2010PropOp31
 70
     1
102
RTVSPost2010Prop32
280
     0
102
RTVSPost2010PropOp32
 70
     1
102
RTVSPost2010Prop33
280
     0
102
RTVSPost2010PropOp33
 70
     1
102
RTVSPost2010Prop34
280
     0
102
RTVSPost2010PropOp34
 70
     1
102
RTVSPost2010Prop35
280
     0
102
RTVSPost2010PropOp35
 70
     1
102
RTVSPost2010Prop36
280
     0
102
RTVSPost2010PropOp36
 70
     1
102
RTVSPost2010Prop37
 90
       50
102
RTVSPost2010PropOp37
 70
     1
102
RTVSPost2010Prop38
140
0.0
102
RTVSPost2010PropOp38
 70
     1
102
RTVSPost2010Prop39
140
1.0
102
RTVSPost2010PropOp39
 70
     1
102
RTVSPost2010Prop40
 90
        0
102
RTVSPost2010PropOp40
 70
     1
102
RTVSPost2010Prop41ColorIndex
 90
       18
102
RTVSPost2010Prop41ColorRGB
 90
        0
102
RTVSPost2010PropOp41
 70
     1
102
RTVSPost2010Prop42
 90
       50
102
RTVSPost2010PropOp42
 70
     1
102
RTVSPost2010Prop43
 90
        3
102
RTVSPost2010PropOp43
 70
     1
102
RTVSPost2010Prop44ColorIndex
 90
        5
102
RTVSPost2010Prop44ColorRGB
 90
      255
102
RTVSPost2010PropOp44
 70
     1
102
RTVSPost2010Prop45
280
     0
102
RTVSPost2010PropOp45
 70
     1
102
RTVSPost2010Prop46
 90
       50
102
RTVSPost2010PropOp46
 70
     1
102
RTVSPost2010Prop47
 90
       50
102
RTVSPost2010PropOp47
 70
     1
102
RTVSPost2010Prop48
 90
       50
102
RTVSPost2010PropOp48
 70
     1
102
RTVSPost2010Prop49
280
     0
102
RTVSPost2010PropOp49
 70
     1
102
RTVSPost2010Prop50
 90
       50
102
RTVSPost2010PropOp50
 70
     1
102
RTVSPost2010Prop51ColorIndex
 90
      256
102
RTVSPost2010Prop51ColorRGB
 90
-16777216
102
RTVSPost2010PropOp51
 70
     0
102
RTVSPost2010Prop52
140
1.0
102
RTVSPost2010PropOp52
 70
     0
102
RTVSPost2010Prop53
 90
        2
102
RTVSPost2010PropOp53
 70
     1
102
RTVSPost2010Prop54
  1
strokes_ogs.tif
102
RTVSPost2010PropOp54
 70
     1
102
RTVSPost2010Prop55
280
     0
102
RTVSPost2010PropOp55
 70
     1
102
RTVSPost2010Prop56
140
1.0
102
RTVSPost2010PropOp56
 70
     1
102
RTVSPost2010Prop57
140
1.0
102
RTVSPost2010PropOp57
 70
     1
102
RTVSPropertyOp0
 70
     0
102
RTVSPropertyOp1
 70
     0
102
RTVSPropertyOp2
 70
     0
102
RTVSPropertyOp3
 70
     0
102
RTVSPropertyOp4
 70
     0
102
RTVSPropertyOp5
 70
     0
102
RTVSPropertyOp6
 70
     0
102
RTVSPropertyOp7
 70
     0
102
RTVSPropertyOp8
 70
     0
102
RTVSPropertyOp9
 70
     0
102
RTVSPropertyOp10
 70
     0
102
RTVSPropertyOp11
 70
     0
102
RTVSPropertyOp12
 70
     0
102
RTVSPropertyOp13
 70
     0
102
RTVSPropertyOp14
 70
     2
102
RTVSPropertyOp15
 70
     0
102
RTVSPropertyOp16
 70
     0
102
RTVSPropertyOp17
 70
     0
102
RTVSPropertyOp18
 70
     0
102
RTVSPropertyOp19
 70
     0
102
RTVSPropertyOp20
 70
     0
102
RTVSPropertyOp21
 70
     0
102
RTVSPropertyOp22
 70
     0
102
RTVSPropertyOp23
 70
     0
102
RTVSPropertyOp24
 70
     0
102
RTVSPropertyOp25
 70
     0
102
RTVSPropertyOp26
 70
     0
102
RTVSPropertyOp27
 70
     0
102
RTVSPropertyOp28
 70
     1
102
RTVSPropertyOp29
 70
     1
102
RTVSPropertyOp30
 70
     1
102
RTVSPropertyOp31
 70
     1
102
RTVSPropertyOp32
 70
     1
102
RTVSPropertyOp33
 70
     1
102
RTVSPropertyOp34
 70
     1
102
RTVSPropertyOp35
 70
     1
102
RTVSPropertyOp36
 70
     1
102
RTVSPropertyOp37
 70
     1
102
RTVSPropertyOp38
 70
     1
102
RTVSPropertyOp39
 70
     1
102
RTVSPropertyOp40
 70
     1
102
RTVSPropertyOp41
 70
     1
102
RTVSPropertyOp42
 70
     1
102
RTVSPropertyOp43
 70
     1
102
RTVSPropertyOp44
 70
     1
102
RTVSPropertyOp45
 70
     1
102
RTVSPropertyOp46
 70
     1
102
RTVSPropertyOp47
 70
     1
102
RTVSPropertyOp48
 70
     1
102
RTVSPropertyOp49
 70
     1
102
RTVSPropertyOp50
 70
     1
102
RTVSPropertyOp51
 70
     0
102
RTVSPropertyOp52
 70
     0
102
RTVSPropertyOp53
 70
     1
102
RTVSPropertyOp54
 70
     1
102
RTVSPropertyOp55
 70
     1
102
RTVSPropertyOp56
 70
     1
102
RTVSPropertyOp57
 70
     1
102
RTVSPropertyOp58
 70
     1
102
RTVSPropertyOp59
 70
     1
102
RTVSPropertyOp60
 70
     1
102
RTVSPropertyOp61
 70
     1
102
RTVSPropertyOp62
 70
     1
  0
XRECORD
  5
B292
102
{ACAD_REACTORS
330
B291
102
}
330
B291
100
AcDbXrecord
280
     1
102
RTVSPost2010Prop28
280
     0
102
RTVSPost2010PropOp28
 70
     1
102
RTVSPost2010Prop29
280
     1
102
RTVSPost2010PropOp29
 70
     1
102
RTVSPost2010Prop30
280
     1
102
RTVSPost2010PropOp30
 70
     1
102
RTVSPost2010Prop31
280
     0
102
RTVSPost2010PropOp31
 70
     1
102
RTVSPost2010Prop32
280
     0
102
RTVSPost2010PropOp32
 70
     1
102
RTVSPost2010Prop33
280
     0
102
RTVSPost2010PropOp33
 70
     1
102
RTVSPost2010Prop34
280
     0
102
RTVSPost2010PropOp34
 70
     1
102
RTVSPost2010Prop35
280
     0
102
RTVSPost2010PropOp35
 70
     1
102
RTVSPost2010Prop36
280
     0
102
RTVSPost2010PropOp36
 70
     1
102
RTVSPost2010Prop37
 90
       50
102
RTVSPost2010PropOp37
 70
     1
102
RTVSPost2010Prop38
140
0.0
102
RTVSPost2010PropOp38
 70
     1
102
RTVSPost2010Prop39
140
1.0
102
RTVSPost2010PropOp39
 70
     1
102
RTVSPost2010Prop40
 90
        0
102
RTVSPost2010PropOp40
 70
     1
102
RTVSPost2010Prop41ColorIndex
 90
       18
102
RTVSPost2010Prop41ColorRGB
 90
        0
102
RTVSPost2010PropOp41
 70
     1
102
RTVSPost2010Prop42
 90
       50
102
RTVSPost2010PropOp42
 70
     1
102
RTVSPost2010Prop43
 90
        3
102
RTVSPost2010PropOp43
 70
     1
102
RTVSPost2010Prop44ColorIndex
 90
        5
102
RTVSPost2010Prop44ColorRGB
 90
      255
102
RTVSPost2010PropOp44
 70
     1
102
RTVSPost2010Prop45
280
     0
102
RTVSPost2010PropOp45
 70
     1
102
RTVSPost2010Prop46
 90
       50
102
RTVSPost2010PropOp46
 70
     1
102
RTVSPost2010Prop47
 90
       50
102
RTVSPost2010PropOp47
 70
     1
102
RTVSPost2010Prop48
 90
       50
102
RTVSPost2010PropOp48
 70
     1
102
RTVSPost2010Prop49
280
     0
102
RTVSPost2010PropOp49
 70
     1
102
RTVSPost2010Prop50
 90
       50
102
RTVSPost2010PropOp50
 70
     1
102
RTVSPost2010Prop51ColorIndex
 90
      256
102
RTVSPost2010Prop51ColorRGB
 90
-16777216
102
RTVSPost2010PropOp51
 70
     0
102
RTVSPost2010Prop52
140
1.0
102
RTVSPost2010PropOp52
 70
     0
102
RTVSPost2010Prop53
 90
        2
102
RTVSPost2010PropOp53
 70
     1
102
RTVSPost2010Prop54
  1
strokes_ogs.tif
102
RTVSPost2010PropOp54
 70
     1
102
RTVSPost2010Prop55
280
     0
102
RTVSPost2010PropOp55
 70
     1
102
RTVSPost2010Prop56
140
1.0
102
RTVSPost2010PropOp56
 70
     1
102
RTVSPost2010Prop57
140
1.0
102
RTVSPost2010PropOp57
 70
     1
102
RTVSPropertyOp0
 70
     1
102
RTVSPropertyOp1
 70
     1
102
RTVSPropertyOp2
 70
     1
102
RTVSPropertyOp3
 70
     1
102
RTVSPropertyOp4
 70
     1
102
RTVSPropertyOp5
 70
     1
102
RTVSPropertyOp6
 70
     1
102
RTVSPropertyOp7
 70
     1
102
RTVSPropertyOp8
 70
     1
102
RTVSPropertyOp9
 70
     1
102
RTVSPropertyOp10
 70
     1
102
RTVSPropertyOp11
 70
     1
102
RTVSPropertyOp12
 70
     1
102
RTVSPropertyOp13
 70
     1
102
RTVSPropertyOp14
 70
     1
102
RTVSPropertyOp15
 70
     1
102
RTVSPropertyOp16
 70
     1
102
RTVSPropertyOp17
 70
     1
102
RTVSPropertyOp18
 70
     1
102
RTVSPropertyOp19
 70
     1
102
RTVSPropertyOp20
 70
     1
102
RTVSPropertyOp21
 70
     1
102
RTVSPropertyOp22
 70
     1
102
RTVSPropertyOp23
 70
     1
102
RTVSPropertyOp24
 70
     1
102
RTVSPropertyOp25
 70
     1
102
RTVSPropertyOp26
 70
     1
102
RTVSPropertyOp27
 70
     1
102
RTVSPropertyOp28
 70
     1
102
RTVSPropertyOp29
 70
     1
102
RTVSPropertyOp30
 70
     1
102
RTVSPropertyOp31
 70
     1
102
RTVSPropertyOp32
 70
     1
102
RTVSPropertyOp33
 70
     1
102
RTVSPropertyOp34
 70
     1
102
RTVSPropertyOp35
 70
     1
102
RTVSPropertyOp36
 70
     1
102
RTVSPropertyOp37
 70
     1
102
RTVSPropertyOp38
 70
     1
102
RTVSPropertyOp39
 70
     1
102
RTVSPropertyOp40
 70
     1
102
RTVSPropertyOp41
 70
     1
102
RTVSPropertyOp42
 70
     1
102
RTVSPropertyOp43
 70
     1
102
RTVSPropertyOp44
 70
     1
102
RTVSPropertyOp45
 70
     1
102
RTVSPropertyOp46
 70
     1
102
RTVSPropertyOp47
 70
     1
102
RTVSPropertyOp48
 70
     1
102
RTVSPropertyOp49
 70
     1
102
RTVSPropertyOp50
 70
     1
102
RTVSPropertyOp51
 70
     0
102
RTVSPropertyOp52
 70
     0
102
RTVSPropertyOp53
 70
     1
102
RTVSPropertyOp54
 70
     1
102
RTVSPropertyOp55
 70
     1
102
RTVSPropertyOp56
 70
     1
102
RTVSPropertyOp57
 70
     1
102
RTVSPropertyOp58
 70
     1
102
RTVSPropertyOp59
 70
     1
102
RTVSPropertyOp60
 70
     1
102
RTVSPropertyOp61
 70
     1
102
RTVSPropertyOp62
 70
     1
  0
XRECORD
  5
B2B0
102
{ACAD_REACTORS
330
B2AF
102
}
330
B2AF
100
AcDbXrecord
280
     1
102
RTVSPost2010Prop28
280
     0
102
RTVSPost2010PropOp28
 70
     1
102
RTVSPost2010Prop29
280
     1
102
RTVSPost2010PropOp29
 70
     1
102
RTVSPost2010Prop30
280
     1
102
RTVSPost2010PropOp30
 70
     1
102
RTVSPost2010Prop31
280
     0
102
RTVSPost2010PropOp31
 70
     1
102
RTVSPost2010Prop32
280
     0
102
RTVSPost2010PropOp32
 70
     1
102
RTVSPost2010Prop33
280
     0
102
RTVSPost2010PropOp33
 70
     1
102
RTVSPost2010Prop34
280
     0
102
RTVSPost2010PropOp34
 70
     1
102
RTVSPost2010Prop35
280
     0
102
RTVSPost2010PropOp35
 70
     1
102
RTVSPost2010Prop36
280
     0
102
RTVSPost2010PropOp36
 70
     1
102
RTVSPost2010Prop37
 90
       50
102
RTVSPost2010PropOp37
 70
     1
102
RTVSPost2010Prop38
140
0.0
102
RTVSPost2010PropOp38
 70
     1
102
RTVSPost2010Prop39
140
1.0
102
RTVSPost2010PropOp39
 70
     1
102
RTVSPost2010Prop40
 90
        0
102
RTVSPost2010PropOp40
 70
     1
102
RTVSPost2010Prop41ColorIndex
 90
       18
102
RTVSPost2010Prop41ColorRGB
 90
        0
102
RTVSPost2010PropOp41
 70
     1
102
RTVSPost2010Prop42
 90
       50
102
RTVSPost2010PropOp42
 70
     1
102
RTVSPost2010Prop43
 90
        3
102
RTVSPost2010PropOp43
 70
     1
102
RTVSPost2010Prop44ColorIndex
 90
        5
102
RTVSPost2010Prop44ColorRGB
 90
      255
102
RTVSPost2010PropOp44
 70
     1
102
RTVSPost2010Prop45
280
     0
102
RTVSPost2010PropOp45
 70
     1
102
RTVSPost2010Prop46
 90
       50
102
RTVSPost2010PropOp46
 70
     1
102
RTVSPost2010Prop47
 90
       50
102
RTVSPost2010PropOp47
 70
     1
102
RTVSPost2010Prop48
 90
       50
102
RTVSPost2010PropOp48
 70
     1
102
RTVSPost2010Prop49
280
     0
102
RTVSPost2010PropOp49
 70
     1
102
RTVSPost2010Prop50
 90
       50
102
RTVSPost2010PropOp50
 70
     1
102
RTVSPost2010Prop51ColorIndex
 90
      256
102
RTVSPost2010Prop51ColorRGB
 90
-16777216
102
RTVSPost2010PropOp51
 70
     0
102
RTVSPost2010Prop52
140
1.0
102
RTVSPost2010PropOp52
 70
     0
102
RTVSPost2010Prop53
 90
        2
102
RTVSPost2010PropOp53
 70
     1
102
RTVSPost2010Prop54
  1
strokes_ogs.tif
102
RTVSPost2010PropOp54
 70
     1
102
RTVSPost2010Prop55
280
     0
102
RTVSPost2010PropOp55
 70
     1
102
RTVSPost2010Prop56
140
1.0
102
RTVSPost2010PropOp56
 70
     1
102
RTVSPost2010Prop57
140
1.0
102
RTVSPost2010PropOp57
 70
     1
102
RTVSPropertyOp0
 70
     1
102
RTVSPropertyOp1
 70
     1
102
RTVSPropertyOp2
 70
     1
102
RTVSPropertyOp3
 70
     1
102
RTVSPropertyOp4
 70
     1
102
RTVSPropertyOp5
 70
     1
102
RTVSPropertyOp6
 70
     1
102
RTVSPropertyOp7
 70
     1
102
RTVSPropertyOp8
 70
     1
102
RTVSPropertyOp9
 70
     1
102
RTVSPropertyOp10
 70
     1
102
RTVSPropertyOp11
 70
     1
102
RTVSPropertyOp12
 70
     1
102
RTVSPropertyOp13
 70
     1
102
RTVSPropertyOp14
 70
     1
102
RTVSPropertyOp15
 70
     1
102
RTVSPropertyOp16
 70
     1
102
RTVSPropertyOp17
 70
     1
102
RTVSPropertyOp18
 70
     1
102
RTVSPropertyOp19
 70
     1
102
RTVSPropertyOp20
 70
     1
102
RTVSPropertyOp21
 70
     1
102
RTVSPropertyOp22
 70
     1
102
RTVSPropertyOp23
 70
     1
102
RTVSPropertyOp24
 70
     1
102
RTVSPropertyOp25
 70
     1
102
RTVSPropertyOp26
 70
     1
102
RTVSPropertyOp27
 70
     1
102
RTVSPropertyOp28
 70
     1
102
RTVSPropertyOp29
 70
     1
102
RTVSPropertyOp30
 70
     1
102
RTVSPropertyOp31
 70
     1
102
RTVSPropertyOp32
 70
     1
102
RTVSPropertyOp33
 70
     1
102
RTVSPropertyOp34
 70
     1
102
RTVSPropertyOp35
 70
     1
102
RTVSPropertyOp36
 70
     1
102
RTVSPropertyOp37
 70
     1
102
RTVSPropertyOp38
 70
     1
102
RTVSPropertyOp39
 70
     1
102
RTVSPropertyOp40
 70
     1
102
RTVSPropertyOp41
 70
     1
102
RTVSPropertyOp42
 70
     1
102
RTVSPropertyOp43
 70
     1
102
RTVSPropertyOp44
 70
     1
102
RTVSPropertyOp45
 70
     1
102
RTVSPropertyOp46
 70
     1
102
RTVSPropertyOp47
 70
     1
102
RTVSPropertyOp48
 70
     1
102
RTVSPropertyOp49
 70
     1
102
RTVSPropertyOp50
 70
     1
102
RTVSPropertyOp51
 70
     0
102
RTVSPropertyOp52
 70
     0
102
RTVSPropertyOp53
 70
     1
102
RTVSPropertyOp54
 70
     1
102
RTVSPropertyOp55
 70
     1
102
RTVSPropertyOp56
 70
     1
102
RTVSPropertyOp57
 70
     1
102
RTVSPropertyOp58
 70
     1
102
RTVSPropertyOp59
 70
     1
102
RTVSPropertyOp60
 70
     1
102
RTVSPropertyOp61
 70
     1
102
RTVSPropertyOp62
 70
     1
  0
XRECORD
  5
B2AE
102
{ACAD_REACTORS
330
B2AD
102
}
330
B2AD
100
AcDbXrecord
280
     1
102
RTVSPost2010Prop28
280
     0
102
RTVSPost2010PropOp28
 70
     1
102
RTVSPost2010Prop29
280
     1
102
RTVSPost2010PropOp29
 70
     1
102
RTVSPost2010Prop30
280
     1
102
RTVSPost2010PropOp30
 70
     1
102
RTVSPost2010Prop31
280
     0
102
RTVSPost2010PropOp31
 70
     1
102
RTVSPost2010Prop32
280
     0
102
RTVSPost2010PropOp32
 70
     1
102
RTVSPost2010Prop33
280
     0
102
RTVSPost2010PropOp33
 70
     1
102
RTVSPost2010Prop34
280
     0
102
RTVSPost2010PropOp34
 70
     1
102
RTVSPost2010Prop35
280
     0
102
RTVSPost2010PropOp35
 70
     1
102
RTVSPost2010Prop36
280
     0
102
RTVSPost2010PropOp36
 70
     1
102
RTVSPost2010Prop37
 90
       50
102
RTVSPost2010PropOp37
 70
     1
102
RTVSPost2010Prop38
140
0.0
102
RTVSPost2010PropOp38
 70
     1
102
RTVSPost2010Prop39
140
1.0
102
RTVSPost2010PropOp39
 70
     1
102
RTVSPost2010Prop40
 90
        0
102
RTVSPost2010PropOp40
 70
     1
102
RTVSPost2010Prop41ColorIndex
 90
       18
102
RTVSPost2010Prop41ColorRGB
 90
        0
102
RTVSPost2010PropOp41
 70
     1
102
RTVSPost2010Prop42
 90
       50
102
RTVSPost2010PropOp42
 70
     1
102
RTVSPost2010Prop43
 90
        3
102
RTVSPost2010PropOp43
 70
     1
102
RTVSPost2010Prop44ColorIndex
 90
        5
102
RTVSPost2010Prop44ColorRGB
 90
      255
102
RTVSPost2010PropOp44
 70
     1
102
RTVSPost2010Prop45
280
     0
102
RTVSPost2010PropOp45
 70
     1
102
RTVSPost2010Prop46
 90
       50
102
RTVSPost2010PropOp46
 70
     1
102
RTVSPost2010Prop47
 90
       50
102
RTVSPost2010PropOp47
 70
     1
102
RTVSPost2010Prop48
 90
       50
102
RTVSPost2010PropOp48
 70
     1
102
RTVSPost2010Prop49
280
     0
102
RTVSPost2010PropOp49
 70
     1
102
RTVSPost2010Prop50
 90
       50
102
RTVSPost2010PropOp50
 70
     1
102
RTVSPost2010Prop51ColorIndex
 90
      256
102
RTVSPost2010Prop51ColorRGB
 90
-16777216
102
RTVSPost2010PropOp51
 70
     0
102
RTVSPost2010Prop52
140
1.0
102
RTVSPost2010PropOp52
 70
     0
102
RTVSPost2010Prop53
 90
        2
102
RTVSPost2010PropOp53
 70
     1
102
RTVSPost2010Prop54
  1
strokes_ogs.tif
102
RTVSPost2010PropOp54
 70
     1
102
RTVSPost2010Prop55
280
     0
102
RTVSPost2010PropOp55
 70
     1
102
RTVSPost2010Prop56
140
1.0
102
RTVSPost2010PropOp56
 70
     1
102
RTVSPost2010Prop57
140
1.0
102
RTVSPost2010PropOp57
 70
     1
102
RTVSPropertyOp0
 70
     1
102
RTVSPropertyOp1
 70
     1
102
RTVSPropertyOp2
 70
     1
102
RTVSPropertyOp3
 70
     1
102
RTVSPropertyOp4
 70
     1
102
RTVSPropertyOp5
 70
     1
102
RTVSPropertyOp6
 70
     1
102
RTVSPropertyOp7
 70
     1
102
RTVSPropertyOp8
 70
     1
102
RTVSPropertyOp9
 70
     1
102
RTVSPropertyOp10
 70
     1
102
RTVSPropertyOp11
 70
     1
102
RTVSPropertyOp12
 70
     1
102
RTVSPropertyOp13
 70
     1
102
RTVSPropertyOp14
 70
     1
102
RTVSPropertyOp15
 70
     1
102
RTVSPropertyOp16
 70
     1
102
RTVSPropertyOp17
 70
     1
102
RTVSPropertyOp18
 70
     1
102
RTVSPropertyOp19
 70
     1
102
RTVSPropertyOp20
 70
     1
102
RTVSPropertyOp21
 70
     1
102
RTVSPropertyOp22
 70
     1
102
RTVSPropertyOp23
 70
     1
102
RTVSPropertyOp24
 70
     1
102
RTVSPropertyOp25
 70
     1
102
RTVSPropertyOp26
 70
     1
102
RTVSPropertyOp27
 70
     1
102
RTVSPropertyOp28
 70
     1
102
RTVSPropertyOp29
 70
     1
102
RTVSPropertyOp30
 70
     1
102
RTVSPropertyOp31
 70
     1
102
RTVSPropertyOp32
 70
     1
102
RTVSPropertyOp33
 70
     1
102
RTVSPropertyOp34
 70
     1
102
RTVSPropertyOp35
 70
     1
102
RTVSPropertyOp36
 70
     1
102
RTVSPropertyOp37
 70
     1
102
RTVSPropertyOp38
 70
     1
102
RTVSPropertyOp39
 70
     1
102
RTVSPropertyOp40
 70
     1
102
RTVSPropertyOp41
 70
     1
102
RTVSPropertyOp42
 70
     1
102
RTVSPropertyOp43
 70
     1
102
RTVSPropertyOp44
 70
     1
102
RTVSPropertyOp45
 70
     1
102
RTVSPropertyOp46
 70
     1
102
RTVSPropertyOp47
 70
     1
102
RTVSPropertyOp48
 70
     1
102
RTVSPropertyOp49
 70
     1
102
RTVSPropertyOp50
 70
     1
102
RTVSPropertyOp51
 70
     0
102
RTVSPropertyOp52
 70
     0
102
RTVSPropertyOp53
 70
     1
102
RTVSPropertyOp54
 70
     1
102
RTVSPropertyOp55
 70
     1
102
RTVSPropertyOp56
 70
     1
102
RTVSPropertyOp57
 70
     1
102
RTVSPropertyOp58
 70
     1
102
RTVSPropertyOp59
 70
     1
102
RTVSPropertyOp60
 70
     1
102
RTVSPropertyOp61
 70
     1
102
RTVSPropertyOp62
 70
     1
  0
XRECORD
  5
B2A8
102
{ACAD_REACTORS
330
B2A7
102
}
330
B2A7
100
AcDbXrecord
280
     1
102
RTVSPost2010Prop28
280
     0
102
RTVSPost2010PropOp28
 70
     1
102
RTVSPost2010Prop29
280
     1
102
RTVSPost2010PropOp29
 70
     1
102
RTVSPost2010Prop30
280
     1
102
RTVSPost2010PropOp30
 70
     1
102
RTVSPost2010Prop31
280
     0
102
RTVSPost2010PropOp31
 70
     1
102
RTVSPost2010Prop32
280
     0
102
RTVSPost2010PropOp32
 70
     1
102
RTVSPost2010Prop33
280
     0
102
RTVSPost2010PropOp33
 70
     1
102
RTVSPost2010Prop34
280
     0
102
RTVSPost2010PropOp34
 70
     1
102
RTVSPost2010Prop35
280
     0
102
RTVSPost2010PropOp35
 70
     1
102
RTVSPost2010Prop36
280
     0
102
RTVSPost2010PropOp36
 70
     1
102
RTVSPost2010Prop37
 90
       50
102
RTVSPost2010PropOp37
 70
     1
102
RTVSPost2010Prop38
140
0.0
102
RTVSPost2010PropOp38
 70
     1
102
RTVSPost2010Prop39
140
1.0
102
RTVSPost2010PropOp39
 70
     1
102
RTVSPost2010Prop40
 90
        0
102
RTVSPost2010PropOp40
 70
     1
102
RTVSPost2010Prop41ColorIndex
 90
       18
102
RTVSPost2010Prop41ColorRGB
 90
        0
102
RTVSPost2010PropOp41
 70
     1
102
RTVSPost2010Prop42
 90
       50
102
RTVSPost2010PropOp42
 70
     1
102
RTVSPost2010Prop43
 90
        3
102
RTVSPost2010PropOp43
 70
     1
102
RTVSPost2010Prop44ColorIndex
 90
        5
102
RTVSPost2010Prop44ColorRGB
 90
      255
102
RTVSPost2010PropOp44
 70
     1
102
RTVSPost2010Prop45
280
     0
102
RTVSPost2010PropOp45
 70
     1
102
RTVSPost2010Prop46
 90
       50
102
RTVSPost2010PropOp46
 70
     1
102
RTVSPost2010Prop47
 90
       50
102
RTVSPost2010PropOp47
 70
     1
102
RTVSPost2010Prop48
 90
       50
102
RTVSPost2010PropOp48
 70
     1
102
RTVSPost2010Prop49
280
     0
102
RTVSPost2010PropOp49
 70
     1
102
RTVSPost2010Prop50
 90
       50
102
RTVSPost2010PropOp50
 70
     1
102
RTVSPost2010Prop51ColorIndex
 90
      256
102
RTVSPost2010Prop51ColorRGB
 90
-16777216
102
RTVSPost2010PropOp51
 70
     0
102
RTVSPost2010Prop52
140
1.0
102
RTVSPost2010PropOp52
 70
     0
102
RTVSPost2010Prop53
 90
        2
102
RTVSPost2010PropOp53
 70
     1
102
RTVSPost2010Prop54
  1
strokes_ogs.tif
102
RTVSPost2010PropOp54
 70
     1
102
RTVSPost2010Prop55
280
     0
102
RTVSPost2010PropOp55
 70
     1
102
RTVSPost2010Prop56
140
1.0
102
RTVSPost2010PropOp56
 70
     1
102
RTVSPost2010Prop57
140
1.0
102
RTVSPost2010PropOp57
 70
     1
102
RTVSPropertyOp0
 70
     1
102
RTVSPropertyOp1
 70
     1
102
RTVSPropertyOp2
 70
     1
102
RTVSPropertyOp3
 70
     1
102
RTVSPropertyOp4
 70
     1
102
RTVSPropertyOp5
 70
     1
102
RTVSPropertyOp6
 70
     1
102
RTVSPropertyOp7
 70
     1
102
RTVSPropertyOp8
 70
     1
102
RTVSPropertyOp9
 70
     1
102
RTVSPropertyOp10
 70
     1
102
RTVSPropertyOp11
 70
     1
102
RTVSPropertyOp12
 70
     1
102
RTVSPropertyOp13
 70
     1
102
RTVSPropertyOp14
 70
     1
102
RTVSPropertyOp15
 70
     1
102
RTVSPropertyOp16
 70
     1
102
RTVSPropertyOp17
 70
     1
102
RTVSPropertyOp18
 70
     1
102
RTVSPropertyOp19
 70
     1
102
RTVSPropertyOp20
 70
     1
102
RTVSPropertyOp21
 70
     1
102
RTVSPropertyOp22
 70
     1
102
RTVSPropertyOp23
 70
     1
102
RTVSPropertyOp24
 70
     1
102
RTVSPropertyOp25
 70
     1
102
RTVSPropertyOp26
 70
     1
102
RTVSPropertyOp27
 70
     1
102
RTVSPropertyOp28
 70
     1
102
RTVSPropertyOp29
 70
     1
102
RTVSPropertyOp30
 70
     1
102
RTVSPropertyOp31
 70
     1
102
RTVSPropertyOp32
 70
     1
102
RTVSPropertyOp33
 70
     1
102
RTVSPropertyOp34
 70
     1
102
RTVSPropertyOp35
 70
     1
102
RTVSPropertyOp36
 70
     1
102
RTVSPropertyOp37
 70
     1
102
RTVSPropertyOp38
 70
     1
102
RTVSPropertyOp39
 70
     1
102
RTVSPropertyOp40
 70
     1
102
RTVSPropertyOp41
 70
     1
102
RTVSPropertyOp42
 70
     1
102
RTVSPropertyOp43
 70
     1
102
RTVSPropertyOp44
 70
     1
102
RTVSPropertyOp45
 70
     1
102
RTVSPropertyOp46
 70
     1
102
RTVSPropertyOp47
 70
     1
102
RTVSPropertyOp48
 70
     1
102
RTVSPropertyOp49
 70
     1
102
RTVSPropertyOp50
 70
     1
102
RTVSPropertyOp51
 70
     0
102
RTVSPropertyOp52
 70
     0
102
RTVSPropertyOp53
 70
     1
102
RTVSPropertyOp54
 70
     1
102
RTVSPropertyOp55
 70
     1
102
RTVSPropertyOp56
 70
     1
102
RTVSPropertyOp57
 70
     1
102
RTVSPropertyOp58
 70
     1
102
RTVSPropertyOp59
 70
     1
102
RTVSPropertyOp60
 70
     1
102
RTVSPropertyOp61
 70
     1
102
RTVSPropertyOp62
 70
     1
  0
XRECORD
  5
B2AA
102
{ACAD_REACTORS
330
B2A9
102
}
330
B2A9
100
AcDbXrecord
280
     1
102
RTVSPost2010Prop28
280
     0
102
RTVSPost2010PropOp28
 70
     1
102
RTVSPost2010Prop29
280
     1
102
RTVSPost2010PropOp29
 70
     1
102
RTVSPost2010Prop30
280
     1
102
RTVSPost2010PropOp30
 70
     1
102
RTVSPost2010Prop31
280
     0
102
RTVSPost2010PropOp31
 70
     1
102
RTVSPost2010Prop32
280
     0
102
RTVSPost2010PropOp32
 70
     1
102
RTVSPost2010Prop33
280
     0
102
RTVSPost2010PropOp33
 70
     1
102
RTVSPost2010Prop34
280
     0
102
RTVSPost2010PropOp34
 70
     1
102
RTVSPost2010Prop35
280
     0
102
RTVSPost2010PropOp35
 70
     1
102
RTVSPost2010Prop36
280
     0
102
RTVSPost2010PropOp36
 70
     1
102
RTVSPost2010Prop37
 90
       50
102
RTVSPost2010PropOp37
 70
     1
102
RTVSPost2010Prop38
140
0.0
102
RTVSPost2010PropOp38
 70
     1
102
RTVSPost2010Prop39
140
1.0
102
RTVSPost2010PropOp39
 70
     1
102
RTVSPost2010Prop40
 90
        0
102
RTVSPost2010PropOp40
 70
     1
102
RTVSPost2010Prop41ColorIndex
 90
       18
102
RTVSPost2010Prop41ColorRGB
 90
        0
102
RTVSPost2010PropOp41
 70
     1
102
RTVSPost2010Prop42
 90
       50
102
RTVSPost2010PropOp42
 70
     1
102
RTVSPost2010Prop43
 90
        3
102
RTVSPost2010PropOp43
 70
     1
102
RTVSPost2010Prop44ColorIndex
 90
        5
102
RTVSPost2010Prop44ColorRGB
 90
      255
102
RTVSPost2010PropOp44
 70
     1
102
RTVSPost2010Prop45
280
     0
102
RTVSPost2010PropOp45
 70
     1
102
RTVSPost2010Prop46
 90
       50
102
RTVSPost2010PropOp46
 70
     1
102
RTVSPost2010Prop47
 90
       50
102
RTVSPost2010PropOp47
 70
     1
102
RTVSPost2010Prop48
 90
       50
102
RTVSPost2010PropOp48
 70
     1
102
RTVSPost2010Prop49
280
     0
102
RTVSPost2010PropOp49
 70
     1
102
RTVSPost2010Prop50
 90
       50
102
RTVSPost2010PropOp50
 70
     1
102
RTVSPost2010Prop51ColorIndex
 90
      256
102
RTVSPost2010Prop51ColorRGB
 90
-16777216
102
RTVSPost2010PropOp51
 70
     0
102
RTVSPost2010Prop52
140
1.0
102
RTVSPost2010PropOp52
 70
     0
102
RTVSPost2010Prop53
 90
        2
102
RTVSPost2010PropOp53
 70
     1
102
RTVSPost2010Prop54
  1
strokes_ogs.tif
102
RTVSPost2010PropOp54
 70
     1
102
RTVSPost2010Prop55
280
     0
102
RTVSPost2010PropOp55
 70
     1
102
RTVSPost2010Prop56
140
1.0
102
RTVSPost2010PropOp56
 70
     1
102
RTVSPost2010Prop57
140
1.0
102
RTVSPost2010PropOp57
 70
     1
102
RTVSPropertyOp0
 70
     1
102
RTVSPropertyOp1
 70
     1
102
RTVSPropertyOp2
 70
     1
102
RTVSPropertyOp3
 70
     1
102
RTVSPropertyOp4
 70
     1
102
RTVSPropertyOp5
 70
     1
102
RTVSPropertyOp6
 70
     1
102
RTVSPropertyOp7
 70
     1
102
RTVSPropertyOp8
 70
     1
102
RTVSPropertyOp9
 70
     1
102
RTVSPropertyOp10
 70
     1
102
RTVSPropertyOp11
 70
     1
102
RTVSPropertyOp12
 70
     1
102
RTVSPropertyOp13
 70
     1
102
RTVSPropertyOp14
 70
     1
102
RTVSPropertyOp15
 70
     1
102
RTVSPropertyOp16
 70
     1
102
RTVSPropertyOp17
 70
     1
102
RTVSPropertyOp18
 70
     1
102
RTVSPropertyOp19
 70
     1
102
RTVSPropertyOp20
 70
     1
102
RTVSPropertyOp21
 70
     1
102
RTVSPropertyOp22
 70
     1
102
RTVSPropertyOp23
 70
     1
102
RTVSPropertyOp24
 70
     1
102
RTVSPropertyOp25
 70
     1
102
RTVSPropertyOp26
 70
     1
102
RTVSPropertyOp27
 70
     1
102
RTVSPropertyOp28
 70
     1
102
RTVSPropertyOp29
 70
     1
102
RTVSPropertyOp30
 70
     1
102
RTVSPropertyOp31
 70
     1
102
RTVSPropertyOp32
 70
     1
102
RTVSPropertyOp33
 70
     1
102
RTVSPropertyOp34
 70
     1
102
RTVSPropertyOp35
 70
     1
102
RTVSPropertyOp36
 70
     1
102
RTVSPropertyOp37
 70
     1
102
RTVSPropertyOp38
 70
     1
102
RTVSPropertyOp39
 70
     1
102
RTVSPropertyOp40
 70
     1
102
RTVSPropertyOp41
 70
     1
102
RTVSPropertyOp42
 70
     1
102
RTVSPropertyOp43
 70
     1
102
RTVSPropertyOp44
 70
     1
102
RTVSPropertyOp45
 70
     1
102
RTVSPropertyOp46
 70
     1
102
RTVSPropertyOp47
 70
     1
102
RTVSPropertyOp48
 70
     1
102
RTVSPropertyOp49
 70
     1
102
RTVSPropertyOp50
 70
     1
102
RTVSPropertyOp51
 70
     0
102
RTVSPropertyOp52
 70
     0
102
RTVSPropertyOp53
 70
     1
102
RTVSPropertyOp54
 70
     1
102
RTVSPropertyOp55
 70
     1
102
RTVSPropertyOp56
 70
     1
102
RTVSPropertyOp57
 70
     1
102
RTVSPropertyOp58
 70
     1
102
RTVSPropertyOp59
 70
     1
102
RTVSPropertyOp60
 70
     1
102
RTVSPropertyOp61
 70
     1
102
RTVSPropertyOp62
 70
     1
  0
XRECORD
  5
B298
102
{ACAD_REACTORS
330
B297
102
}
330
B297
100
AcDbXrecord
280
     1
102
RTVSPost2010Prop28
280
     0
102
RTVSPost2010PropOp28
 70
     1
102
RTVSPost2010Prop29
280
     1
102
RTVSPost2010PropOp29
 70
     1
102
RTVSPost2010Prop30
280
     1
102
RTVSPost2010PropOp30
 70
     1
102
RTVSPost2010Prop31
280
     0
102
RTVSPost2010PropOp31
 70
     1
102
RTVSPost2010Prop32
280
     0
102
RTVSPost2010PropOp32
 70
     1
102
RTVSPost2010Prop33
280
     0
102
RTVSPost2010PropOp33
 70
     1
102
RTVSPost2010Prop34
280
     0
102
RTVSPost2010PropOp34
 70
     1
102
RTVSPost2010Prop35
280
     0
102
RTVSPost2010PropOp35
 70
     1
102
RTVSPost2010Prop36
280
     0
102
RTVSPost2010PropOp36
 70
     1
102
RTVSPost2010Prop37
 90
       50
102
RTVSPost2010PropOp37
 70
     1
102
RTVSPost2010Prop38
140
0.0
102
RTVSPost2010PropOp38
 70
     1
102
RTVSPost2010Prop39
140
1.0
102
RTVSPost2010PropOp39
 70
     1
102
RTVSPost2010Prop40
 90
        0
102
RTVSPost2010PropOp40
 70
     1
102
RTVSPost2010Prop41ColorIndex
 90
       18
102
RTVSPost2010Prop41ColorRGB
 90
        0
102
RTVSPost2010PropOp41
 70
     1
102
RTVSPost2010Prop42
 90
       50
102
RTVSPost2010PropOp42
 70
     1
102
RTVSPost2010Prop43
 90
        3
102
RTVSPost2010PropOp43
 70
     1
102
RTVSPost2010Prop44ColorIndex
 90
        5
102
RTVSPost2010Prop44ColorRGB
 90
      255
102
RTVSPost2010PropOp44
 70
     1
102
RTVSPost2010Prop45
280
     0
102
RTVSPost2010PropOp45
 70
     1
102
RTVSPost2010Prop46
 90
       50
102
RTVSPost2010PropOp46
 70
     1
102
RTVSPost2010Prop47
 90
       50
102
RTVSPost2010PropOp47
 70
     1
102
RTVSPost2010Prop48
 90
       50
102
RTVSPost2010PropOp48
 70
     1
102
RTVSPost2010Prop49
280
     0
102
RTVSPost2010PropOp49
 70
     1
102
RTVSPost2010Prop50
 90
       50
102
RTVSPost2010PropOp50
 70
     1
102
RTVSPost2010Prop51ColorIndex
 90
      256
102
RTVSPost2010Prop51ColorRGB
 90
-16777216
102
RTVSPost2010PropOp51
 70
     0
102
RTVSPost2010Prop52
140
1.0
102
RTVSPost2010PropOp52
 70
     0
102
RTVSPost2010Prop53
 90
        2
102
RTVSPost2010PropOp53
 70
     1
102
RTVSPost2010Prop54
  1
strokes_ogs.tif
102
RTVSPost2010PropOp54
 70
     1
102
RTVSPost2010Prop55
280
     0
102
RTVSPost2010PropOp55
 70
     1
102
RTVSPost2010Prop56
140
1.0
102
RTVSPost2010PropOp56
 70
     1
102
RTVSPost2010Prop57
140
1.0
102
RTVSPost2010PropOp57
 70
     1
102
RTVSPropertyOp0
 70
     1
102
RTVSPropertyOp1
 70
     1
102
RTVSPropertyOp2
 70
     1
102
RTVSPropertyOp3
 70
     1
102
RTVSPropertyOp4
 70
     1
102
RTVSPropertyOp5
 70
     1
102
RTVSPropertyOp6
 70
     1
102
RTVSPropertyOp7
 70
     1
102
RTVSPropertyOp8
 70
     1
102
RTVSPropertyOp9
 70
     1
102
RTVSPropertyOp10
 70
     1
102
RTVSPropertyOp11
 70
     1
102
RTVSPropertyOp12
 70
     1
102
RTVSPropertyOp13
 70
     1
102
RTVSPropertyOp14
 70
     1
102
RTVSPropertyOp15
 70
     1
102
RTVSPropertyOp16
 70
     1
102
RTVSPropertyOp17
 70
     1
102
RTVSPropertyOp18
 70
     1
102
RTVSPropertyOp19
 70
     1
102
RTVSPropertyOp20
 70
     1
102
RTVSPropertyOp21
 70
     1
102
RTVSPropertyOp22
 70
     1
102
RTVSPropertyOp23
 70
     1
102
RTVSPropertyOp24
 70
     1
102
RTVSPropertyOp25
 70
     1
102
RTVSPropertyOp26
 70
     1
102
RTVSPropertyOp27
 70
     1
102
RTVSPropertyOp28
 70
     1
102
RTVSPropertyOp29
 70
     1
102
RTVSPropertyOp30
 70
     1
102
RTVSPropertyOp31
 70
     1
102
RTVSPropertyOp32
 70
     1
102
RTVSPropertyOp33
 70
     1
102
RTVSPropertyOp34
 70
     1
102
RTVSPropertyOp35
 70
     1
102
RTVSPropertyOp36
 70
     1
102
RTVSPropertyOp37
 70
     1
102
RTVSPropertyOp38
 70
     1
102
RTVSPropertyOp39
 70
     1
102
RTVSPropertyOp40
 70
     1
102
RTVSPropertyOp41
 70
     1
102
RTVSPropertyOp42
 70
     1
102
RTVSPropertyOp43
 70
     1
102
RTVSPropertyOp44
 70
     1
102
RTVSPropertyOp45
 70
     1
102
RTVSPropertyOp46
 70
     1
102
RTVSPropertyOp47
 70
     1
102
RTVSPropertyOp48
 70
     1
102
RTVSPropertyOp49
 70
     1
102
RTVSPropertyOp50
 70
     1
102
RTVSPropertyOp51
 70
     0
102
RTVSPropertyOp52
 70
     0
102
RTVSPropertyOp53
 70
     1
102
RTVSPropertyOp54
 70
     1
102
RTVSPropertyOp55
 70
     1
102
RTVSPropertyOp56
 70
     1
102
RTVSPropertyOp57
 70
     1
102
RTVSPropertyOp58
 70
     1
102
RTVSPropertyOp59
 70
     1
102
RTVSPropertyOp60
 70
     1
102
RTVSPropertyOp61
 70
     1
102
RTVSPropertyOp62
 70
     1
  0
XRECORD
  5
B28C
102
{ACAD_REACTORS
330
B28B
102
}
330
B28B
100
AcDbXrecord
280
     1
102
RTVSPost2010Prop28
280
     0
102
RTVSPost2010PropOp28
 70
     1
102
RTVSPost2010Prop29
280
     1
102
RTVSPost2010PropOp29
 70
     1
102
RTVSPost2010Prop30
280
     1
102
RTVSPost2010PropOp30
 70
     1
102
RTVSPost2010Prop31
280
     0
102
RTVSPost2010PropOp31
 70
     1
102
RTVSPost2010Prop32
280
     0
102
RTVSPost2010PropOp32
 70
     1
102
RTVSPost2010Prop33
280
     0
102
RTVSPost2010PropOp33
 70
     1
102
RTVSPost2010Prop34
280
     0
102
RTVSPost2010PropOp34
 70
     1
102
RTVSPost2010Prop35
280
     0
102
RTVSPost2010PropOp35
 70
     1
102
RTVSPost2010Prop36
280
     0
102
RTVSPost2010PropOp36
 70
     1
102
RTVSPost2010Prop37
 90
       50
102
RTVSPost2010PropOp37
 70
     1
102
RTVSPost2010Prop38
140
0.0
102
RTVSPost2010PropOp38
 70
     1
102
RTVSPost2010Prop39
140
1.0
102
RTVSPost2010PropOp39
 70
     1
102
RTVSPost2010Prop40
 90
        0
102
RTVSPost2010PropOp40
 70
     1
102
RTVSPost2010Prop41ColorIndex
 90
       18
102
RTVSPost2010Prop41ColorRGB
 90
        0
102
RTVSPost2010PropOp41
 70
     1
102
RTVSPost2010Prop42
 90
       50
102
RTVSPost2010PropOp42
 70
     1
102
RTVSPost2010Prop43
 90
        3
102
RTVSPost2010PropOp43
 70
     1
102
RTVSPost2010Prop44ColorIndex
 90
        5
102
RTVSPost2010Prop44ColorRGB
 90
      255
102
RTVSPost2010PropOp44
 70
     1
102
RTVSPost2010Prop45
280
     0
102
RTVSPost2010PropOp45
 70
     1
102
RTVSPost2010Prop46
 90
       50
102
RTVSPost2010PropOp46
 70
     1
102
RTVSPost2010Prop47
 90
       50
102
RTVSPost2010PropOp47
 70
     1
102
RTVSPost2010Prop48
 90
       50
102
RTVSPost2010PropOp48
 70
     1
102
RTVSPost2010Prop49
280
     0
102
RTVSPost2010PropOp49
 70
     1
102
RTVSPost2010Prop50
 90
       50
102
RTVSPost2010PropOp50
 70
     1
102
RTVSPost2010Prop51ColorIndex
 90
      256
102
RTVSPost2010Prop51ColorRGB
 90
-16777216
102
RTVSPost2010PropOp51
 70
     0
102
RTVSPost2010Prop52
140
1.0
102
RTVSPost2010PropOp52
 70
     0
102
RTVSPost2010Prop53
 90
        2
102
RTVSPost2010PropOp53
 70
     1
102
RTVSPost2010Prop54
  1
strokes_ogs.tif
102
RTVSPost2010PropOp54
 70
     1
102
RTVSPost2010Prop55
280
     0
102
RTVSPost2010PropOp55
 70
     1
102
RTVSPost2010Prop56
140
1.0
102
RTVSPost2010PropOp56
 70
     1
102
RTVSPost2010Prop57
140
1.0
102
RTVSPost2010PropOp57
 70
     1
102
RTVSPropertyOp0
 70
     1
102
RTVSPropertyOp1
 70
     1
102
RTVSPropertyOp2
 70
     1
102
RTVSPropertyOp3
 70
     1
102
RTVSPropertyOp4
 70
     1
102
RTVSPropertyOp5
 70
     1
102
RTVSPropertyOp6
 70
     1
102
RTVSPropertyOp7
 70
     1
102
RTVSPropertyOp8
 70
     1
102
RTVSPropertyOp9
 70
     1
102
RTVSPropertyOp10
 70
     1
102
RTVSPropertyOp11
 70
     1
102
RTVSPropertyOp12
 70
     1
102
RTVSPropertyOp13
 70
     1
102
RTVSPropertyOp14
 70
     1
102
RTVSPropertyOp15
 70
     1
102
RTVSPropertyOp16
 70
     1
102
RTVSPropertyOp17
 70
     1
102
RTVSPropertyOp18
 70
     1
102
RTVSPropertyOp19
 70
     1
102
RTVSPropertyOp20
 70
     1
102
RTVSPropertyOp21
 70
     1
102
RTVSPropertyOp22
 70
     1
102
RTVSPropertyOp23
 70
     1
102
RTVSPropertyOp24
 70
     1
102
RTVSPropertyOp25
 70
     1
102
RTVSPropertyOp26
 70
     1
102
RTVSPropertyOp27
 70
     1
102
RTVSPropertyOp28
 70
     1
102
RTVSPropertyOp29
 70
     1
102
RTVSPropertyOp30
 70
     1
102
RTVSPropertyOp31
 70
     1
102
RTVSPropertyOp32
 70
     1
102
RTVSPropertyOp33
 70
     1
102
RTVSPropertyOp34
 70
     1
102
RTVSPropertyOp35
 70
     1
102
RTVSPropertyOp36
 70
     1
102
RTVSPropertyOp37
 70
     1
102
RTVSPropertyOp38
 70
     1
102
RTVSPropertyOp39
 70
     1
102
RTVSPropertyOp40
 70
     1
102
RTVSPropertyOp41
 70
     1
102
RTVSPropertyOp42
 70
     1
102
RTVSPropertyOp43
 70
     1
102
RTVSPropertyOp44
 70
     1
102
RTVSPropertyOp45
 70
     1
102
RTVSPropertyOp46
 70
     1
102
RTVSPropertyOp47
 70
     1
102
RTVSPropertyOp48
 70
     1
102
RTVSPropertyOp49
 70
     1
102
RTVSPropertyOp50
 70
     1
102
RTVSPropertyOp51
 70
     0
102
RTVSPropertyOp52
 70
     0
102
RTVSPropertyOp53
 70
     1
102
RTVSPropertyOp54
 70
     1
102
RTVSPropertyOp55
 70
     1
102
RTVSPropertyOp56
 70
     1
102
RTVSPropertyOp57
 70
     1
102
RTVSPropertyOp58
 70
     1
102
RTVSPropertyOp59
 70
     1
102
RTVSPropertyOp60
 70
     1
102
RTVSPropertyOp61
 70
     1
102
RTVSPropertyOp62
 70
     1
  0
XRECORD
  5
B2AC
102
{ACAD_REACTORS
330
B2AB
102
}
330
B2AB
100
AcDbXrecord
280
     1
102
RTVSPost2010Prop28
280
     0
102
RTVSPost2010PropOp28
 70
     1
102
RTVSPost2010Prop29
280
     1
102
RTVSPost2010PropOp29
 70
     1
102
RTVSPost2010Prop30
280
     1
102
RTVSPost2010PropOp30
 70
     1
102
RTVSPost2010Prop31
280
     0
102
RTVSPost2010PropOp31
 70
     1
102
RTVSPost2010Prop32
280
     0
102
RTVSPost2010PropOp32
 70
     1
102
RTVSPost2010Prop33
280
     0
102
RTVSPost2010PropOp33
 70
     1
102
RTVSPost2010Prop34
280
     0
102
RTVSPost2010PropOp34
 70
     1
102
RTVSPost2010Prop35
280
     0
102
RTVSPost2010PropOp35
 70
     1
102
RTVSPost2010Prop36
280
     0
102
RTVSPost2010PropOp36
 70
     1
102
RTVSPost2010Prop37
 90
       50
102
RTVSPost2010PropOp37
 70
     1
102
RTVSPost2010Prop38
140
0.0
102
RTVSPost2010PropOp38
 70
     1
102
RTVSPost2010Prop39
140
1.0
102
RTVSPost2010PropOp39
 70
     1
102
RTVSPost2010Prop40
 90
        0
102
RTVSPost2010PropOp40
 70
     1
102
RTVSPost2010Prop41ColorIndex
 90
       18
102
RTVSPost2010Prop41ColorRGB
 90
        0
102
RTVSPost2010PropOp41
 70
     1
102
RTVSPost2010Prop42
 90
       50
102
RTVSPost2010PropOp42
 70
     1
102
RTVSPost2010Prop43
 90
        3
102
RTVSPost2010PropOp43
 70
     1
102
RTVSPost2010Prop44ColorIndex
 90
        5
102
RTVSPost2010Prop44ColorRGB
 90
      255
102
RTVSPost2010PropOp44
 70
     1
102
RTVSPost2010Prop45
280
     0
102
RTVSPost2010PropOp45
 70
     1
102
RTVSPost2010Prop46
 90
       50
102
RTVSPost2010PropOp46
 70
     1
102
RTVSPost2010Prop47
 90
       50
102
RTVSPost2010PropOp47
 70
     1
102
RTVSPost2010Prop48
 90
       50
102
RTVSPost2010PropOp48
 70
     1
102
RTVSPost2010Prop49
280
     0
102
RTVSPost2010PropOp49
 70
     1
102
RTVSPost2010Prop50
 90
       50
102
RTVSPost2010PropOp50
 70
     1
102
RTVSPost2010Prop51ColorIndex
 90
      256
102
RTVSPost2010Prop51ColorRGB
 90
-16777216
102
RTVSPost2010PropOp51
 70
     0
102
RTVSPost2010Prop52
140
1.0
102
RTVSPost2010PropOp52
 70
     0
102
RTVSPost2010Prop53
 90
        2
102
RTVSPost2010PropOp53
 70
     1
102
RTVSPost2010Prop54
  1
strokes_ogs.tif
102
RTVSPost2010PropOp54
 70
     1
102
RTVSPost2010Prop55
280
     0
102
RTVSPost2010PropOp55
 70
     1
102
RTVSPost2010Prop56
140
1.0
102
RTVSPost2010PropOp56
 70
     1
102
RTVSPost2010Prop57
140
1.0
102
RTVSPost2010PropOp57
 70
     1
102
RTVSPropertyOp0
 70
     1
102
RTVSPropertyOp1
 70
     1
102
RTVSPropertyOp2
 70
     1
102
RTVSPropertyOp3
 70
     1
102
RTVSPropertyOp4
 70
     1
102
RTVSPropertyOp5
 70
     1
102
RTVSPropertyOp6
 70
     1
102
RTVSPropertyOp7
 70
     1
102
RTVSPropertyOp8
 70
     1
102
RTVSPropertyOp9
 70
     1
102
RTVSPropertyOp10
 70
     1
102
RTVSPropertyOp11
 70
     1
102
RTVSPropertyOp12
 70
     1
102
RTVSPropertyOp13
 70
     1
102
RTVSPropertyOp14
 70
     1
102
RTVSPropertyOp15
 70
     1
102
RTVSPropertyOp16
 70
     1
102
RTVSPropertyOp17
 70
     1
102
RTVSPropertyOp18
 70
     1
102
RTVSPropertyOp19
 70
     1
102
RTVSPropertyOp20
 70
     1
102
RTVSPropertyOp21
 70
     1
102
RTVSPropertyOp22
 70
     1
102
RTVSPropertyOp23
 70
     1
102
RTVSPropertyOp24
 70
     1
102
RTVSPropertyOp25
 70
     1
102
RTVSPropertyOp26
 70
     1
102
RTVSPropertyOp27
 70
     1
102
RTVSPropertyOp28
 70
     1
102
RTVSPropertyOp29
 70
     1
102
RTVSPropertyOp30
 70
     1
102
RTVSPropertyOp31
 70
     1
102
RTVSPropertyOp32
 70
     1
102
RTVSPropertyOp33
 70
     1
102
RTVSPropertyOp34
 70
     1
102
RTVSPropertyOp35
 70
     1
102
RTVSPropertyOp36
 70
     1
102
RTVSPropertyOp37
 70
     1
102
RTVSPropertyOp38
 70
     1
102
RTVSPropertyOp39
 70
     1
102
RTVSPropertyOp40
 70
     1
102
RTVSPropertyOp41
 70
     1
102
RTVSPropertyOp42
 70
     1
102
RTVSPropertyOp43
 70
     1
102
RTVSPropertyOp44
 70
     1
102
RTVSPropertyOp45
 70
     1
102
RTVSPropertyOp46
 70
     1
102
RTVSPropertyOp47
 70
     1
102
RTVSPropertyOp48
 70
     1
102
RTVSPropertyOp49
 70
     1
102
RTVSPropertyOp50
 70
     1
102
RTVSPropertyOp51
 70
     0
102
RTVSPropertyOp52
 70
     0
102
RTVSPropertyOp53
 70
     1
102
RTVSPropertyOp54
 70
     1
102
RTVSPropertyOp55
 70
     1
102
RTVSPropertyOp56
 70
     1
102
RTVSPropertyOp57
 70
     1
102
RTVSPropertyOp58
 70
     1
102
RTVSPropertyOp59
 70
     1
102
RTVSPropertyOp60
 70
     1
102
RTVSPropertyOp61
 70
     1
102
RTVSPropertyOp62
 70
     1
  0
ENDSEC
  0
EOF
