  0
SECTION
  2
HEADER
  9
$ACADVER
  1
AC1015
  9
$ACADMAINTVER
 70
    18
  9
$DWGCODEPAGE
  3
ANSI_1252
  9
$INSBASE
 10
0.0
 20
0.0
 30
0.0
  9
$EXTMIN
 10
-229.7003166723301
 20
-323.5838925074598
 30
-0.0015258207003583
  9
$EXTMAX
 10
289.0191658644694
 20
362.2225349471236
 30
0.0000000349246037
  9
$LIMMIN
 10
0.0
 20
0.0
  9
$LIMMAX
 10
420.0
 20
297.0
  9
$ORTHOMODE
 70
     0
  9
$REGENMODE
 70
     1
  9
$FILLMODE
 70
     1
  9
$QTEXTMODE
 70
     0
  9
$MIRRTEXT
 70
     0
  9
$LTSCALE
 40
1.0
  9
$ATTMODE
 70
     1
  9
$TEXTSIZE
 40
2.5
  9
$TRACEWID
 40
1.0
  9
$TEXTSTYLE
  7
Standard
  9
$CLAYER
  8
0
  9
$CELTYPE
  6
ByLayer
  9
$CECOLOR
 62
   256
  9
$CELTSCALE
 40
1.0
  9
$DISPSILH
 70
     0
  9
$DIMSCALE
 40
1.0
  9
$DIMASZ
 40
2.5
  9
$DIMEXO
 40
0.625
  9
$DIMDLI
 40
3.75
  9
$DIMRND
 40
0.0
  9
$DIMDLE
 40
0.0
  9
$DIMEXE
 40
1.25
  9
$DIMTP
 40
0.0
  9
$DIMTM
 40
0.0
  9
$DIMTXT
 40
2.5
  9
$DIMCEN
 40
2.5
  9
$DIMTSZ
 40
0.0
  9
$DIMTOL
 70
     0
  9
$DIMLIM
 70
     0
  9
$DIMTIH
 70
     0
  9
$DIMTOH
 70
     0
  9
$DIMSE1
 70
     0
  9
$DIMSE2
 70
     0
  9
$DIMTAD
 70
     1
  9
$DIMZIN
 70
     8
  9
$DIMBLK
  1

  9
$DIMASO
 70
     1
  9
$DIMSHO
 70
     1
  9
$DIMPOST
  1

  9
$DIMAPOST
  1

  9
$DIMALT
 70
     0
  9
$DIMALTD
 70
     3
  9
$DIMALTF
 40
0.03937007874016
  9
$DIMLFAC
 40
1.0
  9
$DIMTOFL
 70
     1
  9
$DIMTVP
 40
0.0
  9
$DIMTIX
 70
     0
  9
$DIMSOXD
 70
     0
  9
$DIMSAH
 70
     0
  9
$DIMBLK1
  1

  9
$DIMBLK2
  1

  9
$DIMSTYLE
  2
ISO-25
  9
$DIMCLRD
 70
     0
  9
$DIMCLRE
 70
     0
  9
$DIMCLRT
 70
     0
  9
$DIMTFAC
 40
1.0
  9
$DIMGAP
 40
0.625
  9
$DIMJUST
 70
     0
  9
$DIMSD1
 70
     0
  9
$DIMSD2
 70
     0
  9
$DIMTOLJ
 70
     0
  9
$DIMTZIN
 70
     8
  9
$DIMALTZ
 70
     0
  9
$DIMALTTZ
 70
     0
  9
$DIMUPT
 70
     0
  9
$DIMDEC
 70
     2
  9
$DIMTDEC
 70
     2
  9
$DIMALTU
 70
     2
  9
$DIMALTTD
 70
     3
  9
$DIMTXSTY
  7
Standard
  9
$DIMAUNIT
 70
     0
  9
$DIMADEC
 70
     0
  9
$DIMALTRND
 40
0.0
  9
$DIMAZIN
 70
     0
  9
$DIMDSEP
 70
    44
  9
$DIMATFIT
 70
     3
  9
$DIMFRAC
 70
     0
  9
$DIMLDRBLK
  1

  9
$DIMLUNIT
 70
     2
  9
$DIMLWD
 70
    -2
  9
$DIMLWE
 70
    -2
  9
$DIMTMOVE
 70
     0
  9
$LUNITS
 70
     2
  9
$LUPREC
 70
     4
  9
$SKETCHINC
 40
1.0
  9
$FILLETRAD
 40
0.0
  9
$AUNITS
 70
     0
  9
$AUPREC
 70
     0
  9
$MENU
  1
.
  9
$ELEVATION
 40
0.0
  9
$PELEVATION
 40
0.0
  9
$THICKNESS
 40
0.0
  9
$LIMCHECK
 70
     0
  9
$CHAMFERA
 40
0.0
  9
$CHAMFERB
 40
0.0
  9
$CHAMFERC
 40
0.0
  9
$CHAMFERD
 40
0.0
  9
$SKPOLY
 70
     0
  9
$TDCREATE
 40
2460398.356956019
  9
$TDUCREATE
 40
2460398.065289352
  9
$TDUPDATE
 40
2460398.376215278
  9
$TDUUPDATE
 40
2460398.084548611
  9
$TDINDWG
 40
0.0081134259
  9
$TDUSRTIMER
 40
0.0081134259
  9
$USRTIMER
 70
     1
  9
$ANGBASE
 50
0.0
  9
$ANGDIR
 70
     0
  9
$PDMODE
 70
     0
  9
$PDSIZE
 40
0.0
  9
$PLINEWID
 40
0.0
  9
$SPLFRAME
 70
     0
  9
$SPLINETYPE
 70
     6
  9
$SPLINESEGS
 70
     8
  9
$HANDSEED
  5
C0B7
  9
$SURFTAB1
 70
     6
  9
$SURFTAB2
 70
     6
  9
$SURFTYPE
 70
     6
  9
$SURFU
 70
     6
  9
$SURFV
 70
     6
  9
$UCSBASE
  2

  9
$UCSNAME
  2

  9
$UCSORG
 10
0.0
 20
0.0
 30
0.0
  9
$UCSXDIR
 10
1.0
 20
0.0
 30
0.0
  9
$UCSYDIR
 10
0.0
 20
1.0
 30
0.0
  9
$UCSORTHOREF
  2

  9
$UCSORTHOVIEW
 70
     0
  9
$UCSORGTOP
 10
0.0
 20
0.0
 30
0.0
  9
$UCSORGBOTTOM
 10
0.0
 20
0.0
 30
0.0
  9
$UCSORGLEFT
 10
0.0
 20
0.0
 30
0.0
  9
$UCSORGRIGHT
 10
0.0
 20
0.0
 30
0.0
  9
$UCSORGFRONT
 10
0.0
 20
0.0
 30
0.0
  9
$UCSORGBACK
 10
0.0
 20
0.0
 30
0.0
  9
$PUCSBASE
  2

  9
$PUCSNAME
  2

  9
$PUCSORG
 10
0.0
 20
0.0
 30
0.0
  9
$PUCSXDIR
 10
1.0
 20
0.0
 30
0.0
  9
$PUCSYDIR
 10
0.0
 20
1.0
 30
0.0
  9
$PUCSORTHOREF
  2

  9
$PUCSORTHOVIEW
 70
     0
  9
$PUCSORGTOP
 10
0.0
 20
0.0
 30
0.0
  9
$PUCSORGBOTTOM
 10
0.0
 20
0.0
 30
0.0
  9
$PUCSORGLEFT
 10
0.0
 20
0.0
 30
0.0
  9
$PUCSORGRIGHT
 10
0.0
 20
0.0
 30
0.0
  9
$PUCSORGFRONT
 10
0.0
 20
0.0
 30
0.0
  9
$PUCSORGBACK
 10
0.0
 20
0.0
 30
0.0
  9
$USERI1
 70
     0
  9
$USERI2
 70
     0
  9
$USERI3
 70
     0
  9
$USERI4
 70
     0
  9
$USERI5
 70
     0
  9
$USERR1
 40
0.0
  9
$USERR2
 40
0.0
  9
$USERR3
 40
0.0
  9
$USERR4
 40
0.0
  9
$USERR5
 40
0.0
  9
$WORLDVIEW
 70
     1
  9
$SHADEDGE
 70
     3
  9
$SHADEDIF
 70
    70
  9
$TILEMODE
 70
     1
  9
$MAXACTVP
 70
    48
  9
$PINSBASE
 10
0.0
 20
0.0
 30
0.0
  9
$PLIMCHECK
 70
     0
  9
$PEXTMIN
 10
0.0
 20
0.0
 30
0.0
  9
$PEXTMAX
 10
0.0
 20
0.0
 30
0.0
  9
$PLIMMIN
 10
0.0
 20
0.0
  9
$PLIMMAX
 10
12.0
 20
9.0
  9
$UNITMODE
 70
     0
  9
$VISRETAIN
 70
     1
  9
$PLINEGEN
 70
     0
  9
$PSLTSCALE
 70
     1
  9
$TREEDEPTH
 70
  3020
  9
$CMLSTYLE
  2
Standard
  9
$CMLJUST
 70
     0
  9
$CMLSCALE
 40
20.0
  9
$PROXYGRAPHICS
 70
     1
  9
$MEASUREMENT
 70
     1
  9
$CELWEIGHT
370
    -1
  9
$ENDCAPS
280
     0
  9
$JOINSTYLE
280
     0
  9
$LWDISPLAY
290
     0
  9
$INSUNITS
 70
     4
  9
$HYPERLINKBASE
  1

  9
$STYLESHEET
  1

  9
$XEDIT
290
     1
  9
$CEPSNTYPE
380
     0
  9
$PSTYLEMODE
290
     1
  9
$FINGERPRINTGUID
  2
{6C1266EE-7BC1-BF4A-B059-A6E7702B10CE}
  9
$VERSIONGUID
  2
{FA7816CF-4059-8949-95F5-63725CB92295}
  9
$EXTNAMES
290
     1
  9
$PSVPSCALE
 40
0.0
  9
$OLESTARTUP
290
     0
  0
ENDSEC
  0
SECTION
  2
CLASSES
  0
CLASS
  1
ACDBDICTIONARYWDFLT
  2
AcDbDictionaryWithDefault
  3
ObjectDBX Classes
 90
        0
280
     0
281
     0
  0
CLASS
  1
ACDBPLACEHOLDER
  2
AcDbPlaceHolder
  3
ObjectDBX Classes
 90
        0
280
     0
281
     0
  0
CLASS
  1
LAYOUT
  2
AcDbLayout
  3
ObjectDBX Classes
 90
        0
280
     0
281
     0
  0
CLASS
  1
DICTIONARYVAR
  2
AcDbDictionaryVar
  3
ObjectDBX Classes
 90
        0
280
     0
281
     0
  0
CLASS
  1
TABLESTYLE
  2
AcDbTableStyle
  3
ObjectDBX Classes
 90
     4095
280
     0
281
     0
  0
CLASS
  1
MATERIAL
  2
AcDbMaterial
  3
ObjectDBX Classes
 90
     1153
280
     0
281
     0
  0
CLASS
  1
VISUALSTYLE
  2
AcDbVisualStyle
  3
ObjectDBX Classes
 90
     4095
280
     0
281
     0
  0
CLASS
  1
SCALE
  2
AcDbScale
  3
ObjectDBX Classes
 90
     1153
280
     0
281
     0
  0
CLASS
  1
MLEADERSTYLE
  2
AcDbMLeaderStyle
  3
ACDB_MLEADERSTYLE_CLASS
 90
     4095
280
     0
281
     0
  0
CLASS
  1
CELLSTYLEMAP
  2
AcDbCellStyleMap
  3
ObjectDBX Classes
 90
     1152
280
     0
281
     0
  0
CLASS
  1
EXACXREFPANELOBJECT
  2
ExAcXREFPanelObject
  3
EXAC_ESW
 90
    33793
280
     0
281
     0
  0
CLASS
  1
NPOCOLLECTION
  2
AcDbImpNonPersistentObjectsCollection
  3
ObjectDBX Classes
 90
    33921
280
     0
281
     0
  0
CLASS
  1
LAYER_INDEX
  2
AcDbLayerIndex
  3
ObjectDBX Classes
 90
    32768
280
     0
281
     0
  0
CLASS
  1
SPATIAL_INDEX
  2
AcDbSpatialIndex
  3
ObjectDBX Classes
 90
    32768
280
     0
281
     0
  0
CLASS
  1
IDBUFFER
  2
AcDbIdBuffer
  3
ObjectDBX Classes
 90
    32768
280
     0
281
     0
  0
CLASS
  1
ACDBSECTIONVIEWSTYLE
  2
AcDbSectionViewStyle
  3
ObjectDBX Classes
 90
     1025
280
     0
281
     0
  0
CLASS
  1
ACDBDETAILVIEWSTYLE
  2
AcDbDetailViewStyle
  3
ObjectDBX Classes
 90
     1025
280
     0
281
     0
  0
CLASS
  1
XRECORD
  2
AcDbXrecord
  3
ObjectDBX Classes
 90
        0
280
     0
281
     0
  0
ENDSEC
  0
SECTION
  2
TABLES
  0
TABLE
  2
VPORT
  5
8
102
{ACAD_XDICTIONARY
360
BFC5
102
}
330
0
100
AcDbSymbolTable
 70
     1
  0
VPORT
  5
EA
330
8
100
AcDbSymbolTableRecord
100
AcDbViewportTableRecord
  2
*Active
 70
     0
 10
0.0
 20
0.0
 11
1.0
 21
1.0
 12
29.65942459606966
 22
19.31932121983186
 13
0.0
 23
0.0
 14
10.0
 24
10.0
 15
10.0
 25
10.0
 16
0.0
 26
0.0
 36
1.0
 17
0.0
 27
0.0
 37
0.0
 40
729.2929855453806
 41
0.9846153846153846
 42
50.0
 43
0.0
 44
0.0
 50
0.0
 51
0.0
 71
     0
 72
  1000
 73
     1
 74
     3
 75
     0
 76
     1
 77
     0
 78
     0
281
     0
 65
     1
110
0.0
120
0.0
130
0.0
111
1.0
121
0.0
131
0.0
112
0.0
122
1.0
132
0.0
 79
     0
146
0.0
1001
ACAD_NAV_VCDISPLAY
1070
     3
  0
ENDTAB
  0
TABLE
  2
LTYPE
  5
5
330
0
100
AcDbSymbolTable
 70
     1
  0
LTYPE
  5
14
330
5
100
AcDbSymbolTableRecord
100
AcDbLinetypeTableRecord
  2
ByBlock
 70
     0
  3

 72
    65
 73
     0
 40
0.0
  0
LTYPE
  5
15
330
5
100
AcDbSymbolTableRecord
100
AcDbLinetypeTableRecord
  2
ByLayer
 70
     0
  3

 72
    65
 73
     0
 40
0.0
  0
LTYPE
  5
16
330
5
100
AcDbSymbolTableRecord
100
AcDbLinetypeTableRecord
  2
Continuous
 70
     0
  3
Solid line
 72
    65
 73
     0
 40
0.0
  0
ENDTAB
  0
TABLE
  2
LAYER
  5
2
102
{ACAD_XDICTIONARY
360
1FF
102
}
330
0
100
AcDbSymbolTable
 70
     1
  0
LAYER
  5
10
102
{ACAD_XDICTIONARY
360
13C
102
}
330
2
100
AcDbSymbolTableRecord
100
AcDbLayerTableRecord
  2
0
 70
     0
 62
     7
  6
Continuous
370
    -3
390
F
  0
ENDTAB
  0
TABLE
  2
STYLE
  5
3
330
0
100
AcDbSymbolTable
 70
     1
  0
STYLE
  5
11
330
3
100
AcDbSymbolTableRecord
100
AcDbTextStyleTableRecord
  2
Standard
 70
     0
 40
0.0
 41
1.0
 50
0.0
 71
     0
 42
2.5
  3
arial.ttf
  4

1001
ACAD
1000
Arial
1071
       34
  0
ENDTAB
  0
TABLE
  2
VIEW
  5
6
330
0
100
AcDbSymbolTable
 70
     0
  0
ENDTAB
  0
TABLE
  2
UCS
  5
7
330
0
100
AcDbSymbolTable
 70
     0
  0
ENDTAB
  0
TABLE
  2
APPID
  5
9
330
0
100
AcDbSymbolTable
 70
     8
  0
APPID
  5
12
330
9
100
AcDbSymbolTableRecord
100
AcDbRegAppTableRecord
  2
ACAD
 70
     0
  0
APPID
  5
9E
330
9
100
AcDbSymbolTableRecord
100
AcDbRegAppTableRecord
  2
ACAD_PSEXT
 70
     0
  0
APPID
  5
133
330
9
100
AcDbSymbolTableRecord
100
AcDbRegAppTableRecord
  2
AcadAnnoPO
 70
     0
  0
APPID
  5
134
330
9
100
AcDbSymbolTableRecord
100
AcDbRegAppTableRecord
  2
AcadAnnotative
 70
     0
  0
APPID
  5
135
330
9
100
AcDbSymbolTableRecord
100
AcDbRegAppTableRecord
  2
ACAD_DSTYLE_DIMJAG
 70
     0
  0
APPID
  5
136
330
9
100
AcDbSymbolTableRecord
100
AcDbRegAppTableRecord
  2
ACAD_DSTYLE_DIMTALN
 70
     0
  0
APPID
  5
165
330
9
100
AcDbSymbolTableRecord
100
AcDbRegAppTableRecord
  2
ACAD_MLEADERVER
 70
     0
  0
APPID
  5
217
330
9
100
AcDbSymbolTableRecord
100
AcDbRegAppTableRecord
  2
ACAD_NAV_VCDISPLAY
 70
     0
  0
ENDTAB
  0
TABLE
  2
DIMSTYLE
  5
A
330
0
100
AcDbSymbolTable
 70
     1
100
AcDbDimStyleTable
 71
     0
  0
DIMSTYLE
105
27
330
A
100
AcDbSymbolTableRecord
100
AcDbDimStyleTableRecord
  2
ISO-25
 70
     0
 41
2.5
 42
0.625
 43
3.75
 44
1.25
 73
     0
 74
     0
 77
     1
 78
     8
140
2.5
141
2.5
143
0.03937007874016
147
0.625
171
     3
172
     1
271
     2
272
     2
274
     3
278
    44
283
     0
284
     8
340
11
  0
ENDTAB
  0
TABLE
  2
BLOCK_RECORD
  5
1
330
0
100
AcDbSymbolTable
 70
     7
  0
BLOCK_RECORD
  5
1F
102
{ACAD_XDICTIONARY
360
1CE
102
}
330
1
100
AcDbSymbolTableRecord
100
AcDbBlockTableRecord
  2
*Model_Space
340
22
  0
BLOCK_RECORD
  5
D2
102
{ACAD_XDICTIONARY
360
BF78
102
}
330
1
100
AcDbSymbolTableRecord
100
AcDbBlockTableRecord
  2
*Paper_Space
340
D3
  0
BLOCK_RECORD
  5
D6
102
{ACAD_XDICTIONARY
360
BF7A
102
}
330
1
100
AcDbSymbolTableRecord
100
AcDbBlockTableRecord
  2
*Paper_Space0
340
D7
  0
BLOCK_RECORD
  5
BDC6
330
1
100
AcDbSymbolTableRecord
100
AcDbBlockTableRecord
  2
SAE500_76_2-Front
340
0
102
{BLKREFS
331
BF6E
102
}
  0
BLOCK_RECORD
  5
BE25
330
1
100
AcDbSymbolTableRecord
100
AcDbBlockTableRecord
  2
SAE500_76_2-Left
340
0
102
{BLKREFS
331
BF6F
102
}
  0
BLOCK_RECORD
  5
BE46
330
1
100
AcDbSymbolTableRecord
100
AcDbBlockTableRecord
  2
SAE500_76_2-Right
340
0
102
{BLKREFS
331
BF70
102
}
  0
BLOCK_RECORD
  5
BE67
330
1
100
AcDbSymbolTableRecord
100
AcDbBlockTableRecord
  2
SAE500_76_2-Top
340
0
102
{BLKREFS
331
BF71
102
}
  0
BLOCK_RECORD
  5
BE98
330
1
100
AcDbSymbolTableRecord
100
AcDbBlockTableRecord
  2
SAE500_76_2-Bottom
340
0
102
{BLKREFS
331
BF72
102
}
  0
BLOCK_RECORD
  5
BEC5
330
1
100
AcDbSymbolTableRecord
100
AcDbBlockTableRecord
  2
SAE500_76_2-ISO
340
0
102
{BLKREFS
331
BF73
102
}
  0
ENDTAB
  0
ENDSEC
  0
SECTION
  2
BLOCKS
  0
BLOCK
  5
20
330
1F
100
AcDbEntity
  8
0
100
AcDbBlockBegin
  2
*Model_Space
 70
     0
 10
0.0
 20
0.0
 30
0.0
  3
*Model_Space
  1

  0
ENDBLK
  5
21
330
1F
100
AcDbEntity
  8
0
100
AcDbBlockEnd
  0
BLOCK
  5
D4
330
D2
100
AcDbEntity
 67
     1
  8
0
100
AcDbBlockBegin
  2
*Paper_Space
 70
     0
 10
0.0
 20
0.0
 30
0.0
  3
*Paper_Space
  1

  0
ENDBLK
  5
D5
330
D2
100
AcDbEntity
 67
     1
  8
0
100
AcDbBlockEnd
  0
BLOCK
  5
D8
330
D6
100
AcDbEntity
 67
     1
  8
0
100
AcDbBlockBegin
  2
*Paper_Space0
 70
     0
 10
0.0
 20
0.0
 30
0.0
  3
*Paper_Space0
  1

  0
ENDBLK
  5
D9
330
D6
100
AcDbEntity
 67
     1
  8
0
100
AcDbBlockEnd
  0
BLOCK
  5
BDC7
330
BDC6
100
AcDbEntity
  8
0
100
AcDbBlockBegin
  2
SAE500_76_2-Front
 70
     0
 10
0.0
 20
0.0
 30
0.0
  3
SAE500_76_2-Front
  1

  0
SPLINE
  5
BDC9
330
BDC6
100
AcDbEntity
  8
0
100
AcDbSpline
210
0.0
220
0.0
230
1.0
 70
     8
 71
     3
 72
    11
 73
     7
 74
     0
 42
0.000000001
 43
0.0000000001
 40
0.0
 40
0.0
 40
0.0
 40
0.0
 40
0.3318338501106073
 40
0.3318338501106073
 40
0.3318338501106073
 40
0.9988175682960653
 40
0.9988175682960653
 40
0.9988175682960653
 40
0.9988175682960653
 10
42.66666666666665
 20
27.37499999999994
 30
0.0
 10
42.35375429161009
 20
27.14541377476168
 30
0.0
 10
41.94839075374619
 20
26.94965395307146
 30
0.0
 10
41.55646205791119
 20
26.75325908154503
 30
0.0
 10
40.76868812006707
 20
26.3585067631797
 30
0.0
 10
40.00270979015287
 20
25.91491575125943
 30
0.0
 10
40.00000717211997
 20
25.00484453802914
 30
0.0
  0
LINE
  5
BDCA
330
BDC6
100
AcDbEntity
  8
0
100
AcDbLine
 10
40.0
 20
27.37499999999994
 30
0.0
 11
42.0
 21
27.37499999999994
 31
0.0
  0
SPLINE
  5
BDCB
330
BDC6
100
AcDbEntity
  8
0
100
AcDbSpline
210
0.0
220
0.0
230
1.0
 70
     8
 71
     3
 72
    20
 73
    16
 74
     0
 42
0.000000001
 43
0.0000000001
 40
0.0118877898587867
 40
0.0118877898587867
 40
0.0118877898587867
 40
0.0118877898587867
 40
0.0125377155243941
 40
0.0125377155243941
 40
0.0135186159432862
 40
0.0135186159432862
 40
0.01412693431505
 40
0.01412693431505
 40
0.0151401265069977
 40
0.0151401265069977
 40
0.0160659569407882
 40
0.0160659569407882
 40
0.0173113098018163
 40
0.0173113098018163
 40
0.0198249219252884
 40
0.0198249219252884
 40
0.0198249219252884
 40
0.0198249219252884
 10
40.00028093553532
 20
25.05700604967969
 30
0.0
 10
40.00028093553392
 20
25.05700604956159
 30
0.0
 10
40.00027948030598
 20
25.05688456916651
 30
0.0
 10
40.0002715915378
 20
25.05619914408145
 30
0.0
 10
40.00026268965359
 20
25.05541921635543
 30
0.0
 10
40.00024198953234
 20
25.05343643831537
 30
0.0
 10
40.00023254783491
 20
25.05250157374911
 30
0.0
 10
40.00020462768465
 20
25.04954914212615
 30
0.0
 10
40.00018386436142
 20
25.04716281178211
 30
0.0
 10
40.00014583000434
 20
25.04199819253148
 30
0.0
 10
40.00012815155914
 20
25.03922881469307
 30
0.0
 10
40.00009320533746
 20
25.03258711949525
 30
0.0
 10
40.00007778068225
 20
25.02861989611159
 30
0.0
 10
40.00004665110608
 20
25.01653005567484
 30
0.0
 10
40.00004643209558
 20
25.00825125259784
 30
0.0
 10
40.00006198722832
 20
25.00000011468177
 30
0.0
  0
SPLINE
  5
BDCC
330
BDC6
100
AcDbEntity
  8
0
100
AcDbSpline
210
0.0
220
0.0
230
1.0
 70
     8
 71
     3
 72
    20
 73
    16
 74
     0
 42
0.000000001
 43
0.0000000001
 40
0.0062271261350341
 40
0.0062271261350341
 40
0.0062271261350341
 40
0.0062271261350341
 40
0.0063390007314359
 40
0.0063390007314359
 40
0.0068552782937291
 40
0.0068552782937291
 40
0.0073931030640439
 40
0.0073931030640439
 40
0.0081028439724593
 40
0.0081028439724593
 40
0.0099353104294026
 40
0.0099353104294026
 40
0.0118120408586029
 40
0.0118120408586029
 40
0.0129942890197946
 40
0.0129942890197946
 40
0.0129942890197946
 40
0.0129942890197946
 10
40.00016146702652
 20
25.05163818946931
 30
0.0
 10
40.00016146702651
 20
25.0516381894681
 30
0.0
 10
40.00016135945529
 20
25.0516250847108
 30
0.0
 10
40.00016016875753
 20
25.05147954938652
 30
0.0
 10
40.00015685298113
 20
25.05107528575946
 30
0.0
 10
40.00014671764673
 20
25.04978575596632
 30
0.0
 10
40.00013955489879
 20
25.04885054340006
 30
0.0
 10
40.00012217887325
 20
25.04644603306965
 30
0.0
 10
40.00011204975542
 20
25.04495334091729
 30
0.0
 10
40.00007642904576
 20
25.03922823022107
 30
0.0
 10
40.00005177388477
 20
25.03431112936772
 30
0.0
 10
40.00001601013059
 20
25.02356626482621
 30
0.0
 10
40.00000495085185
 20
25.01762344923541
 30
0.0
 10
40.00000180644367
 20
25.00776838165871
 30
0.0
 10
40.00000407010304
 20
25.00389223676193
 30
0.0
 10
40.0000096474289
 20
24.9999999995537
 30
0.0
  0
SPLINE
  5
BDCD
330
BDC6
100
AcDbEntity
  8
0
100
AcDbSpline
210
0.0
220
0.0
230
1.0
 70
     8
 71
     3
 72
     8
 73
     4
 74
     0
 42
0.000000001
 43
0.0000000001
 40
0.0
 40
0.0
 40
0.0
 40
0.0
 40
0.0028225935539881
 40
0.0028225935539881
 40
0.0028225935539881
 40
0.0028225935539881
 10
37.99955434980523
 20
25.00000102373768
 30
0.0
 10
37.99956243524048
 20
25.00812408413047
 30
0.0
 10
37.99956820960713
 20
25.01595158516411
 30
0.0
 10
37.99957063003606
 20
25.02310506905705
 30
0.0
  0
LINE
  5
BDCE
330
BDC6
100
AcDbEntity
  8
0
100
AcDbLine
 10
38.00000000000109
 20
25.00291663202408
 30
0.0
 11
37.99999795342973
 21
25.0030303282059
 31
0.0
  0
SPLINE
  5
BDCF
330
BDC6
100
AcDbEntity
  8
0
100
AcDbSpline
210
0.0
220
0.0
230
1.0
 70
     8
 71
     3
 72
    32
 73
    28
 74
     0
 42
0.000000001
 43
0.0000000001
 40
0.0015062172036312
 40
0.0015062172036312
 40
0.0015062172036312
 40
0.0015062172036312
 40
0.0053420372716146
 40
0.0053420372716146
 40
0.011569473517916
 40
0.011569473517916
 40
0.0242244670193624
 40
0.0242244670193624
 40
0.0272099667218613
 40
0.0272099667218613
 40
0.0286994799318768
 40
0.0286994799318768
 40
0.0309887404850538
 40
0.0309887404850538
 40
0.0334270987424564
 40
0.0334270987424564
 40
0.0369340103553131
 40
0.0369340103553131
 40
0.0429783592702175
 40
0.0429783592702175
 40
0.0559173713226094
 40
0.0559173713226094
 40
0.0946617882000465
 40
0.0946617882000465
 40
0.1836541571322605
 40
0.1836541571322605
 40
0.2468160945357348
 40
0.2468160945357348
 40
0.2468160945357348
 40
0.2468160945357348
 10
37.99993674746218
 20
25.00349111811781
 30
0.0
 10
37.99987270511284
 20
25.0070127898192
 30
0.0
 10
37.9997823617575
 20
25.01191125950689
 30
0.0
 10
37.9995014672587
 20
25.02680545895952
 30
0.0
 10
37.99928238007173
 20
25.03812400586665
 30
0.0
 10
37.99855841983497
 20
25.07458772138431
 30
0.0
 10
37.99801949923761
 20
25.10033351722924
 30
0.0
 10
37.99715823426752
 20
25.14298645332084
 30
0.0
 10
37.99697874873212
 20
25.15196347559037
 30
0.0
 10
37.99670062307016
 20
25.16624045052561
 30
0.0
 10
37.99660583164013
 20
25.17116729022233
 30
0.0
 10
37.99636835901323
 20
25.18371687540048
 30
0.0
 10
37.99622508363126
 20
25.1914902638112
 30
0.0
 10
37.99595025032552
 20
25.20688288215997
 30
0.0
 10
37.99581723612514
 20
25.21460984167984
 30
0.0
 10
37.99551941845951
 20
25.23255989212689
 30
0.0
 10
37.9953633103863
 20
25.24255763596099
 30
0.0
 10
37.99498150131628
 20
25.26841693046082
 30
0.0
 10
37.99478334838286
 20
25.28351348936943
 30
0.0
 10
37.99424660562916
 20
25.32885417399316
 30
0.0
 10
37.99400028706158
 20
25.35705294409734
 30
0.0
 10
37.99327038893197
 20
25.46768850822481
 30
0.0
 10
37.99326450603479
 20
25.54785138975596
 30
0.0
 10
37.99438613156944
 20
25.84673022042129
 30
0.0
 10
37.9973413686188
 20
26.09868693793521
 30
0.0
 10
37.99965540357493
 20
26.56185452103994
 30
0.0
 10
37.99993119119783
 20
26.77008466704637
 30
0.0
 10
37.99999999999999
 20
26.97947544471955
 30
0.0
  0
SPLINE
  5
BDD0
330
BDC6
100
AcDbEntity
  8
0
100
AcDbSpline
210
0.0
220
0.0
230
1.0
 70
     8
 71
     3
 72
    12
 73
     8
 74
     0
 42
0.000000001
 43
0.0000000001
 40
0.0
 40
0.0
 40
0.0
 40
0.0
 40
0.0030571642871373
 40
0.0030571642871373
 40
0.0060114276273801
 40
0.0060114276273801
 40
0.0075061209909883
 40
0.0075061209909883
 40
0.0075061209909883
 40
0.0075061209909883
 10
37.99994325746246
 20
24.99999988266959
 30
0.0
 10
37.99993100030426
 20
25.00667816279634
 30
0.0
 10
37.99991982197363
 20
25.01211634073474
 30
0.0
 10
37.99990267042808
 20
25.01963579999022
 30
0.0
 10
37.9998964297649
 20
25.02192914041828
 30
0.0
 10
37.99989176239243
 20
25.02355487939373
 30
0.0
 10
37.99989096735179
 20
25.02380334350665
 30
0.0
 10
37.9998909673519
 20
25.02380334347354
 30
0.0
  0
SPLINE
  5
BDD1
330
BDC6
100
AcDbEntity
  8
0
100
AcDbSpline
210
0.0
220
0.0
230
1.0
 70
     8
 71
     3
 72
     8
 73
     4
 74
     0
 42
0.000000001
 43
0.0000000001
 40
0.0
 40
0.0
 40
0.0
 40
0.0
 40
0.0003847234918926
 40
0.0003847234918926
 40
0.0003847234918926
 40
0.0003847234918926
 10
42.66669016746933
 20
27.37496639813486
 30
0.0
 10
42.66635768062402
 20
27.37473395570181
 30
0.0
 10
42.66601909849232
 20
27.3744972848285
 30
0.0
 10
42.66567783427174
 20
27.37425870776285
 30
0.0
  0
SPLINE
  5
BDD2
330
BDC6
100
AcDbEntity
  8
0
100
AcDbSpline
210
0.0
220
0.0
230
1.0
 70
     8
 71
     3
 72
     8
 73
     4
 74
     0
 42
0.000000001
 43
0.0000000001
 40
0.0
 40
0.0
 40
0.0
 40
0.0
 40
0.0006765628384646
 40
0.0006765628384646
 40
0.0006765628384646
 40
0.0006765628384646
 10
42.66670459135144
 20
27.37494811212836
 30
0.0
 10
42.66533206391767
 20
27.37394441399506
 30
0.0
 10
42.66388101525078
 20
27.37288442166625
 30
0.0
 10
42.66237180151773
 20
27.37178329330694
 30
0.0
  0
LINE
  5
BDD3
330
BDC6
100
AcDbEntity
  8
0
100
AcDbLine
 10
35.99999999999999
 20
-2.0
 30
0.0
 11
-35.99999999999999
 21
-1.999999999999998
 31
0.0
  0
LINE
  5
BDD4
330
BDC6
100
AcDbEntity
  8
0
100
AcDbLine
 10
-35.99999999999999
 20
0.0
 30
0.0
 11
35.99999999999999
 21
0.0
 31
0.0
  0
LINE
  5
BDD5
330
BDC6
100
AcDbEntity
  8
0
100
AcDbLine
 10
-42.0
 20
27.37499999999994
 30
0.0
 11
-40.0
 21
27.37499999999994
 31
0.0
  0
SPLINE
  5
BDD6
330
BDC6
100
AcDbEntity
  8
0
100
AcDbSpline
210
0.0
220
0.0
230
1.0
 70
     8
 71
     3
 72
    11
 73
     7
 74
     0
 42
0.000000001
 43
0.0000000001
 40
0.0
 40
0.0
 40
0.0
 40
0.0
 40
0.3318338501106073
 40
0.3318338501106073
 40
0.3318338501106073
 40
0.998817979328187
 40
0.998817979328187
 40
0.998817979328187
 40
0.998817979328187
 10
-42.66666666666665
 20
27.37499999999994
 30
0.0
 10
-42.35375429161009
 20
27.14541377476168
 30
0.0
 10
-41.94839075374619
 20
26.94965395307146
 30
0.0
 10
-41.55646205791119
 20
26.75325908154503
 30
0.0
 10
-40.76868763459736
 20
26.35850651991157
 30
0.0
 10
-40.00270884607676
 20
25.91491520452896
 30
0.0
 10
-40.00000716712434
 20
25.00484285552051
 30
0.0
  0
SPLINE
  5
BDD7
330
BDC6
100
AcDbEntity
  8
0
100
AcDbSpline
210
0.0
220
0.0
230
1.0
 70
     8
 71
     3
 72
    32
 73
    28
 74
     0
 42
0.000000001
 43
0.0000000001
 40
0.0078934675520662
 40
0.0078934675520662
 40
0.0078934675520662
 40
0.0078934675520662
 40
0.0780629607296543
 40
0.0780629607296543
 40
0.1679011871088827
 40
0.1679011871088827
 40
0.2053077855146548
 40
0.2053077855146548
 40
0.2226889298255464
 40
0.2226889298255464
 40
0.2279420163984367
 40
0.2279420163984367
 40
0.2308166860616392
 40
0.2308166860616392
 40
0.233804141049055
 40
0.233804141049055
 40
0.2357603198854233
 40
0.2357603198854233
 40
0.2377194892409647
 40
0.2377194892409647
 40
0.2416786705073611
 40
0.2416786705073611
 40
0.2455712438862537
 40
0.2455712438862537
 40
0.2548773000099997
 40
0.2548773000099997
 40
0.2629055235081115
 40
0.2629055235081115
 40
0.2629055235081115
 40
0.2629055235081115
 10
-38.00000000000003
 20
27.07568786457224
 30
0.0
 10
-37.99990530868388
 20
26.84228294496044
 30
0.0
 10
-37.99982343767613
 20
26.60933777778594
 30
0.0
 10
-37.99752532992293
 20
26.11950906215228
 30
0.0
 10
-37.99452784480703
 20
25.86350817258312
 30
0.0
 10
-37.99329345737603
 20
25.5634045556739
 30
0.0
 10
-37.99325898160262
 20
25.48451485320708
 30
0.0
 10
-37.99389648912436
 20
25.36831092773428
 30
0.0
 10
-37.99419630383569
 20
25.33125269564149
 30
0.0
 10
-37.9948812793085
 20
25.27608854534144
 30
0.0
 10
-37.99506294520268
 20
25.26270137277002
 30
0.0
 10
-37.99539729133432
 20
25.24041167509486
 30
0.0
 10
-37.99552661021893
 20
25.23217852555699
 30
0.0
 10
-37.99581693512616
 20
25.21458273725205
 30
0.0
 10
-37.99598172728668
 20
25.20503623302641
 30
0.0
 10
-37.99627464794954
 20
25.18880169405151
 30
0.0
 10
-37.99639732940759
 20
25.18217998048112
 30
0.0
 10
-37.99664348567019
 20
25.16918373282283
 30
0.0
 10
-37.99676871768163
 20
25.16271490718905
 30
0.0
 10
-37.9971312259141
 20
25.14425894458799
 30
0.0
 10
-37.99735767840551
 20
25.13307653220165
 30
0.0
 10
-37.99776242244758
 20
25.11320933104241
 30
0.0
 10
-37.99794781640994
 20
25.10418354386882
 30
0.0
 10
-37.99854746194751
 20
25.07490488874743
 30
0.0
 10
-37.99893333096674
 20
25.05587282864043
 30
0.0
 10
-37.99955394788016
 20
25.02415201714339
 30
0.0
 10
-37.9998021901524
 20
25.01084649785806
 30
0.0
 10
-37.99993676581564
 20
25.00347894890632
 30
0.0
  0
SPLINE
  5
BDD8
330
BDC6
100
AcDbEntity
  8
0
100
AcDbSpline
210
0.0
220
0.0
230
1.0
 70
     8
 71
     3
 72
    10
 73
     6
 74
     0
 42
0.000000001
 43
0.0000000001
 40
0.0205373486790917
 40
0.0205373486790917
 40
0.0205373486790917
 40
0.0205373486790917
 40
0.0217057908253362
 40
0.0217057908253362
 40
0.0233727391129902
 40
0.0233727391129902
 40
0.0233727391129902
 40
0.0233727391129902
 10
-37.99957079788298
 20
25.02306762793786
 30
0.0
 10
-37.99956980305154
 20
25.02012290991283
 30
0.0
 10
-37.99956822362055
 20
25.01706866991146
 30
0.0
 10
-37.99956313984772
 20
25.00946134066812
 30
0.0
 10
-37.99955912484711
 20
25.00479828602616
 30
0.0
 10
-37.99955434980522
 20
25.00000102373768
 30
0.0
  0
LINE
  5
BDD9
330
BDC6
100
AcDbEntity
  8
0
100
AcDbLine
 10
-37.99999795345893
 20
25.00303028356943
 30
0.0
 11
-37.99999999999999
 21
25.00291659133189
 31
0.0
  0
SPLINE
  5
BDDA
330
BDC6
100
AcDbEntity
  8
0
100
AcDbSpline
210
0.0
220
0.0
230
1.0
 70
     8
 71
     3
 72
    12
 73
     8
 74
     0
 42
0.000000001
 43
0.0000000001
 40
0.0136975455833827
 40
0.0136975455833827
 40
0.0136975455833827
 40
0.0136975455833827
 40
0.0169482537199809
 40
0.0169482537199809
 40
0.0190243592691945
 40
0.0190243592691945
 40
0.0212073125404996
 40
0.0212073125404996
 40
0.0212073125404996
 40
0.0212073125404996
 10
-37.99989096735189
 20
25.02380334347157
 30
0.0
 10
-37.99989096732665
 20
25.02380335139718
 30
0.0
 10
-37.99989486470588
 20
25.02259746408733
 30
0.0
 10
-37.99990655872031
 20
25.01793627049142
 30
0.0
 10
-37.99991244299112
 20
25.01543439206602
 30
0.0
 10
-37.99992633273046
 20
25.00890921328999
 30
0.0
 10
-37.99993450529835
 20
25.00476847607151
 30
0.0
 10
-37.99994325746248
 20
24.99999988266958
 30
0.0
  0
SPLINE
  5
BDDB
330
BDC6
100
AcDbEntity
  8
0
100
AcDbSpline
210
0.0
220
0.0
230
1.0
 70
     8
 71
     3
 72
    18
 73
    14
 74
     0
 42
0.000000001
 43
0.0000000001
 40
0.0
 40
0.0
 40
0.0
 40
0.0
 40
0.0029621381750593
 40
0.0029621381750593
 40
0.0045864572170487
 40
0.0045864572170487
 40
0.0054328694751104
 40
0.0054328694751104
 40
0.0066405273041277
 40
0.0066405273041277
 40
0.0078370845438002
 40
0.0078370845438002
 40
0.0079291744926094
 40
0.0079291744926094
 40
0.0079291744926094
 40
0.0079291744926094
 10
-40.00006198722833
 20
25.00000011468177
 30
0.0
 10
-40.00004365645562
 20
25.0097235761421
 30
0.0
 10
-40.00004751728865
 20
25.01951901012532
 30
0.0
 10
-40.00009872251019
 20
25.03409080647639
 30
0.0
 10
-40.00012683545939
 20
25.0392811966883
 30
0.0
 10
-40.00017494703242
 20
25.04600708457251
 30
0.0
 10
-40.00019227452907
 20
25.0481107213912
 30
0.0
 10
-40.00023029083535
 20
25.05235306096212
 30
0.0
 10
-40.00024950046022
 20
25.05418087411896
 30
0.0
 10
-40.0002741792335
 20
25.05644808288666
 30
0.0
 10
-40.00028008603401
 20
25.05693438500112
 30
0.0
 10
-40.00028090656894
 20
25.05700361436786
 30
0.0
 10
-40.00028093553786
 20
25.05700604989332
 30
0.0
 10
-40.00028093553533
 20
25.05700604968084
 30
0.0
  0
SPLINE
  5
BDDC
330
BDC6
100
AcDbEntity
  8
0
100
AcDbSpline
210
0.0
220
0.0
230
1.0
 70
     8
 71
     3
 72
    18
 73
    14
 74
     0
 42
0.000000001
 43
0.0000000001
 40
0.0
 40
0.0
 40
0.0
 40
0.0
 40
0.0019403250806935
 40
0.0019403250806935
 40
0.0035406015586379
 40
0.0035406015586379
 40
0.0056556590732564
 40
0.0056556590732564
 40
0.0061093795730489
 40
0.0061093795730489
 40
0.0064442918050509
 40
0.0064442918050509
 40
0.0067622837352497
 40
0.0067622837352497
 40
0.0067622837352497
 40
0.0067622837352497
 10
-40.0000096474289
 20
24.99999999955371
 30
0.0
 10
-40.0000004938302
 20
25.00638800312425
 30
0.0
 10
-40.00000043118457
 20
25.01276067441958
 30
0.0
 10
-40.00001720679162
 20
25.02383984658863
 30
0.0
 10
-40.00003119915465
 20
25.02868851012225
 30
0.0
 10
-40.00007332269642
 20
25.03893570081413
 30
0.0
 10
-40.00010522702705
 20
25.04414292540457
 30
0.0
 10
-40.00014085658583
 20
25.0490191924817
 30
0.0
 10
-40.00014666800767
 20
25.04977760158209
 30
0.0
 10
-40.00015448590758
 20
25.05077523997848
 30
0.0
 10
-40.00015714191131
 20
25.05110569394627
 30
0.0
 10
-40.00016057910113
 20
25.05153037573508
 30
0.0
 10
-40.00016146702692
 20
25.05163818951974
 30
0.0
 10
-40.0001614670265
 20
25.05163818946866
 30
0.0
  0
SPLINE
  5
BDDD
330
BDC6
100
AcDbEntity
  8
0
100
AcDbSpline
210
0.0
220
0.0
230
1.0
 70
     8
 71
     3
 72
     8
 73
     4
 74
     0
 42
0.000000001
 43
0.0000000001
 40
0.3040867075430481
 40
0.3040867075430481
 40
0.3040867075430481
 40
0.3040867075430481
 40
0.3047633838224424
 40
0.3047633838224424
 40
0.3047633838224424
 40
0.3047633838224424
 10
-42.66237154830078
 20
27.37178327546298
 30
0.0
 10
-42.66388150966301
 20
27.37288494929551
 30
0.0
 10
-42.66533183378265
 20
27.37394424570256
 30
0.0
 10
-42.66670459135145
 20
27.37494811212838
 30
0.0
  0
SPLINE
  5
BDDE
330
BDC6
100
AcDbEntity
  8
0
100
AcDbSpline
210
0.0
220
0.0
230
1.0
 70
     8
 71
     3
 72
     8
 73
     4
 74
     0
 42
0.000000001
 43
0.0000000001
 40
0.0185048918888929
 40
0.0185048918888929
 40
0.0185048918888929
 40
0.0185048918888929
 40
0.0188897805814838
 40
0.0188897805814838
 40
0.0188897805814838
 40
0.0188897805814838
 10
-42.66567871893403
 20
27.37425930241218
 30
0.0
 10
-42.66601984414807
 20
27.37449778229866
 30
0.0
 10
-42.66635753785379
 20
27.37473385589078
 30
0.0
 10
-42.66669016746934
 20
27.37496639813488
 30
0.0
  0
ARC
  5
BDDF
330
BDC6
100
AcDbEntity
  8
0
100
AcDbCircle
 10
-35.99999999999999
 20
2.0
 30
0.0
 40
3.999999999999999
100
AcDbArc
 50
180.0
 51
270.0
  0
ARC
  5
BDE0
330
BDC6
100
AcDbEntity
  8
0
100
AcDbCircle
 10
-35.99999999999999
 20
2.0
 30
0.0
 40
1.999999999999997
100
AcDbArc
 50
180.0
 51
270.0
  0
ARC
  5
BDE1
330
BDC6
100
AcDbEntity
  8
0
100
AcDbCircle
 10
35.99999999999999
 20
2.0
 30
0.0
 40
3.999999999999999
100
AcDbArc
 50
270.0
 51
0.0
  0
LINE
  5
BDE2
330
BDC6
100
AcDbEntity
  8
0
100
AcDbLine
 10
42.66666666666669
 20
27.37499999999994
 30
0.0
 11
79.50000000000004
 21
54.99999999999996
 31
0.0
  0
LINE
  5
BDE3
330
BDC6
100
AcDbEntity
  8
0
100
AcDbLine
 10
37.99999999999999
 20
25.0
 30
0.0
 11
38.0
 21
54.99999999999996
 31
0.0
  0
LINE
  5
BDE4
330
BDC6
100
AcDbEntity
  8
0
100
AcDbLine
 10
39.99999999999999
 20
25.0
 30
0.0
 11
37.99999999999999
 21
25.0
 31
0.0
  0
LINE
  5
BDE5
330
BDC6
100
AcDbEntity
  8
0
100
AcDbLine
 10
40.0
 20
54.99999999999996
 30
0.0
 11
39.99999999999999
 21
25.0
 31
0.0
  0
LINE
  5
BDE6
330
BDC6
100
AcDbEntity
  8
0
100
AcDbLine
 10
40.0
 20
54.99999999999996
 30
0.0
 11
38.0
 21
54.99999999999996
 31
0.0
  0
LINE
  5
BDE7
330
BDC6
100
AcDbEntity
  8
0
100
AcDbLine
 10
38.0
 20
54.99999999999996
 30
0.0
 11
38.0
 21
212.0
 31
0.0
  0
LINE
  5
BDE8
330
BDC6
100
AcDbEntity
  8
0
100
AcDbLine
 10
40.0
 20
212.0
 30
0.0
 11
40.0
 21
54.99999999999996
 31
0.0
  0
LINE
  5
BDE9
330
BDC6
100
AcDbEntity
  8
0
100
AcDbLine
 10
38.0
 20
212.0
 30
0.0
 11
40.0
 21
212.0
 31
0.0
  0
LINE
  5
BDEA
330
BDC6
100
AcDbEntity
  8
0
100
AcDbLine
 10
39.99999999999999
 20
25.0
 30
0.0
 11
39.99999999999999
 21
2.000000000000001
 31
0.0
  0
LINE
  5
BDEB
330
BDC6
100
AcDbEntity
  8
0
100
AcDbLine
 10
37.99999999999999
 20
2.0
 30
0.0
 11
37.99999999999999
 21
25.0
 31
0.0
  0
ARC
  5
BDEC
330
BDC6
100
AcDbEntity
  8
0
100
AcDbCircle
 10
35.99999999999999
 20
2.0
 30
0.0
 40
1.999999999999997
100
AcDbArc
 50
270.0
 51
0.0
  0
LINE
  5
BDED
330
BDC6
100
AcDbEntity
  8
0
100
AcDbLine
 10
41.99999999999999
 20
212.0
 30
0.0
 11
40.0
 21
212.0
 31
0.0
  0
LINE
  5
BDEE
330
BDC6
100
AcDbEntity
  8
0
100
AcDbLine
 10
79.50000000000004
 20
54.99999999999996
 30
0.0
 11
79.50000000000001
 21
212.0
 31
0.0
  0
LINE
  5
BDEF
330
BDC6
100
AcDbEntity
  8
0
100
AcDbLine
 10
79.50000000000001
 20
212.0
 30
0.0
 11
41.99999999999999
 21
212.0
 31
0.0
  0
CIRCLE
  5
BDF0
330
BDC6
100
AcDbEntity
  8
0
100
AcDbCircle
 10
60.0
 20
192.0
 30
0.0
 40
6.5
  0
CIRCLE
  5
BDF1
330
BDC6
100
AcDbEntity
  8
0
100
AcDbCircle
 10
71.00000000000001
 20
197.0
 30
0.0
 40
2.5
  0
LINE
  5
BDF2
330
BDC6
100
AcDbEntity
  8
0
100
AcDbLine
 10
-79.50000000000004
 20
54.99999999999996
 30
0.0
 11
-42.66666666666669
 21
27.37499999999994
 31
0.0
  0
LINE
  5
BDF3
330
BDC6
100
AcDbEntity
  8
0
100
AcDbLine
 10
-38.0
 20
54.99999999999996
 30
0.0
 11
-37.99999999999999
 21
25.0
 31
0.0
  0
LINE
  5
BDF4
330
BDC6
100
AcDbEntity
  8
0
100
AcDbLine
 10
-40.0
 20
54.99999999999996
 30
0.0
 11
-38.0
 21
54.99999999999996
 31
0.0
  0
LINE
  5
BDF5
330
BDC6
100
AcDbEntity
  8
0
100
AcDbLine
 10
-39.99999999999999
 20
25.0
 30
0.0
 11
-40.0
 21
54.99999999999996
 31
0.0
  0
LINE
  5
BDF6
330
BDC6
100
AcDbEntity
  8
0
100
AcDbLine
 10
-37.99999999999999
 20
25.0
 30
0.0
 11
-39.99999999999999
 21
25.0
 31
0.0
  0
LINE
  5
BDF7
330
BDC6
100
AcDbEntity
  8
0
100
AcDbLine
 10
-38.0
 20
212.0
 30
0.0
 11
-38.0
 21
54.99999999999996
 31
0.0
  0
LINE
  5
BDF8
330
BDC6
100
AcDbEntity
  8
0
100
AcDbLine
 10
-40.0
 20
212.0
 30
0.0
 11
-38.0
 21
212.0
 31
0.0
  0
LINE
  5
BDF9
330
BDC6
100
AcDbEntity
  8
0
100
AcDbLine
 10
-40.0
 20
54.99999999999996
 30
0.0
 11
-40.0
 21
212.0
 31
0.0
  0
CIRCLE
  5
BDFA
330
BDC6
100
AcDbEntity
  8
0
100
AcDbCircle
 10
-60.0
 20
61.99999999999999
 30
0.0
 40
6.5
  0
CIRCLE
  5
BDFB
330
BDC6
100
AcDbEntity
  8
0
100
AcDbCircle
 10
60.0
 20
61.99999999999999
 30
0.0
 40
6.5
  0
CIRCLE
  5
BDFC
330
BDC6
100
AcDbEntity
  8
0
100
AcDbCircle
 10
-60.0
 20
132.0
 30
0.0
 40
6.5
  0
CIRCLE
  5
BDFD
330
BDC6
100
AcDbEntity
  8
0
100
AcDbCircle
 10
60.0
 20
132.0
 30
0.0
 40
6.5
  0
CIRCLE
  5
BDFE
330
BDC6
100
AcDbEntity
  8
0
100
AcDbCircle
 10
-60.0
 20
192.0
 30
0.0
 40
6.5
  0
CIRCLE
  5
BDFF
330
BDC6
100
AcDbEntity
  8
0
100
AcDbCircle
 10
-49.0
 20
46.99999999999999
 30
0.0
 40
2.5
  0
CIRCLE
  5
BE00
330
BDC6
100
AcDbEntity
  8
0
100
AcDbCircle
 10
-49.0
 20
67.0
 30
0.0
 40
2.5
  0
CIRCLE
  5
BE01
330
BDC6
100
AcDbEntity
  8
0
100
AcDbCircle
 10
-49.0
 20
87.0
 30
0.0
 40
2.5
  0
CIRCLE
  5
BE02
330
BDC6
100
AcDbEntity
  8
0
100
AcDbCircle
 10
-49.0
 20
107.0
 30
0.0
 40
2.5
  0
CIRCLE
  5
BE03
330
BDC6
100
AcDbEntity
  8
0
100
AcDbCircle
 10
-49.0
 20
127.0
 30
0.0
 40
2.5
  0
CIRCLE
  5
BE04
330
BDC6
100
AcDbEntity
  8
0
100
AcDbCircle
 10
-49.0
 20
147.0
 30
0.0
 40
2.5
  0
CIRCLE
  5
BE05
330
BDC6
100
AcDbEntity
  8
0
100
AcDbCircle
 10
-49.0
 20
167.0
 30
0.0
 40
2.5
  0
CIRCLE
  5
BE06
330
BDC6
100
AcDbEntity
  8
0
100
AcDbCircle
 10
-49.0
 20
187.0
 30
0.0
 40
2.5
  0
CIRCLE
  5
BE07
330
BDC6
100
AcDbEntity
  8
0
100
AcDbCircle
 10
49.0
 20
46.99999999999999
 30
0.0
 40
2.5
  0
CIRCLE
  5
BE08
330
BDC6
100
AcDbEntity
  8
0
100
AcDbCircle
 10
49.0
 20
67.0
 30
0.0
 40
2.5
  0
CIRCLE
  5
BE09
330
BDC6
100
AcDbEntity
  8
0
100
AcDbCircle
 10
49.0
 20
87.0
 30
0.0
 40
2.5
  0
CIRCLE
  5
BE0A
330
BDC6
100
AcDbEntity
  8
0
100
AcDbCircle
 10
49.0
 20
107.0
 30
0.0
 40
2.5
  0
CIRCLE
  5
BE0B
330
BDC6
100
AcDbEntity
  8
0
100
AcDbCircle
 10
49.0
 20
127.0
 30
0.0
 40
2.5
  0
CIRCLE
  5
BE0C
330
BDC6
100
AcDbEntity
  8
0
100
AcDbCircle
 10
49.0
 20
147.0
 30
0.0
 40
2.5
  0
CIRCLE
  5
BE0D
330
BDC6
100
AcDbEntity
  8
0
100
AcDbCircle
 10
49.0
 20
167.0
 30
0.0
 40
2.5
  0
CIRCLE
  5
BE0E
330
BDC6
100
AcDbEntity
  8
0
100
AcDbCircle
 10
49.0
 20
187.0
 30
0.0
 40
2.5
  0
CIRCLE
  5
BE0F
330
BDC6
100
AcDbEntity
  8
0
100
AcDbCircle
 10
-49.0
 20
207.0
 30
0.0
 40
2.5
  0
CIRCLE
  5
BE10
330
BDC6
100
AcDbEntity
  8
0
100
AcDbCircle
 10
49.0
 20
207.0
 30
0.0
 40
2.5
  0
CIRCLE
  5
BE11
330
BDC6
100
AcDbEntity
  8
0
100
AcDbCircle
 10
-71.00000000000001
 20
56.99999999999999
 30
0.0
 40
2.5
  0
CIRCLE
  5
BE12
330
BDC6
100
AcDbEntity
  8
0
100
AcDbCircle
 10
-71.00000000000001
 20
77.0
 30
0.0
 40
2.5
  0
CIRCLE
  5
BE13
330
BDC6
100
AcDbEntity
  8
0
100
AcDbCircle
 10
-71.00000000000001
 20
97.0
 30
0.0
 40
2.5
  0
CIRCLE
  5
BE14
330
BDC6
100
AcDbEntity
  8
0
100
AcDbCircle
 10
-71.00000000000001
 20
117.0
 30
0.0
 40
2.5
  0
CIRCLE
  5
BE15
330
BDC6
100
AcDbEntity
  8
0
100
AcDbCircle
 10
-71.00000000000001
 20
137.0
 30
0.0
 40
2.5
  0
CIRCLE
  5
BE16
330
BDC6
100
AcDbEntity
  8
0
100
AcDbCircle
 10
-71.00000000000001
 20
157.0
 30
0.0
 40
2.5
  0
CIRCLE
  5
BE17
330
BDC6
100
AcDbEntity
  8
0
100
AcDbCircle
 10
-71.00000000000001
 20
177.0
 30
0.0
 40
2.5
  0
CIRCLE
  5
BE18
330
BDC6
100
AcDbEntity
  8
0
100
AcDbCircle
 10
71.00000000000001
 20
56.99999999999999
 30
0.0
 40
2.5
  0
CIRCLE
  5
BE19
330
BDC6
100
AcDbEntity
  8
0
100
AcDbCircle
 10
71.00000000000001
 20
77.0
 30
0.0
 40
2.5
  0
CIRCLE
  5
BE1A
330
BDC6
100
AcDbEntity
  8
0
100
AcDbCircle
 10
71.00000000000001
 20
97.0
 30
0.0
 40
2.5
  0
CIRCLE
  5
BE1B
330
BDC6
100
AcDbEntity
  8
0
100
AcDbCircle
 10
71.00000000000001
 20
117.0
 30
0.0
 40
2.5
  0
CIRCLE
  5
BE1C
330
BDC6
100
AcDbEntity
  8
0
100
AcDbCircle
 10
71.00000000000001
 20
137.0
 30
0.0
 40
2.5
  0
CIRCLE
  5
BE1D
330
BDC6
100
AcDbEntity
  8
0
100
AcDbCircle
 10
71.00000000000001
 20
157.0
 30
0.0
 40
2.5
  0
CIRCLE
  5
BE1E
330
BDC6
100
AcDbEntity
  8
0
100
AcDbCircle
 10
71.00000000000001
 20
177.0
 30
0.0
 40
2.5
  0
CIRCLE
  5
BE1F
330
BDC6
100
AcDbEntity
  8
0
100
AcDbCircle
 10
-71.00000000000001
 20
197.0
 30
0.0
 40
2.5
  0
LINE
  5
BE20
330
BDC6
100
AcDbEntity
  8
0
100
AcDbLine
 10
-79.50000000000001
 20
212.0
 30
0.0
 11
-41.99999999999999
 21
212.0
 31
0.0
  0
LINE
  5
BE21
330
BDC6
100
AcDbEntity
  8
0
100
AcDbLine
 10
-79.50000000000004
 20
54.99999999999996
 30
0.0
 11
-79.50000000000001
 21
212.0
 31
0.0
  0
LINE
  5
BE22
330
BDC6
100
AcDbEntity
  8
0
100
AcDbLine
 10
-37.99999999999999
 20
2.0
 30
0.0
 11
-37.99999999999999
 21
25.0
 31
0.0
  0
LINE
  5
BE23
330
BDC6
100
AcDbEntity
  8
0
100
AcDbLine
 10
-39.99999999999999
 20
25.0
 30
0.0
 11
-39.99999999999999
 21
2.000000000000001
 31
0.0
  0
LINE
  5
BE24
330
BDC6
100
AcDbEntity
  8
0
100
AcDbLine
 10
-41.99999999999999
 20
212.0
 30
0.0
 11
-40.0
 21
212.0
 31
0.0
  0
ENDBLK
  5
BDC8
330
BDC6
100
AcDbEntity
  8
0
100
AcDbBlockEnd
  0
BLOCK
  5
BE26
330
BE25
100
AcDbEntity
  8
0
100
AcDbBlockBegin
  2
SAE500_76_2-Left
 70
     0
 10
0.0
 20
0.0
 30
0.0
  3
SAE500_76_2-Left
  1

  0
LINE
  5
BE28
330
BE25
100
AcDbEntity
  8
0
100
AcDbLine
 10
1.999999999999998
 20
-2.0
 30
0.0
 11
86.0
 21
-1.999999999999998
 31
0.0
  0
LINE
  5
BE29
330
BE25
100
AcDbEntity
  8
0
100
AcDbLine
 10
2.000000000000003
 20
2.000000000000004
 30
0.0
 11
1.999999999999998
 21
-1.999999999999999
 31
0.0
  0
LINE
  5
BE2A
330
BE25
100
AcDbEntity
  8
0
100
AcDbLine
 10
86.0
 20
-1.999999999999998
 30
0.0
 11
86.0
 21
2.0
 31
0.0
  0
SPLINE
  5
BE2B
330
BE25
100
AcDbEntity
  8
0
100
AcDbSpline
210
0.0
220
0.0
230
1.0
 70
     8
 71
     3
 72
    14
 73
    10
 74
     0
 42
0.000000001
 43
0.0000000001
 40
-0.4382398763145928
 40
-0.4382398763145928
 40
-0.4382398763145928
 40
-0.4382398763145928
 40
-0.3797498890780363
 40
-0.3797498890780363
 40
-0.3797498890780363
 40
-0.0799923328228103
 40
-0.0799923328228103
 40
-0.0799923328228103
 40
0.0
 40
0.0
 40
0.0
 40
0.0
 10
0.8175995219421061
 20
26.70134698001086
 30
0.0
 10
0.76038450445038
 20
26.71534982610849
 30
0.0
 10
0.7040581676188909
 20
26.7285371240537
 30
0.0
 10
0.6494211719807921
 20
26.74212695790912
 30
0.0
 10
0.3694099586535355
 20
26.81177401339474
 30
0.0
 10
0.1286161190765532
 20
26.89183881156445
 30
0.0
 10
0.0375464459013494
 20
27.13706507632132
 30
0.0
 10
0.0132438872012351
 20
27.20250536490782
 30
0.0
 10
0.0000044906778019
 20
27.28210893939959
 30
0.0
 10
0.0000000000623253
 20
27.37500000002209
 30
0.0
  0
SPLINE
  5
BE2C
330
BE25
100
AcDbEntity
  8
0
100
AcDbSpline
210
0.0
220
0.0
230
1.0
 70
     8
 71
     3
 72
    11
 73
     7
 74
     0
 42
0.000000001
 43
0.0000000001
 40
0.0
 40
0.0
 40
0.0
 40
0.0
 40
0.3318338501106073
 40
0.3318338501106073
 40
0.3318338501106073
 40
1.0
 40
1.0
 40
1.0
 40
1.0
 10
2.000000000000007
 20
27.37499999999994
 30
0.0
 10
2.000040447362342
 20
27.14541377476168
 30
0.0
 10
1.996205994622183
 20
26.94965395307146
 30
0.0
 10
1.998524212983986
 20
26.75325908154503
 30
0.0
 10
2.003192076244144
 20
26.3578069445129
 30
0.0
 10
2.000338487582169
 20
25.91334279752727
 30
0.0
 10
1.999999999986074
 20
25.00000000259947
 30
0.0
  0
LINE
  5
BE2D
330
BE25
100
AcDbEntity
  8
0
100
AcDbLine
 10
0.0
 20
27.37499999999994
 30
0.0
 11
2.0
 21
27.37499999999994
 31
0.0
  0
SPLINE
  5
BE2E
330
BE25
100
AcDbEntity
  8
0
100
AcDbSpline
210
0.0
220
0.0
230
1.0
 70
     8
 71
     3
 72
    18
 73
    14
 74
     0
 42
0.000000001
 43
0.0000000001
 40
0.0
 40
0.0
 40
0.0
 40
0.0
 40
0.0046401809441456
 40
0.0046401809441456
 40
0.0067241329628046
 40
0.0067241329628046
 40
0.0084831913621902
 40
0.0084831913621902
 40
0.0099329506487507
 40
0.0099329506487507
 40
0.0111090098728399
 40
0.0111090098728399
 40
0.0121167430693109
 40
0.0121167430693109
 40
0.0121167430693109
 40
0.0121167430693109
 10
1.999532998620585
 20
24.99999817662251
 30
0.0
 10
1.999479609315737
 20
25.01490981876629
 30
0.0
 10
1.999379726857497
 20
25.02940985951426
 30
0.0
 10
1.999188953972497
 20
25.04763352496135
 30
0.0
 10
1.999123148425054
 20
25.05295702016327
 30
0.0
 10
1.99899865906296
 20
25.06178033069254
 30
0.0
 10
1.99893996572025
 20
25.06546936837179
 30
0.0
 10
1.99884056743048
 20
25.07120208496061
 30
0.0
 10
1.998798196465421
 20
25.073441278858
 30
0.0
 10
1.998735386837988
 20
25.07659407581608
 30
0.0
 10
1.998712169609575
 20
25.0776877906121
 30
0.0
 10
1.998683899756157
 20
25.07898592148278
 30
0.0
 10
1.998676604964584
 20
25.07930167783587
 30
0.0
 10
1.998676605025153
 20
25.07930167520844
 30
0.0
  0
SPLINE
  5
BE2F
330
BE25
100
AcDbEntity
  8
0
100
AcDbSpline
210
0.0
220
0.0
230
1.0
 70
     8
 71
     3
 72
    32
 73
    28
 74
     0
 42
0.000000001
 43
0.0000000001
 40
0.004532923639079
 40
0.004532923639079
 40
0.004532923639079
 40
0.004532923639079
 40
0.0066654947431249
 40
0.0066654947431249
 40
0.0091707750191942
 40
0.0091707750191942
 40
0.0114434294365896
 40
0.0114434294365896
 40
0.013437436218927
 40
0.013437436218927
 40
0.0160482429301074
 40
0.0160482429301074
 40
0.0221029617065385
 40
0.0221029617065385
 40
0.0402583220035815
 40
0.0402583220035815
 40
0.0952563889882599
 40
0.0952563889882599
 40
0.1192935261780561
 40
0.1192935261780561
 40
0.1523414311812623
 40
0.1523414311812623
 40
0.1857336439355364
 40
0.1857336439355364
 40
0.2298430857643708
 40
0.2298430857643708
 40
0.2639784882549319
 40
0.2639784882549319
 40
0.2639784882549319
 40
0.2639784882549319
 10
1.999410003310094
 20
25.02337603689286
 30
0.0
 10
1.999312109868022
 20
25.02688890665093
 30
0.0
 10
1.999211246974345
 20
25.03032660226964
 30
0.0
 10
1.998969830824348
 20
25.03814162038838
 30
0.0
 10
1.998825714904833
 20
25.04259422873851
 30
0.0
 10
1.998463631822003
 20
25.05295629917229
 30
0.0
 10
1.998243903486145
 20
25.05893757272397
 30
0.0
 10
1.997744902958396
 20
25.0714124260535
 30
0.0
 10
1.997475174614483
 20
25.07776780361727
 30
0.0
 10
1.996801384295255
 20
25.09259955996104
 30
0.0
 10
1.99637736446369
 20
25.10123424072661
 30
0.0
 10
1.994857515333422
 20
25.12987430502454
 30
0.0
 10
1.993605672498738
 20
25.15003342626677
 30
0.0
 10
1.987841603316159
 20
25.23041682727286
 30
0.0
 10
1.981802818468239
 20
25.29052866167342
 30
0.0
 10
1.949624076121968
 20
25.53123959391565
 30
0.0
 10
1.906294823624197
 20
25.71512653035102
 30
0.0
 10
1.806019593749294
 20
25.95609494645901
 30
0.0
 10
1.770202172791896
 20
26.02679843557899
 30
0.0
 10
1.675312249971082
 20
26.18093255031289
 30
0.0
 10
1.611364463194556
 20
26.2606851638348
 30
0.0
 10
1.47687581134651
 20
26.39417125051452
 30
0.0
 10
1.405424297555337
 20
26.44918643069685
 30
0.0
 10
1.239654514408532
 20
26.55388477811546
 30
0.0
 10
1.143687726422659
 20
26.59780374755745
 30
0.0
 10
0.9714604612257442
 20
26.66023127101351
 30
0.0
 10
0.8949683628255224
 20
26.68238563661363
 30
0.0
 10
0.815747523748635
 20
26.70172103283231
 30
0.0
  0
LINE
  5
BE30
330
BE25
100
AcDbEntity
  8
0
100
AcDbLine
 10
2.000000000000003
 20
2.000000000000003
 30
0.0
 11
2.000000000000003
 21
25.0
 31
0.0
  0
LINE
  5
BE31
330
BE25
100
AcDbEntity
  8
0
100
AcDbLine
 10
2.000000000000001
 20
54.99999999999996
 30
0.0
 11
2.0
 21
27.37499999999994
 31
0.0
  0
LINE
  5
BE32
330
BE25
100
AcDbEntity
  8
0
100
AcDbLine
 10
0.0
 20
54.99999999999996
 30
0.0
 11
2.000000000000001
 21
54.99999999999996
 31
0.0
  0
LINE
  5
BE33
330
BE25
100
AcDbEntity
  8
0
100
AcDbLine
 10
0.0
 20
27.37499999999994
 30
0.0
 11
0.0
 21
54.99999999999996
 31
0.0
  0
LINE
  5
BE34
330
BE25
100
AcDbEntity
  8
0
100
AcDbLine
 10
86.00000000000003
 20
25.0
 30
0.0
 11
46.00000000000002
 21
54.99999999999996
 31
0.0
  0
LINE
  5
BE35
330
BE25
100
AcDbEntity
  8
0
100
AcDbLine
 10
46.00000000000002
 20
54.99999999999996
 30
0.0
 11
46.0
 21
212.0
 31
0.0
  0
LINE
  5
BE36
330
BE25
100
AcDbEntity
  8
0
100
AcDbLine
 10
2.000000000000001
 20
54.99999999999996
 30
0.0
 11
2.00000000000001
 21
212.0
 31
0.0
  0
LINE
  5
BE37
330
BE25
100
AcDbEntity
  8
0
100
AcDbLine
 10
86.00000000000003
 20
25.0
 30
0.0
 11
86.0
 21
2.000000000000001
 31
0.0
  0
LINE
  5
BE38
330
BE25
100
AcDbEntity
  8
0
100
AcDbLine
 10
4.000000000000003
 20
212.0
 30
0.0
 11
46.0
 21
212.0
 31
0.0
  0
LINE
  5
BE39
330
BE25
100
AcDbEntity
  8
0
100
AcDbLine
 10
0.0
 20
212.0
 30
0.0
 11
2.00000000000001
 21
212.0
 31
0.0
  0
LINE
  5
BE3A
330
BE25
100
AcDbEntity
  8
0
100
AcDbLine
 10
0.0
 20
54.99999999999996
 30
0.0
 11
0.0
 21
212.0
 31
0.0
  0
LINE
  5
BE3B
330
BE25
100
AcDbEntity
  8
0
100
AcDbLine
 10
2.000000000000001
 20
212.0
 30
0.0
 11
4.000000000000003
 21
212.0
 31
0.0
  0
CIRCLE
  5
BE3C
330
BE25
100
AcDbEntity
  8
0
100
AcDbCircle
 10
38.5
 20
46.99999999999999
 30
0.0
 40
2.5
  0
CIRCLE
  5
BE3D
330
BE25
100
AcDbEntity
  8
0
100
AcDbCircle
 10
38.5
 20
67.0
 30
0.0
 40
2.5
  0
CIRCLE
  5
BE3E
330
BE25
100
AcDbEntity
  8
0
100
AcDbCircle
 10
38.5
 20
87.0
 30
0.0
 40
2.5
  0
CIRCLE
  5
BE3F
330
BE25
100
AcDbEntity
  8
0
100
AcDbCircle
 10
38.5
 20
107.0
 30
0.0
 40
2.5
  0
CIRCLE
  5
BE40
330
BE25
100
AcDbEntity
  8
0
100
AcDbCircle
 10
38.5
 20
127.0
 30
0.0
 40
2.5
  0
CIRCLE
  5
BE41
330
BE25
100
AcDbEntity
  8
0
100
AcDbCircle
 10
38.5
 20
147.0
 30
0.0
 40
2.5
  0
CIRCLE
  5
BE42
330
BE25
100
AcDbEntity
  8
0
100
AcDbCircle
 10
38.5
 20
167.0
 30
0.0
 40
2.5
  0
CIRCLE
  5
BE43
330
BE25
100
AcDbEntity
  8
0
100
AcDbCircle
 10
38.5
 20
187.0
 30
0.0
 40
2.5
  0
CIRCLE
  5
BE44
330
BE25
100
AcDbEntity
  8
0
100
AcDbCircle
 10
38.5
 20
207.0
 30
0.0
 40
2.5
  0
SPLINE
  5
BE45
330
BE25
100
AcDbEntity
  8
0
100
AcDbSpline
210
0.0
220
0.0
230
1.0
 70
     8
 71
     3
 72
     8
 73
     4
 74
     0
 42
0.000000001
 43
0.0000000001
 40
0.0
 40
0.0
 40
0.0
 40
0.0
 40
0.0024853813885595
 40
0.0024853813885595
 40
0.0024853813885595
 40
0.0024853813885595
 10
1.999532998620585
 20
24.99999817662251
 30
0.0
 10
1.999504402152858
 20
25.00798517503984
 30
0.0
 10
1.999463057037443
 20
25.01585835846084
 30
0.0
 10
1.999410003310119
 20
25.0233760368909
 30
0.0
  0
ENDBLK
  5
BE27
330
BE25
100
AcDbEntity
  8
0
100
AcDbBlockEnd
  0
BLOCK
  5
BE47
330
BE46
100
AcDbEntity
  8
0
100
AcDbBlockBegin
  2
SAE500_76_2-Right
 70
     0
 10
0.0
 20
0.0
 30
0.0
  3
SAE500_76_2-Right
  1

  0
SPLINE
  5
BE49
330
BE46
100
AcDbEntity
  8
0
100
AcDbSpline
210
0.0
220
0.0
230
1.0
 70
     8
 71
     3
 72
    11
 73
     7
 74
     0
 42
0.000000001
 43
0.0000000001
 40
0.0
 40
0.0
 40
0.0
 40
0.0
 40
0.3318338501106073
 40
0.3318338501106073
 40
0.3318338501106073
 40
1.0
 40
1.0
 40
1.0
 40
1.0
 10
-2.000000000000007
 20
27.37499999999994
 30
0.0
 10
-2.000040447362342
 20
27.14541377476168
 30
0.0
 10
-1.996205994622183
 20
26.94965395307146
 30
0.0
 10
-1.998524212983986
 20
26.75325908154503
 30
0.0
 10
-2.003192076244144
 20
26.3578069445129
 30
0.0
 10
-2.000338487582169
 20
25.91334279752727
 30
0.0
 10
-1.999999999986074
 20
25.00000000259947
 30
0.0
  0
SPLINE
  5
BE4A
330
BE46
100
AcDbEntity
  8
0
100
AcDbSpline
210
0.0
220
0.0
230
1.0
 70
     8
 71
     3
 72
    14
 73
    10
 74
     0
 42
0.000000001
 43
0.0000000001
 40
-0.4382398763145873
 40
-0.4382398763145873
 40
-0.4382398763145873
 40
-0.4382398763145873
 40
-0.3797498890780363
 40
-0.3797498890780363
 40
-0.3797498890780363
 40
-0.0799923328228103
 40
-0.0799923328228103
 40
-0.0799923328228103
 40
0.0
 40
0.0
 40
0.0
 40
0.0
 10
-0.8175995219420901
 20
26.70134698001086
 30
0.0
 10
-0.7603845044503695
 20
26.71534982610849
 30
0.0
 10
-0.7040581676188858
 20
26.7285371240537
 30
0.0
 10
-0.6494211719807921
 20
26.74212695790912
 30
0.0
 10
-0.3694099586535355
 20
26.81177401339474
 30
0.0
 10
-0.1286161190765532
 20
26.89183881156445
 30
0.0
 10
-0.0375464459013494
 20
27.13706507632132
 30
0.0
 10
-0.0132438872012351
 20
27.20250536490782
 30
0.0
 10
-0.0000044906778019
 20
27.28210893939959
 30
0.0
 10
-0.0000000000623253
 20
27.37500000002209
 30
0.0
  0
LINE
  5
BE4B
330
BE46
100
AcDbEntity
  8
0
100
AcDbLine
 10
-2.0
 20
27.37499999999994
 30
0.0
 11
0.0
 21
27.37499999999994
 31
0.0
  0
SPLINE
  5
BE4C
330
BE46
100
AcDbEntity
  8
0
100
AcDbSpline
210
0.0
220
0.0
230
1.0
 70
     8
 71
     3
 72
    16
 73
    12
 74
     0
 42
0.000000001
 43
0.0000000001
 40
0.0125106171693356
 40
0.0125106171693356
 40
0.0125106171693356
 40
0.0125106171693356
 40
0.0136782905850581
 40
0.0136782905850581
 40
0.0158182195520213
 40
0.0158182195520213
 40
0.0177939454956174
 40
0.0177939454956174
 40
0.0210729187427787
 40
0.0210729187427787
 40
0.0246295765484257
 40
0.0246295765484257
 40
0.0246295765484257
 40
0.0246295765484257
 10
-1.998676605025154
 20
25.07930167520843
 30
0.0
 10
-1.998676605128119
 20
25.07930167074194
 30
0.0
 10
-1.998686298638757
 20
25.07888248333512
 30
0.0
 10
-1.998734871964857
 20
25.07662848757508
 30
0.0
 10
-1.998791731090934
 20
25.07386837296019
 30
0.0
 10
-1.998915013683773
 20
25.06699263349775
 30
0.0
 10
-1.998981177502325
 20
25.06295328764871
 30
0.0
 10
-1.999151780727459
 20
25.05102418815285
 30
0.0
 10
-1.999254173842198
 20
25.04220718985765
 30
0.0
 10
-1.999424801951712
 20
25.02257251370269
 30
0.0
 10
-1.999492076188871
 20
25.01142781892831
 30
0.0
 10
-1.999532998620585
 20
24.99999817662253
 30
0.0
  0
SPLINE
  5
BE4D
330
BE46
100
AcDbEntity
  8
0
100
AcDbSpline
210
0.0
220
0.0
230
1.0
 70
     8
 71
     3
 72
    32
 73
    28
 74
     0
 42
0.000000001
 43
0.0000000001
 40
0.0
 40
0.0
 40
0.0
 40
0.0
 40
0.0700466601102087
 40
0.0700466601102087
 40
0.1167611580351969
 40
0.1167611580351969
 40
0.1392284345610079
 40
0.1392284345610079
 40
0.1729599082587629
 40
0.1729599082587629
 40
0.2057733659252035
 40
0.2057733659252035
 40
0.2274471617340102
 40
0.2274471617340102
 40
0.2436001569803224
 40
0.2436001569803224
 40
0.2475771335372492
 40
0.2475771335372492
 40
0.2505646345471316
 40
0.2505646345471316
 40
0.252316692298166
 40
0.252316692298166
 40
0.2540795831084619
 40
0.2540795831084619
 40
0.2576324324444279
 40
0.2576324324444279
 40
0.259416926798295
 40
0.259416926798295
 40
0.259416926798295
 40
0.259416926798295
 10
-0.815747523748617
 20
26.70172103283232
 30
0.0
 10
-0.9783105751143923
 20
26.66204433860262
 30
0.0
 10
-1.130918619577747
 20
26.61137838312026
 30
0.0
 10
-1.382104207200925
 20
26.46856364303812
 30
0.0
 10
-1.483722816628584
 20
26.39337816700525
 30
0.0
 10
-1.621047456631421
 20
26.24637597565155
 30
0.0
 10
-1.663839424974363
 20
26.19270236568845
 30
0.0
 10
-1.761545723523871
 20
26.04663593173916
 30
0.0
 10
-1.81265192192712
 20
25.94626902959954
 30
0.0
 10
-1.892020090702262
 20
25.74050499203975
 30
0.0
 10
-1.921972086754137
 20
25.63367064083906
 30
0.0
 10
-1.9585878921466
 20
25.45616722166973
 30
0.0
 10
-1.969881471674221
 20
25.38504620670522
 30
0.0
 10
-1.984875859852578
 20
25.26031606447541
 30
0.0
 10
-1.989780810517773
 20
25.20674873370208
 30
0.0
 10
-1.994215448477621
 20
25.13990280540906
 30
0.0
 10
-1.995010216689237
 20
25.1266848397411
 30
0.0
 10
-1.996258543103771
 20
25.10364094490784
 30
0.0
 10
-1.996750148398285
 20
25.0937322767211
 30
0.0
 10
-1.99744317633872
 20
25.07846926305302
 30
0.0
 10
-1.997681993587951
 20
25.07289043643986
 30
0.0
 10
-1.998107309472669
 20
25.06241602770114
 30
0.0
 10
-1.998295157477638
 20
25.05748524009704
 30
0.0
 10
-1.998765224020741
 20
25.04458233540622
 30
0.0
 10
-1.998967153080615
 20
25.03830168881776
 30
0.0
 10
-1.999237718583795
 20
25.02941640059562
 30
0.0
 10
-1.999325505723157
 20
25.02639922884491
 30
0.0
 10
-1.999409985556597
 20
25.02336095069325
 30
0.0
  0
LINE
  5
BE4E
330
BE46
100
AcDbEntity
  8
0
100
AcDbLine
 10
-1.999999999999998
 20
-2.0
 30
0.0
 11
-86.0
 21
-2.0
 31
0.0
  0
LINE
  5
BE4F
330
BE46
100
AcDbEntity
  8
0
100
AcDbLine
 10
-2.000000000000003
 20
2.000000000000003
 30
0.0
 11
-2.000000000000003
 21
25.0
 31
0.0
  0
LINE
  5
BE50
330
BE46
100
AcDbEntity
  8
0
100
AcDbLine
 10
-2.000000000000003
 20
2.000000000000004
 30
0.0
 11
-1.999999999999998
 21
-1.999999999999999
 31
0.0
  0
LINE
  5
BE51
330
BE46
100
AcDbEntity
  8
0
100
AcDbLine
 10
-86.0
 20
-1.999999999999998
 30
0.0
 11
-86.0
 21
2.0
 31
0.0
  0
LINE
  5
BE52
330
BE46
100
AcDbEntity
  8
0
100
AcDbLine
 10
0.0
 20
54.99999999999996
 30
0.0
 11
0.0
 21
27.37499999999994
 31
0.0
  0
LINE
  5
BE53
330
BE46
100
AcDbEntity
  8
0
100
AcDbLine
 10
-2.000000000000001
 20
54.99999999999996
 30
0.0
 11
0.0
 21
54.99999999999996
 31
0.0
  0
LINE
  5
BE54
330
BE46
100
AcDbEntity
  8
0
100
AcDbLine
 10
-2.0
 20
27.37499999999994
 30
0.0
 11
-2.000000000000001
 21
54.99999999999996
 31
0.0
  0
LINE
  5
BE55
330
BE46
100
AcDbEntity
  8
0
100
AcDbLine
 10
0.0
 20
54.99999999999996
 30
0.0
 11
0.0
 21
212.0
 31
0.0
  0
CIRCLE
  5
BE56
330
BE46
100
AcDbEntity
  8
0
100
AcDbCircle
 10
-38.50000000000001
 20
197.0
 30
0.0
 40
2.5
  0
LINE
  5
BE57
330
BE46
100
AcDbEntity
  8
0
100
AcDbLine
 10
-46.00000000000002
 20
54.99999999999996
 30
0.0
 11
-86.00000000000003
 21
25.0
 31
0.0
  0
LINE
  5
BE58
330
BE46
100
AcDbEntity
  8
0
100
AcDbLine
 10
-46.0
 20
212.0
 30
0.0
 11
-46.00000000000002
 21
54.99999999999996
 31
0.0
  0
LINE
  5
BE59
330
BE46
100
AcDbEntity
  8
0
100
AcDbLine
 10
-86.00000000000003
 20
25.0
 30
0.0
 11
-86.0
 21
2.000000000000001
 31
0.0
  0
LINE
  5
BE5A
330
BE46
100
AcDbEntity
  8
0
100
AcDbLine
 10
-4.000000000000003
 20
212.0
 30
0.0
 11
-46.0
 21
212.0
 31
0.0
  0
LINE
  5
BE5B
330
BE46
100
AcDbEntity
  8
0
100
AcDbLine
 10
-2.000000000000001
 20
212.0
 30
0.0
 11
-4.000000000000003
 21
212.0
 31
0.0
  0
LINE
  5
BE5C
330
BE46
100
AcDbEntity
  8
0
100
AcDbLine
 10
0.0
 20
212.0
 30
0.0
 11
-2.00000000000001
 21
212.0
 31
0.0
  0
LINE
  5
BE5D
330
BE46
100
AcDbEntity
  8
0
100
AcDbLine
 10
-2.000000000000001
 20
54.99999999999996
 30
0.0
 11
-2.00000000000001
 21
212.0
 31
0.0
  0
CIRCLE
  5
BE5E
330
BE46
100
AcDbEntity
  8
0
100
AcDbCircle
 10
-38.50000000000001
 20
36.99999999999999
 30
0.0
 40
2.5
  0
CIRCLE
  5
BE5F
330
BE46
100
AcDbEntity
  8
0
100
AcDbCircle
 10
-38.50000000000001
 20
56.99999999999999
 30
0.0
 40
2.5
  0
CIRCLE
  5
BE60
330
BE46
100
AcDbEntity
  8
0
100
AcDbCircle
 10
-38.50000000000001
 20
77.0
 30
0.0
 40
2.5
  0
CIRCLE
  5
BE61
330
BE46
100
AcDbEntity
  8
0
100
AcDbCircle
 10
-38.50000000000001
 20
97.0
 30
0.0
 40
2.5
  0
CIRCLE
  5
BE62
330
BE46
100
AcDbEntity
  8
0
100
AcDbCircle
 10
-38.50000000000001
 20
117.0
 30
0.0
 40
2.5
  0
CIRCLE
  5
BE63
330
BE46
100
AcDbEntity
  8
0
100
AcDbCircle
 10
-38.50000000000001
 20
137.0
 30
0.0
 40
2.5
  0
CIRCLE
  5
BE64
330
BE46
100
AcDbEntity
  8
0
100
AcDbCircle
 10
-38.50000000000001
 20
157.0
 30
0.0
 40
2.5
  0
CIRCLE
  5
BE65
330
BE46
100
AcDbEntity
  8
0
100
AcDbCircle
 10
-38.50000000000001
 20
177.0
 30
0.0
 40
2.5
  0
SPLINE
  5
BE66
330
BE46
100
AcDbEntity
  8
0
100
AcDbSpline
210
0.0
220
0.0
230
1.0
 70
     8
 71
     3
 72
     8
 73
     4
 74
     0
 42
0.000000001
 43
0.0000000001
 40
0.0221398992279233
 40
0.0221398992279233
 40
0.0221398992279233
 40
0.0221398992279233
 40
0.0246295765484257
 40
0.0246295765484257
 40
0.0246295765484257
 40
0.0246295765484257
 10
-1.999409985556597
 20
25.02336095069324
 30
0.0
 10
-1.999462794268769
 20
25.01586015800964
 30
0.0
 10
-1.999504352724436
 20
25.00799898040662
 30
0.0
 10
-1.999532998620585
 20
24.99999817662253
 30
0.0
  0
ENDBLK
  5
BE48
330
BE46
100
AcDbEntity
  8
0
100
AcDbBlockEnd
  0
BLOCK
  5
BE68
330
BE67
100
AcDbEntity
  8
0
100
AcDbBlockBegin
  2
SAE500_76_2-Top
 70
     0
 10
0.0
 20
0.0
 30
0.0
  3
SAE500_76_2-Top
  1

  0
LINE
  5
BE6A
330
BE67
100
AcDbEntity
  8
0
100
AcDbLine
 10
38.0
 20
-2.0
 30
0.0
 11
38.0
 21
-2.065911061915207
 31
0.0
  0
SPLINE
  5
BE6B
330
BE67
100
AcDbEntity
  8
0
100
AcDbSpline
210
0.0
220
0.0
230
1.0
 70
     8
 71
     3
 72
    11
 73
     7
 74
     0
 42
0.000000001
 43
0.0000000001
 40
-1.0
 40
-1.0
 40
-1.0
 40
-1.0
 40
-0.801347882695062
 40
-0.801347882695062
 40
-0.801347882695062
 40
-0.6555820160253393
 40
-0.6555820160253393
 40
-0.6555820160253393
 40
-0.6555820160253393
 10
38.00000000000002
 20
-2.000000000000023
 30
0.0
 10
37.99999961282605
 20
-1.999251614701916
 30
0.0
 10
38.12461756934442
 20
-1.921359120913115
 30
0.0
 10
38.33198188072024
 20
-1.794364022341526
 30
0.0
 10
38.48414053361628
 20
-1.701178251873856
 30
0.0
 10
38.68327809245318
 20
-1.582640866983211
 30
0.0
 10
38.91485854008737
 20
-1.451144722402831
 30
0.0
  0
SPLINE
  5
BE6C
330
BE67
100
AcDbEntity
  8
0
100
AcDbSpline
210
0.0
220
0.0
230
1.0
 70
     8
 71
     3
 72
    24
 73
    20
 74
     0
 42
0.000000001
 43
0.0000000001
 40
0.0
 40
0.0
 40
0.0
 40
0.0
 40
0.006534279683617
 40
0.006534279683617
 40
0.0152718551394069
 40
0.0152718551394069
 40
0.0320193297612667
 40
0.0320193297612667
 40
0.0457471446402732
 40
0.0457471446402732
 40
0.0591040363560657
 40
0.0591040363560657
 40
0.0688368645482743
 40
0.0688368645482743
 40
0.076857012733018
 40
0.076857012733018
 40
0.0838577259028436
 40
0.0838577259028436
 40
0.0871567542477921
 40
0.0871567542477921
 40
0.0871567542477921
 40
0.0871567542477921
 10
42.61409315267566
 20
-2.000025836281336
 30
0.0
 10
42.59837100355546
 20
-2.000026520323509
 30
0.0
 10
42.58019964662858
 20
-2.000031937881452
 30
0.0
 10
42.53617803552152
 20
-2.000054177804662
 30
0.0
 10
42.50933573857404
 20
-2.000074414145302
 30
0.0
 10
42.4298231261267
 20
-2.000175093407978
 30
0.0
 10
42.37556578221712
 20
-2.000309870003036
 30
0.0
 10
42.27971681047934
 20
-2.00061103512163
 30
0.0
 10
42.2377535623574
 20
-2.000747421720105
 30
0.0
 10
42.15858816622861
 20
-2.001019551295066
 30
0.0
 10
42.12101720925118
 20
-2.001153551973112
 30
0.0
 10
42.05098356193334
 20
-2.001727977791174
 30
0.0
 10
42.02006503390335
 20
-2.002077085245826
 30
0.0
 10
41.9625078991027
 20
-2.003117673779823
 30
0.0
 10
41.93586274831972
 20
-2.003743962023624
 30
0.0
 10
41.88588447265978
 20
-2.005368108451203
 30
0.0
 10
41.86233140853157
 20
-2.006319492649364
 30
0.0
 10
41.82845648967124
 20
-2.008056552780493
 30
0.0
 10
41.81764841369285
 20
-2.008667481585945
 30
0.0
 10
41.80707994042522
 20
-2.009326282231484
 30
0.0
  0
SPLINE
  5
BE6D
330
BE67
100
AcDbEntity
  8
0
100
AcDbSpline
210
0.0
220
0.0
230
1.0
 70
     8
 71
     3
 72
    16
 73
    12
 74
     0
 42
0.000000001
 43
0.0000000001
 40
0.01878680306986
 40
0.01878680306986
 40
0.01878680306986
 40
0.01878680306986
 40
0.0203059687488324
 40
0.0203059687488324
 40
0.0217562042365771
 40
0.0217562042365771
 40
0.023950679709569
 40
0.023950679709569
 40
0.0261293516744172
 40
0.0261293516744172
 40
0.0284393220896341
 40
0.0284393220896341
 40
0.0284393220896341
 40
0.0284393220896341
 10
40.00070064719632
 20
-3.947041037722562
 30
0.0
 10
40.00070064720559
 20
-3.947041037183862
 30
0.0
 10
40.00069421100064
 20
-3.947409667040135
 30
0.0
 10
40.00066570298826
 20
-3.949125232757907
 30
0.0
 10
40.00064405892081
 20
-3.950444794358143
 30
0.0
 10
40.00057365377226
 20
-3.955034671818938
 30
0.0
 10
40.00051593045905
 20
-3.959035477173199
 30
0.0
 10
40.00040066307161
 20
-3.968514082011109
 30
0.0
 10
40.00034271583309
 20
-3.974033732696013
 30
0.0
 10
40.00024092738191
 20
-3.986198338362878
 30
0.0
 10
40.00019724267535
 20
-3.992974770332177
 30
0.0
 10
40.0001648438237
 20
-4.0000007240273
 30
0.0
  0
SPLINE
  5
BE6E
330
BE67
100
AcDbEntity
  8
0
100
AcDbSpline
210
0.0
220
0.0
230
1.0
 70
     8
 71
     3
 72
    10
 73
     6
 74
     0
 42
0.000000001
 43
0.0000000001
 40
0.0547731820510319
 40
0.0547731820510319
 40
0.0547731820510319
 40
0.0547731820510319
 40
0.0565388078888677
 40
0.0565388078888677
 40
0.058312610982221
 40
0.058312610982221
 40
0.058312610982221
 40
0.058312610982221
 10
40.00087879134206
 20
-3.940717683255428
 30
0.0
 10
40.00079652827211
 20
-3.944698223665943
 30
0.0
 10
40.00072685542612
 20
-3.948294744494391
 30
0.0
 10
40.00058787913021
 20
-3.955903186865015
 30
0.0
 10
40.00052167062949
 20
-3.959775152887773
 30
0.0
 10
40.00045967737722
 20
-3.963661429926455
 30
0.0
  0
SPLINE
  5
BE6F
330
BE67
100
AcDbEntity
  8
0
100
AcDbSpline
210
0.0
220
0.0
230
1.0
 70
     8
 71
     3
 72
    12
 73
     8
 74
     0
 42
0.000000001
 43
0.0000000001
 40
0.0
 40
0.0
 40
0.0
 40
0.0
 40
0.0070611360440061
 40
0.0070611360440061
 40
0.0092296708831315
 40
0.0092296708831315
 40
0.0098238106211782
 40
0.0098238106211782
 40
0.0098238106211782
 40
0.0098238106211782
 10
37.99994586944045
 20
-3.999999132441922
 30
0.0
 10
37.99998616223879
 20
-3.987716146278254
 30
0.0
 10
38.00004217883631
 20
-3.975084965661456
 30
0.0
 10
38.00008822439682
 20
-3.966109954757016
 30
0.0
 10
38.00009627117837
 20
-3.964600949623262
 30
0.0
 10
38.00009988645624
 20
-3.963908407874438
 30
0.0
 10
38.00010028603283
 20
-3.963830760762863
 30
0.0
 10
38.00010028603287
 20
-3.963830760755615
 30
0.0
  0
SPLINE
  5
BE70
330
BE67
100
AcDbEntity
  8
0
100
AcDbSpline
210
0.0
220
0.0
230
1.0
 70
     8
 71
     3
 72
     8
 73
     4
 74
     0
 42
0.000000001
 43
0.0000000001
 40
0.0041962245513251
 40
0.0041962245513251
 40
0.0041962245513251
 40
0.0041962245513251
 40
0.0079378629638203
 40
0.0079378629638203
 40
0.0079378629638203
 40
0.0079378629638203
 10
37.99996854623992
 20
-3.993406621425198
 30
0.0
 10
37.9999656539906
 20
-3.992149441249694
 30
0.0
 10
37.99996423139242
 20
-3.991506758655842
 30
0.0
 10
37.99996423139242
 20
-3.991506758655675
 30
0.0
  0
SPLINE
  5
BE71
330
BE67
100
AcDbEntity
  8
0
100
AcDbSpline
210
0.0
220
0.0
230
1.0
 70
     8
 71
     3
 72
    32
 73
    28
 74
     0
 42
0.000000001
 43
0.0000000001
 40
0.0094463317792976
 40
0.0094463317792976
 40
0.0094463317792976
 40
0.0094463317792976
 40
0.0104747888001506
 40
0.0104747888001506
 40
0.0117960922915574
 40
0.0117960922915574
 40
0.0124027160091157
 40
0.0124027160091157
 40
0.0136168081264607
 40
0.0136168081264607
 40
0.0232229717351232
 40
0.0232229717351232
 40
0.0380150591413587
 40
0.0380150591413587
 40
0.0823955430981922
 40
0.0823955430981922
 40
0.1535273529048451
 40
0.1535273529048451
 40
0.1886776660198369
 40
0.1886776660198369
 40
0.2066249007628824
 40
0.2066249007628824
 40
0.2158911193175561
 40
0.2158911193175561
 40
0.2209195964143125
 40
0.2209195964143125
 40
0.2262094698153093
 40
0.2262094698153093
 40
0.2262094698153093
 40
0.2262094698153093
 10
37.99995419825047
 20
-3.997500624224226
 30
0.0
 10
37.99994937255515
 20
-3.997220849985482
 30
0.0
 10
37.99994336382007
 20
-3.996872457491787
 30
0.0
 10
37.99992596536156
 20
-3.995863542879449
 30
0.0
 10
37.99991263195848
 20
-3.995092087658996
 30
0.0
 10
37.99985990485959
 20
-3.992023044363643
 30
0.0
 10
37.99983775421437
 20
-3.990732008769468
 30
0.0
 10
37.9997621454469
 20
-3.986311212914864
 30
0.0
 10
37.99970106600373
 20
-3.982721599743411
 30
0.0
 10
37.99916292453708
 20
-3.950859176750805
 30
0.0
 10
37.9986772330657
 20
-3.920486361375327
 30
0.0
 10
37.99755647441289
 20
-3.845470674139622
 30
0.0
 10
37.99695077328014
 20
-3.800128230241048
 30
0.0
 10
37.99484298797739
 20
-3.61991011967673
 30
0.0
 10
37.99398375682792
 20
-3.487131330464097
 30
0.0
 10
37.99301444535705
 20
-3.136934537696012
 30
0.0
 10
37.99354995153202
 20
-2.914007406676413
 30
0.0
 10
37.99554040925786
 20
-2.579663599549076
 30
0.0
 10
37.99637623367802
 20
-2.470005452901285
 30
0.0
 10
37.99786060920426
 20
-2.308641153964458
 30
0.0
 10
37.99847702569002
 20
-2.253649240505873
 30
0.0
 10
37.99920661990837
 20
-2.174103581813054
 30
0.0
 10
37.99939024740458
 20
-2.147925527822286
 30
0.0
 10
37.99953097014473
 20
-2.112815316401807
 30
0.0
 10
37.99955634532231
 20
-2.101317548297978
 30
0.0
 10
37.99957701254626
 20
-2.080769209005516
 30
0.0
 10
37.99957073980771
 20
-2.071652194276397
 30
0.0
 10
37.9995615030776
 20
-2.065911061915207
 30
0.0
  0
LINE
  5
BE72
330
BE67
100
AcDbEntity
  8
0
100
AcDbLine
 10
-38.0
 20
-2.0
 30
0.0
 11
-38.0
 21
-2.065911061914739
 31
0.0
  0
SPLINE
  5
BE73
330
BE67
100
AcDbEntity
  8
0
100
AcDbSpline
210
0.0
220
0.0
230
1.0
 70
     8
 71
     3
 72
    11
 73
     7
 74
     0
 42
0.000000001
 43
0.0000000001
 40
-1.0
 40
-1.0
 40
-1.0
 40
-1.0
 40
-0.801347882695062
 40
-0.801347882695062
 40
-0.801347882695062
 40
-0.6555820160253393
 40
-0.6555820160253393
 40
-0.6555820160253393
 40
-0.6555820160253393
 10
-38.00000000000002
 20
-2.000000000000023
 30
0.0
 10
-37.99999961282605
 20
-1.999251614701916
 30
0.0
 10
-38.12461756934442
 20
-1.921359120913115
 30
0.0
 10
-38.33198188072024
 20
-1.794364022341526
 30
0.0
 10
-38.48414053361628
 20
-1.701178251873856
 30
0.0
 10
-38.68327809245318
 20
-1.582640866983211
 30
0.0
 10
-38.91485854008737
 20
-1.451144722402831
 30
0.0
  0
SPLINE
  5
BE74
330
BE67
100
AcDbEntity
  8
0
100
AcDbSpline
210
0.0
220
0.0
230
1.0
 70
     8
 71
     3
 72
    36
 73
    32
 74
     0
 42
0.000000001
 43
0.0000000001
 40
0.0
 40
0.0
 40
0.0
 40
0.0
 40
0.004215566719734
 40
0.004215566719734
 40
0.0094084671704019
 40
0.0094084671704019
 40
0.0174405053217653
 40
0.0174405053217653
 40
0.0285098452351855
 40
0.0285098452351855
 40
0.0616591756441165
 40
0.0616591756441165
 40
0.1610790168122344
 40
0.1610790168122344
 40
0.1905105137857563
 40
0.1905105137857563
 40
0.2050897837531343
 40
0.2050897837531343
 40
0.2122755257514005
 40
0.2122755257514005
 40
0.2132698632937322
 40
0.2132698632937322
 40
0.213920664430931
 40
0.213920664430931
 40
0.2143764770245712
 40
0.2143764770245712
 40
0.2149697599573657
 40
0.2149697599573657
 40
0.2157371052122015
 40
0.2157371052122015
 40
0.2168862874102781
 40
0.2168862874102781
 40
0.2168862874102781
 40
0.2168862874102781
 10
-37.9995615030776
 20
-2.06591106191474
 30
0.0
 10
-37.99956886394413
 20
-2.070486242582053
 30
0.0
 10
-37.99957445762416
 20
-2.077223516950209
 30
0.0
 10
-37.99956666357667
 20
-2.094683320486526
 30
0.0
 10
-37.99954861083842
 20
-2.106114872919274
 30
0.0
 10
-37.99944065534557
 20
-2.137666254101526
 30
0.0
 10
-37.99931047691722
 20
-2.159557995770095
 30
0.0
 10
-37.99886084674071
 20
-2.214095775247732
 30
0.0
 10
-37.99849767849917
 20
-2.247637889001599
 30
0.0
 10
-37.9971371900635
 20
-2.381161026811671
 30
0.0
 10
-37.99628744009323
 20
-2.48264986086214
 30
0.0
 10
-37.99337065381169
 20
-2.897253193920841
 30
0.0
 10
-37.99252094362798
 20
-3.209548367639609
 30
0.0
 10
-37.99480164036272
 20
-3.598013546043197
 30
0.0
 10
-37.99558234666229
 20
-3.686668523181064
 30
0.0
 10
-37.99722324870778
 20
-3.820953424759878
 30
0.0
 10
-37.99784347840426
 20
-3.865726410969654
 30
0.0
 10
-37.99887350372135
 20
-3.932669399965836
 30
0.0
 10
-37.99923621497622
 20
-3.955123609878667
 30
0.0
 10
-37.99964633124144
 20
-3.979486299738887
 30
0.0
 10
-37.99969609191471
 20
-3.982425093786296
 30
0.0
 10
-37.99977371939243
 20
-3.986986775510974
 30
0.0
 10
-37.99980343693459
 20
-3.988726671631647
 30
0.0
 10
-37.99984665166303
 20
-3.991250474560336
 30
0.0
 10
-37.99986235539126
 20
-3.992165601577288
 30
0.0
 10
-37.99989153738549
 20
-3.993864345823328
 30
0.0
 10
-37.99990327043537
 20
-3.994545909875982
 30
0.0
 10
-37.99992345551733
 20
-3.995718007491383
 30
0.0
 10
-37.99993049964611
 20
-3.996126485639526
 30
0.0
 10
-37.99994451222445
 20
-3.996939043583575
 30
0.0
 10
-37.99994993149517
 20
-3.997253142972623
 30
0.0
 10
-37.99995419882461
 20
-3.997500454744653
 30
0.0
  0
SPLINE
  5
BE75
330
BE67
100
AcDbEntity
  8
0
100
AcDbSpline
210
0.0
220
0.0
230
1.0
 70
     8
 71
     3
 72
    14
 73
    10
 74
     0
 42
0.000000001
 43
0.0000000001
 40
0.0084603176811006
 40
0.0084603176811006
 40
0.0084603176811006
 40
0.0084603176811006
 40
0.0097981349901698
 40
0.0097981349901698
 40
0.0122911077046948
 40
0.0122911077046948
 40
0.0160465653471294
 40
0.0160465653471294
 40
0.0182942021172218
 40
0.0182942021172218
 40
0.0182942021172218
 40
0.0182942021172218
 10
-38.00010028603289
 20
-3.963830760757645
 30
0.0
 10
-38.0001002860347
 20
-3.963830760405202
 30
0.0
 10
-38.00009820689737
 20
-3.964230533622612
 30
0.0
 10
-38.00008741940082
 20
-3.966282525529616
 30
0.0
 10
-38.00007450111976
 20
-3.968728846638063
 30
0.0
 10
-38.00003720937366
 20
-3.976323266661534
 30
0.0
 10
-38.00001078745521
 20
-3.982218908743817
 30
0.0
 10
-37.99997236147208
 20
-3.992220503086967
 30
0.0
 10
-37.99995869507849
 20
-3.996089323712041
 30
0.0
 10
-37.99994586944045
 20
-3.999999132441921
 30
0.0
  0
SPLINE
  5
BE76
330
BE67
100
AcDbEntity
  8
0
100
AcDbSpline
210
0.0
220
0.0
230
1.0
 70
     8
 71
     3
 72
     8
 73
     4
 74
     0
 42
0.000000001
 43
0.0000000001
 40
0.0104941608732671
 40
0.0104941608732671
 40
0.0104941608732671
 40
0.0104941608732671
 40
0.0142447236353318
 40
0.0142447236353318
 40
0.0142447236353318
 40
0.0142447236353318
 10
-37.99996423139241
 20
-3.991506758656604
 30
0.0
 10
-37.99996423140276
 20
-3.991506762471805
 30
0.0
 10
-37.99996564458427
 20
-3.992145427482746
 30
0.0
 10
-37.99996853210114
 20
-3.993400550592841
 30
0.0
  0
SPLINE
  5
BE77
330
BE67
100
AcDbEntity
  8
0
100
AcDbSpline
210
0.0
220
0.0
230
1.0
 70
     8
 71
     3
 72
     8
 73
     4
 74
     0
 42
0.000000001
 43
0.0000000001
 40
0.0070284135859405
 40
0.0070284135859405
 40
0.0070284135859405
 40
0.0070284135859405
 40
0.0105702786417462
 40
0.0105702786417462
 40
0.0105702786417462
 40
0.0105702786417462
 10
-40.00045967737699
 20
-3.963661429940233
 30
0.0
 10
-40.00058359154164
 20
-3.955893410755156
 30
0.0
 10
-40.00071382430154
 20
-3.948700098310771
 30
0.0
 10
-40.00087879135121
 20
-3.940717682812433
 30
0.0
  0
SPLINE
  5
BE78
330
BE67
100
AcDbEntity
  8
0
100
AcDbSpline
210
0.0
220
0.0
230
1.0
 70
     8
 71
     3
 72
    14
 73
    10
 74
     0
 42
0.000000001
 43
0.0000000001
 40
0.0
 40
0.0
 40
0.0
 40
0.0
 40
0.0041257502260536
 40
0.0041257502260536
 40
0.005765499274687
 40
0.005765499274687
 40
0.0081215664661377
 40
0.0081215664661377
 40
0.0096306095379622
 40
0.0096306095379622
 40
0.0096306095379622
 40
0.0096306095379622
 10
-40.0001648438237
 20
-4.000000724027299
 30
0.0
 10
-40.00022271017934
 20
-3.987451935586043
 30
0.0
 10
-40.00032211634867
 20
-3.975479440819247
 30
0.0
 10
-40.00047396842048
 20
-3.962362387881545
 30
0.0
 10
-40.00051815962414
 20
-3.959012016931113
 30
0.0
 10
-40.00061302983907
 20
-3.952322377778142
 30
0.0
 10
-40.00065744144367
 20
-3.949621911724726
 30
0.0
 10
-40.00069428984381
 20
-3.947405239472321
 30
0.0
 10
-40.00070064704894
 20
-3.947041046284426
 30
0.0
 10
-40.0007006471964
 20
-3.947041037718001
 30
0.0
  0
SPLINE
  5
BE79
330
BE67
100
AcDbEntity
  8
0
100
AcDbSpline
210
0.0
220
0.0
230
1.0
 70
     8
 71
     3
 72
    22
 73
    18
 74
     0
 42
0.000000001
 43
0.0000000001
 40
0.0521012219582406
 40
0.0521012219582406
 40
0.0521012219582406
 40
0.0521012219582406
 40
0.0521634737911358
 40
0.0521634737911358
 40
0.058354465669822
 40
0.058354465669822
 40
0.0673174094312094
 40
0.0673174094312094
 40
0.0799077487490701
 40
0.0799077487490701
 40
0.0955108005838376
 40
0.0955108005838376
 40
0.113629982039702
 40
0.113629982039702
 40
0.126214208340935
 40
0.126214208340935
 40
0.1391761048841207
 40
0.1391761048841207
 40
0.1391761048841207
 40
0.1391761048841207
 10
-41.8070799404301
 20
-2.00932628223118
 30
0.0
 10
-41.80727884244859
 20
-2.009313883394104
 30
0.0
 10
-41.80747780174925
 20
-2.009301502979392
 30
0.0
 10
-41.82746895401864
 20
-2.008059742078877
 30
0.0
 10
-41.8480973885335
 20
-2.007001187341482
 30
0.0
 10
-41.89847331848497
 20
-2.004855710412405
 30
0.0
 10
-41.92865256334119
 20
-2.003940695152453
 30
0.0
 10
-41.99947788873973
 20
-2.002322192064195
 30
0.0
 10
-42.04017284334433
 20
-2.001822881330761
 30
0.0
 10
-42.12585079224055
 20
-2.001106549023945
 30
0.0
 10
-42.16935175771336
 20
-2.000978552365826
 30
0.0
 10
-42.26892939016978
 20
-2.000647296408748
 30
0.0
 10
-42.32628028790173
 20
-2.000447583796904
 30
0.0
 10
-42.42406362756096
 20
-2.000194269560271
 30
0.0
 10
-42.4643753988051
 20
-2.00012449429766
 30
0.0
 10
-42.5430552867905
 20
-2.000044112444872
 30
0.0
 10
-42.5829054961629
 20
-2.000027193199665
 30
0.0
 10
-42.61409315267592
 20
-2.000025836281336
 30
0.0
  0
LINE
  5
BE7A
330
BE67
100
AcDbEntity
  8
0
100
AcDbLine
 10
-38.00000000000001
 20
-2.0
 30
0.0
 11
-36.00000000000001
 21
-1.999999999999998
 31
0.0
  0
LINE
  5
BE7B
330
BE67
100
AcDbEntity
  8
0
100
AcDbLine
 10
-37.99999999999998
 20
-86.0
 30
0.0
 11
-35.99999999999999
 21
-86.0
 31
0.0
  0
LINE
  5
BE7C
330
BE67
100
AcDbEntity
  8
0
100
AcDbLine
 10
36.00000000000001
 20
-1.999999999999998
 30
0.0
 11
-36.00000000000001
 21
-1.999999999999998
 31
0.0
  0
LINE
  5
BE7D
330
BE67
100
AcDbEntity
  8
0
100
AcDbLine
 10
-35.99999999999999
 20
-86.0
 30
0.0
 11
35.99999999999999
 21
-86.0
 31
0.0
  0
CIRCLE
  5
BE7E
330
BE67
100
AcDbEntity
  8
0
100
AcDbCircle
 10
0.0
 20
-47.99999999999998
 30
0.0
 40
2.5
  0
CIRCLE
  5
BE7F
330
BE67
100
AcDbEntity
  8
0
100
AcDbCircle
 10
0.0
 20
-67.99999999999998
 30
0.0
 40
2.5
  0
LINE
  5
BE80
330
BE67
100
AcDbEntity
  8
0
100
AcDbLine
 10
38.00000000000001
 20
-2.0
 30
0.0
 11
36.00000000000001
 21
-1.999999999999998
 31
0.0
  0
LINE
  5
BE81
330
BE67
100
AcDbEntity
  8
0
100
AcDbLine
 10
41.99999999999999
 20
0.0
 30
0.0
 11
79.50000000000001
 21
0.0
 31
0.0
  0
ARC
  5
BE82
330
BE67
100
AcDbEntity
  8
0
100
AcDbCircle
 10
42.0
 20
-4.000000000000003
 30
0.0
 40
3.999999999999999
100
AcDbArc
 50
90.00000000000012
 51
180.0
  0
LINE
  5
BE83
330
BE67
100
AcDbEntity
  8
0
100
AcDbLine
 10
37.99999999999999
 20
-86.00000000000003
 30
0.0
 11
38.0
 21
-46.00000000000002
 31
0.0
  0
LINE
  5
BE84
330
BE67
100
AcDbEntity
  8
0
100
AcDbLine
 10
39.99999999999999
 20
-86.00000000000003
 30
0.0
 11
37.99999999999999
 21
-86.00000000000003
 31
0.0
  0
LINE
  5
BE85
330
BE67
100
AcDbEntity
  8
0
100
AcDbLine
 10
40.0
 20
-46.00000000000002
 30
0.0
 11
39.99999999999999
 21
-86.00000000000003
 31
0.0
  0
LINE
  5
BE86
330
BE67
100
AcDbEntity
  8
0
100
AcDbLine
 10
38.0
 20
-46.0
 30
0.0
 11
40.0
 21
-46.0
 31
0.0
  0
LINE
  5
BE87
330
BE67
100
AcDbEntity
  8
0
100
AcDbLine
 10
40.0
 20
-4.000000000000003
 30
0.0
 11
40.0
 21
-46.0
 31
0.0
  0
LINE
  5
BE88
330
BE67
100
AcDbEntity
  8
0
100
AcDbLine
 10
38.0
 20
-46.0
 30
0.0
 11
38.0
 21
-4.000000000000003
 31
0.0
  0
LINE
  5
BE89
330
BE67
100
AcDbEntity
  8
0
100
AcDbLine
 10
37.99999999999998
 20
-86.0
 30
0.0
 11
35.99999999999999
 21
-86.0
 31
0.0
  0
ARC
  5
BE8A
330
BE67
100
AcDbEntity
  8
0
100
AcDbCircle
 10
42.0
 20
-4.000000000000003
 30
0.0
 40
2.000000000000001
100
AcDbArc
 50
90.00000000000026
 51
180.0
  0
LINE
  5
BE8B
330
BE67
100
AcDbEntity
  8
0
100
AcDbLine
 10
79.50000000000001
 20
0.0
 30
0.0
 11
79.50000000000001
 21
-2.00000000000001
 31
0.0
  0
LINE
  5
BE8C
330
BE67
100
AcDbEntity
  8
0
100
AcDbLine
 10
79.50000000000001
 20
-2.00000000000001
 30
0.0
 11
41.99999999999999
 21
-2.000000000000001
 31
0.0
  0
LINE
  5
BE8D
330
BE67
100
AcDbEntity
  8
0
100
AcDbLine
 10
-79.50000000000001
 20
-2.00000000000001
 30
0.0
 11
-41.99999999999999
 21
-2.000000000000001
 31
0.0
  0
LINE
  5
BE8E
330
BE67
100
AcDbEntity
  8
0
100
AcDbLine
 10
-38.0
 20
-46.0
 30
0.0
 11
-38.0
 21
-4.000000000000003
 31
0.0
  0
LINE
  5
BE8F
330
BE67
100
AcDbEntity
  8
0
100
AcDbLine
 10
-40.0
 20
-4.000000000000003
 30
0.0
 11
-40.0
 21
-46.0
 31
0.0
  0
LINE
  5
BE90
330
BE67
100
AcDbEntity
  8
0
100
AcDbLine
 10
-41.99999999999999
 20
0.0
 30
0.0
 11
-79.50000000000001
 21
0.0
 31
0.0
  0
LINE
  5
BE91
330
BE67
100
AcDbEntity
  8
0
100
AcDbLine
 10
-79.50000000000001
 20
0.0
 30
0.0
 11
-79.50000000000001
 21
-2.00000000000001
 31
0.0
  0
ARC
  5
BE92
330
BE67
100
AcDbEntity
  8
0
100
AcDbCircle
 10
-42.0
 20
-4.000000000000003
 30
0.0
 40
2.000000000000001
100
AcDbArc
 50
0.0
 51
89.99999999999975
  0
ARC
  5
BE93
330
BE67
100
AcDbEntity
  8
0
100
AcDbCircle
 10
-42.0
 20
-4.000000000000003
 30
0.0
 40
3.999999999999999
100
AcDbArc
 50
0.0
 51
89.99999999999992
  0
LINE
  5
BE94
330
BE67
100
AcDbEntity
  8
0
100
AcDbLine
 10
-38.0
 20
-46.00000000000002
 30
0.0
 11
-37.99999999999999
 21
-86.00000000000003
 31
0.0
  0
LINE
  5
BE95
330
BE67
100
AcDbEntity
  8
0
100
AcDbLine
 10
-39.99999999999999
 20
-86.00000000000003
 30
0.0
 11
-40.0
 21
-46.00000000000002
 31
0.0
  0
LINE
  5
BE96
330
BE67
100
AcDbEntity
  8
0
100
AcDbLine
 10
-37.99999999999999
 20
-86.00000000000003
 30
0.0
 11
-39.99999999999999
 21
-86.00000000000003
 31
0.0
  0
LINE
  5
BE97
330
BE67
100
AcDbEntity
  8
0
100
AcDbLine
 10
-40.0
 20
-46.0
 30
0.0
 11
-38.0
 21
-46.0
 31
0.0
  0
ENDBLK
  5
BE69
330
BE67
100
AcDbEntity
  8
0
100
AcDbBlockEnd
  0
BLOCK
  5
BE99
330
BE98
100
AcDbEntity
  8
0
100
AcDbBlockBegin
  2
SAE500_76_2-Bottom
 70
     0
 10
0.0
 20
0.0
 30
0.0
  3
SAE500_76_2-Bottom
  1

  0
SPLINE
  5
BE9B
330
BE98
100
AcDbEntity
  8
0
100
AcDbSpline
210
0.0
220
0.0
230
1.0
 70
     8
 71
     3
 72
    11
 73
     7
 74
     0
 42
0.000000001
 43
0.0000000001
 40
0.0
 40
0.0
 40
0.0
 40
0.0
 40
0.3318338501106073
 40
0.3318338501106073
 40
0.3318338501106073
 40
1.0
 40
1.0
 40
1.0
 40
1.0
 10
42.66666666666665
 20
2.000000000000007
 30
0.0
 10
42.35375429161009
 20
2.000040447362342
 30
0.0
 10
41.94839075374619
 20
1.996205994622183
 30
0.0
 10
41.55646205791119
 20
1.998524212983986
 30
0.0
 10
40.76729155092416
 20
2.003192076244144
 30
0.0
 10
39.99999399906855
 20
2.000338487582169
 30
0.0
 10
39.99999999916169
 20
1.999999999986074
 30
0.0
  0
LINE
  5
BE9C
330
BE98
100
AcDbEntity
  8
0
100
AcDbLine
 10
42.0
 20
1.999999999999999
 30
0.0
 11
42.04021603154794
 21
1.999999999999999
 31
0.0
  0
LINE
  5
BE9D
330
BE98
100
AcDbEntity
  8
0
100
AcDbLine
 10
42.61409315267589
 20
1.999999999999999
 30
0.0
 11
42.66666666666669
 21
1.999999999999999
 31
0.0
  0
ARC
  5
BE9E
330
BE98
100
AcDbEntity
  8
0
100
AcDbCircle
 10
42.0
 20
4.000000000000003
 30
0.0
 40
2.000000000000001
100
AcDbArc
 50
180.9160749316883
 51
264.2434779196532
  0
ARC
  5
BE9F
330
BE98
100
AcDbEntity
  8
0
100
AcDbCircle
 10
42.0
 20
4.000000000000003
 30
0.0
 40
2.000000000000001
100
AcDbArc
 50
269.9786535609568
 51
269.9999999999998
  0
ARC
  5
BEA0
330
BE98
100
AcDbEntity
  8
0
100
AcDbCircle
 10
42.0
 20
4.000000000000003
 30
0.0
 40
3.999999999999998
100
AcDbArc
 50
219.5790978429466
 51
270.0
  0
LINE
  5
BEA1
330
BE98
100
AcDbEntity
  8
0
100
AcDbLine
 10
42.6666666666667
 20
0.0
 30
0.0
 11
42.0
 21
0.0
 31
0.0
  0
SPLINE
  5
BEA2
330
BE98
100
AcDbEntity
  8
0
100
AcDbSpline
210
0.0
220
0.0
230
1.0
 70
     8
 71
     3
 72
    17
 73
    13
 74
     0
 42
0.000000001
 43
0.0000000001
 40
-1.0
 40
-1.0
 40
-1.0
 40
-1.0
 40
-0.801347882695062
 40
-0.801347882695062
 40
-0.801347882695062
 40
-0.3797498890780363
 40
-0.3797498890780363
 40
-0.3797498890780363
 40
-0.0799923328228103
 40
-0.0799923328228103
 40
-0.0799923328228103
 40
0.0
 40
0.0
 40
0.0
 40
0.0
 10
38.00000000000002
 20
2.000000000000023
 30
0.0
 10
37.99999961282605
 20
1.999251614701916
 30
0.0
 10
38.12461756934442
 20
1.921359120913115
 30
0.0
 10
38.33198188072024
 20
1.794364022341526
 30
0.0
 10
38.77206970263669
 20
1.524843216405231
 30
0.0
 10
39.60515367032096
 20
1.04324665949753
 30
0.0
 10
40.47953285488692
 20
0.6494211719807921
 30
0.0
 10
41.10121932297771
 20
0.3694099586535355
 30
0.0
 10
41.73501399906515
 20
0.1286161190765532
 30
0.0
 10
42.26599598570381
 20
0.0375464459013494
 30
0.0
 10
42.40769212283789
 20
0.0132438872012351
 30
0.0
 10
42.53971372665396
 20
0.0000044906778019
 30
0.0
 10
42.66666666669729
 20
0.0000000000623253
 30
0.0
  0
LINE
  5
BEA3
330
BE98
100
AcDbEntity
  8
0
100
AcDbLine
 10
42.6666666666667
 20
2.0
 30
0.0
 11
42.6666666666667
 21
0.0
 31
0.0
  0
SPLINE
  5
BEA4
330
BE98
100
AcDbEntity
  8
0
100
AcDbSpline
210
0.0
220
0.0
230
1.0
 70
     8
 71
     3
 72
    30
 73
    26
 74
     0
 42
0.000000001
 43
0.0000000001
 40
0.0394322331402336
 40
0.0394322331402336
 40
0.0394322331402336
 40
0.0394322331402336
 40
0.0413890232635819
 40
0.0413890232635819
 40
0.0431764041467741
 40
0.0431764041467741
 40
0.0452453884300175
 40
0.0452453884300175
 40
0.0480305119685969
 40
0.0480305119685969
 40
0.0521634737910988
 40
0.0521634737910988
 40
0.0583544656697931
 40
0.0583544656697931
 40
0.0673174094311506
 40
0.0673174094311506
 40
0.0799077487489779
 40
0.0799077487489779
 40
0.095510800583743
 40
0.095510800583743
 40
0.1136299820396827
 40
0.1136299820396827
 40
0.1262142083409177
 40
0.1262142083409177
 40
0.1391761048841095
 40
0.1391761048841095
 40
0.1391761048841095
 40
0.1391761048841095
 10
41.72056543330992
 20
2.016376406659937
 30
0.0
 10
41.72056543422146
 20
2.016376406561051
 30
0.0
 10
41.72172618545457
 20
2.016249903835087
 30
0.0
 10
41.72596706374545
 20
2.01581056464456
 30
0.0
 10
41.72887719813447
 20
2.015515126791409
 30
0.0
 10
41.73635669836188
 20
2.014787403863211
 30
0.0
 10
41.74116991118926
 20
2.014335868075916
 30
0.0
 10
41.75340219705911
 20
2.013246639213755
 30
0.0
 10
41.76124544193846
 20
2.012589840997141
 30
0.0
 10
41.78149108398523
 20
2.011015730835527
 30
0.0
 10
41.79446404648846
 20
2.010109859207888
 30
0.0
 10
41.82746895401836
 20
2.008059742078893
 30
0.0
 10
41.84809738853324
 20
2.007001187341495
 30
0.0
 10
41.89847331848464
 20
2.004855710412419
 30
0.0
 10
41.92865256334077
 20
2.003940695152464
 30
0.0
 10
41.9994778887391
 20
2.002322192064204
 30
0.0
 10
42.04017284334363
 20
2.001822881330769
 30
0.0
 10
42.1258507922398
 20
2.001106549023949
 30
0.0
 10
42.16935175771262
 20
2.00097855236583
 30
0.0
 10
42.2689293901692
 20
2.000647296408751
 30
0.0
 10
42.32628028790139
 20
2.000447583796904
 30
0.0
 10
42.42406362756086
 20
2.000194269560271
 30
0.0
 10
42.46437539880502
 20
2.00012449429766
 30
0.0
 10
42.54305528679044
 20
2.000044112444871
 30
0.0
 10
42.58290549616285
 20
2.000027193199665
 30
0.0
 10
42.61409315267589
 20
2.000025836281336
 30
0.0
  0
SPLINE
  5
BEA5
330
BE98
100
AcDbEntity
  8
0
100
AcDbSpline
210
0.0
220
0.0
230
1.0
 70
     8
 71
     3
 72
     8
 73
     4
 74
     0
 42
0.000000001
 43
0.0000000001
 40
0.0
 40
0.0
 40
0.0
 40
0.0
 40
0.0037391778438861
 40
0.0037391778438861
 40
0.0037391778438861
 40
0.0037391778438861
 10
40.00007741699413
 20
3.999999725130641
 30
0.0
 10
40.00005077617282
 20
3.993410550330743
 30
0.0
 10
40.00002390979027
 20
3.985956848732479
 30
0.0
 10
39.99999999999999
 20
3.978440091134387
 30
0.0
  0
SPLINE
  5
BEA6
330
BE98
100
AcDbEntity
  8
0
100
AcDbSpline
210
0.0
220
0.0
230
1.0
 70
     8
 71
     3
 72
    20
 73
    16
 74
     0
 42
0.000000001
 43
0.0000000001
 40
0.0018353618031886
 40
0.0018353618031886
 40
0.0018353618031886
 40
0.0018353618031886
 40
0.0029515668744138
 40
0.0029515668744138
 40
0.005477323934509
 40
0.005477323934509
 40
0.0110660411726078
 40
0.0110660411726078
 40
0.0161106792481061
 40
0.0161106792481061
 40
0.0231310961528024
 40
0.0231310961528024
 40
0.0289986536437298
 40
0.0289986536437298
 40
0.0291415517604213
 40
0.0291415517604213
 40
0.0291415517604213
 40
0.0291415517604213
 10
40.00005593263032
 20
3.994517481266631
 30
0.0
 10
40.00007186320556
 20
3.992977306029824
 30
0.0
 10
40.00009119205388
 20
3.991168413989138
 30
0.0
 10
40.00016411988221
 20
3.984692499477846
 30
0.0
 10
40.00023069107839
 20
3.979300611420213
 30
0.0
 10
40.00047686141647
 20
3.961739177295974
 30
0.0
 10
40.00067090437319
 20
3.950368078902455
 30
0.0
 10
40.0012033172493
 20
3.925500350366311
 30
0.0
 10
40.00153088891616
 20
3.912698740548358
 30
0.0
 10
40.00230879467766
 20
3.886619484514865
 30
0.0
 10
40.00276520271158
 20
3.874441837089769
 30
0.0
 10
40.00331420891892
 20
3.860738189667869
 30
0.0
 10
40.00346181460941
 20
3.857484501489003
 30
0.0
 10
40.00346848915858
 20
3.85733376045406
 30
0.0
 10
40.00346856852766
 20
3.8573319694303
 30
0.0
 10
40.00346856850367
 20
3.857331969971844
 30
0.0
  0
SPLINE
  5
BEA7
330
BE98
100
AcDbEntity
  8
0
100
AcDbSpline
210
0.0
220
0.0
230
1.0
 70
     8
 71
     3
 72
    10
 73
     6
 74
     0
 42
0.000000001
 43
0.0000000001
 40
0.0
 40
0.0
 40
0.0
 40
0.0
 40
0.0041257502260536
 40
0.0041257502260536
 40
0.0044905303744807
 40
0.0044905303744807
 40
0.0044905303744807
 40
0.0044905303744807
 10
40.0001648438237
 20
4.000000724027299
 30
0.0
 10
40.00022271017934
 20
3.987451935586043
 30
0.0
 10
40.00032211634867
 20
3.975479440819247
 30
0.0
 10
40.00044038821176
 20
3.965263062005528
 30
0.0
 10
40.00045004182445
 20
3.964451594123403
 30
0.0
 10
40.00045967737713
 20
3.96366142993066
 30
0.0
  0
CIRCLE
  5
BEA8
330
BE98
100
AcDbEntity
  8
0
100
AcDbCircle
 10
0.0
 20
67.99999999999998
 30
0.0
 40
2.5
  0
CIRCLE
  5
BEA9
330
BE98
100
AcDbEntity
  8
0
100
AcDbCircle
 10
0.0
 20
47.99999999999998
 30
0.0
 40
2.5
  0
LINE
  5
BEAA
330
BE98
100
AcDbEntity
  8
0
100
AcDbLine
 10
36.00000000000001
 20
1.999999999999998
 30
0.0
 11
-36.00000000000001
 21
1.999999999999998
 31
0.0
  0
LINE
  5
BEAB
330
BE98
100
AcDbEntity
  8
0
100
AcDbLine
 10
35.99999999999999
 20
86.0
 30
0.0
 11
-35.99999999999999
 21
86.0
 31
0.0
  0
SPLINE
  5
BEAC
330
BE98
100
AcDbEntity
  8
0
100
AcDbSpline
210
0.0
220
0.0
230
1.0
 70
     8
 71
     3
 72
    17
 73
    13
 74
     0
 42
0.000000001
 43
0.0000000001
 40
-1.0
 40
-1.0
 40
-1.0
 40
-1.0
 40
-0.801347882695062
 40
-0.801347882695062
 40
-0.801347882695062
 40
-0.3797498890780363
 40
-0.3797498890780363
 40
-0.3797498890780363
 40
-0.0799923328228103
 40
-0.0799923328228103
 40
-0.0799923328228103
 40
0.0
 40
0.0
 40
0.0
 40
0.0
 10
-38.00000000000002
 20
2.000000000000023
 30
0.0
 10
-37.99999961282605
 20
1.999251614701916
 30
0.0
 10
-38.12461756934442
 20
1.921359120913115
 30
0.0
 10
-38.33198188072024
 20
1.794364022341526
 30
0.0
 10
-38.77206970263669
 20
1.524843216405231
 30
0.0
 10
-39.60515367032096
 20
1.04324665949753
 30
0.0
 10
-40.47953285488692
 20
0.6494211719807921
 30
0.0
 10
-41.10121932297771
 20
0.3694099586535355
 30
0.0
 10
-41.73501399906515
 20
0.1286161190765532
 30
0.0
 10
-42.26599598570381
 20
0.0375464459013494
 30
0.0
 10
-42.40769212283789
 20
0.0132438872012351
 30
0.0
 10
-42.53971372665396
 20
0.0000044906778019
 30
0.0
 10
-42.66666666669729
 20
0.0000000000623253
 30
0.0
  0
LINE
  5
BEAD
330
BE98
100
AcDbEntity
  8
0
100
AcDbLine
 10
-42.0
 20
0.0
 30
0.0
 11
-42.6666666666667
 21
0.0
 31
0.0
  0
ARC
  5
BEAE
330
BE98
100
AcDbEntity
  8
0
100
AcDbCircle
 10
-42.0
 20
4.000000000000003
 30
0.0
 40
3.999999999999999
100
AcDbArc
 50
270.0
 51
320.4209021570533
  0
ARC
  5
BEAF
330
BE98
100
AcDbEntity
  8
0
100
AcDbCircle
 10
-42.0
 20
4.000000000000003
 30
0.0
 40
2.000000000000001
100
AcDbArc
 50
270.0
 51
270.0213464390466
  0
ARC
  5
BEB0
330
BE98
100
AcDbEntity
  8
0
100
AcDbCircle
 10
-42.0
 20
4.000000000000003
 30
0.0
 40
2.000000000000001
100
AcDbArc
 50
275.7565220803455
 51
359.0839250684091
  0
LINE
  5
BEB1
330
BE98
100
AcDbEntity
  8
0
100
AcDbLine
 10
-42.66666666666669
 20
1.999999999999999
 30
0.0
 11
-42.61409315267576
 21
1.999999999999999
 31
0.0
  0
LINE
  5
BEB2
330
BE98
100
AcDbEntity
  8
0
100
AcDbLine
 10
-42.04021603154799
 20
1.999999999999999
 30
0.0
 11
-42.0
 21
1.999999999999999
 31
0.0
  0
SPLINE
  5
BEB3
330
BE98
100
AcDbEntity
  8
0
100
AcDbSpline
210
0.0
220
0.0
230
1.0
 70
     8
 71
     3
 72
    11
 73
     7
 74
     0
 42
0.000000001
 43
0.0000000001
 40
0.0
 40
0.0
 40
0.0
 40
0.0
 40
0.3318338501106073
 40
0.3318338501106073
 40
0.3318338501106073
 40
1.0
 40
1.0
 40
1.0
 40
1.0
 10
-42.66666666666665
 20
2.000000000000007
 30
0.0
 10
-42.35375429161009
 20
2.000040447362342
 30
0.0
 10
-41.94839075374619
 20
1.996205994622183
 30
0.0
 10
-41.55646205791119
 20
1.998524212983986
 30
0.0
 10
-40.76729155092416
 20
2.003192076244144
 30
0.0
 10
-39.99999399906855
 20
2.000338487582169
 30
0.0
 10
-39.99999999916169
 20
1.999999999986074
 30
0.0
  0
LINE
  5
BEB4
330
BE98
100
AcDbEntity
  8
0
100
AcDbLine
 10
-42.6666666666667
 20
0.0
 30
0.0
 11
-42.6666666666667
 21
2.0
 31
0.0
  0
SPLINE
  5
BEB5
330
BE98
100
AcDbEntity
  8
0
100
AcDbSpline
210
0.0
220
0.0
230
1.0
 70
     8
 71
     3
 72
    10
 73
     6
 74
     0
 42
0.000000001
 43
0.0000000001
 40
0.0197580355926114
 40
0.0197580355926114
 40
0.0197580355926114
 40
0.0197580355926114
 40
0.020067565654704
 40
0.020067565654704
 40
0.0234974110068338
 40
0.0234974110068338
 40
0.0234974110068338
 40
0.0234974110068338
 10
-40.0
 20
3.978440091138817
 30
0.0
 10
-40.00000197912797
 20
3.979062289204087
 30
0.0
 10
-40.00000397727531
 20
3.979684105758102
 30
0.0
 10
-40.00002832745646
 20
3.98718468547791
 30
0.0
 10
-40.00005298009893
 20
3.993955655683921
 30
0.0
 10
-40.00007741699414
 20
3.999999725130642
 30
0.0
  0
SPLINE
  5
BEB6
330
BE98
100
AcDbEntity
  8
0
100
AcDbSpline
210
0.0
220
0.0
230
1.0
 70
     8
 71
     3
 72
    12
 73
     8
 74
     0
 42
0.000000001
 43
0.0000000001
 40
0.0239305860406388
 40
0.0239305860406388
 40
0.0239305860406388
 40
0.0239305860406388
 40
0.023950679709569
 40
0.023950679709569
 40
0.0261293516744172
 40
0.0261293516744172
 40
0.0284393220896341
 40
0.0284393220896341
 40
0.0284393220896341
 40
0.0284393220896341
 10
-40.00045967737709
 20
3.963661429932465
 30
0.0
 10
-40.00045914775228
 20
3.963704861853623
 30
0.0
 10
-40.00045861811973
 20
3.963748354152627
 30
0.0
 10
-40.00040066307161
 20
3.968514082011109
 30
0.0
 10
-40.00034271583309
 20
3.974033732696013
 30
0.0
 10
-40.00024092738191
 20
3.986198338362878
 30
0.0
 10
-40.00019724267535
 20
3.992974770332177
 30
0.0
 10
-40.0001648438237
 20
4.0000007240273
 30
0.0
  0
SPLINE
  5
BEB7
330
BE98
100
AcDbEntity
  8
0
100
AcDbSpline
210
0.0
220
0.0
230
1.0
 70
     8
 71
     3
 72
    20
 73
    16
 74
     0
 42
0.000000001
 43
0.0000000001
 40
0.0361989900990034
 40
0.0361989900990034
 40
0.0361989900990034
 40
0.0361989900990034
 40
0.0379725821285594
 40
0.0379725821285594
 40
0.0445865944852714
 40
0.0445865944852714
 40
0.0503905749623738
 40
0.0503905749623738
 40
0.0565388078888677
 40
0.0565388078888677
 40
0.0608615955592675
 40
0.0608615955592675
 40
0.0630424037623318
 40
0.0630424037623318
 40
0.0635125336085948
 40
0.0635125336085948
 40
0.0635125336085948
 40
0.0635125336085948
 10
-40.00346856850357
 20
3.857331969974384
 30
0.0
 10
-40.00346856840737
 20
3.857331972145179
 30
0.0
 10
-40.00345616333584
 20
3.85761110855061
 30
0.0
 10
-40.00334130686316
 20
3.860243747372567
 30
0.0
 10
-40.00307393827828
 20
3.866355258067239
 30
0.0
 10
-40.00239655735687
 20
3.884629043926723
 30
0.0
 10
-40.00200329492272
 20
3.896246520908064
 30
0.0
 10
-40.00124184229481
 20
3.923564757648998
 30
0.0
 10
-40.00089893925983
 20
3.938873785883438
 30
0.0
 10
-40.00048779280506
 20
3.9613825460032
 30
0.0
 10
-40.00033759927969
 20
3.971190340474136
 30
0.0
 10
-40.00016334012132
 20
3.984749738531268
 30
0.0
 10
-40.00011390948114
 20
3.989063059608253
 30
0.0
 10
-40.00006977795864
 20
3.99318904565168
 30
0.0
 10
-40.00006257166185
 20
3.993874233118565
 30
0.0
 10
-40.00005594003934
 20
3.994513983359414
 30
0.0
  0
SPLINE
  5
BEB8
330
BE98
100
AcDbEntity
  8
0
100
AcDbSpline
210
0.0
220
0.0
230
1.0
 70
     8
 71
     3
 72
    34
 73
    30
 74
     0
 42
0.000000001
 43
0.0000000001
 40
0.0
 40
0.0
 40
0.0
 40
0.0
 40
0.0065342796835091
 40
0.0065342796835091
 40
0.0152718551392719
 40
0.0152718551392719
 40
0.0320193297610243
 40
0.0320193297610243
 40
0.0457471446398666
 40
0.0457471446398666
 40
0.0591040363555504
 40
0.0591040363555504
 40
0.0688368645478091
 40
0.0688368645478091
 40
0.0768570127326026
 40
0.0768570127326026
 40
0.0838577259025125
 40
0.0838577259025125
 40
0.0892729263969891
 40
0.0892729263969891
 40
0.0930683684516427
 40
0.0930683684516427
 40
0.0955757822810179
 40
0.0955757822810179
 40
0.0971396980596633
 40
0.0971396980596633
 40
0.0982708138452946
 40
0.0982708138452946
 40
0.0998278077862379
 40
0.0998278077862379
 40
0.0998278077862379
 40
0.0998278077862379
 10
-42.61409315267576
 20
2.000025836281336
 30
0.0
 10
-42.59837100355581
 20
2.000026520323508
 30
0.0
 10
-42.58019964662924
 20
2.000031937881452
 30
0.0
 10
-42.53617803552264
 20
2.000054177804662
 30
0.0
 10
-42.50933573857527
 20
2.000074414145299
 30
0.0
 10
-42.42982312612842
 20
2.000175093407973
 30
0.0
 10
-42.37556578221918
 20
2.000309870003029
 30
0.0
 10
-42.27971681048217
 20
2.00061103512162
 30
0.0
 10
-42.23775356236063
 20
2.000747421720094
 30
0.0
 10
-42.15858816623252
 20
2.001019551295051
 30
0.0
 10
-42.12101720925546
 20
2.001153551973088
 30
0.0
 10
-42.05098356193811
 20
2.001727977791123
 30
0.0
 10
-42.02006503390806
 20
2.002077085245762
 30
0.0
 10
-41.96250789910722
 20
2.003117673779724
 30
0.0
 10
-41.93586274832411
 20
2.003743962023507
 30
0.0
 10
-41.88588447266376
 20
2.005368108451051
 30
0.0
 10
-41.86233140853525
 20
2.006319492649199
 30
0.0
 10
-41.82149659075315
 20
2.008413447005878
 30
0.0
 10
-41.8037953637762
 20
2.009477446247903
 30
0.0
 10
-41.77538682048438
 20
2.01146967027661
 30
0.0
 10
-41.76400852142183
 20
2.012355984526544
 30
0.0
 10
-41.7470315288054
 20
2.013802314198036
 30
0.0
 10
-41.74070877791892
 20
2.014377332898081
 30
0.0
 10
-41.7321111218122
 20
2.015197056820472
 30
0.0
 10
-41.7291794254596
 20
2.015487027827826
 30
0.0
 10
-41.72514029105623
 20
2.015895714641006
 30
0.0
 10
-41.72373942943734
 20
2.016040821180467
 30
0.0
 10
-41.7212882986962
 20
2.016297713768038
 30
0.0
 10
-41.72056542268885
 20
2.016376407812134
 30
0.0
 10
-41.72056543330964
 20
2.016376406659965
 30
0.0
  0
LINE
  5
BEB9
330
BE98
100
AcDbEntity
  8
0
100
AcDbLine
 10
-40.0
 20
2.000000000000003
 30
0.0
 11
-36.00000000000001
 21
1.999999999999998
 31
0.0
  0
LINE
  5
BEBA
330
BE98
100
AcDbEntity
  8
0
100
AcDbLine
 10
-35.99999999999999
 20
86.0
 30
0.0
 11
-39.99999999999999
 21
86.0
 31
0.0
  0
LINE
  5
BEBB
330
BE98
100
AcDbEntity
  8
0
100
AcDbLine
 10
-40.0
 20
2.000000000000003
 30
0.0
 11
-39.99999999999999
 21
86.0
 31
0.0
  0
LINE
  5
BEBC
330
BE98
100
AcDbEntity
  8
0
100
AcDbLine
 10
40.0
 20
2.000000000000003
 30
0.0
 11
36.00000000000001
 21
1.999999999999998
 31
0.0
  0
LINE
  5
BEBD
330
BE98
100
AcDbEntity
  8
0
100
AcDbLine
 10
40.0
 20
2.000000000000003
 30
0.0
 11
39.99999999999999
 21
86.0
 31
0.0
  0
LINE
  5
BEBE
330
BE98
100
AcDbEntity
  8
0
100
AcDbLine
 10
35.99999999999999
 20
86.0
 30
0.0
 11
39.99999999999999
 21
86.0
 31
0.0
  0
LINE
  5
BEBF
330
BE98
100
AcDbEntity
  8
0
100
AcDbLine
 10
79.50000000000004
 20
0.0
 30
0.0
 11
42.6666666666667
 21
0.0
 31
0.0
  0
LINE
  5
BEC0
330
BE98
100
AcDbEntity
  8
0
100
AcDbLine
 10
79.50000000000004
 20
2.000000000000001
 30
0.0
 11
79.50000000000004
 21
0.0
 31
0.0
  0
LINE
  5
BEC1
330
BE98
100
AcDbEntity
  8
0
100
AcDbLine
 10
42.66666666666669
 20
2.0
 30
0.0
 11
79.50000000000004
 21
2.000000000000001
 31
0.0
  0
LINE
  5
BEC2
330
BE98
100
AcDbEntity
  8
0
100
AcDbLine
 10
-79.50000000000004
 20
2.000000000000001
 30
0.0
 11
-42.66666666666669
 21
2.0
 31
0.0
  0
LINE
  5
BEC3
330
BE98
100
AcDbEntity
  8
0
100
AcDbLine
 10
-79.50000000000004
 20
0.0
 30
0.0
 11
-79.50000000000004
 21
2.000000000000001
 31
0.0
  0
LINE
  5
BEC4
330
BE98
100
AcDbEntity
  8
0
100
AcDbLine
 10
-42.6666666666667
 20
0.0
 30
0.0
 11
-79.50000000000004
 21
0.0
 31
0.0
  0
ENDBLK
  5
BE9A
330
BE98
100
AcDbEntity
  8
0
100
AcDbBlockEnd
  0
BLOCK
  5
BEC6
330
BEC5
100
AcDbEntity
  8
0
100
AcDbBlockBegin
  2
SAE500_76_2-ISO
 70
     0
 10
0.0
 20
0.0
 30
0.0
  3
SAE500_76_2-ISO
  1

  0
LINE
  5
BEC8
330
BEC5
100
AcDbEntity
  8
0
100
AcDbLine
 10
57.03957030430643
 20
-65.0477784416752
 30
0.0
 11
55.62535674193334
 21
-65.86427502260292
 31
0.0
  0
SPLINE
  5
BEC9
330
BEC5
100
AcDbEntity
  8
0
100
AcDbSpline
210
0.0
220
0.0
230
1.0
 70
     8
 71
     3
 72
    11
 73
     7
 74
     0
 42
0.000000001
 43
0.0000000001
 40
0.0
 40
0.0
 40
0.0
 40
0.0
 40
0.3318338501106073
 40
0.3318338501106073
 40
0.3318338501106073
 40
1.0
 40
1.0
 40
1.0
 40
1.0
 10
58.92518838747054
 20
-64.19726116987554
 30
0.0
 10
58.70389732454668
 20
-64.25698810819537
 30
0.0
 10
58.41997338561205
 20
-64.24977095316311
 30
0.0
 10
58.14119871912161
 20
-64.25106888290094
 30
0.0
 10
57.57987022435376
 20
-64.25368233754236
 30
0.0
 10
57.03932671414242
 20
-64.30217290738598
 30
0.0
 10
57.0395703037235
 20
-65.04777843920482
 30
0.0
  0
LINE
  5
BECA
330
BEC5
100
AcDbEntity
  8
0
100
AcDbLine
 10
58.45378386667952
 20
-63.92509564289962
 30
0.0
 11
58.92518838747058
 21
-64.19726116987554
 31
0.0
  0
ELLIPSE
  5
BECB
330
BEC5
100
AcDbEntity
  8
0
100
AcDbEllipse
 10
57.03957030430643
 20
-64.74159222382735
 30
0.0
 11
2.000000000000001
 21
-0.0000000000001192
 31
0.0
210
0.0
220
0.0
230
1.0
 40
0.5773502691896257
 41
0.7853981633976952
 42
2.356194490192599
  0
LINE
  5
BECC
330
BEC5
100
AcDbEntity
  8
0
100
AcDbLine
 10
55.62535674193334
 20
-65.86427502260294
 30
0.0
 11
55.62535674193334
 21
-63.92509564289962
 31
0.0
  0
ELLIPSE
  5
BECD
330
BEC5
100
AcDbEntity
  8
0
100
AcDbEllipse
 10
-17.9137485014676
 20
-97.70764167878425
 30
0.0
 11
-2.5
 21
-0.0000000000001492
 31
0.0
210
0.0
220
0.0
230
1.0
 40
0.5773502691896259
 41
3.742856870268575
 42
5.68192109050012
  0
ELLIPSE
  5
BECE
330
BEC5
100
AcDbEntity
  8
0
100
AcDbEllipse
 10
-3.771612877736649
 20
-89.54267586950699
 30
0.0
 11
-2.5
 21
-0.0000000000001492
 31
0.0
210
0.0
220
0.0
230
1.0
 40
0.5773502691896259
 41
3.742856870268575
 42
5.68192109050012
  0
LINE
  5
BECF
330
BEC5
100
AcDbEntity
  8
0
100
AcDbLine
 10
-5.185826440109768
 20
-119.7530493638328
 30
0.0
 11
-56.09751468554117
 21
-90.35917245043471
 31
0.0
  0
LINE
  5
BED0
330
BEC5
100
AcDbEntity
  8
0
100
AcDbLine
 10
1.885241371755719
 20
-33.20441178549388
 30
0.0
 11
1.885241371755714
 21
-51.98383314683159
 31
0.0
  0
LINE
  5
BED1
330
BEC5
100
AcDbEntity
  8
0
100
AcDbLine
 10
30.87661940040415
 20
-70.35500621770541
 30
0.0
 11
29.81595922862432
 21
-69.74263378200962
 31
0.0
  0
LINE
  5
BED2
330
BEC5
100
AcDbEntity
  8
0
100
AcDbLine
 10
20.06798717369549
 20
-64.11463949204351
 30
0.0
 11
3.299454934128807
 21
-54.43332288961475
 31
0.0
  0
LINE
  5
BED3
330
BEC5
100
AcDbEntity
  8
0
100
AcDbLine
 10
-56.09751468554117
 20
-88.72617928857927
 30
0.0
 11
-5.185826440109764
 21
-118.1200562019774
 31
0.0
  0
ELLIPSE
  5
BED4
330
BEC5
100
AcDbEntity
  8
0
100
AcDbEllipse
 10
-3.771612877736649
 20
-87.90968270765153
 30
0.0
 11
-2.5
 21
0.0000000000001492
 31
0.0
210
0.0
220
0.0
230
1.0
 40
0.5773502691896259
 41
0.0
 42
6.283185307179586
  0
ELLIPSE
  5
BED5
330
BEC5
100
AcDbEntity
  8
0
100
AcDbEllipse
 10
-17.9137485014676
 20
-96.07464851692881
 30
0.0
 11
-2.5
 21
0.0000000000001492
 31
0.0
210
0.0
220
0.0
230
1.0
 40
0.5773502691896259
 41
0.0
 42
6.283185307179586
  0
LINE
  5
BED6
330
BEC5
100
AcDbEntity
  8
0
100
AcDbLine
 10
1.885241371755719
 20
-33.20441178549388
 30
0.0
 11
1.801439752497286
 21
-33.25279467293127
 31
0.0
  0
SPLINE
  5
BED7
330
BEC5
100
AcDbEntity
  8
0
100
AcDbSpline
210
0.0
220
0.0
230
1.0
 70
     8
 71
     3
 72
    11
 73
     7
 74
     0
 42
0.000000001
 43
0.0000000001
 40
-1.0
 40
-1.0
 40
-1.0
 40
-1.0
 40
-0.801347882695062
 40
-0.801347882695062
 40
-0.801347882695062
 40
-0.6677752208577283
 40
-0.6677752208577283
 40
-0.6677752208577283
 40
-0.6677752208577283
 10
1.885241371755697
 20
-33.20441178549386
 30
0.0
 10
1.885770833848265
 20
-32.81150077780228
 30
0.0
 10
1.852730942298106
 20
-32.45726103505794
 30
0.0
 10
1.79590132692561
 20
-32.12366556767609
 30
0.0
 10
1.75768938587268
 20
-31.89935769137662
 30
0.0
 10
1.706636096701332
 20
-31.68592744164105
 30
0.0
 10
1.643907531259016
 20
-31.47998885962906
 30
0.0
  0
ELLIPSE
  5
BED8
330
BEC5
100
AcDbEntity
  8
0
100
AcDbEllipse
 10
-2.35739931536357
 20
-30.44873582486285
 30
0.0
 11
4.0
 21
-0.0000000000000003
 31
0.0
210
0.0
220
0.0
230
1.0
 40
0.5773502691896258
 41
6.081787914209281
 42
6.283185307179588
  0
ELLIPSE
  5
BED9
330
BEC5
100
AcDbEntity
  8
0
100
AcDbEllipse
 10
-2.35739931536357
 20
-30.44873582486285
 30
0.0
 11
4.0
 21
-0.0000000000000003
 31
0.0
210
0.0
220
0.0
230
1.0
 40
0.5773502691896258
 41
5.497787143782132
 42
6.081787914209279
  0
LINE
  5
BEDA
330
BEC5
100
AcDbEntity
  8
0
100
AcDbLine
 10
0.4710278093826182
 20
-32.0817289867183
 30
0.0
 11
0.4710278093826182
 21
-34.02090836642161
 31
0.0
  0
LINE
  5
BEDB
330
BEC5
100
AcDbEntity
  8
0
100
AcDbLine
 10
1.801439752497286
 20
-33.25279467293127
 30
0.0
 11
0.471027809382627
 21
-34.02090836642161
 31
0.0
  0
SPLINE
  5
BEDC
330
BEC5
100
AcDbEntity
  8
0
100
AcDbSpline
210
0.0
220
0.0
230
1.0
 70
     8
 71
     3
 72
    16
 73
    12
 74
     0
 42
0.000000001
 43
0.0000000001
 40
0.0
 40
0.0
 40
0.0
 40
0.0
 40
0.0282476611134667
 40
0.0282476611134667
 40
0.0461399518011642
 40
0.0461399518011642
 40
0.0689253714403237
 40
0.0689253714403237
 40
0.0923139075489522
 40
0.0923139075489522
 40
0.1012129795723373
 40
0.1012129795723373
 40
0.1012129795723373
 40
0.1012129795723373
 10
1.630297782723824
 20
-30.6297255342973
 30
0.0
 10
1.617602987297948
 20
-30.72295926035194
 30
0.0
 10
1.605732637916195
 20
-30.81787224827752
 30
0.0
 10
1.593268640927592
 20
-30.9677706716065
 30
0.0
 10
1.590156509019573
 20
-31.0251941876084
 30
0.0
 10
1.588491340789528
 20
-31.14701752913937
 30
0.0
 10
1.591451008906168
 20
-31.20984362256769
 30
0.0
 10
1.603919142510137
 20
-31.32222208803729
 30
0.0
 10
1.613406236947936
 20
-31.3728214945165
 30
0.0
 10
1.630983113074124
 20
-31.44205208121467
 30
0.0
 10
1.636334870662108
 20
-31.46115188263705
 30
0.0
 10
1.6422896138944
 20
-31.48067024258015
 30
0.0
  0
ELLIPSE
  5
BEDD
330
BEC5
100
AcDbEntity
  8
0
100
AcDbEllipse
 10
3.299454934128815
 20
-52.80032972775931
 30
0.0
 11
1.000000000000105
 21
-1.732050807568817
 31
0.0
210
0.0
220
0.0
230
1.0
 40
0.5773502691896267
 41
3.926990816987
 42
5.497787143781893
  0
LINE
  5
BEDE
330
BEC5
100
AcDbEntity
  8
0
100
AcDbLine
 10
3.299454934128807
 20
-54.43332288961475
 30
0.0
 11
-56.09751468554117
 21
-88.72617928857927
 31
0.0
  0
ELLIPSE
  5
BEDF
330
BEC5
100
AcDbEntity
  8
0
100
AcDbEllipse
 10
-56.09751468554117
 20
-87.09318612672381
 30
0.0
 11
2.000000000000206
 21
-3.464101615137635
 31
0.0
210
0.0
220
0.0
230
1.0
 40
0.5773502691896259
 41
3.926990816987002
 42
5.497787143781893
  0
LINE
  5
BEE0
330
BEC5
100
AcDbEntity
  8
0
100
AcDbLine
 10
-57.51172824791426
 20
-86.27668954579608
 30
0.0
 11
1.885241371755714
 21
-51.98383314683157
 31
0.0
  0
LINE
  5
BEE1
330
BEC5
100
AcDbEntity
  8
0
100
AcDbLine
 10
-58.92594181028735
 20
-85.46019296486836
 30
0.0
 11
-57.51172824791426
 21
-86.27668954579608
 31
0.0
  0
LINE
  5
BEE2
330
BEC5
100
AcDbEntity
  8
0
100
AcDbLine
 10
-56.09751468554117
 20
-90.35917245043471
 30
0.0
 11
-56.09751468554117
 21
-88.72617928857927
 31
0.0
  0
ELLIPSE
  5
BEE3
330
BEC5
100
AcDbEntity
  8
0
100
AcDbEllipse
 10
-56.09751468554117
 20
-87.09318612672381
 30
0.0
 11
1.000000000000102
 21
-1.732050807568815
 31
0.0
210
0.0
220
0.0
230
1.0
 40
0.5773502691896257
 41
3.926990816986997
 42
5.497787143781902
  0
LINE
  5
BEE4
330
BEC5
100
AcDbEntity
  8
0
100
AcDbLine
 10
57.03957030430643
 20
-83.8271998030129
 30
0.0
 11
57.03957030430643
 21
-65.0477784416752
 31
0.0
  0
ELLIPSE
  5
BEE5
330
BEC5
100
AcDbEntity
  8
0
100
AcDbEllipse
 10
54.21114317956025
 20
-82.19420664115745
 30
0.0
 11
1.999999999999994
 21
-3.464101615137759
 31
0.0
210
0.0
220
0.0
230
1.0
 40
0.5773502691896251
 41
0.0000000000000067
 42
0.7853981633974501
  0
LINE
  5
BEE6
330
BEC5
100
AcDbEntity
  8
0
100
AcDbLine
 10
-5.185826440109768
 20
-118.1200562019774
 30
0.0
 11
-3.771612877736667
 21
-117.3035596210496
 31
0.0
  0
LINE
  5
BEE7
330
BEC5
100
AcDbEntity
  8
0
100
AcDbLine
 10
57.03957030430643
 20
-83.8271998030129
 30
0.0
 11
-2.357399315363579
 21
-118.1200562019774
 31
0.0
  0
ELLIPSE
  5
BEE8
330
BEC5
100
AcDbEntity
  8
0
100
AcDbEllipse
 10
-5.185826440109768
 20
-116.4870630401219
 30
0.0
 11
2.0
 21
-3.464101615137754
 31
0.0
210
0.0
220
0.0
230
1.0
 40
0.5773502691896258
 41
5.497787143782136
 42
7.068583470577032
  0
LINE
  5
BEE9
330
BEC5
100
AcDbEntity
  8
0
100
AcDbLine
 10
84.97028816117511
 20
-56.67868848716605
 30
0.0
 11
86.3845017235482
 21
-55.86219190623832
 31
0.0
  0
LINE
  5
BEEA
330
BEC5
100
AcDbEntity
  8
0
100
AcDbLine
 10
58.92518838747058
 20
-64.19726116987554
 30
0.0
 11
84.97028816117511
 21
-56.67868848716605
 31
0.0
  0
ELLIPSE
  5
BEEB
330
BEC5
100
AcDbEntity
  8
0
100
AcDbEllipse
 10
72.59591949041049
 20
63.95868134490553
 30
0.0
 11
-3.25
 21
5.629165124598853
 31
0.0
210
0.0
220
0.0
230
1.0
 40
0.5773502691896255
 41
0.219325486300596
 42
2.922267167289197
  0
ELLIPSE
  5
BEEC
330
BEC5
100
AcDbEntity
  8
0
100
AcDbEllipse
 10
80.37409408346253
 20
63.55043305444167
 30
0.0
 11
1.250000000000129
 21
-2.165063509461022
 31
0.0
210
0.0
220
0.0
230
1.0
 40
0.5773502691896258
 41
3.742856870268585
 42
5.681921090500111
  0
LINE
  5
BEED
330
BEC5
100
AcDbEntity
  8
0
100
AcDbLine
 10
59.86799742905262
 20
87.63708219180958
 30
0.0
 11
86.38450172354817
 21
72.32777129941472
 31
0.0
  0
LINE
  5
BEEE
330
BEC5
100
AcDbEntity
  8
0
100
AcDbLine
 10
86.3845017235482
 20
-55.86219190623832
 30
0.0
 11
86.38450172354817
 21
72.32777129941471
 31
0.0
  0
ELLIPSE
  5
BEEF
330
BEC5
100
AcDbEntity
  8
0
100
AcDbEllipse
 10
57.03957030430643
 20
86.00408902995415
 30
0.0
 11
4.0
 21
-0.0000000000002387
 31
0.0
210
0.0
220
0.0
230
1.0
 40
0.5773502691896258
 41
0.7853981633976899
 42
2.356194490192581
  0
ELLIPSE
  5
BEF0
330
BEC5
100
AcDbEntity
  8
0
100
AcDbEllipse
 10
29.81595922862434
 20
61.3050674568904
 30
0.0
 11
1.24999999999987
 21
2.165063509461172
 31
0.0
210
0.0
220
0.0
230
1.0
 40
0.577350269189626
 41
3.742856870268575
 42
5.681921090500102
  0
ELLIPSE
  5
BEF1
330
BEC5
100
AcDbEntity
  8
0
100
AcDbEllipse
 10
31.23017279099745
 20
60.48857087596268
 30
0.0
 11
-1.25
 21
-2.165063509461096
 31
0.0
210
0.0
220
0.0
230
1.0
 40
0.577350269189626
 41
0.0
 42
6.283185307179586
  0
LINE
  5
BEF2
330
BEC5
100
AcDbEntity
  8
0
100
AcDbLine
 10
-3.771612877736694
 20
-98.52413825971199
 30
0.0
 11
24.51265836972523
 21
-57.69930921332569
 31
0.0
  0
LINE
  5
BEF3
330
BEC5
100
AcDbEntity
  8
0
100
AcDbLine
 10
-2.357399315363606
 20
-99.34063484063971
 30
0.0
 11
-3.771612877736694
 21
-98.52413825971199
 31
0.0
  0
LINE
  5
BEF4
330
BEC5
100
AcDbEntity
  8
0
100
AcDbLine
 10
25.92687193209832
 20
-58.51580579425342
 30
0.0
 11
-2.357399315363606
 21
-99.34063484063971
 31
0.0
  0
LINE
  5
BEF5
330
BEC5
100
AcDbEntity
  8
0
100
AcDbLine
 10
25.92687193209832
 20
-58.51580579425342
 30
0.0
 11
24.51265836972523
 21
-57.69930921332569
 31
0.0
  0
LINE
  5
BEF6
330
BEC5
100
AcDbEntity
  8
0
100
AcDbLine
 10
24.51265836972523
 20
-57.69930921332569
 30
0.0
 11
24.51265836972524
 21
70.49065399232734
 31
0.0
  0
LINE
  5
BEF7
330
BEC5
100
AcDbEntity
  8
0
100
AcDbLine
 10
25.92687193209834
 20
69.67415741139962
 30
0.0
 11
25.92687193209832
 21
-58.51580579425342
 31
0.0
  0
LINE
  5
BEF8
330
BEC5
100
AcDbEntity
  8
0
100
AcDbLine
 10
24.51265836972524
 20
70.49065399232735
 30
0.0
 11
25.92687193209834
 21
69.67415741139962
 31
0.0
  0
LINE
  5
BEF9
330
BEC5
100
AcDbEntity
  8
0
100
AcDbLine
 10
-2.357399315363606
 20
-99.34063484063971
 30
0.0
 11
-2.357399315363579
 21
-118.1200562019774
 31
0.0
  0
LINE
  5
BEFA
330
BEC5
100
AcDbEntity
  8
0
100
AcDbLine
 10
55.62535674193334
 20
-63.92509564289962
 30
0.0
 11
55.62535674193334
 21
86.82058561088187
 31
0.0
  0
LINE
  5
BEFB
330
BEC5
100
AcDbEntity
  8
0
100
AcDbLine
 10
55.62535674193334
 20
86.82058561088187
 30
0.0
 11
25.92687193209834
 21
69.67415741139962
 31
0.0
  0
LINE
  5
BEFC
330
BEC5
100
AcDbEntity
  8
0
100
AcDbLine
 10
24.51265836972524
 20
70.49065399232735
 30
0.0
 11
54.21114317956025
 21
87.63708219180958
 31
0.0
  0
LINE
  5
BEFD
330
BEC5
100
AcDbEntity
  8
0
100
AcDbLine
 10
-3.771612877736667
 20
-117.3035596210497
 30
0.0
 11
-3.771612877736694
 21
-98.52413825971199
 31
0.0
  0
LINE
  5
BEFE
330
BEC5
100
AcDbEntity
  8
0
100
AcDbLine
 10
-5.185826440109768
 20
-118.1200562019774
 30
0.0
 11
-5.185826440109768
 21
-119.7530493638328
 31
0.0
  0
LINE
  5
BEFF
330
BEC5
100
AcDbEntity
  8
0
100
AcDbLine
 10
-3.771612877736667
 20
-117.3035596210497
 30
0.0
 11
-2.357399315363579
 21
-118.1200562019774
 31
0.0
  0
ELLIPSE
  5
BF00
330
BEC5
100
AcDbEntity
  8
0
100
AcDbEllipse
 10
-5.185826440109768
 20
-116.4870630401219
 30
0.0
 11
0.9999999999999989
 21
-1.732050807568875
 31
0.0
210
0.0
220
0.0
230
1.0
 40
0.5773502691896258
 41
5.497787143782141
 42
7.068583470577038
  0
LINE
  5
BF01
330
BEC5
100
AcDbEntity
  8
0
100
AcDbLine
 10
58.45378386667952
 20
-63.92509564289962
 30
0.0
 11
58.45378386667952
 21
86.82058561088187
 31
0.0
  0
ELLIPSE
  5
BF02
330
BEC5
100
AcDbEntity
  8
0
100
AcDbEllipse
 10
57.03957030430643
 20
86.00408902995415
 30
0.0
 11
-2.000000000000001
 21
-0.0000000000001195
 31
0.0
210
0.0
220
0.0
230
1.0
 40
0.5773502691896258
 41
3.926990816987009
 42
5.497787143781901
  0
LINE
  5
BF03
330
BEC5
100
AcDbEntity
  8
0
100
AcDbLine
 10
86.38450172354817
 20
72.32777129941472
 30
0.0
 11
84.97028816117508
 21
71.51127471848699
 31
0.0
  0
LINE
  5
BF04
330
BEC5
100
AcDbEntity
  8
0
100
AcDbLine
 10
84.97028816117511
 20
-56.67868848716605
 30
0.0
 11
84.97028816117508
 21
71.51127471848699
 31
0.0
  0
LINE
  5
BF05
330
BEC5
100
AcDbEntity
  8
0
100
AcDbLine
 10
55.62535674193334
 20
86.82058561088187
 30
0.0
 11
54.21114317956025
 21
87.63708219180958
 31
0.0
  0
LINE
  5
BF06
330
BEC5
100
AcDbEntity
  8
0
100
AcDbLine
 10
58.45378386667952
 20
86.82058561088187
 30
0.0
 11
59.86799742905262
 21
87.63708219180958
 31
0.0
  0
LINE
  5
BF07
330
BEC5
100
AcDbEntity
  8
0
100
AcDbLine
 10
84.97028816117508
 20
71.51127471848699
 30
0.0
 11
58.45378386667952
 21
86.82058561088187
 31
0.0
  0
ELLIPSE
  5
BF08
330
BEC5
100
AcDbEntity
  8
0
100
AcDbEllipse
 10
71.18170592803739
 20
63.14218476397781
 30
0.0
 11
-3.25
 21
5.629165124598853
 31
0.0
210
0.0
220
0.0
230
1.0
 40
0.5773502691896258
 41
0.0
 42
6.283185307179586
  0
ELLIPSE
  5
BF09
330
BEC5
100
AcDbEntity
  8
0
100
AcDbEllipse
 10
78.95988052108944
 20
62.73393647351394
 30
0.0
 11
-1.25
 21
2.165063509461097
 31
0.0
210
0.0
220
0.0
230
1.0
 40
0.5773502691896258
 41
0.0
 42
6.283185307179586
  0
LINE
  5
BF0A
330
BEC5
100
AcDbEntity
  8
0
100
AcDbLine
 10
-3.185826440109771
 20
-119.9511646552597
 30
0.0
 11
56.21114317956024
 21
-85.65830825629522
 31
0.0
  0
ELLIPSE
  5
BF0B
330
BEC5
100
AcDbEntity
  8
0
100
AcDbEllipse
 10
72.59591949041049
 20
-42.18587417569887
 30
0.0
 11
-3.25
 21
5.629165124598854
 31
0.0
210
0.0
220
0.0
230
1.0
 40
0.5773502691896257
 41
0.2193254863005926
 42
2.922267167289202
  0
ELLIPSE
  5
BF0C
330
BEC5
100
AcDbEntity
  8
0
100
AcDbEllipse
 10
71.18170592803739
 20
-43.00237075662661
 30
0.0
 11
-3.25
 21
5.629165124598853
 31
0.0
210
0.0
220
0.0
230
1.0
 40
0.5773502691896258
 41
0.0
 42
6.283185307179586
  0
ELLIPSE
  5
BF0D
330
BEC5
100
AcDbEntity
  8
0
100
AcDbEllipse
 10
72.59591949041049
 20
14.96888648924195
 30
0.0
 11
-3.25
 21
5.629165124598855
 31
0.0
210
0.0
220
0.0
230
1.0
 40
0.5773502691896257
 41
0.2193254863005913
 42
2.922267167289199
  0
ELLIPSE
  5
BF0E
330
BEC5
100
AcDbEntity
  8
0
100
AcDbEllipse
 10
71.18170592803739
 20
14.15238990831423
 30
0.0
 11
-3.25
 21
5.629165124598853
 31
0.0
210
0.0
220
0.0
230
1.0
 40
0.5773502691896258
 41
0.0
 42
6.283185307179586
  0
ELLIPSE
  5
BF0F
330
BEC5
100
AcDbEntity
  8
0
100
AcDbEllipse
 10
64.81774489735847
 20
-49.94259169451227
 30
0.0
 11
1.250000000000129
 21
-2.165063509461022
 31
0.0
210
0.0
220
0.0
230
1.0
 40
0.5773502691896258
 41
3.742856870268576
 42
5.681921090500121
  0
ELLIPSE
  5
BF10
330
BEC5
100
AcDbEntity
  8
0
100
AcDbEllipse
 10
64.81774489735847
 20
-33.61266007595775
 30
0.0
 11
1.250000000000129
 21
-2.165063509461022
 31
0.0
210
0.0
220
0.0
230
1.0
 40
0.5773502691896258
 41
3.742856870268576
 42
5.681921090500121
  0
ELLIPSE
  5
BF11
330
BEC5
100
AcDbEntity
  8
0
100
AcDbEllipse
 10
64.81774489735847
 20
-17.28272845740322
 30
0.0
 11
1.250000000000129
 21
-2.165063509461022
 31
0.0
210
0.0
220
0.0
230
1.0
 40
0.5773502691896258
 41
3.742856870268578
 42
5.681921090500121
  0
ELLIPSE
  5
BF12
330
BEC5
100
AcDbEntity
  8
0
100
AcDbEllipse
 10
64.81774489735847
 20
-0.9527968388487106
 30
0.0
 11
1.250000000000129
 21
-2.165063509461022
 31
0.0
210
0.0
220
0.0
230
1.0
 40
0.5773502691896258
 41
3.742856870268578
 42
5.681921090500121
  0
ELLIPSE
  5
BF13
330
BEC5
100
AcDbEntity
  8
0
100
AcDbEllipse
 10
64.81774489735847
 20
15.37713477970581
 30
0.0
 11
1.250000000000129
 21
-2.165063509461022
 31
0.0
210
0.0
220
0.0
230
1.0
 40
0.5773502691896258
 41
3.742856870268578
 42
5.681921090500121
  0
ELLIPSE
  5
BF14
330
BEC5
100
AcDbEntity
  8
0
100
AcDbEllipse
 10
64.81774489735847
 20
31.70706639826034
 30
0.0
 11
1.250000000000129
 21
-2.165063509461022
 31
0.0
210
0.0
220
0.0
230
1.0
 40
0.5773502691896258
 41
3.742856870268576
 42
5.681921090500121
  0
ELLIPSE
  5
BF15
330
BEC5
100
AcDbEntity
  8
0
100
AcDbEllipse
 10
64.81774489735847
 20
48.03699801681486
 30
0.0
 11
1.250000000000129
 21
-2.165063509461022
 31
0.0
210
0.0
220
0.0
230
1.0
 40
0.5773502691896258
 41
3.742856870268585
 42
5.681921090500116
  0
ELLIPSE
  5
BF16
330
BEC5
100
AcDbEntity
  8
0
100
AcDbEllipse
 10
64.81774489735847
 20
64.36692963536938
 30
0.0
 11
1.250000000000129
 21
-2.165063509461022
 31
0.0
210
0.0
220
0.0
230
1.0
 40
0.5773502691896258
 41
3.742856870268585
 42
5.681921090500116
  0
ELLIPSE
  5
BF17
330
BEC5
100
AcDbEntity
  8
0
100
AcDbEllipse
 10
63.40353133498537
 20
-50.75908827543999
 30
0.0
 11
-1.25
 21
2.165063509461097
 31
0.0
210
0.0
220
0.0
230
1.0
 40
0.5773502691896258
 41
0.0
 42
6.283185307179586
  0
ELLIPSE
  5
BF18
330
BEC5
100
AcDbEntity
  8
0
100
AcDbEllipse
 10
63.40353133498537
 20
-34.42915665688548
 30
0.0
 11
-1.25
 21
2.165063509461097
 31
0.0
210
0.0
220
0.0
230
1.0
 40
0.5773502691896258
 41
0.0
 42
6.283185307179586
  0
ELLIPSE
  5
BF19
330
BEC5
100
AcDbEntity
  8
0
100
AcDbEllipse
 10
63.40353133498537
 20
-18.09922503833096
 30
0.0
 11
-1.25
 21
2.165063509461097
 31
0.0
210
0.0
220
0.0
230
1.0
 40
0.5773502691896258
 41
0.0
 42
6.283185307179586
  0
ELLIPSE
  5
BF1A
330
BEC5
100
AcDbEntity
  8
0
100
AcDbEllipse
 10
63.40353133498537
 20
-1.769293419776429
 30
0.0
 11
-1.25
 21
2.165063509461097
 31
0.0
210
0.0
220
0.0
230
1.0
 40
0.5773502691896258
 41
0.0
 42
6.283185307179586
  0
ELLIPSE
  5
BF1B
330
BEC5
100
AcDbEntity
  8
0
100
AcDbEllipse
 10
63.40353133498537
 20
14.56063819877809
 30
0.0
 11
-1.25
 21
2.165063509461097
 31
0.0
210
0.0
220
0.0
230
1.0
 40
0.5773502691896258
 41
0.0
 42
6.283185307179586
  0
ELLIPSE
  5
BF1C
330
BEC5
100
AcDbEntity
  8
0
100
AcDbEllipse
 10
63.40353133498537
 20
30.89056981733262
 30
0.0
 11
-1.25
 21
2.165063509461097
 31
0.0
210
0.0
220
0.0
230
1.0
 40
0.5773502691896258
 41
0.0
 42
6.283185307179586
  0
ELLIPSE
  5
BF1D
330
BEC5
100
AcDbEntity
  8
0
100
AcDbEllipse
 10
63.40353133498537
 20
47.22050143588714
 30
0.0
 11
-1.25
 21
2.165063509461097
 31
0.0
210
0.0
220
0.0
230
1.0
 40
0.5773502691896258
 41
0.0
 42
6.283185307179586
  0
ELLIPSE
  5
BF1E
330
BEC5
100
AcDbEntity
  8
0
100
AcDbEllipse
 10
63.40353133498537
 20
63.55043305444167
 30
0.0
 11
-1.25
 21
2.165063509461097
 31
0.0
210
0.0
220
0.0
230
1.0
 40
0.5773502691896258
 41
0.0
 42
6.283185307179586
  0
ELLIPSE
  5
BF1F
330
BEC5
100
AcDbEntity
  8
0
100
AcDbEllipse
 10
64.81774489735847
 20
80.69686125392392
 30
0.0
 11
1.250000000000129
 21
-2.165063509461022
 31
0.0
210
0.0
220
0.0
230
1.0
 40
0.5773502691896258
 41
3.742856870268589
 42
5.681921090500122
  0
ELLIPSE
  5
BF20
330
BEC5
100
AcDbEntity
  8
0
100
AcDbEllipse
 10
-5.892933221296305
 20
119.8886971384548
 30
0.0
 11
1.25
 21
-2.165063509461096
 31
0.0
210
0.0
220
0.0
230
1.0
 40
0.577350269189626
 41
0.0
 42
6.283185307179586
  0
ELLIPSE
  5
BF21
330
BEC5
100
AcDbEntity
  8
0
100
AcDbEllipse
 10
-4.478719658923213
 20
120.7051937193825
 30
0.0
 11
1.25000000000013
 21
-2.165063509461022
 31
0.0
210
0.0
220
0.0
230
1.0
 40
0.5773502691896259
 41
3.742856870268576
 42
5.681921090500121
  0
ELLIPSE
  5
BF22
330
BEC5
100
AcDbEntity
  8
0
100
AcDbEllipse
 10
63.40353133498537
 20
79.88036467299619
 30
0.0
 11
-1.25
 21
2.165063509461097
 31
0.0
210
0.0
220
0.0
230
1.0
 40
0.5773502691896258
 41
0.0
 42
6.283185307179586
  0
ELLIPSE
  5
BF23
330
BEC5
100
AcDbEntity
  8
0
100
AcDbEllipse
 10
80.37409408346253
 20
-50.75908827544001
 30
0.0
 11
1.250000000000129
 21
-2.165063509461022
 31
0.0
210
0.0
220
0.0
230
1.0
 40
0.5773502691896258
 41
3.742856870268576
 42
5.681921090500121
  0
ELLIPSE
  5
BF24
330
BEC5
100
AcDbEntity
  8
0
100
AcDbEllipse
 10
80.37409408346253
 20
-34.42915665688548
 30
0.0
 11
1.250000000000129
 21
-2.165063509461022
 31
0.0
210
0.0
220
0.0
230
1.0
 40
0.5773502691896258
 41
3.742856870268576
 42
5.681921090500121
  0
ELLIPSE
  5
BF25
330
BEC5
100
AcDbEntity
  8
0
100
AcDbEllipse
 10
80.37409408346253
 20
-18.09922503833096
 30
0.0
 11
1.250000000000129
 21
-2.165063509461022
 31
0.0
210
0.0
220
0.0
230
1.0
 40
0.5773502691896258
 41
3.742856870268578
 42
5.681921090500121
  0
ELLIPSE
  5
BF26
330
BEC5
100
AcDbEntity
  8
0
100
AcDbEllipse
 10
80.37409408346253
 20
-1.769293419776438
 30
0.0
 11
1.250000000000129
 21
-2.165063509461022
 31
0.0
210
0.0
220
0.0
230
1.0
 40
0.5773502691896258
 41
3.742856870268578
 42
5.681921090500121
  0
ELLIPSE
  5
BF27
330
BEC5
100
AcDbEntity
  8
0
100
AcDbEllipse
 10
80.37409408346253
 20
14.56063819877809
 30
0.0
 11
1.250000000000129
 21
-2.165063509461022
 31
0.0
210
0.0
220
0.0
230
1.0
 40
0.5773502691896258
 41
3.742856870268578
 42
5.681921090500121
  0
ELLIPSE
  5
BF28
330
BEC5
100
AcDbEntity
  8
0
100
AcDbEllipse
 10
80.37409408346253
 20
30.89056981733262
 30
0.0
 11
1.250000000000129
 21
-2.165063509461022
 31
0.0
210
0.0
220
0.0
230
1.0
 40
0.5773502691896258
 41
3.742856870268576
 42
5.681921090500121
  0
ELLIPSE
  5
BF29
330
BEC5
100
AcDbEntity
  8
0
100
AcDbEllipse
 10
80.37409408346253
 20
47.22050143588714
 30
0.0
 11
1.250000000000129
 21
-2.165063509461022
 31
0.0
210
0.0
220
0.0
230
1.0
 40
0.5773502691896258
 41
3.742856870268585
 42
5.681921090500111
  0
ELLIPSE
  5
BF2A
330
BEC5
100
AcDbEntity
  8
0
100
AcDbEllipse
 10
78.95988052108944
 20
-51.57558485636773
 30
0.0
 11
-1.25
 21
2.165063509461097
 31
0.0
210
0.0
220
0.0
230
1.0
 40
0.5773502691896258
 41
0.0
 42
6.283185307179586
  0
ELLIPSE
  5
BF2B
330
BEC5
100
AcDbEntity
  8
0
100
AcDbEllipse
 10
78.95988052108944
 20
-35.2456532378132
 30
0.0
 11
-1.25
 21
2.165063509461097
 31
0.0
210
0.0
220
0.0
230
1.0
 40
0.5773502691896258
 41
0.0
 42
6.283185307179586
  0
ELLIPSE
  5
BF2C
330
BEC5
100
AcDbEntity
  8
0
100
AcDbEllipse
 10
78.95988052108944
 20
-18.91572161925867
 30
0.0
 11
-1.25
 21
2.165063509461097
 31
0.0
210
0.0
220
0.0
230
1.0
 40
0.5773502691896258
 41
0.0
 42
6.283185307179586
  0
ELLIPSE
  5
BF2D
330
BEC5
100
AcDbEntity
  8
0
100
AcDbEllipse
 10
78.95988052108944
 20
-2.585790000704166
 30
0.0
 11
-1.25
 21
2.165063509461097
 31
0.0
210
0.0
220
0.0
230
1.0
 40
0.5773502691896258
 41
0.0
 42
6.283185307179586
  0
ELLIPSE
  5
BF2E
330
BEC5
100
AcDbEntity
  8
0
100
AcDbEllipse
 10
78.95988052108944
 20
13.74414161785036
 30
0.0
 11
-1.25
 21
2.165063509461097
 31
0.0
210
0.0
220
0.0
230
1.0
 40
0.5773502691896258
 41
0.0
 42
6.283185307179586
  0
ELLIPSE
  5
BF2F
330
BEC5
100
AcDbEntity
  8
0
100
AcDbEllipse
 10
78.95988052108944
 20
30.07407323640489
 30
0.0
 11
-1.25
 21
2.165063509461097
 31
0.0
210
0.0
220
0.0
230
1.0
 40
0.5773502691896258
 41
0.0
 42
6.283185307179586
  0
ELLIPSE
  5
BF30
330
BEC5
100
AcDbEntity
  8
0
100
AcDbEllipse
 10
78.95988052108944
 20
46.4040048549594
 30
0.0
 11
-1.25
 21
2.165063509461097
 31
0.0
210
0.0
220
0.0
230
1.0
 40
0.5773502691896258
 41
0.0
 42
6.283185307179586
  0
LINE
  5
BF31
330
BEC5
100
AcDbEntity
  8
0
100
AcDbLine
 10
-24.56299476236719
 20
4.051770190028989
 30
0.0
 11
-23.86825385478513
 21
3.048998065005132
 31
0.0
  0
LINE
  5
BF32
330
BEC5
100
AcDbEntity
  8
0
100
AcDbLine
 10
-29.22745700045239
 20
-26.67243913807212
 30
0.0
 11
-57.51172824791431
 21
-67.49726818445839
 31
0.0
  0
LINE
  5
BF33
330
BEC5
100
AcDbEntity
  8
0
100
AcDbLine
 10
-30.64167056282548
 20
-25.85594255714438
 30
0.0
 11
-29.22745700045239
 21
-26.67243913807212
 31
0.0
  0
LINE
  5
BF34
330
BEC5
100
AcDbEntity
  8
0
100
AcDbLine
 10
-58.9259418102874
 20
-66.68077160353067
 30
0.0
 11
-30.64167056282548
 21
-25.85594255714438
 31
0.0
  0
LINE
  5
BF35
330
BEC5
100
AcDbEntity
  8
0
100
AcDbLine
 10
-57.51172824791431
 20
-67.49726818445839
 30
0.0
 11
-58.9259418102874
 21
-66.68077160353067
 31
0.0
  0
LINE
  5
BF36
330
BEC5
100
AcDbEntity
  8
0
100
AcDbLine
 10
-29.22745700045237
 20
101.5175240675809
 30
0.0
 11
-29.22745700045239
 21
-26.67243913807212
 31
0.0
  0
LINE
  5
BF37
330
BEC5
100
AcDbEntity
  8
0
100
AcDbLine
 10
-30.64167056282546
 20
102.3340206485086
 30
0.0
 11
-29.22745700045237
 21
101.5175240675809
 31
0.0
  0
LINE
  5
BF38
330
BEC5
100
AcDbEntity
  8
0
100
AcDbLine
 10
-30.64167056282548
 20
-25.85594255714438
 30
0.0
 11
-30.64167056282546
 21
102.3340206485086
 31
0.0
  0
ELLIPSE
  5
BF39
330
BEC5
100
AcDbEntity
  8
0
100
AcDbEllipse
 10
-13.67110781434833
 20
112.1319796196414
 30
0.0
 11
-3.250000000000007
 21
5.629165124598848
 31
0.0
210
0.0
220
0.0
230
1.0
 40
0.5773502691896259
 41
4.71238898038469
 42
7.853981633974483
  0
ELLIPSE
  5
BF3A
330
BEC5
100
AcDbEntity
  8
0
100
AcDbEllipse
 10
-12.25689425197524
 20
112.9484762005691
 30
0.0
 11
-3.250000000000003
 21
5.629165124598854
 31
0.0
210
0.0
220
0.0
230
1.0
 40
0.5773502691896259
 41
0.2193254863005869
 42
1.570796326794897
  0
ELLIPSE
  5
BF3B
330
BEC5
100
AcDbEntity
  8
0
100
AcDbEllipse
 10
-21.44928240740036
 20
120.7051937193825
 30
0.0
 11
1.25
 21
-2.165063509461096
 31
0.0
210
0.0
220
0.0
230
1.0
 40
0.577350269189626
 41
0.0
 42
6.283185307179586
  0
ELLIPSE
  5
BF3C
330
BEC5
100
AcDbEntity
  8
0
100
AcDbEllipse
 10
-20.03506884502727
 20
121.5216903003102
 30
0.0
 11
1.25000000000013
 21
-2.165063509461022
 31
0.0
210
0.0
220
0.0
230
1.0
 40
0.5773502691896259
 41
3.742856870268578
 42
5.68192109050012
  0
LINE
  5
BF3D
330
BEC5
100
AcDbEntity
  8
0
100
AcDbLine
 10
-0.9431857529904741
 20
119.4804488479908
 30
0.0
 11
-0.9431857529904696
 21
121.1134420098463
 31
0.0
  0
ELLIPSE
  5
BF3E
330
BEC5
100
AcDbEntity
  8
0
100
AcDbEllipse
 10
-2.35739931536357
 20
120.2969454289186
 30
0.0
 11
2.000000000000002
 21
-0.0000000000000003
 31
0.0
210
0.0
220
0.0
230
1.0
 40
0.5773502691896258
 41
5.497787143782129
 42
7.068583470577026
  0
LINE
  5
BF3F
330
BEC5
100
AcDbEntity
  8
0
100
AcDbLine
 10
0.4710278093826182
 20
118.6639522670631
 30
0.0
 11
0.4710278093826182
 21
-32.08172898671832
 31
0.0
  0
ELLIPSE
  5
BF40
330
BEC5
100
AcDbEntity
  8
0
100
AcDbEllipse
 10
-2.35739931536357
 20
120.2969454289186
 30
0.0
 11
4.0
 21
0.0
 31
0.0
210
0.0
220
0.0
230
1.0
 40
0.5773502691896258
 41
5.497787143782137
 42
7.068583470577034
  0
LINE
  5
BF41
330
BEC5
100
AcDbEntity
  8
0
100
AcDbLine
 10
-0.9431857529904696
 20
121.1134420098463
 30
0.0
 11
0.4710278093826226
 21
121.9299385907741
 31
0.0
  0
LINE
  5
BF42
330
BEC5
100
AcDbEntity
  8
0
100
AcDbLine
 10
-0.9431857529904741
 20
119.4804488479909
 30
0.0
 11
0.4710278093826182
 21
118.6639522670631
 31
0.0
  0
LINE
  5
BF43
330
BEC5
100
AcDbEntity
  8
0
100
AcDbLine
 10
1.642600684636432
 20
-30.44873582486284
 30
0.0
 11
1.642600684636432
 21
120.2969454289187
 31
0.0
  0
LINE
  5
BF44
330
BEC5
100
AcDbEntity
  8
0
100
AcDbLine
 10
-27.45969004748602
 20
136.4227529022412
 30
0.0
 11
-0.9431857529904696
 21
121.1134420098463
 31
0.0
  0
LINE
  5
BF45
330
BEC5
100
AcDbEntity
  8
0
100
AcDbLine
 10
-27.45969004748604
 20
104.1711379555959
 30
0.0
 11
-27.45969004748602
 21
136.4227529022412
 31
0.0
  0
LINE
  5
BF46
330
BEC5
100
AcDbEntity
  8
0
100
AcDbLine
 10
-57.51172824791426
 20
-86.27668954579608
 30
0.0
 11
-57.51172824791431
 21
-67.49726818445839
 31
0.0
  0
LINE
  5
BF47
330
BEC5
100
AcDbEntity
  8
0
100
AcDbLine
 10
-29.22745700045237
 20
101.5175240675809
 30
0.0
 11
0.4710278093826182
 21
118.6639522670631
 31
0.0
  0
LINE
  5
BF48
330
BEC5
100
AcDbEntity
  8
0
100
AcDbLine
 10
-58.9259418102874
 20
-66.68077160353067
 30
0.0
 11
-58.92594181028735
 21
-85.46019296486836
 31
0.0
  0
LINE
  5
BF49
330
BEC5
100
AcDbEntity
  8
0
100
AcDbLine
 10
-0.9431857529904741
 20
119.4804488479909
 30
0.0
 11
-30.64167056282546
 21
102.3340206485086
 31
0.0
  0
LINE
  5
BF4A
330
BEC5
100
AcDbEntity
  8
0
100
AcDbLine
 10
0.4710278093826226
 20
121.9299385907741
 30
0.0
 11
-26.04547648511293
 21
137.2392494831689
 31
0.0
  0
LINE
  5
BF4B
330
BEC5
100
AcDbEntity
  8
0
100
AcDbLine
 10
-26.04547648511293
 20
137.2392494831689
 30
0.0
 11
-27.45969004748602
 21
136.4227529022412
 31
0.0
  0
ELLIPSE
  5
BF4C
330
BEC5
100
AcDbEntity
  8
0
100
AcDbEllipse
 10
29.81595922862434
 20
-69.33438549154577
 30
0.0
 11
1.24999999999987
 21
2.165063509461172
 31
0.0
210
0.0
220
0.0
230
1.0
 40
0.577350269189626
 41
3.742856870268575
 42
5.681921090500117
  0
ELLIPSE
  5
BF4D
330
BEC5
100
AcDbEntity
  8
0
100
AcDbEllipse
 10
31.23017279099745
 20
-70.15088207247349
 30
0.0
 11
-1.25
 21
-2.165063509461096
 31
0.0
210
0.0
220
0.0
230
1.0
 40
0.577350269189626
 41
0.0
 42
6.283185307179586
  0
ELLIPSE
  5
BF4E
330
BEC5
100
AcDbEntity
  8
0
100
AcDbEllipse
 10
29.81595922862434
 20
-53.00445387299125
 30
0.0
 11
1.24999999999987
 21
2.165063509461172
 31
0.0
210
0.0
220
0.0
230
1.0
 40
0.577350269189626
 41
3.742856870268575
 42
5.681921090500117
  0
ELLIPSE
  5
BF4F
330
BEC5
100
AcDbEntity
  8
0
100
AcDbEllipse
 10
31.23017279099745
 20
-53.82095045391896
 30
0.0
 11
-1.25
 21
-2.165063509461096
 31
0.0
210
0.0
220
0.0
230
1.0
 40
0.577350269189626
 41
0.0
 42
6.283185307179586
  0
ELLIPSE
  5
BF50
330
BEC5
100
AcDbEntity
  8
0
100
AcDbEllipse
 10
29.81595922862434
 20
-36.67452225443672
 30
0.0
 11
1.24999999999987
 21
2.165063509461172
 31
0.0
210
0.0
220
0.0
230
1.0
 40
0.577350269189626
 41
3.742856870268575
 42
5.681921090500117
  0
ELLIPSE
  5
BF51
330
BEC5
100
AcDbEntity
  8
0
100
AcDbEllipse
 10
31.23017279099745
 20
-37.49101883536444
 30
0.0
 11
-1.25
 21
-2.165063509461096
 31
0.0
210
0.0
220
0.0
230
1.0
 40
0.577350269189626
 41
0.0
 42
6.283185307179586
  0
ELLIPSE
  5
BF52
330
BEC5
100
AcDbEntity
  8
0
100
AcDbEllipse
 10
29.81595922862434
 20
-20.3445906358822
 30
0.0
 11
1.24999999999987
 21
2.165063509461172
 31
0.0
210
0.0
220
0.0
230
1.0
 40
0.577350269189626
 41
3.742856870268575
 42
5.681921090500118
  0
ELLIPSE
  5
BF53
330
BEC5
100
AcDbEntity
  8
0
100
AcDbEllipse
 10
31.23017279099745
 20
-21.16108721680992
 30
0.0
 11
-1.25
 21
-2.165063509461096
 31
0.0
210
0.0
220
0.0
230
1.0
 40
0.577350269189626
 41
0.0
 42
6.283185307179586
  0
ELLIPSE
  5
BF54
330
BEC5
100
AcDbEntity
  8
0
100
AcDbEllipse
 10
29.81595922862434
 20
-4.014659017327684
 30
0.0
 11
1.24999999999987
 21
2.165063509461172
 31
0.0
210
0.0
220
0.0
230
1.0
 40
0.577350269189626
 41
3.742856870268575
 42
5.681921090500118
  0
ELLIPSE
  5
BF55
330
BEC5
100
AcDbEntity
  8
0
100
AcDbEllipse
 10
31.23017279099745
 20
-4.831155598255403
 30
0.0
 11
-1.25
 21
-2.165063509461096
 31
0.0
210
0.0
220
0.0
230
1.0
 40
0.577350269189626
 41
0.0
 42
6.283185307179586
  0
ELLIPSE
  5
BF56
330
BEC5
100
AcDbEntity
  8
0
100
AcDbEllipse
 10
29.81595922862434
 20
12.31527260122683
 30
0.0
 11
1.24999999999987
 21
2.165063509461172
 31
0.0
210
0.0
220
0.0
230
1.0
 40
0.577350269189626
 41
3.742856870268575
 42
5.681921090500118
  0
ELLIPSE
  5
BF57
330
BEC5
100
AcDbEntity
  8
0
100
AcDbEllipse
 10
31.23017279099745
 20
11.49877602029912
 30
0.0
 11
-1.25
 21
-2.165063509461096
 31
0.0
210
0.0
220
0.0
230
1.0
 40
0.577350269189626
 41
0.0
 42
6.283185307179586
  0
ELLIPSE
  5
BF58
330
BEC5
100
AcDbEntity
  8
0
100
AcDbEllipse
 10
29.81595922862434
 20
28.64520421978136
 30
0.0
 11
1.24999999999987
 21
2.165063509461172
 31
0.0
210
0.0
220
0.0
230
1.0
 40
0.577350269189626
 41
3.742856870268575
 42
5.681921090500117
  0
ELLIPSE
  5
BF59
330
BEC5
100
AcDbEntity
  8
0
100
AcDbEllipse
 10
31.23017279099745
 20
27.82870763885364
 30
0.0
 11
-1.25
 21
-2.165063509461096
 31
0.0
210
0.0
220
0.0
230
1.0
 40
0.577350269189626
 41
0.0
 42
6.283185307179586
  0
ELLIPSE
  5
BF5A
330
BEC5
100
AcDbEntity
  8
0
100
AcDbEllipse
 10
29.81595922862434
 20
44.97513583833588
 30
0.0
 11
1.24999999999987
 21
2.165063509461172
 31
0.0
210
0.0
220
0.0
230
1.0
 40
0.577350269189626
 41
3.742856870268575
 42
5.681921090500102
  0
ELLIPSE
  5
BF5B
330
BEC5
100
AcDbEntity
  8
0
100
AcDbEllipse
 10
31.23017279099745
 20
44.15863925740816
 30
0.0
 11
-1.25
 21
-2.165063509461096
 31
0.0
210
0.0
220
0.0
230
1.0
 40
0.577350269189626
 41
0.0
 42
6.283185307179586
  0
ELLIPSE
  5
BF5C
330
BEC5
100
AcDbEntity
  8
0
100
AcDbEllipse
 10
-25.33836970392635
 20
-29.32605302608719
 30
0.0
 11
1.24999999999987
 21
2.165063509461172
 31
0.0
210
0.0
220
0.0
230
0.9999999999999998
 40
0.5773502691896258
 41
3.742856870268578
 42
5.681921090500119
  0
ELLIPSE
  5
BF5D
330
BEC5
100
AcDbEntity
  8
0
100
AcDbEllipse
 10
-23.92415614155326
 20
-30.14254960701491
 30
0.0
 11
1.25
 21
2.165063509461097
 31
0.0
210
0.0
220
0.0
230
1.0
 40
0.5773502691896258
 41
0.0
 42
6.283185307179586
  0
ELLIPSE
  5
BF5E
330
BEC5
100
AcDbEntity
  8
0
100
AcDbEllipse
 10
-25.33836970392635
 20
-12.99612140753265
 30
0.0
 11
1.24999999999987
 21
2.165063509461172
 31
0.0
210
0.0
220
0.0
230
0.9999999999999998
 40
0.5773502691896258
 41
3.742856870268578
 42
5.681921090500119
  0
ELLIPSE
  5
BF5F
330
BEC5
100
AcDbEntity
  8
0
100
AcDbEllipse
 10
-23.92415614155326
 20
-13.81261798846038
 30
0.0
 11
1.25
 21
2.165063509461097
 31
0.0
210
0.0
220
0.0
230
1.0
 40
0.5773502691896258
 41
0.0
 42
6.283185307179586
  0
ELLIPSE
  5
BF60
330
BEC5
100
AcDbEntity
  8
0
100
AcDbEllipse
 10
-25.33836970392635
 20
3.333810211021868
 30
0.0
 11
1.24999999999987
 21
2.165063509461172
 31
0.0
210
0.0
220
0.0
230
0.9999999999999998
 40
0.5773502691896258
 41
3.742856870268578
 42
5.68192109050012
  0
ELLIPSE
  5
BF61
330
BEC5
100
AcDbEntity
  8
0
100
AcDbEllipse
 10
-23.92415614155326
 20
2.51731363009414
 30
0.0
 11
1.25
 21
2.165063509461097
 31
0.0
210
0.0
220
0.0
230
1.0
 40
0.5773502691896258
 41
0.0
 42
6.283185307179586
  0
ELLIPSE
  5
BF62
330
BEC5
100
AcDbEntity
  8
0
100
AcDbEllipse
 10
-25.33836970392635
 20
19.66374182957637
 30
0.0
 11
1.24999999999987
 21
2.165063509461172
 31
0.0
210
0.0
220
0.0
230
0.9999999999999998
 40
0.5773502691896258
 41
3.742856870268578
 42
5.681921090500117
  0
ELLIPSE
  5
BF63
330
BEC5
100
AcDbEntity
  8
0
100
AcDbEllipse
 10
-23.92415614155326
 20
18.84724524864865
 30
0.0
 11
1.25
 21
2.165063509461097
 31
0.0
210
0.0
220
0.0
230
1.0
 40
0.5773502691896258
 41
0.0
 42
6.283185307179586
  0
ELLIPSE
  5
BF64
330
BEC5
100
AcDbEntity
  8
0
100
AcDbEllipse
 10
-25.33836970392635
 20
35.9936734481309
 30
0.0
 11
1.24999999999987
 21
2.165063509461172
 31
0.0
210
0.0
220
0.0
230
0.9999999999999998
 40
0.5773502691896258
 41
3.742856870268578
 42
5.681921090500117
  0
ELLIPSE
  5
BF65
330
BEC5
100
AcDbEntity
  8
0
100
AcDbEllipse
 10
-23.92415614155326
 20
35.17717686720318
 30
0.0
 11
1.25
 21
2.165063509461097
 31
0.0
210
0.0
220
0.0
230
1.0
 40
0.5773502691896258
 41
0.0
 42
6.283185307179586
  0
ELLIPSE
  5
BF66
330
BEC5
100
AcDbEntity
  8
0
100
AcDbEllipse
 10
-25.33836970392635
 20
52.32360506668542
 30
0.0
 11
1.24999999999987
 21
2.165063509461172
 31
0.0
210
0.0
220
0.0
230
0.9999999999999998
 40
0.5773502691896258
 41
3.742856870268578
 42
5.681921090500117
  0
ELLIPSE
  5
BF67
330
BEC5
100
AcDbEntity
  8
0
100
AcDbEllipse
 10
-23.92415614155326
 20
51.5071084857577
 30
0.0
 11
1.25
 21
2.165063509461097
 31
0.0
210
0.0
220
0.0
230
1.0
 40
0.5773502691896258
 41
0.0
 42
6.283185307179586
  0
ELLIPSE
  5
BF68
330
BEC5
100
AcDbEntity
  8
0
100
AcDbEllipse
 10
-25.33836970392635
 20
68.65353668523995
 30
0.0
 11
1.24999999999987
 21
2.165063509461172
 31
0.0
210
0.0
220
0.0
230
0.9999999999999998
 40
0.5773502691896258
 41
3.742856870268578
 42
5.681921090500103
  0
ELLIPSE
  5
BF69
330
BEC5
100
AcDbEntity
  8
0
100
AcDbEllipse
 10
-23.92415614155326
 20
67.83704010431224
 30
0.0
 11
1.25
 21
2.165063509461097
 31
0.0
210
0.0
220
0.0
230
1.0
 40
0.5773502691896258
 41
0.0
 42
6.283185307179586
  0
ELLIPSE
  5
BF6A
330
BEC5
100
AcDbEntity
  8
0
100
AcDbEllipse
 10
-25.33836970392635
 20
84.98346830379446
 30
0.0
 11
1.24999999999987
 21
2.165063509461172
 31
0.0
210
0.0
220
0.0
230
0.9999999999999998
 40
0.5773502691896258
 41
3.742856870268578
 42
5.681921090500103
  0
ELLIPSE
  5
BF6B
330
BEC5
100
AcDbEntity
  8
0
100
AcDbEllipse
 10
-23.92415614155326
 20
84.16697172286674
 30
0.0
 11
1.25
 21
2.165063509461097
 31
0.0
210
0.0
220
0.0
230
1.0
 40
0.5773502691896258
 41
0.0
 42
6.283185307179586
  0
ELLIPSE
  5
BF6C
330
BEC5
100
AcDbEntity
  8
0
100
AcDbEllipse
 10
-25.33836970392635
 20
101.313399922349
 30
0.0
 11
1.24999999999987
 21
2.165063509461172
 31
0.0
210
0.0
220
0.0
230
0.9999999999999998
 40
0.5773502691896258
 41
3.742856870268578
 42
5.681921090500103
  0
ELLIPSE
  5
BF6D
330
BEC5
100
AcDbEntity
  8
0
100
AcDbEllipse
 10
-23.92415614155326
 20
100.4969033414212
 30
0.0
 11
1.25
 21
2.165063509461097
 31
0.0
210
0.0
220
0.0
230
1.0
 40
0.5773502691896258
 41
0.0
 42
6.283185307179586
  0
ENDBLK
  5
BEC7
330
BEC5
100
AcDbEntity
  8
0
100
AcDbBlockEnd
  0
ENDSEC
  0
SECTION
  2
ENTITIES
  0
INSERT
  5
BF6E
330
1F
100
AcDbEntity
  8
0
100
AcDbBlockReference
  2
SAE500_76_2-Front
 10
0.0
 20
0.0
 30
0.0
  0
INSERT
  5
BF6F
330
1F
100
AcDbEntity
  8
0
100
AcDbBlockReference
  2
SAE500_76_2-Left
 10
143.7
 20
0.0
 30
0.0
  0
INSERT
  5
BF70
330
1F
100
AcDbEntity
  8
0
100
AcDbBlockReference
  2
SAE500_76_2-Right
 10
-143.7
 20
0.0
 30
0.0
  0
INSERT
  5
BF71
330
1F
100
AcDbEntity
  8
0
100
AcDbBlockReference
  2
SAE500_76_2-Top
 10
0.0
 20
-66.2
 30
0.0
  0
INSERT
  5
BF72
330
1F
100
AcDbEntity
  8
0
100
AcDbBlockReference
  2
SAE500_76_2-Bottom
 10
0.0
 20
276.2
 30
0.0
  0
INSERT
  5
BF73
330
1F
100
AcDbEntity
  8
0
100
AcDbBlockReference
  2
SAE500_76_2-ISO
 10
202.6259418102875
 20
-203.439249483169
 30
0.0
  0
MTEXT
  5
BF74
330
1F
100
AcDbEntity
  8
0
100
AcDbMText
 10
0.0
 20
-216.4000000000001
 30
0.0
 40
17.9625
 41
0.0
 71
     5
 72
     5
  1
SAE500/76/2
 73
     1
 44
1.0
1001
ACAD
1000
MTEXTBEGIN
1070
    73
1070
     1
1070
    44
1040
1.0
1070
    74
1070
     0
1000
MTEXTEND
  0
ENDSEC
  0
SECTION
  2
OBJECTS
  0
DICTIONARY
  5
C
330
0
100
AcDbDictionary
281
     1
  3
ACAD_CIP_PREVIOUS_PRODUCT_INFO
350
216
  3
ACAD_COLOR
350
6B
  3
ACAD_DETAILVIEWSTYLE
350
21B
  3
ACAD_GROUP
350
D
  3
ACAD_LAYOUT
350
1A
  3
ACAD_MATERIAL
350
6A
  3
ACAD_MLEADERSTYLE
350
12D
  3
ACAD_MLINESTYLE
350
17
  3
ACAD_PLOTSETTINGS
350
19
  3
ACAD_PLOTSTYLENAME
350
E
  3
ACAD_SCALELIST
350
10C
  3
ACAD_SECTIONVIEWSTYLE
350
219
  3
ACAD_TABLESTYLE
350
7E
  3
ACAD_VISUALSTYLE
350
EF
  3
ACDB_RECOMPOSE_DATA
350
C075
  3
AcDbVariableDictionary
350
5E
  3
DWGPROPS
350
C076
  0
DICTIONARY
  5
BFC5
330
8
100
AcDbDictionary
280
     1
281
     1
  0
DICTIONARY
  5
1FF
330
2
100
AcDbDictionary
280
     1
281
     1
  3
ACAD_LAYERSTATES
360
200
  0
DICTIONARY
  5
13C
330
10
100
AcDbDictionary
280
     1
281
     1
  0
DICTIONARY
  5
1CE
330
1F
100
AcDbDictionary
280
     1
281
     1
  3
ACAD_LAYOUTSELFREF
360
BFCD
  0
DICTIONARY
  5
BF78
330
D2
100
AcDbDictionary
280
     1
281
     1
  3
ACAD_LAYOUTSELFREF
360
BFD6
  0
DICTIONARY
  5
BF7A
330
D6
100
AcDbDictionary
280
     1
281
     1
  3
ACAD_LAYOUTSELFREF
360
BFD9
  0
XRECORD
  5
216
102
{ACAD_REACTORS
330
C
102
}
330
C
100
AcDbXrecord
280
     1
300
ACD
300
2021
300
87393ACD_2021_0F
  0
DICTIONARY
  5
6B
102
{ACAD_REACTORS
330
C
102
}
330
C
100
AcDbDictionary
281
     1
  0
DICTIONARY
  5
21B
102
{ACAD_REACTORS
330
C
102
}
330
C
100
AcDbDictionary
281
     1
  3
Metric50
350
21C
  0
DICTIONARY
  5
D
102
{ACAD_REACTORS
330
C
102
}
330
C
100
AcDbDictionary
281
     1
  0
DICTIONARY
  5
1A
102
{ACAD_REACTORS
330
C
102
}
330
C
100
AcDbDictionary
281
     1
  3
Layout1
350
D3
  3
Layout2
350
D7
  3
Model
350
22
  0
DICTIONARY
  5
6A
102
{ACAD_REACTORS
330
C
102
}
330
C
100
AcDbDictionary
281
     1
  3
ByBlock
350
ED
  3
ByLayer
350
EC
  3
Global
350
EE
  0
DICTIONARY
  5
12D
102
{ACAD_REACTORS
330
C
102
}
330
C
100
AcDbDictionary
281
     1
  3
Standard
350
12E
  0
DICTIONARY
  5
17
102
{ACAD_REACTORS
330
C
102
}
330
C
100
AcDbDictionary
281
     1
  3
Standard
350
18
  0
DICTIONARY
  5
19
102
{ACAD_REACTORS
330
C
102
}
330
C
100
AcDbDictionary
281
     1
  0
ACDBDICTIONARYWDFLT
  5
E
102
{ACAD_REACTORS
330
C
102
}
330
C
100
AcDbDictionary
281
     1
  3
Normal
350
F
100
AcDbDictionaryWithDefault
340
F
  0
DICTIONARY
  5
10C
102
{ACAD_REACTORS
330
C
102
}
330
C
100
AcDbDictionary
281
     1
  3
A0
350
10D
  3
A1
350
1BE
  3
A2
350
1BF
  3
A3
350
1C0
  3
A4
350
1C1
  3
A5
350
1C2
  3
A6
350
1C3
  3
A7
350
1C4
  3
A8
350
1C5
  3
A9
350
1C6
  3
B0
350
1C7
  3
B1
350
1C8
  3
B2
350
1C9
  3
B3
350
1CA
  3
B4
350
1CB
  3
B5
350
1CC
  3
B6
350
1CD
  0
DICTIONARY
  5
219
102
{ACAD_REACTORS
330
C
102
}
330
C
100
AcDbDictionary
281
     1
  3
Metric50
350
21A
  0
DICTIONARY
  5
7E
102
{ACAD_REACTORS
330
C
102
}
330
C
100
AcDbDictionary
281
     1
  3
Standard
350
7F
  0
DICTIONARY
  5
EF
102
{ACAD_REACTORS
330
C
102
}
330
C
100
AcDbDictionary
281
     1
  3
2dWireframe
350
F5
  3
Basic
350
F4
  3
Brighten
350
FB
  3
ColorChange
350
FF
  3
Conceptual
350
F8
  3
Dim
350
FA
  3
EdgeColorOff
350
1E6
  3
Facepattern
350
FE
  3
Flat
350
F0
  3
FlatWithEdges
350
F1
  3
Gouraud
350
F2
  3
GouraudWithEdges
350
F3
  3
Hidden
350
F7
  3
JitterOff
350
1E4
  3
Linepattern
350
FD
  3
OverhangOff
350
1E5
  3
Realistic
350
F9
  3
Shaded
350
1F3
  3
Shaded with edges
350
1F2
  3
Shades of Gray
350
1EF
  3
Sketchy
350
1F0
  3
Thicken
350
FC
  3
Wireframe
350
F6
  3
X-Ray
350
1F1
  0
XRECORD
  5
C075
102
{ACAD_REACTORS
330
C
102
}
330
C
100
AcDbXrecord
280
     1
 90
        1
330
7F
  0
DICTIONARY
  5
5E
102
{ACAD_REACTORS
330
C
102
}
330
C
100
AcDbDictionary
281
     1
  3
CANNOSCALE
350
146
  3
CENTEREXE
350
259
  3
CENTERLTYPEFILE
350
25A
  3
CMLEADERSTYLE
350
145
  3
CTABLESTYLE
350
84
  3
CVIEWDETAILSTYLE
350
227
  3
CVIEWSECTIONSTYLE
350
228
  3
DIMASSOC
350
5F
  3
HIDETEXT
350
63
  3
INDEXCTL
350
C022
  3
LAYEREVAL
350
1AE
  3
LAYERNOTIFY
350
1AF
  3
LIGHTINGUNITS
350
C020
  3
MSLTSCALE
350
C01F
  3
PSOLHEIGHT
350
C072
  3
PSOLWIDTH
350
C071
  3
SORTENTS
350
C021
  3
XCLIPFRAME
350
C073
  0
XRECORD
  5
C076
102
{ACAD_REACTORS
330
C
102
}
330
C
100
AcDbXrecord
280
     1
  1
DWGPROPS COOKIE
  2

  3

  4

  6

  7

  8
truole
  9

300
=
301
=
302
=
303
=
304
=
305
=
306
=
307
=
308
=
309
=
 40
0.0081134259259259
 41
2460398.356956019
 42
2460398.376215278
  1

 90
        0
  0
DICTIONARY
  5
200
102
{ACAD_REACTORS
330
1FF
102
}
330
1FF
100
AcDbDictionary
281
     1
  0
XRECORD
  5
BFCD
102
{ACAD_REACTORS
330
1CE
102
}
330
1CE
100
AcDbXrecord
280
     1
340
1F
  0
XRECORD
  5
BFD6
102
{ACAD_REACTORS
330
BF78
102
}
330
BF78
100
AcDbXrecord
280
     1
340
D2
  0
XRECORD
  5
BFD9
102
{ACAD_REACTORS
330
BF7A
102
}
330
BF7A
100
AcDbXrecord
280
     1
340
D6
  0
ACDBDETAILVIEWSTYLE
  5
21C
102
{ACAD_XDICTIONARY
360
C0B5
102
}
102
{ACAD_REACTORS
330
21B
102
}
330
21B
100
AcDbModelDocViewStyle
 70
     0
  3
Metric50
290
     0
100
AcDbDetailViewStyle
 70
     0
 71
     0
 90
        3
 71
     1
340
11
 40
5.0
340
0
 40
5.0
300

 40
0.0
280
     1
 71
     2
340
16
 90
       25
 71
     3
340
11
 40
5.0
 90
        0
 40
15.0
 90
        1
300
%<\AcVar ViewDetailId>% (%<\AcVar ViewScale \f "%sn">%)
 71
     4
340
16
 90
       25
340
16
 90
       25
280
     0
  0
LAYOUT
  5
D3
102
{ACAD_XDICTIONARY
360
C07A
102
}
102
{ACAD_REACTORS
330
1A
102
}
330
1A
100
AcDbPlotSettings
  1

  2
C:\Documents and Settings\basas\Application Data\Autodesk\AutoCAD 2005\R16.1\enu\plotters\Default Windows System Printer.pc3
  4

  6

 40
0.0
 41
0.0
 42
0.0
 43
0.0
 44
0.0
 45
0.0
 46
0.0
 47
0.0
 48
0.0
 49
0.0
140
0.0
141
0.0
142
1.0
143
1.0
 70
   688
 72
     0
 73
     0
 74
     5
  7

 75
    16
147
1.0
148
0.0
149
0.0
100
AcDbLayout
  1
Layout1
 70
     1
 71
     1
 10
0.0
 20
0.0
 11
12.0
 21
9.0
 12
0.0
 22
0.0
 32
0.0
 14
0.0
 24
0.0
 34
0.0
 15
0.0
 25
0.0
 35
0.0
146
0.0
 13
0.0
 23
0.0
 33
0.0
 16
1.0
 26
0.0
 36
0.0
 17
0.0
 27
1.0
 37
0.0
 76
     0
330
D2
  0
LAYOUT
  5
D7
102
{ACAD_XDICTIONARY
360
C07C
102
}
102
{ACAD_REACTORS
330
1A
102
}
330
1A
100
AcDbPlotSettings
  1

  2
C:\Documents and Settings\basas\Application Data\Autodesk\AutoCAD 2005\R16.1\enu\plotters\Default Windows System Printer.pc3
  4

  6

 40
0.0
 41
0.0
 42
0.0
 43
0.0
 44
0.0
 45
0.0
 46
0.0
 47
0.0
 48
0.0
 49
0.0
140
0.0
141
0.0
142
1.0
143
1.0
 70
   688
 72
     0
 73
     0
 74
     5
  7

 75
    16
147
1.0
148
0.0
149
0.0
100
AcDbLayout
  1
Layout2
 70
     1
 71
     2
 10
0.0
 20
0.0
 11
12.0
 21
9.0
 12
0.0
 22
0.0
 32
0.0
 14
0.0
 24
0.0
 34
0.0
 15
0.0
 25
0.0
 35
0.0
146
0.0
 13
0.0
 23
0.0
 33
0.0
 16
1.0
 26
0.0
 36
0.0
 17
0.0
 27
1.0
 37
0.0
 76
     0
330
D6
  0
LAYOUT
  5
22
102
{ACAD_XDICTIONARY
360
C077
102
}
102
{ACAD_REACTORS
330
1A
102
}
330
1A
100
AcDbPlotSettings
  1

  2
none_device
  4
ISO_A4_(210.00_x_297.00_MM)
  6

 40
7.5
 41
20.0
 42
7.5
 43
20.0
 44
210.0
 45
297.0
 46
11.54999923706054
 47
-13.65000009536743
 48
0.0
 49
0.0
140
0.0
141
0.0
142
1.0
143
8.704084754739808
 70
 11952
 72
     1
 73
     0
 74
     0
  7

 75
     0
147
0.1148885871608098
148
0.0
149
0.0
100
AcDbLayout
  1
Model
 70
     1
 71
     0
 10
0.0
 20
0.0
 11
12.0
 21
9.0
 12
0.0
 22
0.0
 32
0.0
 14
0.0
 24
0.0
 34
0.0
 15
0.0
 25
0.0
 35
0.0
146
0.0
 13
0.0
 23
0.0
 33
0.0
 16
1.0
 26
0.0
 36
0.0
 17
0.0
 27
1.0
 37
0.0
 76
     0
330
1F
331
EA
1001
ACAD_PSEXT
1000
None
1000
None
1000
Not applicable
1000
The layout will not be plotted unless a new plotter configuration name is selected.
1070
     0
  0
MATERIAL
  5
ED
102
{ACAD_XDICTIONARY
360
1F9
102
}
102
{ACAD_REACTORS
330
6A
102
}
330
6A
100
AcDbMaterial
  1
ByBlock
  0
MATERIAL
  5
EC
102
{ACAD_XDICTIONARY
360
1F7
102
}
102
{ACAD_REACTORS
330
6A
102
}
330
6A
100
AcDbMaterial
  1
ByLayer
  0
MATERIAL
  5
EE
102
{ACAD_XDICTIONARY
360
173
102
}
102
{ACAD_REACTORS
330
6A
102
}
330
6A
100
AcDbMaterial
  1
Global
 43
0.0007999999797903
 43
0.0
 43
0.0
 43
0.0
 43
0.0
 43
0.0007999999797903
 43
0.0
 43
0.0
 43
0.0
 43
0.0
 43
1.0
 43
0.0
 43
0.0
 43
0.0
 43
0.0
 43
1.0
 49
0.0007999999797903
 49
0.0
 49
0.0
 49
0.0
 49
0.0
 49
0.0007999999797903
 49
0.0
 49
0.0
 49
0.0
 49
0.0
 49
1.0
 49
0.0
 49
0.0
 49
0.0
 49
0.0
 49
1.0
142
0.0007999999797903
142
0.0
142
0.0
142
0.0
142
0.0
142
0.0007999999797903
142
0.0
142
0.0
142
0.0
142
0.0
142
1.0
142
0.0
142
0.0
142
0.0
142
0.0
142
1.0
144
0.0007999999797903
144
0.0
144
0.0
144
0.0
144
0.0
144
0.0007999999797903
144
0.0
144
0.0
144
0.0
144
0.0
144
1.0
144
0.0
144
0.0
144
0.0
144
0.0
144
1.0
1001
ACAD
1070
    -1
1070
     3
1070
     0
1000

1071
        0
1070
     0
  0
MLEADERSTYLE
  5
12E
102
{ACAD_XDICTIONARY
360
C0A1
102
}
102
{ACAD_REACTORS
330
12D
102
}
330
12D
100
AcDbMLeaderStyle
170
     2
171
     1
172
     0
 90
        2
 40
0.0
 41
0.0
173
     1
 91
-1056964608
340
14
 92
       -2
290
     1
 42
2.0
291
     1
 43
8.0
  3
Standard
 44
4.0
300

342
11
174
     1
178
     1
175
     1
176
     0
 93
-1056964608
 45
4.0
292
     0
297
     0
 46
4.0
 94
-1056964608
 47
1.0
 49
1.0
140
1.0
293
     1
141
0.0
294
     1
177
     0
142
1.0
295
     0
296
     0
143
3.75
1001
ACAD_MLEADERVER
1070
     2
  0
MLINESTYLE
  5
18
102
{ACAD_REACTORS
330
17
102
}
330
17
100
AcDbMlineStyle
  2
STANDARD
 70
     0
  3

 62
   256
 51
90.0
 52
90.0
 71
     2
 49
0.5
 62
   256
  6
BYLAYER
 49
-0.5
 62
   256
  6
BYLAYER
  0
ACDBPLACEHOLDER
  5
F
102
{ACAD_REACTORS
330
E
102
}
330
E
  0
SCALE
  5
10D
102
{ACAD_REACTORS
330
10C
102
}
330
10C
100
AcDbScale
 70
     0
300
1:1
140
1.0
141
1.0
290
     1
  0
SCALE
  5
1BE
102
{ACAD_REACTORS
330
10C
102
}
330
10C
100
AcDbScale
 70
     0
300
1:2
140
1.0
141
2.0
290
     0
  0
SCALE
  5
1BF
102
{ACAD_REACTORS
330
10C
102
}
330
10C
100
AcDbScale
 70
     0
300
1:4
140
1.0
141
4.0
290
     0
  0
SCALE
  5
1C0
102
{ACAD_REACTORS
330
10C
102
}
330
10C
100
AcDbScale
 70
     0
300
1:5
140
1.0
141
5.0
290
     0
  0
SCALE
  5
1C1
102
{ACAD_REACTORS
330
10C
102
}
330
10C
100
AcDbScale
 70
     0
300
1:8
140
1.0
141
8.0
290
     0
  0
SCALE
  5
1C2
102
{ACAD_REACTORS
330
10C
102
}
330
10C
100
AcDbScale
 70
     0
300
1:10
140
1.0
141
10.0
290
     0
  0
SCALE
  5
1C3
102
{ACAD_REACTORS
330
10C
102
}
330
10C
100
AcDbScale
 70
     0
300
1:16
140
1.0
141
16.0
290
     0
  0
SCALE
  5
1C4
102
{ACAD_REACTORS
330
10C
102
}
330
10C
100
AcDbScale
 70
     0
300
1:20
140
1.0
141
20.0
290
     0
  0
SCALE
  5
1C5
102
{ACAD_REACTORS
330
10C
102
}
330
10C
100
AcDbScale
 70
     0
300
1:30
140
1.0
141
30.0
290
     0
  0
SCALE
  5
1C6
102
{ACAD_REACTORS
330
10C
102
}
330
10C
100
AcDbScale
 70
     0
300
1:40
140
1.0
141
40.0
290
     0
  0
SCALE
  5
1C7
102
{ACAD_REACTORS
330
10C
102
}
330
10C
100
AcDbScale
 70
     0
300
1:50
140
1.0
141
50.0
290
     0
  0
SCALE
  5
1C8
102
{ACAD_REACTORS
330
10C
102
}
330
10C
100
AcDbScale
 70
     0
300
1:100
140
1.0
141
100.0
290
     0
  0
SCALE
  5
1C9
102
{ACAD_REACTORS
330
10C
102
}
330
10C
100
AcDbScale
 70
     0
300
2:1
140
2.0
141
1.0
290
     0
  0
SCALE
  5
1CA
102
{ACAD_REACTORS
330
10C
102
}
330
10C
100
AcDbScale
 70
     0
300
4:1
140
4.0
141
1.0
290
     0
  0
SCALE
  5
1CB
102
{ACAD_REACTORS
330
10C
102
}
330
10C
100
AcDbScale
 70
     0
300
8:1
140
8.0
141
1.0
290
     0
  0
SCALE
  5
1CC
102
{ACAD_REACTORS
330
10C
102
}
330
10C
100
AcDbScale
 70
     0
300
10:1
140
10.0
141
1.0
290
     0
  0
SCALE
  5
1CD
102
{ACAD_REACTORS
330
10C
102
}
330
10C
100
AcDbScale
 70
     0
300
100:1
140
100.0
141
1.0
290
     0
  0
ACDBSECTIONVIEWSTYLE
  5
21A
102
{ACAD_XDICTIONARY
360
C0B3
102
}
102
{ACAD_REACTORS
330
219
102
}
330
219
100
AcDbModelDocViewStyle
 70
     0
  3
Metric50
290
     0
100
AcDbSectionViewStyle
 70
     0
 71
     0
 90
      102
 71
     1
340
11
 40
5.0
340
0
340
0
 40
5.0
300
I, O, Q, S, X, Z
 40
10.0
 90
        0
 40
2.5
 90
        0
 71
     2
340
16
 90
       25
340
16
 90
       50
 40
5.0
 40
2.5
 40
5.0
 71
     3
340
11
 40
5.0
 90
        0
 40
15.0
 90
        1
300
%<\AcVar ViewSectionStartId>%-%<\AcVar ViewSectionEndId>% (%<\AcVar ViewScale \f "%sn">%)
 71
     4
300
ANSI31
 40
1.0
 90
        0
290
     0
290
     0
 90
        6
 40
0.0
 40
1.570796326794896
 40
0.2617993877991494
 40
1.308996938995747
 40
-0.2617993877991494
 40
1.832595714594046
  0
TABLESTYLE
  5
7F
102
{ACAD_XDICTIONARY
360
162
102
}
102
{ACAD_REACTORS
330
7E
102
}
330
7E
100
AcDbTableStyle
  3
Standard
 70
     0
 71
     0
 40
1.5
 41
1.5
280
     0
281
     0
  7
Standard
140
4.5
170
     2
 62
     0
 63
     7
283
     0
274
    -2
284
     1
 64
     0
275
    -2
285
     1
 65
     0
276
    -2
286
     1
 66
     0
277
    -2
287
     1
 67
     0
278
    -2
288
     1
 68
     0
279
    -2
289
     1
 69
     0
  7
Standard
140
6.0
170
     5
 62
     0
 63
     7
283
     0
274
    -2
284
     1
 64
     0
275
    -2
285
     1
 65
     0
276
    -2
286
     1
 66
     0
277
    -2
287
     1
 67
     0
278
    -2
288
     1
 68
     0
279
    -2
289
     1
 69
     0
  7
Standard
140
4.5
170
     5
 62
     0
 63
     7
283
     0
274
    -2
284
     1
 64
     0
275
    -2
285
     1
 65
     0
276
    -2
286
     1
 66
     0
277
    -2
287
     1
 67
     0
278
    -2
288
     1
 68
     0
279
    -2
289
     1
 69
     0
  0
VISUALSTYLE
  5
F5
102
{ACAD_XDICTIONARY
360
C08B
102
}
102
{ACAD_REACTORS
330
EF
102
}
330
EF
100
AcDbVisualStyle
  2
2dWireframe
 70
     4
 71
     0
 72
     2
 73
     1
 90
        0
 40
-0.6
 41
-30.0
 62
     5
 63
     7
 74
     1
 91
        4
 64
     7
 65
   257
 75
     1
175
     1
 42
1.0
 92
        0
 66
   257
 43
1.0
 76
     1
 77
     6
 78
     2
 67
     7
 79
     5
170
     0
171
     0
290
     0
174
     0
 93
        1
 44
0.0
173
     0
291
     0
 45
0.0
1001
ACAD
1000
AcDbSavedByObjectVersion
1070
     0
  0
VISUALSTYLE
  5
F4
102
{ACAD_XDICTIONARY
360
C089
102
}
102
{ACAD_REACTORS
330
EF
102
}
330
EF
100
AcDbVisualStyle
  2
Basic
 70
     7
 71
     1
 72
     0
 73
     1
 90
        0
 40
-0.6
 41
-30.0
 62
     5
 63
     7
 74
     0
 91
        4
 64
     7
 65
   257
 75
     1
175
     1
 42
1.0
 92
        8
 66
     7
 43
1.0
 76
     1
 77
     6
 78
     2
 67
     7
 79
     5
170
     0
171
     0
290
     0
174
     0
 93
        1
 44
0.0
173
     0
291
     1
 45
0.0
1001
ACAD
1000
AcDbSavedByObjectVersion
1070
     0
  0
VISUALSTYLE
  5
FB
102
{ACAD_XDICTIONARY
360
C097
102
}
102
{ACAD_REACTORS
330
EF
102
}
330
EF
100
AcDbVisualStyle
  2
Brighten
 70
    12
 71
     2
 72
     2
 73
     1
 90
        0
 40
-0.6
 41
-30.0
 62
     5
 63
     7
 74
     1
 91
        4
 64
     7
 65
   257
 75
     1
175
     1
 42
1.0
 92
        8
 66
     7
 43
1.0
 76
     1
 77
     6
 78
     2
 67
     7
 79
     5
170
     0
171
     0
290
     0
174
     0
 93
        1
 44
50.0
173
     0
291
     1
 45
0.0
1001
ACAD
1000
AcDbSavedByObjectVersion
1070
     0
  0
VISUALSTYLE
  5
FF
102
{ACAD_XDICTIONARY
360
C09F
102
}
102
{ACAD_REACTORS
330
EF
102
}
330
EF
100
AcDbVisualStyle
  2
ColorChange
 70
    16
 71
     2
 72
     2
 73
     3
 90
        0
 40
-0.6
 41
-30.0
 62
     5
 63
     8
 74
     1
 91
        4
 64
     7
 65
   257
 75
     1
175
     1
 42
1.0
 92
        8
 66
     8
 43
1.0
 76
     1
 77
     6
 78
     2
 67
     7
 79
     5
170
     0
171
     0
290
     0
174
     0
 93
        1
 44
0.0
173
     0
291
     1
 45
0.0
1001
ACAD
1000
AcDbSavedByObjectVersion
1070
     0
  0
VISUALSTYLE
  5
F8
102
{ACAD_XDICTIONARY
360
C091
102
}
102
{ACAD_REACTORS
330
EF
102
}
330
EF
100
AcDbVisualStyle
  2
Conceptual
 70
     9
 71
     3
 72
     2
 73
     1
 90
        0
 40
-0.6
 41
-30.0
 62
     5
 63
     7
 74
     2
 91
        2
 64
     7
 65
   257
 75
     1
175
     1
 42
40.0
 92
        8
 66
     7
 43
1.0
 76
     1
 77
     6
 78
     2
 67
     7
 79
     3
170
     0
171
     0
290
     0
174
     0
 93
        1
 44
0.0
173
     0
291
     0
 45
0.0
1001
ACAD
1000
AcDbSavedByObjectVersion
1070
     0
  0
VISUALSTYLE
  5
FA
102
{ACAD_XDICTIONARY
360
C095
102
}
102
{ACAD_REACTORS
330
EF
102
}
330
EF
100
AcDbVisualStyle
  2
Dim
 70
    11
 71
     2
 72
     2
 73
     1
 90
        0
 40
-0.6
 41
-30.0
 62
     5
 63
     7
 74
     1
 91
        4
 64
     7
 65
   257
 75
     1
175
     1
 42
1.0
 92
        8
 66
     7
 43
1.0
 76
     1
 77
     6
 78
     2
 67
     7
 79
     5
170
     0
171
     0
290
     0
174
     0
 93
        1
 44
-50.0
173
     0
291
     1
 45
0.0
1001
ACAD
1000
AcDbSavedByObjectVersion
1070
     0
  0
VISUALSTYLE
  5
1E6
102
{ACAD_XDICTIONARY
360
C0A7
102
}
102
{ACAD_REACTORS
330
EF
102
}
330
EF
100
AcDbVisualStyle
  2
EdgeColorOff
 70
    22
 71
     2
 72
     2
 73
     0
 90
        0
 40
-0.6
 41
-30.0
 62
     5
 63
     7
 74
     1
 91
        4
 64
     7
 65
   257
 75
     1
175
     1
 42
1.0
 92
        8
 66
     7
 43
1.0
 76
     1
 77
     6
 78
     2
 67
     7
 79
     5
170
     0
171
     0
290
     0
174
     0
 93
        1
 44
0.0
173
     0
291
     1
 45
0.0
1001
ACAD
1000
AcDbSavedByObjectVersion
1070
     0
  0
VISUALSTYLE
  5
FE
102
{ACAD_XDICTIONARY
360
C09D
102
}
102
{ACAD_REACTORS
330
EF
102
}
330
EF
100
AcDbVisualStyle
  2
Facepattern
 70
    15
 71
     2
 72
     2
 73
     1
 90
        0
 40
-0.6
 41
-30.0
 62
     5
 63
     7
 74
     1
 91
        4
 64
     7
 65
   257
 75
     1
175
     1
 42
1.0
 92
        8
 66
     7
 43
1.0
 76
     1
 77
     6
 78
     2
 67
     7
 79
     5
170
     0
171
     0
290
     0
174
     0
 93
        1
 44
0.0
173
     0
291
     1
 45
0.0
1001
ACAD
1000
AcDbSavedByObjectVersion
1070
     0
  0
VISUALSTYLE
  5
F0
102
{ACAD_XDICTIONARY
360
C081
102
}
102
{ACAD_REACTORS
330
EF
102
}
330
EF
100
AcDbVisualStyle
  2
Flat
 70
     0
 71
     2
 72
     1
 73
     1
 90
        2
 40
-0.6
 41
30.0
 62
     5
 63
     7
 74
     0
 91
        0
 64
     7
 65
   257
 75
     1
175
     1
 42
1.0
 92
        8
 66
     7
 43
1.0
 76
     1
 77
     6
 78
     2
 67
     7
 79
     5
170
     0
171
     0
290
     0
174
     0
 93
       13
 44
0.0
173
     0
291
     1
 45
0.0
1001
ACAD
1000
AcDbSavedByObjectVersion
1070
     0
  0
VISUALSTYLE
  5
F1
102
{ACAD_XDICTIONARY
360
C083
102
}
102
{ACAD_REACTORS
330
EF
102
}
330
EF
100
AcDbVisualStyle
  2
FlatWithEdges
 70
     1
 71
     2
 72
     1
 73
     1
 90
        2
 40
-0.6
 41
30.0
 62
     5
 63
     7
 74
     1
 91
        0
 64
     7
 65
   257
 75
     1
175
     1
 42
1.0
 92
        0
 66
   257
 43
1.0
 76
     1
 77
     6
 78
     2
 67
     7
 79
     5
170
     0
171
     0
290
     0
174
     0
 93
       13
 44
0.0
173
     0
291
     1
 45
0.0
1001
ACAD
1000
AcDbSavedByObjectVersion
1070
     0
  0
VISUALSTYLE
  5
F2
102
{ACAD_XDICTIONARY
360
C085
102
}
102
{ACAD_REACTORS
330
EF
102
}
330
EF
100
AcDbVisualStyle
  2
Gouraud
 70
     2
 71
     2
 72
     2
 73
     1
 90
        2
 40
-0.6
 41
30.0
 62
     5
 63
     7
 74
     0
 91
        0
 64
     7
 65
   257
 75
     1
175
     1
 42
1.0
 92
        0
 66
     7
 43
1.0
 76
     1
 77
     6
 78
     2
 67
     7
 79
     5
170
     0
171
     0
290
     0
174
     0
 93
       13
 44
0.0
173
     0
291
     1
 45
0.0
1001
ACAD
1000
AcDbSavedByObjectVersion
1070
     0
  0
VISUALSTYLE
  5
F3
102
{ACAD_XDICTIONARY
360
C087
102
}
102
{ACAD_REACTORS
330
EF
102
}
330
EF
100
AcDbVisualStyle
  2
GouraudWithEdges
 70
     3
 71
     2
 72
     2
 73
     1
 90
        2
 40
-0.6
 41
30.0
 62
     5
 63
     7
 74
     1
 91
        0
 64
     7
 65
   257
 75
     1
175
     1
 42
1.0
 92
        0
 66
   257
 43
1.0
 76
     1
 77
     6
 78
     2
 67
     7
 79
     5
170
     0
171
     0
290
     0
174
     0
 93
       13
 44
0.0
173
     0
291
     1
 45
0.0
1001
ACAD
1000
AcDbSavedByObjectVersion
1070
     0
  0
VISUALSTYLE
  5
F7
102
{ACAD_XDICTIONARY
360
C08F
102
}
102
{ACAD_REACTORS
330
EF
102
}
330
EF
100
AcDbVisualStyle
  2
Hidden
 70
     6
 71
     1
 72
     2
 73
     2
 90
        0
 40
-0.6
 41
-30.0
 62
     5
 63
     7
 74
     2
 91
        2
 64
     7
 65
   257
 75
     2
175
     1
 42
40.0
 92
        0
 66
   257
 43
1.0
 76
     1
 77
     6
 78
     2
 67
     7
 79
     3
170
     0
171
     0
290
     0
174
     0
 93
        1
 44
0.0
173
     0
291
     0
 45
0.0
1001
ACAD
1000
AcDbSavedByObjectVersion
1070
     0
  0
VISUALSTYLE
  5
1E4
102
{ACAD_XDICTIONARY
360
C0A3
102
}
102
{ACAD_REACTORS
330
EF
102
}
330
EF
100
AcDbVisualStyle
  2
JitterOff
 70
    20
 71
     2
 72
     2
 73
     0
 90
        0
 40
-0.6
 41
-30.0
 62
     5
 63
     7
 74
     1
 91
        4
 64
     7
 65
   257
 75
     1
175
     1
 42
1.0
 92
       10
 66
     7
 43
1.0
 76
     1
 77
     6
 78
     2
 67
     7
 79
     5
170
     0
171
     0
290
     0
174
     0
 93
        1
 44
0.0
173
     0
291
     1
 45
0.0
1001
ACAD
1000
AcDbSavedByObjectVersion
1070
     0
  0
VISUALSTYLE
  5
FD
102
{ACAD_XDICTIONARY
360
C09B
102
}
102
{ACAD_REACTORS
330
EF
102
}
330
EF
100
AcDbVisualStyle
  2
Linepattern
 70
    14
 71
     2
 72
     2
 73
     1
 90
        0
 40
-0.6
 41
-30.0
 62
     5
 63
     7
 74
     1
 91
        4
 64
     7
 65
   257
 75
     7
175
     7
 42
1.0
 92
        8
 66
     7
 43
1.0
 76
     1
 77
     6
 78
     2
 67
     7
 79
     5
170
     0
171
     0
290
     0
174
     0
 93
        1
 44
0.0
173
     0
291
     1
 45
0.0
1001
ACAD
1000
AcDbSavedByObjectVersion
1070
     0
  0
VISUALSTYLE
  5
1E5
102
{ACAD_XDICTIONARY
360
C0A5
102
}
102
{ACAD_REACTORS
330
EF
102
}
330
EF
100
AcDbVisualStyle
  2
OverhangOff
 70
    21
 71
     2
 72
     2
 73
     0
 90
        0
 40
-0.6
 41
-30.0
 62
     5
 63
     7
 74
     1
 91
        4
 64
     7
 65
   257
 75
     1
175
     1
 42
1.0
 92
        9
 66
     7
 43
1.0
 76
     1
 77
     6
 78
     2
 67
     7
 79
     5
170
     0
171
     0
290
     0
174
     0
 93
        1
 44
0.0
173
     0
291
     1
 45
0.0
1001
ACAD
1000
AcDbSavedByObjectVersion
1070
     0
  0
VISUALSTYLE
  5
F9
102
{ACAD_XDICTIONARY
360
C093
102
}
102
{ACAD_REACTORS
330
EF
102
}
330
EF
100
AcDbVisualStyle
  2
Realistic
 70
     8
 71
     2
 72
     2
 73
     0
 90
        2
 40
-0.6
 41
30.0
 62
     5
 63
     7
 74
     0
 91
        0
 64
     7
 65
   257
 75
     1
175
     1
 42
1.0
 92
        8
 66
   257
 43
1.0
 76
     1
 77
     6
 78
     2
 67
     7
 79
     3
170
     0
171
     0
290
     0
174
     0
 93
       13
 44
0.0
173
     0
291
     0
 45
0.0
1001
ACAD
1000
AcDbSavedByObjectVersion
1070
     0
  0
VISUALSTYLE
  5
1F3
102
{ACAD_XDICTIONARY
360
C0B1
102
}
102
{ACAD_REACTORS
330
EF
102
}
330
EF
100
AcDbVisualStyle
  2
Shaded
 70
    27
 71
     2
 72
     2
 73
     1
 90
        2
 40
-0.6
 41
30.0
 62
     5
 63
     7
 74
     0
 91
        4
 64
     7
 65
   257
 75
     1
175
     1
 42
1.0
 92
        8
 66
   257
 43
1.0
 76
     1
 77
     6
 78
     2
 67
     8
 79
     3
170
     0
171
     0
290
     0
174
     0
 93
        5
 44
0.0
173
     0
291
     0
 45
0.0
1001
ACAD
1000
AcDbSavedByObjectVersion
1070
     0
  0
VISUALSTYLE
  5
1F2
102
{ACAD_XDICTIONARY
360
C0AF
102
}
102
{ACAD_REACTORS
330
EF
102
}
330
EF
100
AcDbVisualStyle
  2
Shaded with edges
 70
    26
 71
     2
 72
     2
 73
     1
 90
        2
 40
-0.6
 41
30.0
 62
     5
 63
     7
 74
     1
 91
        2
 64
     7
 65
   257
 75
     2
175
     1
 42
1.0
 92
        8
 66
   257
 43
1.0
 76
     1
 77
     6
 78
     2
 67
     7
 79
     3
170
     0
171
     0
290
     0
174
     0
 93
        5
 44
0.0
173
     0
291
     0
 45
0.0
1001
ACAD
1000
AcDbSavedByObjectVersion
1070
     0
  0
VISUALSTYLE
  5
1EF
102
{ACAD_XDICTIONARY
360
C0A9
102
}
102
{ACAD_REACTORS
330
EF
102
}
330
EF
100
AcDbVisualStyle
  2
Shades of Gray
 70
    23
 71
     2
 72
     2
 73
     3
 90
        0
 40
-0.6
 41
-30.0
 62
     5
 63
     7
 74
     2
 91
        2
 64
     7
 65
     7
 75
     1
175
     1
 42
40.0
 92
        8
 66
     7
 43
1.0
 76
     1
 77
     6
 78
     2
 67
     7
 79
     3
170
     0
171
     0
290
     0
174
     0
 93
        1
 44
0.0
173
     0
291
     0
 45
0.0
1001
ACAD
1000
AcDbSavedByObjectVersion
1070
     0
  0
VISUALSTYLE
  5
1F0
102
{ACAD_XDICTIONARY
360
C0AB
102
}
102
{ACAD_REACTORS
330
EF
102
}
330
EF
100
AcDbVisualStyle
  2
Sketchy
 70
    24
 71
     1
 72
     2
 73
     2
 90
        0
 40
-0.6
 41
-30.0
 62
     5
 63
     7
 74
     2
 91
        2
 64
     7
 65
     7
 75
     1
175
     1
 42
40.0
 92
       11
 66
     7
 43
1.0
 76
     1
 77
     6
 78
     2
 67
     7
 79
     6
170
     0
171
     0
290
     0
174
     0
 93
        1
 44
0.0
173
     0
291
     0
 45
0.0
1001
ACAD
1000
AcDbSavedByObjectVersion
1070
     0
  0
VISUALSTYLE
  5
FC
102
{ACAD_XDICTIONARY
360
C099
102
}
102
{ACAD_REACTORS
330
EF
102
}
330
EF
100
AcDbVisualStyle
  2
Thicken
 70
    13
 71
     2
 72
     2
 73
     1
 90
        0
 40
-0.6
 41
-30.0
 62
     5
 63
     7
 74
     1
 91
        4
 64
     7
 65
   257
 75
     1
175
     1
 42
1.0
 92
       12
 66
     7
 43
1.0
 76
     1
 77
     6
 78
     2
 67
     7
 79
     5
170
     0
171
     0
290
     0
174
     0
 93
        1
 44
0.0
173
     0
291
     1
 45
0.0
1001
ACAD
1000
AcDbSavedByObjectVersion
1070
     0
  0
VISUALSTYLE
  5
F6
102
{ACAD_XDICTIONARY
360
C08D
102
}
102
{ACAD_REACTORS
330
EF
102
}
330
EF
100
AcDbVisualStyle
  2
Wireframe
 70
     5
 71
     0
 72
     2
 73
     0
 90
        0
 40
-0.6
 41
-30.0
 62
     5
 63
     7
 74
     1
 91
        4
 64
     7
 65
   257
 75
     1
175
     1
 42
1.0
 92
        0
 66
   257
 43
1.0
 76
     1
 77
     6
 78
     2
 67
     7
 79
     3
170
     0
171
     0
290
     0
174
     0
 93
        1
 44
0.0
173
     0
291
     0
 45
0.0
1001
ACAD
1000
AcDbSavedByObjectVersion
1070
     0
  0
VISUALSTYLE
  5
1F1
102
{ACAD_XDICTIONARY
360
C0AD
102
}
102
{ACAD_REACTORS
330
EF
102
}
330
EF
100
AcDbVisualStyle
  2
X-Ray
 70
    25
 71
     2
 72
     2
 73
     1
 90
        1
 40
0.5
 41
-30.0
 62
     5
 63
     7
 74
     1
 91
        0
 64
     7
 65
   257
 75
     1
175
     1
 42
1.0
 92
        8
 66
     7
 43
1.0
 76
     1
 77
     6
 78
     2
 67
     7
 79
     3
170
     0
171
     0
290
     0
174
     0
 93
       13
 44
0.0
173
     0
291
     0
 45
0.0
1001
ACAD
1000
AcDbSavedByObjectVersion
1070
     0
  0
DICTIONARYVAR
  5
146
102
{ACAD_REACTORS
330
5E
102
}
330
5E
100
DictionaryVariables
280
     0
  1
1:1
  0
DICTIONARYVAR
  5
259
102
{ACAD_REACTORS
330
5E
102
}
330
5E
100
DictionaryVariables
280
     0
  1
3.500000
  0
DICTIONARYVAR
  5
25A
102
{ACAD_REACTORS
330
5E
102
}
330
5E
100
DictionaryVariables
280
     0
  1
acadiso.lin
  0
DICTIONARYVAR
  5
145
102
{ACAD_REACTORS
330
5E
102
}
330
5E
100
DictionaryVariables
280
     0
  1
STANDARD
  0
DICTIONARYVAR
  5
84
102
{ACAD_REACTORS
330
5E
102
}
330
5E
100
DictionaryVariables
280
     0
  1
STANDARD
  0
DICTIONARYVAR
  5
227
102
{ACAD_REACTORS
330
5E
102
}
330
5E
100
DictionaryVariables
280
     0
  1
Metric50
  0
DICTIONARYVAR
  5
228
102
{ACAD_REACTORS
330
5E
102
}
330
5E
100
DictionaryVariables
280
     0
  1
Metric50
  0
DICTIONARYVAR
  5
5F
102
{ACAD_REACTORS
330
5E
102
}
330
5E
100
DictionaryVariables
280
     0
  1
2
  0
DICTIONARYVAR
  5
63
102
{ACAD_REACTORS
330
5E
102
}
330
5E
100
DictionaryVariables
280
     0
  1
1
  0
DICTIONARYVAR
  5
C022
102
{ACAD_REACTORS
330
5E
102
}
330
5E
100
DictionaryVariables
280
     0
  1
0
  0
DICTIONARYVAR
  5
1AE
102
{ACAD_REACTORS
330
5E
102
}
330
5E
100
DictionaryVariables
280
     0
  1
0
  0
DICTIONARYVAR
  5
1AF
102
{ACAD_REACTORS
330
5E
102
}
330
5E
100
DictionaryVariables
280
     0
  1
0
  0
DICTIONARYVAR
  5
C020
102
{ACAD_REACTORS
330
5E
102
}
330
5E
100
DictionaryVariables
280
     0
  1
2
  0
DICTIONARYVAR
  5
C01F
102
{ACAD_REACTORS
330
5E
102
}
330
5E
100
DictionaryVariables
280
     0
  1
1
  0
DICTIONARYVAR
  5
C072
102
{ACAD_REACTORS
330
5E
102
}
330
5E
100
DictionaryVariables
280
     0
  1
80.000000
  0
DICTIONARYVAR
  5
C071
102
{ACAD_REACTORS
330
5E
102
}
330
5E
100
DictionaryVariables
280
     0
  1
5.000000
  0
DICTIONARYVAR
  5
C021
102
{ACAD_REACTORS
330
5E
102
}
330
5E
100
DictionaryVariables
280
     0
  1
127
  0
DICTIONARYVAR
  5
C073
102
{ACAD_REACTORS
330
5E
102
}
330
5E
100
DictionaryVariables
280
     0
  1
2
  0
DICTIONARY
  5
C0B5
330
21C
100
AcDbDictionary
280
     1
281
     1
  3
ACAD_XREC_ROUNDTRIP
360
C0B6
  0
DICTIONARY
  5
C07A
330
D3
100
AcDbDictionary
280
     1
281
     1
  3
ACAD_XREC_ROUNDTRIP
360
C07B
  0
DICTIONARY
  5
C07C
330
D7
100
AcDbDictionary
280
     1
281
     1
  3
ACAD_XREC_ROUNDTRIP
360
C07D
  0
DICTIONARY
  5
C077
330
22
100
AcDbDictionary
280
     1
281
     1
  3
ACAD_XREC_ROUNDTRIP
360
C078
  0
DICTIONARY
  5
1F9
330
ED
100
AcDbDictionary
280
     1
281
     1
  3
ACAD_XREC_ROUNDTRIP
360
C07F
  3
FBXASSET
360
1FA
  0
DICTIONARY
  5
1F7
330
EC
100
AcDbDictionary
280
     1
281
     1
  3
ACAD_XREC_ROUNDTRIP
360
C07E
  3
FBXASSET
360
1F8
  0
DICTIONARY
  5
173
330
EE
100
AcDbDictionary
280
     1
281
     1
  3
ACAD_XREC_ROUNDTRIP
360
C080
  3
BUMPTILE
360
175
  3
DIFFUSETILE
360
174
  3
FBXASSET
360
1FB
  3
OPACITYTILE
360
176
  3
REFLECTIONTILE
360
177
  0
DICTIONARY
  5
C0A1
330
12E
100
AcDbDictionary
280
     1
281
     1
  3
ACAD_XREC_ROUNDTRIP
360
C0A2
  0
DICTIONARY
  5
C0B3
330
21A
100
AcDbDictionary
280
     1
281
     1
  3
ACAD_XREC_ROUNDTRIP
360
C0B4
  0
DICTIONARY
  5
162
330
7F
100
AcDbDictionary
280
     1
281
     1
  3
ACAD_ROUNDTRIP_2008_TABLESTYLE_CELLSTYLEMAP
360
C074
  3
ACAD_XREC_ROUNDTRIP
360
C079
  0
DICTIONARY
  5
C08B
330
F5
100
AcDbDictionary
280
     1
281
     1
  3
ACAD_XREC_ROUNDTRIP
360
C08C
  0
DICTIONARY
  5
C089
330
F4
100
AcDbDictionary
280
     1
281
     1
  3
ACAD_XREC_ROUNDTRIP
360
C08A
  0
DICTIONARY
  5
C097
330
FB
100
AcDbDictionary
280
     1
281
     1
  3
ACAD_XREC_ROUNDTRIP
360
C098
  0
DICTIONARY
  5
C09F
330
FF
100
AcDbDictionary
280
     1
281
     1
  3
ACAD_XREC_ROUNDTRIP
360
C0A0
  0
DICTIONARY
  5
C091
330
F8
100
AcDbDictionary
280
     1
281
     1
  3
ACAD_XREC_ROUNDTRIP
360
C092
  0
DICTIONARY
  5
C095
330
FA
100
AcDbDictionary
280
     1
281
     1
  3
ACAD_XREC_ROUNDTRIP
360
C096
  0
DICTIONARY
  5
C0A7
330
1E6
100
AcDbDictionary
280
     1
281
     1
  3
ACAD_XREC_ROUNDTRIP
360
C0A8
  0
DICTIONARY
  5
C09D
330
FE
100
AcDbDictionary
280
     1
281
     1
  3
ACAD_XREC_ROUNDTRIP
360
C09E
  0
DICTIONARY
  5
C081
330
F0
100
AcDbDictionary
280
     1
281
     1
  3
ACAD_XREC_ROUNDTRIP
360
C082
  0
DICTIONARY
  5
C083
330
F1
100
AcDbDictionary
280
     1
281
     1
  3
ACAD_XREC_ROUNDTRIP
360
C084
  0
DICTIONARY
  5
C085
330
F2
100
AcDbDictionary
280
     1
281
     1
  3
ACAD_XREC_ROUNDTRIP
360
C086
  0
DICTIONARY
  5
C087
330
F3
100
AcDbDictionary
280
     1
281
     1
  3
ACAD_XREC_ROUNDTRIP
360
C088
  0
DICTIONARY
  5
C08F
330
F7
100
AcDbDictionary
280
     1
281
     1
  3
ACAD_XREC_ROUNDTRIP
360
C090
  0
DICTIONARY
  5
C0A3
330
1E4
100
AcDbDictionary
280
     1
281
     1
  3
ACAD_XREC_ROUNDTRIP
360
C0A4
  0
DICTIONARY
  5
C09B
330
FD
100
AcDbDictionary
280
     1
281
     1
  3
ACAD_XREC_ROUNDTRIP
360
C09C
  0
DICTIONARY
  5
C0A5
330
1E5
100
AcDbDictionary
280
     1
281
     1
  3
ACAD_XREC_ROUNDTRIP
360
C0A6
  0
DICTIONARY
  5
C093
330
F9
100
AcDbDictionary
280
     1
281
     1
  3
ACAD_XREC_ROUNDTRIP
360
C094
  0
DICTIONARY
  5
C0B1
330
1F3
100
AcDbDictionary
280
     1
281
     1
  3
ACAD_XREC_ROUNDTRIP
360
C0B2
  0
DICTIONARY
  5
C0AF
330
1F2
100
AcDbDictionary
280
     1
281
     1
  3
ACAD_XREC_ROUNDTRIP
360
C0B0
  0
DICTIONARY
  5
C0A9
330
1EF
100
AcDbDictionary
280
     1
281
     1
  3
ACAD_XREC_ROUNDTRIP
360
C0AA
  0
DICTIONARY
  5
C0AB
330
1F0
100
AcDbDictionary
280
     1
281
     1
  3
ACAD_XREC_ROUNDTRIP
360
C0AC
  0
DICTIONARY
  5
C099
330
FC
100
AcDbDictionary
280
     1
281
     1
  3
ACAD_XREC_ROUNDTRIP
360
C09A
  0
DICTIONARY
  5
C08D
330
F6
100
AcDbDictionary
280
     1
281
     1
  3
ACAD_XREC_ROUNDTRIP
360
C08E
  0
DICTIONARY
  5
C0AD
330
1F1
100
AcDbDictionary
280
     1
281
     1
  3
ACAD_XREC_ROUNDTRIP
360
C0AE
  0
XRECORD
  5
C0B6
102
{ACAD_REACTORS
330
C0B5
102
}
330
C0B5
100
AcDbXrecord
280
     1
102
DISPLAYNAME
  1
Metric50
102
FLAGS
 90
        0
  0
XRECORD
  5
C07B
102
{ACAD_REACTORS
330
C07A
102
}
330
C07A
100
AcDbXrecord
280
     1
102
SHADEPLOT
 70
     0
102
SHADEPLOTRESLEVEL
 70
     2
102
SHADEPLOTCUSTOMDPI
 70
   300
  0
XRECORD
  5
C07D
102
{ACAD_REACTORS
330
C07C
102
}
330
C07C
100
AcDbXrecord
280
     1
102
SHADEPLOT
 70
     0
102
SHADEPLOTRESLEVEL
 70
     2
102
SHADEPLOTCUSTOMDPI
 70
   300
  0
XRECORD
  5
C078
102
{ACAD_REACTORS
330
C077
102
}
330
C077
100
AcDbXrecord
280
     1
102
SHADEPLOT
 70
     0
102
SHADEPLOTRESLEVEL
 70
     2
102
SHADEPLOTCUSTOMDPI
 70
   300
  0
XRECORD
  5
C07F
102
{ACAD_REACTORS
330
1F9
102
}
330
1F9
100
AcDbXrecord
280
     1
102
MATERIAL
148
0.0
149
0.0
149
0.0
 93
        0
 94
       63
282
     0
 72
     1
 77
     1
171
     1
175
     1
179
     1
273
     0
  0
XRECORD
  5
1FA
102
{ACAD_REACTORS
330
1F9
102
}
330
1F9
100
AcDbXrecord
280
     1
 70
     1
 90
429727718
  1
D62C5603-E3A1-4AEA-B7FB-FE5D8D0755AF
310
504B03040A0000080000CC70623B3DEE336E79000000790000001B0000006175746F6465736B2D64657369676E2D7061636B6167652E786D6C3C3F786D6C2076657273696F6E3D22312E302220656E636F64696E673D227574662D3822203F3E3C666F726D6174733E3C666F726D61743E687474703A2F2F736368656D612E
310
6175746F6465736B2E636F6D2F64657369676E2D7061636B6167652F323030393C2F666F726D61743E3C2F666F726D6174733E504B0304140006080800CC70623BD486FD9CA0000000F4000000130000005B436F6E74656E745F54797065735D2E786D6C7D8EC10E82300C865F65E91D8A1E8C310C0EEA1BF002731658846E
310
D98AC1B77784ABF1D8FE5FBFBF75BBCE937A534CCEB38643598122B6FEE978D0B0485F9C41B54DDD7D022595594E1A469170414C76A4D9A4D207E29CF43ECE46F218070CC6BECC4078ACAA135ACF422C856C0E68EA1BF5669944DDD7BCDE7B1F8E415D77AECB980613C2E4AC91FC167A2B244592486606FC29C8FD7F045B9A
310
EF7053A7E60B504B0304140006080800CC70623B853B8169EB0000007C01000008000000636F72652E786D6C8D90416EC3201045AF62CDB6C206821CC7C244919D9CA01740401C94182C03558F5F9C3852BBEB6A467FFE9B197D7EFC9E1EC5975982F5AE035262288C535E5B377690E21535501C055FBC8FBF6C503839990E
310
5619041F179FE64D52DE45E362569DD7661365082642A11EB9E920A89B99642953CC8E702F67A9EE7234257977194EC9EAE275C4EABCCF5EAD5940D4AC6F0E35A568B8F43562CD7046CD199FD07E60174276A7BE677B5EADB0E0D14EEFFB6A31321A0D82627C4084204C3F096B71DD52F6819B16635EADF63F509AF53FA164
310
5DDCD1EDDD17164090FCC8732078B56691CB33A85CD7DCC40F504B0304140006080800CC70623B55019EA25F0000007C00000007000000636E782E786D6C4DCB3B0E80201045D1AD90E915ED2CF8AC45050C11660C8261F98AB1B07AC9C97D42D718D865D3E909258CFD00CCE24AC6E326A164D74DC0B4128928FF32603847
310
2BA13128B1252AC747C6BAB984FC68F0B87FE8960A5C09FE86CFB69FBA01504B0304140006080800CC70623BDBABAAF470010000D40300000C0000006662782F636F72652E786D6CC553D16E823014FD95A6AF4B694182CC941A83FA05FB810A9511A125A5257EFE2E82712ECEB8A7F100CD39F7F69E734AF9FADC366850B6
310
AF8DCE7018308C942E4C59EB2AC3DE1D498AD15A706B8CFB56869196ADCAF00863C12B6B7C374385D14E6907A836A59A41D9F7CA615434B0C8705F7CAA5606D23BA8E84F41278B93AC54100640439DE0BDB320004D43C63716C7C399D30917DCFBBA9CD9BA8469F5B156168B24CED3F7248AC8769F27244EB73B92EED8862C
310
B7F13E0C179B3C8F979C8ECD82BBBABDAA2BAC924E9558448CBD9330242CFA08E3154B5651FCC6D215639C8EE5774DBE2B5F6CF2B5768B68963BB5F5588420E442FC700B1139D4CB01F450C1E918227C2E09DF070D8140C84E1E9AAB8F1340832A9CB13130A5F1376A908D57309505ECF2A0DF179C4E9D30F5B239B87E3823
310
7A79C6F31DE1A8A5AEC08474B03C7837EAE4938639B44E5932B833D2C6B6B279CDC613877FA26EE21F4A2A4C63EC7F29A2F301D1F9F7A0E37D145F504B0304140006080800CC70623B9C113CC27E0000009D0000000B0000006662782F636E782E786D6C4DCCDF0A83201C86E15B91DFB94BFB330DD428C8FB886521330DA7
310
6397BF1A1DECE883878F57749FCDA1B7892F1BBC047A23808C7F84D9FA55424E0BE6803A256208E9EF06C84F9B91703228B1C690F78B66B34CD9A5439DF5CF0BFBF65E35BCA1B8D6A5C6F540381E886698B5741C695F9503EBA150A2F8958E3DC3EA0B504B0304140006080800CC70623B7DF2F77C2A010000120200003100
310
00006662782F41393633353835312D344632462D344230382D423046372D3739314545314133324237412F636F72652E786D6C8D51DB8EC22014FC15C2939B0D2DB4B45643319AE817EC0F6041255A68B86CFCFC856D4D76DF7CE190393373060EDB3DC707F856CE6B6B7A480A0C81328395DA5C7B18C3057510EC3873D686
310
3F34088C18550F330C39BB3A1BA7051AAC09CA84841A2BD5020AEF55806078A44B0FFD7053A328440C89E1EFC52486BBB8AA8214A99D789CF9E05200300FC927E4FB4D5B375D43103D5527440FB843077C5AA3F5861C8F645F5787F59E95B390B318B55CE45AA638FAA2957BD7248B390B7A7CC51F9C124149C82B8C378810
310
84AB2F42B7B8DD56F413775B8C5999E9FF4471926F8AA236A1AE96B8B3CC434E5839373893369E1FAF30EA395917409EB7F26AF8801C171837A4A6AC9C89E9F9C9B1A58BA30FD6A5EF5DDDCF894B9AD9B6A59C957943A9FCAE2FD5BC4DFE03504B0304140006080800CC70623BAD7543B64E01000033030000300000006662
310
782F41393633353835312D344632462D344230382D423046372D3739314545314133324237412F636E782E786D6CD593CD6EC32010845F0571AD6CE3D48AD20813A9873E410FBD12D82434182C7EAAE6EDBB2424CD25871E7B41D6EC30B3FA84F9E67BB2E40B4234DE8DB46F1925E094D7C6ED479AD3AE5951B2113C789FEE
310
6C943839C1488B4C05DF079FE72A69D8C96C13AAD6B8631503449F83828872B949AC57D26200B826A308D316B4064D6E46FCDA41C05550DC9E483A00797BFD207EFB092A45DE9514C1BBD22178396BD39D891265658C238DEA00936C654E5E433CB65A26D9F6EDB5EBC14EBF49A45CB856E66048291F6939A9A81BB5C89177
310
38143CA680F4AA299D66A042CEB3354A2684DC9D8D178FE0D9B8B41CAAD720F880EE7EF93C0C18769E099ECC04D5A102C8049A8A05632F4DDF376CF1DE0F6BB65C2F8627B65A33C6BB62177CEBBDAD973006829F89F22E814B54F4BC2BE347F8AA8F681390B50FA73F804400B5F542E796F19FF974E7F78DB802FE05E20750
310
4B0304140006080800CC70623BE75B7789680500003C100000340000006662782F41393633353835312D344632462D344230382D423046372D3739314545314133324237412F6F626A656374732E786D6CAD575B8F9B3818FD2B887D06C22499CB8AA1CA655245D5B455A356FB305264C061D8018C6C3393D95FBFC7600890
310
A4CD5EF210B0B1BFEBF98E3F7B1FF6596ABC522E1296DF9BAE3D320D9A872C4AF2F8DE2CE5CEBA358D0FBEC719939D65A691938CDE9B6ADAF4BD98B3B2D05311DD91329583D9D5FC0F438434A7A611A644887B5384CF34233629258BA878B12322891DEFF6B66BD70BFB62634E8AE781D082709A4B588AF91C528CDA28B73F
310
1C998EEF39EABBEFA97FBD6A7C7E9553F9D3D79FE442923C3C523610337627CB87ABE99D359D4CC6D6E4FACAB5E6ABF9D2726FC6A3C5F56271377BB88362213924694B38DD99FE47C48627A1E7D49F5A8BB5E1A74C0A599ED3B0F21F1E56366B89112D681E218F0915D0D6F17AD41FBA2A369DCF6335D62ABBD39779D5DDD1
310
11D4D8DE3CBB96B2E04FB8202E41051754A1AA8E8F76B4C6DFE810B580B1547F4B84911149794252234D024EF8BBE963A95AE27B3D310A9D5C215C7960FAEE415ED75694C6AFB17BCACA5D99A60A9AA65F217B0BFC53292ACB92BF283FAD0D3621576592CB5BED907C2FA8E9DF794E35E97BEA31BED21FEB401ABB94C44839
310
DCACBF0E1C5DA8DA5B2F4DFFD32AD86F543D9E565E7056502E157C00AD2671CD534549AB752FCA9CDA00677A313F04E51B22FF19E57B300579E3C97EB29F682D92935CEC18CF901B7B54FD8C51F362B56FC72FE0B3C1EAE335EDCCBF5AEC39ADB17DC238973F804BA5E6F6BFE7AF1FB32E523BE9F3BD571418E3631DCA4D48
310
5250CF639223210A9446CA30052EDF057BD35F8329C1ECD84552BF0DC8D18BE7BCE23BFE6BD960AB4A7DE79923A103BEBD80F911CBAA2C60DB19B01CF164A5583B772EE6D3FFA56666CBCDA74DC97724A48F9A58967497E489C4D979006FD7A05E227A1EBDD0F737C623387A9C844D3709995625106D157315F8B8392CD4E0
310
A0B9A720C4BE9829CEF37EA1E13111214D53925356365ADA634861B52519DD27A00AEB808EAF0628E6F435519D446F45CF2C9CF5214F0A15B2F6D06B79DA3EE3CBF7F56780D2F4E7EF73A0F5E5B02A38D07DC852C6B7C1FBB6664213E0C39E3EBA7FF4E1AD23EA2829407C85E586727488B751B2DB9502BC7B228A3FD68B6E
310
A65A22397E690AA8D158D7E404EC8CDA235CC3B7D1898680131CEC2CDF2638C65196279577750F15884AEE19F94199155B92B13297978469D4F8D358DF0AEF7631E28DC8F0D9F437D5D39A83B2231A1D52D543813A824EF8D44BCFF2FA6A31BD1E8DAD87F1CCB526B3879935BF59CDADD5C37479BB1CDD4CA7B3556B516589
310
EF352754B706114D9C885EC9131DE6EFEB43D99AFE2391C2F958179413D7CFEF6B1B6DB1E7600F00DE6E5C67454A339A4BA2E0FBA85ED26F045D454F463DBFCE484C2F90F2E5E3666003662ED8F755951A7D1BECD5B30B550B2785C8E7320B7292A4838DDA71BBC863ED7613CAF659337A3354231D4FF4A182A54904C2898C
310
98B28C4AD0CE056CCF332A80986E571EE9DBC305BB5FEB7E509220A58D25CF042D712A806AC0AD0C657FDEF80D2D9CEAA2EE4D1C76F60BFE74219A06527D6F82DF6412526107381E55E353090704D085B52408A8913C4ED159D79BDA71BB4BC506F4831350EB6F975CD22D69BF7AC49B91A2C0A9DDA3D5CA36AD20FC478E37
310
E61844E2352865EBCB61A275A65283CAAA9DD27703B4102F5AF51EF5F573B75CBB5AD38BC845F7A49F82A0966A49C2E3EA5EA0ECD326CD965F1DB402C6FA8B51A4658C5C5E2EC9E214602E55810345408596591009A82E7E7FFACA19EEA299B14A0081A705CB3296EBC14CDF658DCD336EA6D1136881AAEB87B81AB9EE53D5
310
F5EB8BC8362082DA24122F98680A4E7930C01A0079749CEA14382A0783E5EBA5A10F8C098456A03D6A4AEB6BB881E2513747552A5DB22C7EDAF83BD5528081A365F7FF06504B0304140006080000CC70623B000000000000000000000000350000006662782F41393633353835312D344632462D344230382D423046372D37
310
39314545314133324237412F76657274696365732E62696E504B0304140006080800CC70623BF270F1330600000004000000360000006662782F41393633353835312D344632462D344230382D423046372D3739314545314133324237412F747269616E676C65732E62696E636660600000504B0304140006080000CC7062
310
3B000000000000000000000000370000006662782F41393633353835312D344632462D344230382D423046372D3739314545314133324237412F617474726962757465732E62696E504B0304140006080800CC70623B08DA0BD19000000041010000360000006662782F41393633353835312D344632462D344230382D4230
310
46372D3739314545314133324237412F6469726563746F72792E786D6C858F410AC3201045AF22B36F53E9A60B35CBEEBAE80D244E44489C6234F4F835464A48035D0DF398FF9F8AF63D0E6CC63039F212F8F9020C7D47C6792B21C5FE7403D62A1188E2E60C98D7234A5830286103A55745067B9D86B8A3CF9C7F90C11DE6
310
07FB144396D7B6A82D282E9A152AD114D5EF2CB866EEE831B8EEA07A7BB5A8D7D61A2BAAEB7FD5F70921FF497D00504B0304140006080800CC70623BEDD1DC58FD000000A00100003B0000006662782F41393633353835312D344632462D344230382D423046372D3739314545314133324237412F7265736F75726365732F
310
636F72652E786D6C8D504B6E833010BD0A9A6D65B00922041947112427E8052C33A156828DFCA97AFC9A40A576D7CDCCE87D344F8F9FBFE667F689CE6B6B3A6039850C8DB2A336530731DC4903D95970676DF82583CCC8193B5861107C72362E3BA4AC096842428D1D7107A5F7182053CF7474E0D507CE32973124857FE48B
310
540F3961CEF244279DE03EB81420DB9EAC1384436FA353E879B1B182C7A8C75DA3C7F453DF353A1075D537A7BA6464B8F535A99AE14A9A2BBD90E350DD183B5CFABE3AF262350B1EF4FC9351399401471025A527C218A1E53BAB5A5AB765F5469B96525EACF23FA6B88CFF34456DC2A1DCE36E360F82A5202F42F062ED2BAD
310
579969AFDD8A6F504B010214000A0000080000CC70623B3DEE336E79000000790000001B00000000000000000000000000000000006175746F6465736B2D64657369676E2D7061636B6167652E786D6C504B01021400140006080800CC70623BD486FD9CA0000000F40000001300000000000000000000000000B20000005B
310
436F6E74656E745F54797065735D2E786D6C504B01021400140006080800CC70623B853B8169EB0000007C010000080000000000000000000000000083010000636F72652E786D6C504B01021400140006080800CC70623B55019EA25F0000007C000000070000000000000000000000000094020000636E782E786D6C504B
310
01021400140006080800CC70623BDBABAAF470010000D40300000C00000000000000000000000000180300006662782F636F72652E786D6C504B01021400140006080800CC70623B9C113CC27E0000009D0000000B00000000000000000000000000B20400006662782F636E782E786D6C504B01021400140006080800CC70
310
623B7DF2F77C2A010000120200003100000000000000000000000000590500006662782F41393633353835312D344632462D344230382D423046372D3739314545314133324237412F636F72652E786D6C504B01021400140006080800CC70623BAD7543B64E010000330300003000000000000000000000000000D2060000
310
6662782F41393633353835312D344632462D344230382D423046372D3739314545314133324237412F636E782E786D6C504B01021400140006080800CC70623BE75B7789680500003C10000034000000000000000000000000006E0800006662782F41393633353835312D344632462D344230382D423046372D3739314545
310
314133324237412F6F626A656374732E786D6C504B01021400140006080000CC70623B0000000000000000000000003500000000000000000000000000280E00006662782F41393633353835312D344632462D344230382D423046372D3739314545314133324237412F76657274696365732E62696E504B01021400140006
310
080800CC70623BF270F133060000000400000036000000000000000000000000007B0E00006662782F41393633353835312D344632462D344230382D423046372D3739314545314133324237412F747269616E676C65732E62696E504B01021400140006080000CC70623B0000000000000000000000003700000000000000
310
000000000000D50E00006662782F41393633353835312D344632462D344230382D423046372D3739314545314133324237412F617474726962757465732E62696E504B01021400140006080800CC70623B08DA0BD1900000004101000036000000000000000000000000002A0F00006662782F41393633353835312D344632
310
462D344230382D423046372D3739314545314133324237412F6469726563746F72792E786D6C504B01021400140006080800CC70623BEDD1DC58FD000000A00100003B000000000000000000000000000E1000006662782F41393633353835312D344632462D344230382D423046372D3739314545314133324237412F7265
310
736F75726365732F636F72652E786D6C504B0506000000000E000E0080040000641100000000
  0
XRECORD
  5
C07E
102
{ACAD_REACTORS
330
1F7
102
}
330
1F7
100
AcDbXrecord
280
     1
102
MATERIAL
148
0.0
149
0.0
149
0.0
 93
        0
 94
       63
282
     0
 72
     1
 77
     1
171
     1
175
     1
179
     1
273
     0
  0
XRECORD
  5
1F8
102
{ACAD_REACTORS
330
1F7
102
}
330
1F7
100
AcDbXrecord
280
     1
 70
     1
 90
429727718
  1
30362254-06B7-45E0-A893-8CFA70E3D6BC
310
504B03040A0000080000CC70623B3DEE336E79000000790000001B0000006175746F6465736B2D64657369676E2D7061636B6167652E786D6C3C3F786D6C2076657273696F6E3D22312E302220656E636F64696E673D227574662D3822203F3E3C666F726D6174733E3C666F726D61743E687474703A2F2F736368656D612E
310
6175746F6465736B2E636F6D2F64657369676E2D7061636B6167652F323030393C2F666F726D61743E3C2F666F726D6174733E504B0304140006080800CC70623BD486FD9CA0000000F4000000130000005B436F6E74656E745F54797065735D2E786D6C7D8EC10E82300C865F65E91D8A1E8C310C0EEA1BF002731658846E
310
D98AC1B77784ABF1D8FE5FBFBF75BBCE937A534CCEB38643598122B6FEE978D0B0485F9C41B54DDD7D022595594E1A469170414C76A4D9A4D207E29CF43ECE46F218070CC6BECC4078ACAA135ACF422C856C0E68EA1BF5669944DDD7BCDE7B1F8E415D77AECB980613C2E4AC91FC167A2B244592486606FC29C8FD7F045B9A
310
EF7053A7E60B504B0304140006080800CC70623B1EC5D7A3EB0000007C01000008000000636F72652E786D6C8D90416EC3201045AF82665B6103C6756C6122AB4D4ED00B204C5C94182C03558F5F9C3852BBEB6A467FFE9B197D71FC9E6FE8CBACC17AD7032D0820E3B41FAD9B7A48F1820F808E52ACDEC75F36404ECDA687
310
4D0629A6D5A76597B477D1B89855E747B38B2A041301E95B6E7A08FAD3CCAA50296647B8168BD2573599823EBB0CA76447F43862C7BCCF5EAC59410E4DDD9C7973C2755553CCCFA4C603E3040F1565ED3B1FDE4E432BCA0D9622DAF9795FAF464533826484B498524CD807E51D79ED187F21878E10516EF63F505AC67F42C9
310
BA58B1FDDD071640D2FCC87D2045B96591CB3DA85CB7DCE40F504B0304140006080800CC70623B55019EA25F0000007C00000007000000636E782E786D6C4DCB3B0E80201045D1AD90E915ED2CF8AC45050C11660C8261F98AB1B07AC9C97D42D718D865D3E909258CFD00CCE24AC6E326A164D74DC0B4128928FF32603847
310
2BA13128B1252AC747C6BAB984FC68F0B87FE8960A5C09FE86CFB69FBA01504B0304140006080800CC70623B8C9102E971010000D40300000C0000006662782F636F72652E786D6CC5535B6E833010BC8AE5DF0A6C08340F1947A84D4ED00B38C6A128602363A31CBFCB234A53A551FA553EC09AD9F5CE8C31DB9E9B1AF5CA
310
7695D1198E428A91D2D214952E33ECDD315861B4E5CC1AE3BE9561A445A3323CC098B3D21ADFCE9034DA29ED00D5A6503328BA4E398C640D8B0C77F253352214DE4145770A5B214FA2546114020D759C75CE8200340D19DE981F0F6746269C33EFAB6266AB02A655C74A59CCF365BADC27CB5D902ED22848F6340DF238A141
310
BE88E2F57B92BFEDF23523433367AE6A2EEAA455C2A902F398D2751045018D3FA264435F3771F242571B4A1919CA6F9A7C5B3CD9E42BED16F12C776AEB308F40C848FC700B1139D4891EF410CEC810227CC6846F8386402064270EF5C5C709A05E49676C024C61FC95EA45ED154CA5211D1FF4FB8291A913A68E9B83EBBB33
310
E2A7673CDE118E5AE8124C0807CB8377834E366998436B950D7A7746DAD846D4CFD978E0F04FD455FC5D49D2D4C6FE9722321F10997F0F32DC47FE05504B0304140006080800CC70623BFFEA85907E0000009D0000000B0000006662782F636E782E786D6C4DCCD10A83201886E15B91FFDC95D95A811AB6F23E625948A6C3
310
E9D8E5AF46073BFAE0E1E365ED67B3E8ADC3CB78C7815C7240DA3DFC64DCC221C519D7805AC182F7F1EF06C88D9BE6703008B6049F9E274D7A1E938DBB5AE3D6131B2589BA0D3D965551E0B2EA732C9B9A624AAEB41E3A557677029960D9AFB4EF11165F504B0304140006080800CC70623B4FEEA4082C0100001202000031
310
0000006662782F39464131463745442D413632322D343644302D413938332D3331353338454246344243312F636F72652E786D6C8D515B6EC32010BC0AE2AB55850DD871ED0813254D72825EC00192A2C460F1A872FC42ED48ED5F7E00CDCECCCEB26C731F6FE05B39AFADE921293004CA082BB5B9F43086336A21D870E6AC
310
0D7F68109861543DCC30E4ECE26C9C164858139409093556AA051CBC570102714B8F1E7AF1A5C6A11862480C7F2DA6415C878B2A4891CA89C7990F2E050073937C42DE1DB7E4F87ED8A36D4329AA9B3D46DBAEAD504556557BD81DEBDD0761E52CE42C462D17B996298E3E6BE59E35C962CE821E1FF18553435012728A7187
310
0841987E927A8D9B35ADDF70BBC6989599FE4F1427F9A4286A132ABAC49D651EF234CD5CE04CDA78BA3DC2A8FB645D00B9DF8B57E215725C60BCA2A463E54C4CE327C7A65E1C7DB02E7DEFCBF594B864C5CA6CDBD49C957943E9FA5D5FBAF336F90F504B0304140006080800CC70623BAD7543B64E01000033030000300000
310
006662782F39464131463745442D413632322D343644302D413938332D3331353338454246344243312F636E782E786D6CD593CD6EC32010845F0571AD6CE3D48AD20813A9873E410FBD12D82434182C7EAAE6EDBB2424CD25871E7B41D6EC30B3FA84F9E67BB2E40B4234DE8DB46F1925E094D7C6ED479AD3AE5951B2113C
310
789FEE6C943839C1488B4C05DF079FE72A69D8C96C13AAD6B8631503449F83828872B949AC57D26200B826A308D316B4064D6E46FCDA41C05550DC9E483A00797BFD207EFB092A45DE9514C1BBD22178396BD39D891265658C238DEA00936C654E5E433CB65A26D9F6EDB5EBC14EBF49A45CB856E66048291F6939A9A81BB5
310
C8917738143CA680F4AA299D66A042CEB3354A2684DC9D8D178FE0D9B8B41CAAD720F880EE7EF93C0C18769E099ECC04D5A102C8049A8A05632F4DDF376CF1DE0F6BB65C2F8627B65A33C6BB62177CEBBDAD973006829F89F22E814B54F4BC2BE347F8AA8F681390B50FA73F804400B5F542E796F19FF974E7F78DB802FE05
310
E207504B0304140006080800CC70623B16AB87BA640500003C100000340000006662782F39464131463745442D413632322D343644302D413938332D3331353338454246344243312F6F626A656374732E786D6CAD575B6FA33818FD2B887DE6924B3BED8A326A92B68A663B534DD4D13E548A0C38942D60649B369D5FBFC7
310
600890A493BDE42160637FD7F31D7FF63E6FB3D478A55C242CBF3247B66B1A340F5994E4F19559CA8D75611A9F7D8F33263BCB4C232719BD32D5B4E97B316765A1A722BA21652A07B3B7B33F0D11D29C9A46981221AE4C113ED38CD8A4942CA2E2C58E882476BCD9DA23BB5ED8171B73523C0F841684D35CC252CCE79062D4
310
468DFA43D7747CCF51DF7D4FFDEB5593E3AB9CCA9FBEFE241792E4E19EB28198C968BAB8199F5D5A67D3E9C49A9E8F47D6EC76B6B0469F26EEFC7C3EBFBCBEB98462213924694B38DD98FE1D62C393D073EA4FADC5DAF04326852CCF6958F90F0F2B9BB5C48816348F90C7840A68EB78EDF68723159BCEE7891A6B95DDE9D3
310
BCEAEEE8086A6C6F9E5D4B59F0175C10A7A0820BAA5055C7473B5AE3CFDD452D602CD5DF12616444529E90D448938013FE6EFA58AA96F85E4F8C42275708571E98FE6827AF6B2B4AE3D7D83D64E5A64C53054DD3AF90BD06FEA9149565C94FCA0F6B834DC85599E4F2423B24DF0B6AFA979E534DFA9E7A4CC6FA631D486393
310
921829879BF5D781A373557BCB85E97FB90DB62B558F8795179C15944B051F40AB495CF35451D26A4727654E6D8033BD98EF82F21D91FF8AF2DD9982BCF1643BDD4EB516C9492E368C67C88DED563FC36D5EACF66DFF057C3658BDBFA69DF9578B3DA735B64F18C7F20770A9D45CFCF7FCF563D6456A277DBEF78A02637CA2
310
43B90A490AEAB94F72244481D24819A6C0E59B606BFA4B3025981DBB48EAB701D97BF19C577CC77F2D1B6C55A9EF3C732474C0B727303F625995056C3B02963D9EAC146BE78EC5FCEC7FA999EBC5EACBAAE41B12D27B4D2C0BBA49F244E2ECDC81B76B502F113D8F5EE8FB1BE3111CDD4FC2AA9B844CAB1288B68AB90A7CDC
310
1C166AB0D3DC5310625FCC14E779BFD0709F8890A629C9292B1B2DED31A4B0DA928CEE135085754027E3018A397D4D5427D15BD1330B677DC8934285AC3DF45A9EB68FF8F2B8FC0A509AFEECFD0FF2DE25CC6047F7214B195F07EFEB9A094D800F7BFAE8FED187B78EA8A3A400F115961BCAD1215E47C966530AF0EE8128FE
310
58CEBB996A8964FFA529A046635D9353B0336A8F700DDF46271A024E70B0B37C9DE01847591E54DED53D54202AB947E4076556AC49C6CA5C9E1226B7F1A7B1BE15DEED62C41B91E1B3E9AFAAA735036547343A925075041DF0A9979E893B391F8FCFA6967B3EFB644DCF6E5CEBFAE272625DCC6FAF3FB93793C5F90CE1EF57
310
407342756B10D1C489E8953CD1617E5CEECAD6F4EF8914CE5D5D504E5C3F1F9736DA62CFC11E00BCDDB8CC8A9466349744C1F75EBDA4DF09BA8A9E8C7A7E9991989E20E5DBDD6A6003664ED8F7A04A8DBE0DF6EAD9B9AA858342E47399053949D2C146EDB85DE4B176BB0965FBAC19BD19AA918E27FA50C1D22402E144464C
310
59462568E704B6E71915404CB72B8FF4EDE184DDAF753F284990D2C6926782963815403548A70C657FDEF80D2D9CEAA2AE4C1C76F60BFE74219A06527D6582DF6412526107381E55E353090704D085B52408D0933C4ED159D79BDA71BB4BC506F4831350EB6F979CD22D69BF7AC49B91A2C0A9DDA3D5CA36AD20FC478E37E6
310
1844E2352865EBCB6EA275A652E3836BE04EFB400BF1A2556F515F1FBB35B2AB35BD889C744FFA1004B5544B121E57F70215746DD2F5E2C1412B602CBF19455AC6C8E5E9922C4E01E65215385004546899059180EAFCF7A707CE7017CD8CDB0410789AB32C63B91E5CEBBBACB17AC6CD347A022D5075FD106377347AAABA7E
310
7D11590744509B44E205134DC1290F06580320F78E537D3D73540E06CB970B431F185308AD40BBD794D6D77003C5A36E8EAA54BA64597CD8F83BD552A080A365F7FF06504B0304140006080000CC70623B000000000000000000000000350000006662782F39464131463745442D413632322D343644302D413938332D3331
310
353338454246344243312F76657274696365732E62696E504B0304140006080800CC70623BF270F1330600000004000000360000006662782F39464131463745442D413632322D343644302D413938332D3331353338454246344243312F747269616E676C65732E62696E636660600000504B0304140006080000CC70623B
310
000000000000000000000000370000006662782F39464131463745442D413632322D343644302D413938332D3331353338454246344243312F617474726962757465732E62696E504B0304140006080800CC70623B08DA0BD19000000041010000360000006662782F39464131463745442D413632322D343644302D413938
310
332D3331353338454246344243312F6469726563746F72792E786D6C858F410AC3201045AF22B36F53E9A60B35CBEEBAE80D244E44489C6234F4F835464A48035D0DF398FF9F8AF63D0E6CC63039F212F8F9020C7D47C6792B21C5FE7403D62A1188E2E60C98D7234A5830286103A55745067B9D86B8A3CF9C7F90C11DE607
310
FB144396D7B6A82D282E9A152AD114D5EF2CB866EEE831B8EEA07A7BB5A8D7D61A2BAAEB7FD5F70921FF497D00504B0304140006080800CC70623B0D6EF93BFE000000A00100003B0000006662782F39464131463745442D413632322D343644302D413938332D3331353338454246344243312F7265736F75726365732F63
310
6F72652E786D6C8D50596E833010BD0A9ADFCA60B334011947A8694ED00B586642AC041B79A97AFC9A40A5F6AF3F33A3B7689E1E3F7DCD8FEC139DD7D6F4C0720A191A65476DA61E62B892236427C19DB5E1970C322367EC618541F0C9D9B8EC90B226A009093576C41D94DE63804C3DD2D18357379C652E63480A7FCF17A9
310
EE72C29CE5894E3AC17D702940B63D59270887DE46A7D0F36263058F518FBB468FE9A7BE6A7420864373B8D4873369AA8691FA421B3294352543C5CAF65C0F6FEF43CB8BD52C78D0F34F46E550061C419494B6843142CB0F5677F4B52BEB177AEC28E5C52AFF638ACBF84F53D42654E51E77B379102C05791282176B5F693D
310
CB4C7BED567C03504B010214000A0000080000CC70623B3DEE336E79000000790000001B00000000000000000000000000000000006175746F6465736B2D64657369676E2D7061636B6167652E786D6C504B01021400140006080800CC70623BD486FD9CA0000000F40000001300000000000000000000000000B20000005B
310
436F6E74656E745F54797065735D2E786D6C504B01021400140006080800CC70623B1EC5D7A3EB0000007C010000080000000000000000000000000083010000636F72652E786D6C504B01021400140006080800CC70623B55019EA25F0000007C000000070000000000000000000000000094020000636E782E786D6C504B
310
01021400140006080800CC70623B8C9102E971010000D40300000C00000000000000000000000000180300006662782F636F72652E786D6C504B01021400140006080800CC70623BFFEA85907E0000009D0000000B00000000000000000000000000B30400006662782F636E782E786D6C504B01021400140006080800CC70
310
623B4FEEA4082C0100001202000031000000000000000000000000005A0500006662782F39464131463745442D413632322D343644302D413938332D3331353338454246344243312F636F72652E786D6C504B01021400140006080800CC70623BAD7543B64E010000330300003000000000000000000000000000D5060000
310
6662782F39464131463745442D413632322D343644302D413938332D3331353338454246344243312F636E782E786D6C504B01021400140006080800CC70623B16AB87BA640500003C1000003400000000000000000000000000710800006662782F39464131463745442D413632322D343644302D413938332D3331353338
310
454246344243312F6F626A656374732E786D6C504B01021400140006080000CC70623B0000000000000000000000003500000000000000000000000000270E00006662782F39464131463745442D413632322D343644302D413938332D3331353338454246344243312F76657274696365732E62696E504B01021400140006
310
080800CC70623BF270F133060000000400000036000000000000000000000000007A0E00006662782F39464131463745442D413632322D343644302D413938332D3331353338454246344243312F747269616E676C65732E62696E504B01021400140006080000CC70623B0000000000000000000000003700000000000000
310
000000000000D40E00006662782F39464131463745442D413632322D343644302D413938332D3331353338454246344243312F617474726962757465732E62696E504B01021400140006080800CC70623B08DA0BD190000000410100003600000000000000000000000000290F00006662782F39464131463745442D413632
310
322D343644302D413938332D3331353338454246344243312F6469726563746F72792E786D6C504B01021400140006080800CC70623B0D6EF93BFE000000A00100003B000000000000000000000000000D1000006662782F39464131463745442D413632322D343644302D413938332D3331353338454246344243312F7265
310
736F75726365732F636F72652E786D6C504B0506000000000E000E0080040000641100000000
  0
XRECORD
  5
C080
102
{ACAD_REACTORS
330
173
102
}
330
173
100
AcDbXrecord
280
     1
102
MATERIAL
148
0.0
149
0.0
149
0.0
 93
        0
 94
       63
282
     0
 72
     1
 77
     1
171
     1
175
     1
179
     1
273
     0
  0
XRECORD
  5
175
102
{ACAD_REACTORS
330
173
102
}
330
173
100
AcDbXrecord
280
     1
270
     1
271
     1
  0
XRECORD
  5
174
102
{ACAD_REACTORS
330
173
102
}
330
173
100
AcDbXrecord
280
     1
270
     1
271
     1
  0
XRECORD
  5
1FB
102
{ACAD_REACTORS
330
173
102
}
330
173
100
AcDbXrecord
280
     1
 70
     0
 90
1673772943
  1
ECE7A1D2-D628-4531-984C-D00F80459256
310
504B03040A0000080000CC70623B3DEE336E79000000790000001B0000006175746F6465736B2D64657369676E2D7061636B6167652E786D6C3C3F786D6C2076657273696F6E3D22312E302220656E636F64696E673D227574662D3822203F3E3C666F726D6174733E3C666F726D61743E687474703A2F2F736368656D612E
310
6175746F6465736B2E636F6D2F64657369676E2D7061636B6167652F323030393C2F666F726D61743E3C2F666F726D6174733E504B0304140006080800CC70623BD486FD9CA0000000F4000000130000005B436F6E74656E745F54797065735D2E786D6C7D8EC10E82300C865F65E91D8A1E8C310C0EEA1BF002731658846E
310
D98AC1B77784ABF1D8FE5FBFBF75BBCE937A534CCEB38643598122B6FEE978D0B0485F9C41B54DDD7D022595594E1A469170414C76A4D9A4D207E29CF43ECE46F218070CC6BECC4078ACAA135ACF422C856C0E68EA1BF5669944DDD7BCDE7B1F8E415D77AECB980613C2E4AC91FC167A2B244592486606FC29C8FD7F045B9A
310
EF7053A7E60B504B0304140006080800CC70623BD9DDAED0EC0000007C01000008000000636F72652E786D6C8D90416EC3201045AF82665B61836D9CD8C2444DD39CA01740405C94182C03558F5F9C3852BBEB6A467FFE9B197D7EF89E6EE8CB2CC17A37002D0820E394D7D68D03A478C17B4007C117EFE32F1B20272733C0
310
2A83E0E3E2D3BC49CABB685CCCAAF3DA6CA20CC14440EA969B0182FA34932C648AD911AEC52CD5558EA6A0CF2EC329598D1E47ACCEFBECC59A050463A7EA5833865FEBDD0E37353BE3EE8DBDE3F6786A48D375FBF6CC78B9C282473B3DEFABC5C86834888A900E538A49F5419B9EB47DD5BC907D4F082F57FB1F28CDFA9F50
310
B22ED6D5F6EE030B20687EE43E10BC5CB3C8E51E54AE6B6EE207504B0304140006080800CC70623B55019EA25F0000007C00000007000000636E782E786D6C4DCB3B0E80201045D1AD90E915ED2CF8AC45050C11660C8261F98AB1B07AC9C97D42D718D865D3E909258CFD00CCE24AC6E326A164D74DC0B4128928FF326038
310
472BA13128B1252AC747C6BAB984FC68F0B87FE8960A5C09FE86CFB69FBA01504B0304140006080800CC70623BA24EB22D72010000D40300000C0000006662782F636F72652E786D6CC5535B6E833010BC8AE5DF0A6C5E49888CA3A6694ED00B38E05014B091B1518EDFE511A5A9D228FD2A1F60CDEC7A67C6986DCE4D8D7A
310
69BA4AAB0C073EC548AA5C17952A33ECECD15B61B4E1CC686DBF9561A44423333CC098B3D268D7CE50AE9595CA02AA74216750749DB418E5352C32DCE59FB211BE70162ABA93DF8AFC244AE9073ED050C759670D0840D390E18DF9F1706664C23973AE2A66B62A605A75ACA4C13C4976E1364A12EF355A2EBD384AF65EFA96
310
BC7B8BED2EA6719AAE16FB8491A199335B351775B991C2CA02F390D2D40B028F861F41BCA68B7518BFD0D59A524686F29B26D7164F36B94AD9289CE54E6D1DE6010819891F6E21228B3AD1831EC219194284CF98F06DD01008846CC5A1BEF83801D4CBDC6A1303536877A57A513B0953A94FC707FDBE6064EA84A9E3E6E0FA
310
EE8CF0E9198F7784A316AA0413C2C2F2E0ECA0934D1AE6D05A69BCDE9E91D2A611F573361E38FC1375157F5752AE6B6DFE4B11990F88CCBF0719EE23FF02504B0304140006080800CC70623B408A7D3B7C0000009D0000000B0000006662782F636E782E786D6C4DCCD10A83201886E15B91FFDC552A92A0064DBC8F581632
310
D3703A76F9ABD1C18E3E78F878E5F0D9027ABBFCF2292AE86E2D20171F69F6715550CB827B40839639A5F2770314A7CD293819B45C73AAFB45B35BA61ACAA1C1C7E7855C58C15BC331339661262CC762340413D68D77DA5B42298546CBE6573AF60CEB2F504B0304140006080800CC70623B449FB9BD290100001202000031
310
0000006662782F36394639363044362D344446342D343946362D394244322D3234314243333846323333332F636F72652E786D6C8D515B6EC32010BC0AE22B55850D98B871848994463E412FE002495162B07854397EA176A4F62F3F2C9A9D991D587EB84F37F0AD7D30CEF6905418026DA553C65E7A98E219ED203808EE9D
310
8B7F6810D871D23D2C3014FCE25D9A57483A1BB58D19B54EE9151C43D0110279CB971E06F9A5A7B11A53CC8C70ADE6515EC78BAE4895DB992778883E0700CB907242D17643D7E2538BD869608875438BBAE38922CAC8F1BDD90DB4691A5E2F42C153326A951B95E398B3D1FE599322163C9AE9115F7A3D46ADA0A018778810
310
84E907617BDCEE297BC5BB3DC6BC2EF47FA234AB2745C9D8D8D035EE220B50105E2F0DC1954B9FB747187D9F9D8FA0CCDB042D5FA0C015C65B42DF78BD10F3F3B363CB56C7109DCFDFBBB97E662ED92EB62D13BC2E1BCAE5777DB9966D8A1F504B0304140006080800CC70623BAD7543B64E01000033030000300000006662
310
782F36394639363044362D344446342D343946362D394244322D3234314243333846323333332F636E782E786D6CD593CD6EC32010845F0571AD6CE3D48AD20813A9873E410FBD12D82434182C7EAAE6EDBB2424CD25871E7B41D6EC30B3FA84F9E67BB2E40B4234DE8DB46F1925E094D7C6ED479AD3AE5951B2113C789FEE
310
6C943839C1488B4C05DF079FE72A69D8C96C13AAD6B8631503449F83828872B949AC57D26200B826A308D316B4064D6E46FCDA41C05550DC9E483A00797BFD207EFB092A45DE9514C1BBD22178396BD39D891265658C238DEA00936C654E5E433CB65A26D9F6EDB5EBC14EBF49A45CB856E66048291F6939A9A81BB5C89177
310
38143CA680F4AA299D66A042CEB3354A2684DC9D8D178FE0D9B8B41CAAD720F880EE7EF93C0C18769E099ECC04D5A102C8049A8A05632F4DDF376CF1DE0F6BB65C2F8627B65A33C6BB62177CEBBDAD973006829F89F22E814B54F4BC2BE347F8AA8F681390B50FA73F804400B5F542E796F19FF974E7F78DB802FE05E20750
310
4B0304140006080800CC70623B8D05915C650500003B100000340000006662782F36394639363044362D344446342D343946362D394244322D3234314243333846323333332F6F626A656374732E786D6CAD575B6FA33814FE2B887D06429276DA1565D4266D158D3A339A6846FB502932E050B66023DB74D2FDF5FB190C01
310
9276B2973C046C8ECFF53B17071F77456EBD502133CEAE6CDF9DD81665314F32965ED995DA3A17B6F5310C04E7AA47665B8C14F4CAD6DB7618A48257A5D94AE89654B91AEDDEDDFC61C998326A5B714EA4BCB265FC440BE2924AF184CA6737218AB8E976E7FA6E4338649B0A523E8D98964450A6A029F619B8588D52FE7039
310
B1BD30F0F4F730D0FF866AF6369557DB33949F31A9088B0F848DD8CCFCF9F2767A76E99CCDE733677E3EF59D9BBB9BA5E37F984D16E78BC5E5F5ED25044B25C0C96822E8D60EEFE11B91C581D77CEA34368A1F5329E68CD1B8B61F16D63A1B8E092D294B10C78C4A48EB593D192E7DED9BDEE7995E1B91FDEDD3ACEA9FE831
310
6A756F9F7D4D79F4274C90A7A04248AA51D5F8C718DAE06FB2F75AC4796EBE65D22A88A22223B995679120E2D50E41AA49C260C046A35368846B0BECD0DFF3EBEB8AD4F835768F69B9ADF25C43D30E6B646F807FAA64AD59F61715C7A54127C4AACA98BA3006A9D792DAE165E0D59B61A01FB3A9F9D838D2DAE62445C86166
310
F37564E842E7DE6A69879FEEA2DD5AE7E371E1A5E025154AC307D06A03D73EB5978C58FFA4C8E9033066E0F3BD53BEC1F39F91BE7B55103791EDE6BBB991A2046172CB4581D8B893FA674DDA17A77B3B7C413D1B511FD2743BFF8A38F03A658705E3ADF8015C3A3417FF3D7E439FF591DA0B5F18BC20C1B8981957AE6392A3
310
F43C640C01D1A0B4728E2DD4F26DB4B3C3152A252A3B4E913CEC1C72F012782FF88EFF8637AA552DBEF76408E8A8DE9E50F9E1CB3A2DA0DB1B6039A893B56063DC5B3E3FFB5F72E67AB9FEB4AEC496C4F4C1149625DD662C53E89D7BF0F6151A046260D1337DFDC94502430F83B0EE07A130A224BCAD7DAE1D9FB6CD422FF6
310
920702629C4BB9AE79C12F243C6432A6794E18E5552BA56B431AAB5D91317302B2B071E86C3A42B1A02F999E24061403B5D0EB639195DA655DD3EBEAB4FB862DDF579F014AD0E73C22F99E28DA57FB98E75C6CA2D74D53086D600F4786E0FE3144B771A8A7B900F03594DB8A633CBC49B2EDB69228BB479CF863B5E807AAAB
310
23872F6DFEB4129B949CA33823F58830E86D65621E10047D9DB34D862E8EAC3C2ABC2F7B2C40D67CDFE01F5545B92105AF983AC54D93D69E56FB8E797F88913F898A9FEC705D3F9D1B54EC8426FB500D40A03BD0119B06E1B95DDC7EB8F6975367793EBD70E66733DFB9BC982F9CE564727731999F5D4ECFCE3B8D6A4DC2A0
310
6D50FD148437D110834A64C6CDDF57FBACB5C307A2A477DFE4939736CFEF2B175371E0E10CF0DD1D5C15654E0BCA14D1E87DD02FF93782A162C0A3D95F1524A52770F972BF1EE9809D13CE7DD599467F8ECE9ADD85CE85A34CD45355448C64F9E8A031DC2D596ACC6E5DD93D9B82DE2EF5CAF81363A8E47996A0DE24564A79
310
4115AACE09C55E14540231FDA13C319787134EBF34E3A022514E5B4D9E0826E25C02D5805B15ABE1BEF51B26383D445DD9E875EE33FE4C22DA16427D65A3BCA92CA6D28DD01DF5DC53330704308475351050232CCD31583787BA75774AFB06E5070DD0C8EF484E19968C5D83BA5B90B244D31E54D55A372320FE4786B7EA58
310
44E135AA5467CB7EA333A61683CC6A8C3257034C10CF46F40EF9F5BE59BE5BD30C3C72D235E95D10345C1D45445A5F0BB47E46A5EBE5570F9380B5FA629579952296A773720405982B9DE04011506178964401AA8BDF1FBF0A8EAB6861DD6580C0E38217056766716DAEB2D6FA0917D3E4116581EADB879C4E7CFFB11EFACD
310
3D641311495D92C8676CB409A72D18610D803CE8A626049E8EC1887CB5B44CC39883690DDA8399B4B9855B481E7D71D4A9D22F96E5BB73BF5793020C02137BF837504B0304140006080000CC70623B000000000000000000000000350000006662782F36394639363044362D344446342D343946362D394244322D32343142
310
43333846323333332F76657274696365732E62696E504B0304140006080800CC70623BF270F1330600000004000000360000006662782F36394639363044362D344446342D343946362D394244322D3234314243333846323333332F747269616E676C65732E62696E636660600000504B0304140006080000CC70623B0000
310
00000000000000000000370000006662782F36394639363044362D344446342D343946362D394244322D3234314243333846323333332F617474726962757465732E62696E504B0304140006080800CC70623B08DA0BD19000000041010000360000006662782F36394639363044362D344446342D343946362D394244322D
310
3234314243333846323333332F6469726563746F72792E786D6C858F410AC3201045AF22B36F53E9A60B35CBEEBAE80D244E44489C6234F4F835464A48035D0DF398FF9F8AF63D0E6CC63039F212F8F9020C7D47C6792B21C5FE7403D62A1188E2E60C98D7234A5830286103A55745067B9D86B8A3CF9C7F90C11DE607FB14
310
4396D7B6A82D282E9A152AD114D5EF2CB866EEE831B8EEA07A7BB5A8D7D61A2BAAEB7FD5F70921FF497D00504B0304140006080800CC70623BCA768048FE000000A00100003B0000006662782F36394639363044362D344446342D343946362D394244322D3234314243333846323333332F7265736F75726365732F636F72
310
652E786D6C8D50596E833010BD0A9ADFCA60D600328E9AA639412F609909B1126CE4A5EAF16B0295DABFFECC8CDEA2797AECF8353F924FB44E193D409E5248504B332A3D0D10FC95B4901C39B3C6F85F3248B49871801506CE266BC2B243D2688FDA47549B11775038871E12F988C7004EDE7016A9083E2ADC3D5D84BC8B09
310
D33C8D74D471E6BC8D0192EDC93A815B742658898E651BCB59086ADC356A8C3FD555A1055ED7E7E254D615792D0F075295F585746FF53B694EE78A565DD736979A65AB9933AFE69F8CD2A2F038022F28ED489E135A7CE4554F9BBEA85E68DB53CAB255FEC71496F19FA6A0B42F8B3DEE6673C0F318E4497096AD7DC5F52C33
310
EEB55BFE0D504B010214000A0000080000CC70623B3DEE336E79000000790000001B00000000000000000000000000000000006175746F6465736B2D64657369676E2D7061636B6167652E786D6C504B01021400140006080800CC70623BD486FD9CA0000000F40000001300000000000000000000000000B20000005B436F
310
6E74656E745F54797065735D2E786D6C504B01021400140006080800CC70623BD9DDAED0EC0000007C010000080000000000000000000000000083010000636F72652E786D6C504B01021400140006080800CC70623B55019EA25F0000007C000000070000000000000000000000000095020000636E782E786D6C504B0102
310
1400140006080800CC70623BA24EB22D72010000D40300000C00000000000000000000000000190300006662782F636F72652E786D6C504B01021400140006080800CC70623B408A7D3B7C0000009D0000000B00000000000000000000000000B50400006662782F636E782E786D6C504B01021400140006080800CC70623B
310
449FB9BD290100001202000031000000000000000000000000005A0500006662782F36394639363044362D344446342D343946362D394244322D3234314243333846323333332F636F72652E786D6C504B01021400140006080800CC70623BAD7543B64E010000330300003000000000000000000000000000D20600006662
310
782F36394639363044362D344446342D343946362D394244322D3234314243333846323333332F636E782E786D6C504B01021400140006080800CC70623B8D05915C650500003B10000034000000000000000000000000006E0800006662782F36394639363044362D344446342D343946362D394244322D32343142433338
310
46323333332F6F626A656374732E786D6C504B01021400140006080000CC70623B0000000000000000000000003500000000000000000000000000250E00006662782F36394639363044362D344446342D343946362D394244322D3234314243333846323333332F76657274696365732E62696E504B010214001400060808
310
00CC70623BF270F13306000000040000003600000000000000000000000000780E00006662782F36394639363044362D344446342D343946362D394244322D3234314243333846323333332F747269616E676C65732E62696E504B01021400140006080000CC70623B00000000000000000000000037000000000000000000
310
00000000D20E00006662782F36394639363044362D344446342D343946362D394244322D3234314243333846323333332F617474726962757465732E62696E504B01021400140006080800CC70623B08DA0BD190000000410100003600000000000000000000000000270F00006662782F36394639363044362D344446342D
310
343946362D394244322D3234314243333846323333332F6469726563746F72792E786D6C504B01021400140006080800CC70623BCA768048FE000000A00100003B000000000000000000000000000B1000006662782F36394639363044362D344446342D343946362D394244322D3234314243333846323333332F7265736F
310
75726365732F636F72652E786D6C504B0506000000000E000E0080040000621100000000
  0
XRECORD
  5
176
102
{ACAD_REACTORS
330
173
102
}
330
173
100
AcDbXrecord
280
     1
270
     1
271
     1
  0
XRECORD
  5
177
102
{ACAD_REACTORS
330
173
102
}
330
173
100
AcDbXrecord
280
     1
270
     1
271
     1
  0
XRECORD
  5
C0A2
102
{ACAD_REACTORS
330
C0A1
102
}
330
C0A1
100
AcDbXrecord
280
     1
102
ACAD_ROUNDTRIP_2012_MLEADER_STYLE
298
     1
  0
XRECORD
  5
C0B4
102
{ACAD_REACTORS
330
C0B3
102
}
330
C0B3
100
AcDbXrecord
280
     1
102
DISPLAYNAME
  1
Metric50
102
FLAGS
 90
        0
  0
CELLSTYLEMAP
  5
C074
102
{ACAD_REACTORS
330
162
102
}
330
162
100
AcDbCellStyleMap
 90
        3
300
CELLSTYLE
  1
TABLEFORMAT_BEGIN
 90
        5
170
     1
 91
        0
 92
    32768
 62
   257
 93
        1
300
CONTENTFORMAT
  1
CONTENTFORMAT_BEGIN
 90
        0
 91
        0
 92
      512
 93
        0
300

 40
0.0
140
1.0
 94
        5
 62
     0
340
11
144
6.0
309
CONTENTFORMAT_END
171
     1
301
MARGIN
  1
CELLMARGIN_BEGIN
 40
1.5
 40
1.5
 40
1.5
 40
1.5
 40
4.5
 40
4.5
309
CELLMARGIN_END
 94
        6
 95
        1
302
GRIDFORMAT
  1
GRIDFORMAT_BEGIN
 90
        0
 91
        1
 62
     0
 92
       -2
340
14
 93
        0
 40
1.125
309
GRIDFORMAT_END
 95
        2
302
GRIDFORMAT
  1
GRIDFORMAT_BEGIN
 90
        0
 91
        1
 62
     0
 92
       -2
340
14
 93
        0
 40
1.125
309
GRIDFORMAT_END
 95
        4
302
GRIDFORMAT
  1
GRIDFORMAT_BEGIN
 90
        0
 91
        1
 62
     0
 92
       -2
340
14
 93
        0
 40
1.125
309
GRIDFORMAT_END
 95
        8
302
GRIDFORMAT
  1
GRIDFORMAT_BEGIN
 90
        0
 91
        1
 62
     0
 92
       -2
340
14
 93
        0
 40
1.125
309
GRIDFORMAT_END
 95
       16
302
GRIDFORMAT
  1
GRIDFORMAT_BEGIN
 90
        0
 91
        1
 62
     0
 92
       -2
340
14
 93
        0
 40
1.125
309
GRIDFORMAT_END
 95
       32
302
GRIDFORMAT
  1
GRIDFORMAT_BEGIN
 90
        0
 91
        1
 62
     0
 92
       -2
340
14
 93
        0
 40
1.125
309
GRIDFORMAT_END
309
TABLEFORMAT_END
  1
CELLSTYLE_BEGIN
 90
        1
 91
        1
300
_TITLE
309
CELLSTYLE_END
300
CELLSTYLE
  1
TABLEFORMAT_BEGIN
 90
        5
170
     1
 91
        0
 92
        0
 62
   257
 93
        1
300
CONTENTFORMAT
  1
CONTENTFORMAT_BEGIN
 90
        0
 91
        0
 92
      512
 93
        0
300

 40
0.0
140
1.0
 94
        5
 62
     0
340
11
144
4.5
309
CONTENTFORMAT_END
171
     1
301
MARGIN
  1
CELLMARGIN_BEGIN
 40
1.5
 40
1.5
 40
1.5
 40
1.5
 40
4.5
 40
4.5
309
CELLMARGIN_END
 94
        6
 95
        1
302
GRIDFORMAT
  1
GRIDFORMAT_BEGIN
 90
        0
 91
        1
 62
     0
 92
       -2
340
14
 93
        0
 40
1.125
309
GRIDFORMAT_END
 95
        2
302
GRIDFORMAT
  1
GRIDFORMAT_BEGIN
 90
        0
 91
        1
 62
     0
 92
       -2
340
14
 93
        0
 40
1.125
309
GRIDFORMAT_END
 95
        4
302
GRIDFORMAT
  1
GRIDFORMAT_BEGIN
 90
        0
 91
        1
 62
     0
 92
       -2
340
14
 93
        0
 40
1.125
309
GRIDFORMAT_END
 95
        8
302
GRIDFORMAT
  1
GRIDFORMAT_BEGIN
 90
        0
 91
        1
 62
     0
 92
       -2
340
14
 93
        0
 40
1.125
309
GRIDFORMAT_END
 95
       16
302
GRIDFORMAT
  1
GRIDFORMAT_BEGIN
 90
        0
 91
        1
 62
     0
 92
       -2
340
14
 93
        0
 40
1.125
309
GRIDFORMAT_END
 95
       32
302
GRIDFORMAT
  1
GRIDFORMAT_BEGIN
 90
        0
 91
        1
 62
     0
 92
       -2
340
14
 93
        0
 40
1.125
309
GRIDFORMAT_END
309
TABLEFORMAT_END
  1
CELLSTYLE_BEGIN
 90
        2
 91
        1
300
_HEADER
309
CELLSTYLE_END
300
CELLSTYLE
  1
TABLEFORMAT_BEGIN
 90
        5
170
     1
 91
        0
 92
        0
 62
   257
 93
        1
300
CONTENTFORMAT
  1
CONTENTFORMAT_BEGIN
 90
        0
 91
        0
 92
      512
 93
        0
300

 40
0.0
140
1.0
 94
        2
 62
     0
340
11
144
4.5
309
CONTENTFORMAT_END
171
     1
301
MARGIN
  1
CELLMARGIN_BEGIN
 40
1.5
 40
1.5
 40
1.5
 40
1.5
 40
4.5
 40
4.5
309
CELLMARGIN_END
 94
        6
 95
        1
302
GRIDFORMAT
  1
GRIDFORMAT_BEGIN
 90
        0
 91
        1
 62
     0
 92
       -2
340
14
 93
        0
 40
1.125
309
GRIDFORMAT_END
 95
        2
302
GRIDFORMAT
  1
GRIDFORMAT_BEGIN
 90
        0
 91
        1
 62
     0
 92
       -2
340
14
 93
        0
 40
1.125
309
GRIDFORMAT_END
 95
        4
302
GRIDFORMAT
  1
GRIDFORMAT_BEGIN
 90
        0
 91
        1
 62
     0
 92
       -2
340
14
 93
        0
 40
1.125
309
GRIDFORMAT_END
 95
        8
302
GRIDFORMAT
  1
GRIDFORMAT_BEGIN
 90
        0
 91
        1
 62
     0
 92
       -2
340
14
 93
        0
 40
1.125
309
GRIDFORMAT_END
 95
       16
302
GRIDFORMAT
  1
GRIDFORMAT_BEGIN
 90
        0
 91
        1
 62
     0
 92
       -2
340
14
 93
        0
 40
1.125
309
GRIDFORMAT_END
 95
       32
302
GRIDFORMAT
  1
GRIDFORMAT_BEGIN
 90
        0
 91
        1
 62
     0
 92
       -2
340
14
 93
        0
 40
1.125
309
GRIDFORMAT_END
309
TABLEFORMAT_END
  1
CELLSTYLE_BEGIN
 90
        3
 91
        2
300
_DATA
309
CELLSTYLE_END
  0
XRECORD
  5
C079
102
{ACAD_REACTORS
330
162
102
}
330
162
100
AcDbXrecord
280
     1
102
ACAD_ROUNDTRIP_PRE2007_TABLESTYLE
 90
      512
 91
        0
  1

 92
      512
 93
        0
  2

 94
      512
 95
        0
  3

  0
XRECORD
  5
C08C
102
{ACAD_REACTORS
330
C08B
102
}
330
C08B
100
AcDbXrecord
280
     1
102
RTVSPost2010Prop28
280
     1
102
RTVSPost2010PropOp28
 70
     1
102
RTVSPost2010Prop29
280
     1
102
RTVSPost2010PropOp29
 70
     1
102
RTVSPost2010Prop30
280
     0
102
RTVSPost2010PropOp30
 70
     1
102
RTVSPost2010Prop31
280
     0
102
RTVSPost2010PropOp31
 70
     1
102
RTVSPost2010Prop32
280
     0
102
RTVSPost2010PropOp32
 70
     1
102
RTVSPost2010Prop33
280
     0
102
RTVSPost2010PropOp33
 70
     1
102
RTVSPost2010Prop34
280
     0
102
RTVSPost2010PropOp34
 70
     1
102
RTVSPost2010Prop35
280
     0
102
RTVSPost2010PropOp35
 70
     1
102
RTVSPost2010Prop36
280
     0
102
RTVSPost2010PropOp36
 70
     1
102
RTVSPost2010Prop37
 90
       50
102
RTVSPost2010PropOp37
 70
     1
102
RTVSPost2010Prop38
140
0.0
102
RTVSPost2010PropOp38
 70
     1
102
RTVSPost2010Prop39
140
1.0
102
RTVSPost2010PropOp39
 70
     1
102
RTVSPost2010Prop40
 90
        0
102
RTVSPost2010PropOp40
 70
     1
102
RTVSPost2010Prop41ColorIndex
 90
       18
102
RTVSPost2010Prop41ColorRGB
 90
        0
102
RTVSPost2010PropOp41
 70
     1
102
RTVSPost2010Prop42
 90
       50
102
RTVSPost2010PropOp42
 70
     1
102
RTVSPost2010Prop43
 90
        3
102
RTVSPost2010PropOp43
 70
     1
102
RTVSPost2010Prop44ColorIndex
 90
        5
102
RTVSPost2010Prop44ColorRGB
 90
      255
102
RTVSPost2010PropOp44
 70
     1
102
RTVSPost2010Prop45
280
     0
102
RTVSPost2010PropOp45
 70
     1
102
RTVSPost2010Prop46
 90
       50
102
RTVSPost2010PropOp46
 70
     1
102
RTVSPost2010Prop47
 90
       50
102
RTVSPost2010PropOp47
 70
     1
102
RTVSPost2010Prop48
 90
       50
102
RTVSPost2010PropOp48
 70
     1
102
RTVSPost2010Prop49
280
     0
102
RTVSPost2010PropOp49
 70
     1
102
RTVSPost2010Prop50
 90
       50
102
RTVSPost2010PropOp50
 70
     1
102
RTVSPost2010Prop51ColorIndex
 90
      256
102
RTVSPost2010Prop51ColorRGB
 90
-16777216
102
RTVSPost2010PropOp51
 70
     0
102
RTVSPost2010Prop52
140
1.0
102
RTVSPost2010PropOp52
 70
     0
102
RTVSPost2010Prop53
 90
        2
102
RTVSPost2010PropOp53
 70
     1
102
RTVSPost2010Prop54
  1
strokes_ogs.tif
102
RTVSPost2010PropOp54
 70
     1
102
RTVSPost2010Prop55
280
     0
102
RTVSPost2010PropOp55
 70
     1
102
RTVSPost2010Prop56
140
1.0
102
RTVSPost2010PropOp56
 70
     1
102
RTVSPost2010Prop57
140
1.0
102
RTVSPost2010PropOp57
 70
     1
102
RTVSPropertyOp0
 70
     1
102
RTVSPropertyOp1
 70
     1
102
RTVSPropertyOp2
 70
     1
102
RTVSPropertyOp3
 70
     1
102
RTVSPropertyOp4
 70
     1
102
RTVSPropertyOp5
 70
     1
102
RTVSPropertyOp6
 70
     1
102
RTVSPropertyOp7
 70
     1
102
RTVSPropertyOp8
 70
     1
102
RTVSPropertyOp9
 70
     1
102
RTVSPropertyOp10
 70
     1
102
RTVSPropertyOp11
 70
     1
102
RTVSPropertyOp12
 70
     1
102
RTVSPropertyOp13
 70
     1
102
RTVSPropertyOp14
 70
     1
102
RTVSPropertyOp15
 70
     1
102
RTVSPropertyOp16
 70
     1
102
RTVSPropertyOp17
 70
     1
102
RTVSPropertyOp18
 70
     1
102
RTVSPropertyOp19
 70
     1
102
RTVSPropertyOp20
 70
     1
102
RTVSPropertyOp21
 70
     1
102
RTVSPropertyOp22
 70
     1
102
RTVSPropertyOp23
 70
     1
102
RTVSPropertyOp24
 70
     1
102
RTVSPropertyOp25
 70
     1
102
RTVSPropertyOp26
 70
     1
102
RTVSPropertyOp27
 70
     1
102
RTVSPropertyOp28
 70
     1
102
RTVSPropertyOp29
 70
     1
102
RTVSPropertyOp30
 70
     1
102
RTVSPropertyOp31
 70
     1
102
RTVSPropertyOp32
 70
     1
102
RTVSPropertyOp33
 70
     1
102
RTVSPropertyOp34
 70
     1
102
RTVSPropertyOp35
 70
     1
102
RTVSPropertyOp36
 70
     1
102
RTVSPropertyOp37
 70
     1
102
RTVSPropertyOp38
 70
     1
102
RTVSPropertyOp39
 70
     1
102
RTVSPropertyOp40
 70
     1
102
RTVSPropertyOp41
 70
     1
102
RTVSPropertyOp42
 70
     1
102
RTVSPropertyOp43
 70
     1
102
RTVSPropertyOp44
 70
     1
102
RTVSPropertyOp45
 70
     1
102
RTVSPropertyOp46
 70
     1
102
RTVSPropertyOp47
 70
     1
102
RTVSPropertyOp48
 70
     1
102
RTVSPropertyOp49
 70
     1
102
RTVSPropertyOp50
 70
     1
102
RTVSPropertyOp51
 70
     0
102
RTVSPropertyOp52
 70
     0
102
RTVSPropertyOp53
 70
     1
102
RTVSPropertyOp54
 70
     1
102
RTVSPropertyOp55
 70
     1
102
RTVSPropertyOp56
 70
     1
102
RTVSPropertyOp57
 70
     1
102
RTVSPropertyOp58
 70
     1
102
RTVSPropertyOp59
 70
     1
102
RTVSPropertyOp60
 70
     1
102
RTVSPropertyOp61
 70
     1
102
RTVSPropertyOp62
 70
     1
  0
XRECORD
  5
C08A
102
{ACAD_REACTORS
330
C089
102
}
330
C089
100
AcDbXrecord
280
     1
102
RTVSPost2010Prop28
280
     0
102
RTVSPost2010PropOp28
 70
     1
102
RTVSPost2010Prop29
280
     1
102
RTVSPost2010PropOp29
 70
     1
102
RTVSPost2010Prop30
280
     1
102
RTVSPost2010PropOp30
 70
     1
102
RTVSPost2010Prop31
280
     0
102
RTVSPost2010PropOp31
 70
     1
102
RTVSPost2010Prop32
280
     0
102
RTVSPost2010PropOp32
 70
     1
102
RTVSPost2010Prop33
280
     0
102
RTVSPost2010PropOp33
 70
     1
102
RTVSPost2010Prop34
280
     0
102
RTVSPost2010PropOp34
 70
     1
102
RTVSPost2010Prop35
280
     0
102
RTVSPost2010PropOp35
 70
     1
102
RTVSPost2010Prop36
280
     0
102
RTVSPost2010PropOp36
 70
     1
102
RTVSPost2010Prop37
 90
       50
102
RTVSPost2010PropOp37
 70
     1
102
RTVSPost2010Prop38
140
0.0
102
RTVSPost2010PropOp38
 70
     1
102
RTVSPost2010Prop39
140
1.0
102
RTVSPost2010PropOp39
 70
     1
102
RTVSPost2010Prop40
 90
        0
102
RTVSPost2010PropOp40
 70
     1
102
RTVSPost2010Prop41ColorIndex
 90
       18
102
RTVSPost2010Prop41ColorRGB
 90
        0
102
RTVSPost2010PropOp41
 70
     1
102
RTVSPost2010Prop42
 90
       50
102
RTVSPost2010PropOp42
 70
     1
102
RTVSPost2010Prop43
 90
        3
102
RTVSPost2010PropOp43
 70
     1
102
RTVSPost2010Prop44ColorIndex
 90
        5
102
RTVSPost2010Prop44ColorRGB
 90
      255
102
RTVSPost2010PropOp44
 70
     1
102
RTVSPost2010Prop45
280
     0
102
RTVSPost2010PropOp45
 70
     1
102
RTVSPost2010Prop46
 90
       50
102
RTVSPost2010PropOp46
 70
     1
102
RTVSPost2010Prop47
 90
       50
102
RTVSPost2010PropOp47
 70
     1
102
RTVSPost2010Prop48
 90
       50
102
RTVSPost2010PropOp48
 70
     1
102
RTVSPost2010Prop49
280
     0
102
RTVSPost2010PropOp49
 70
     1
102
RTVSPost2010Prop50
 90
       50
102
RTVSPost2010PropOp50
 70
     1
102
RTVSPost2010Prop51ColorIndex
 90
      256
102
RTVSPost2010Prop51ColorRGB
 90
-16777216
102
RTVSPost2010PropOp51
 70
     0
102
RTVSPost2010Prop52
140
1.0
102
RTVSPost2010PropOp52
 70
     0
102
RTVSPost2010Prop53
 90
        2
102
RTVSPost2010PropOp53
 70
     1
102
RTVSPost2010Prop54
  1
strokes_ogs.tif
102
RTVSPost2010PropOp54
 70
     1
102
RTVSPost2010Prop55
280
     0
102
RTVSPost2010PropOp55
 70
     1
102
RTVSPost2010Prop56
140
1.0
102
RTVSPost2010PropOp56
 70
     1
102
RTVSPost2010Prop57
140
1.0
102
RTVSPost2010PropOp57
 70
     1
102
RTVSPropertyOp0
 70
     1
102
RTVSPropertyOp1
 70
     1
102
RTVSPropertyOp2
 70
     1
102
RTVSPropertyOp3
 70
     1
102
RTVSPropertyOp4
 70
     1
102
RTVSPropertyOp5
 70
     1
102
RTVSPropertyOp6
 70
     1
102
RTVSPropertyOp7
 70
     1
102
RTVSPropertyOp8
 70
     1
102
RTVSPropertyOp9
 70
     1
102
RTVSPropertyOp10
 70
     1
102
RTVSPropertyOp11
 70
     1
102
RTVSPropertyOp12
 70
     1
102
RTVSPropertyOp13
 70
     1
102
RTVSPropertyOp14
 70
     1
102
RTVSPropertyOp15
 70
     1
102
RTVSPropertyOp16
 70
     1
102
RTVSPropertyOp17
 70
     1
102
RTVSPropertyOp18
 70
     1
102
RTVSPropertyOp19
 70
     1
102
RTVSPropertyOp20
 70
     1
102
RTVSPropertyOp21
 70
     1
102
RTVSPropertyOp22
 70
     1
102
RTVSPropertyOp23
 70
     1
102
RTVSPropertyOp24
 70
     1
102
RTVSPropertyOp25
 70
     1
102
RTVSPropertyOp26
 70
     1
102
RTVSPropertyOp27
 70
     1
102
RTVSPropertyOp28
 70
     1
102
RTVSPropertyOp29
 70
     1
102
RTVSPropertyOp30
 70
     1
102
RTVSPropertyOp31
 70
     1
102
RTVSPropertyOp32
 70
     1
102
RTVSPropertyOp33
 70
     1
102
RTVSPropertyOp34
 70
     1
102
RTVSPropertyOp35
 70
     1
102
RTVSPropertyOp36
 70
     1
102
RTVSPropertyOp37
 70
     1
102
RTVSPropertyOp38
 70
     1
102
RTVSPropertyOp39
 70
     1
102
RTVSPropertyOp40
 70
     1
102
RTVSPropertyOp41
 70
     1
102
RTVSPropertyOp42
 70
     1
102
RTVSPropertyOp43
 70
     1
102
RTVSPropertyOp44
 70
     1
102
RTVSPropertyOp45
 70
     1
102
RTVSPropertyOp46
 70
     1
102
RTVSPropertyOp47
 70
     1
102
RTVSPropertyOp48
 70
     1
102
RTVSPropertyOp49
 70
     1
102
RTVSPropertyOp50
 70
     1
102
RTVSPropertyOp51
 70
     0
102
RTVSPropertyOp52
 70
     0
102
RTVSPropertyOp53
 70
     1
102
RTVSPropertyOp54
 70
     1
102
RTVSPropertyOp55
 70
     1
102
RTVSPropertyOp56
 70
     1
102
RTVSPropertyOp57
 70
     1
102
RTVSPropertyOp58
 70
     1
102
RTVSPropertyOp59
 70
     1
102
RTVSPropertyOp60
 70
     1
102
RTVSPropertyOp61
 70
     1
102
RTVSPropertyOp62
 70
     1
  0
XRECORD
  5
C098
102
{ACAD_REACTORS
330
C097
102
}
330
C097
100
AcDbXrecord
280
     1
102
RTVSPost2010Prop28
280
     0
102
RTVSPost2010PropOp28
 70
     1
102
RTVSPost2010Prop29
280
     1
102
RTVSPost2010PropOp29
 70
     1
102
RTVSPost2010Prop30
280
     1
102
RTVSPost2010PropOp30
 70
     1
102
RTVSPost2010Prop31
280
     0
102
RTVSPost2010PropOp31
 70
     1
102
RTVSPost2010Prop32
280
     0
102
RTVSPost2010PropOp32
 70
     1
102
RTVSPost2010Prop33
280
     0
102
RTVSPost2010PropOp33
 70
     1
102
RTVSPost2010Prop34
280
     0
102
RTVSPost2010PropOp34
 70
     1
102
RTVSPost2010Prop35
280
     0
102
RTVSPost2010PropOp35
 70
     1
102
RTVSPost2010Prop36
280
     0
102
RTVSPost2010PropOp36
 70
     1
102
RTVSPost2010Prop37
 90
       50
102
RTVSPost2010PropOp37
 70
     1
102
RTVSPost2010Prop38
140
0.0
102
RTVSPost2010PropOp38
 70
     1
102
RTVSPost2010Prop39
140
1.0
102
RTVSPost2010PropOp39
 70
     1
102
RTVSPost2010Prop40
 90
        0
102
RTVSPost2010PropOp40
 70
     1
102
RTVSPost2010Prop41ColorIndex
 90
       18
102
RTVSPost2010Prop41ColorRGB
 90
        0
102
RTVSPost2010PropOp41
 70
     1
102
RTVSPost2010Prop42
 90
       50
102
RTVSPost2010PropOp42
 70
     1
102
RTVSPost2010Prop43
 90
        3
102
RTVSPost2010PropOp43
 70
     1
102
RTVSPost2010Prop44ColorIndex
 90
        5
102
RTVSPost2010Prop44ColorRGB
 90
      255
102
RTVSPost2010PropOp44
 70
     1
102
RTVSPost2010Prop45
280
     0
102
RTVSPost2010PropOp45
 70
     1
102
RTVSPost2010Prop46
 90
       50
102
RTVSPost2010PropOp46
 70
     1
102
RTVSPost2010Prop47
 90
       50
102
RTVSPost2010PropOp47
 70
     1
102
RTVSPost2010Prop48
 90
       50
102
RTVSPost2010PropOp48
 70
     1
102
RTVSPost2010Prop49
280
     0
102
RTVSPost2010PropOp49
 70
     1
102
RTVSPost2010Prop50
 90
       50
102
RTVSPost2010PropOp50
 70
     1
102
RTVSPost2010Prop51ColorIndex
 90
      256
102
RTVSPost2010Prop51ColorRGB
 90
-16777216
102
RTVSPost2010PropOp51
 70
     0
102
RTVSPost2010Prop52
140
1.0
102
RTVSPost2010PropOp52
 70
     0
102
RTVSPost2010Prop53
 90
        2
102
RTVSPost2010PropOp53
 70
     1
102
RTVSPost2010Prop54
  1
strokes_ogs.tif
102
RTVSPost2010PropOp54
 70
     1
102
RTVSPost2010Prop55
280
     0
102
RTVSPost2010PropOp55
 70
     1
102
RTVSPost2010Prop56
140
1.0
102
RTVSPost2010PropOp56
 70
     1
102
RTVSPost2010Prop57
140
1.0
102
RTVSPost2010PropOp57
 70
     1
102
RTVSPropertyOp0
 70
     1
102
RTVSPropertyOp1
 70
     1
102
RTVSPropertyOp2
 70
     1
102
RTVSPropertyOp3
 70
     1
102
RTVSPropertyOp4
 70
     1
102
RTVSPropertyOp5
 70
     1
102
RTVSPropertyOp6
 70
     1
102
RTVSPropertyOp7
 70
     1
102
RTVSPropertyOp8
 70
     1
102
RTVSPropertyOp9
 70
     1
102
RTVSPropertyOp10
 70
     1
102
RTVSPropertyOp11
 70
     1
102
RTVSPropertyOp12
 70
     1
102
RTVSPropertyOp13
 70
     1
102
RTVSPropertyOp14
 70
     1
102
RTVSPropertyOp15
 70
     1
102
RTVSPropertyOp16
 70
     1
102
RTVSPropertyOp17
 70
     1
102
RTVSPropertyOp18
 70
     1
102
RTVSPropertyOp19
 70
     1
102
RTVSPropertyOp20
 70
     1
102
RTVSPropertyOp21
 70
     1
102
RTVSPropertyOp22
 70
     1
102
RTVSPropertyOp23
 70
     1
102
RTVSPropertyOp24
 70
     1
102
RTVSPropertyOp25
 70
     1
102
RTVSPropertyOp26
 70
     1
102
RTVSPropertyOp27
 70
     1
102
RTVSPropertyOp28
 70
     1
102
RTVSPropertyOp29
 70
     1
102
RTVSPropertyOp30
 70
     1
102
RTVSPropertyOp31
 70
     1
102
RTVSPropertyOp32
 70
     1
102
RTVSPropertyOp33
 70
     1
102
RTVSPropertyOp34
 70
     1
102
RTVSPropertyOp35
 70
     1
102
RTVSPropertyOp36
 70
     1
102
RTVSPropertyOp37
 70
     1
102
RTVSPropertyOp38
 70
     1
102
RTVSPropertyOp39
 70
     1
102
RTVSPropertyOp40
 70
     1
102
RTVSPropertyOp41
 70
     1
102
RTVSPropertyOp42
 70
     1
102
RTVSPropertyOp43
 70
     1
102
RTVSPropertyOp44
 70
     1
102
RTVSPropertyOp45
 70
     1
102
RTVSPropertyOp46
 70
     1
102
RTVSPropertyOp47
 70
     1
102
RTVSPropertyOp48
 70
     1
102
RTVSPropertyOp49
 70
     1
102
RTVSPropertyOp50
 70
     1
102
RTVSPropertyOp51
 70
     0
102
RTVSPropertyOp52
 70
     0
102
RTVSPropertyOp53
 70
     1
102
RTVSPropertyOp54
 70
     1
102
RTVSPropertyOp55
 70
     1
102
RTVSPropertyOp56
 70
     1
102
RTVSPropertyOp57
 70
     1
102
RTVSPropertyOp58
 70
     1
102
RTVSPropertyOp59
 70
     1
102
RTVSPropertyOp60
 70
     1
102
RTVSPropertyOp61
 70
     1
102
RTVSPropertyOp62
 70
     1
  0
XRECORD
  5
C0A0
102
{ACAD_REACTORS
330
C09F
102
}
330
C09F
100
AcDbXrecord
280
     1
102
RTVSPost2010Prop28
280
     0
102
RTVSPost2010PropOp28
 70
     1
102
RTVSPost2010Prop29
280
     1
102
RTVSPost2010PropOp29
 70
     1
102
RTVSPost2010Prop30
280
     1
102
RTVSPost2010PropOp30
 70
     1
102
RTVSPost2010Prop31
280
     0
102
RTVSPost2010PropOp31
 70
     1
102
RTVSPost2010Prop32
280
     0
102
RTVSPost2010PropOp32
 70
     1
102
RTVSPost2010Prop33
280
     0
102
RTVSPost2010PropOp33
 70
     1
102
RTVSPost2010Prop34
280
     0
102
RTVSPost2010PropOp34
 70
     1
102
RTVSPost2010Prop35
280
     0
102
RTVSPost2010PropOp35
 70
     1
102
RTVSPost2010Prop36
280
     0
102
RTVSPost2010PropOp36
 70
     1
102
RTVSPost2010Prop37
 90
       50
102
RTVSPost2010PropOp37
 70
     1
102
RTVSPost2010Prop38
140
0.0
102
RTVSPost2010PropOp38
 70
     1
102
RTVSPost2010Prop39
140
1.0
102
RTVSPost2010PropOp39
 70
     1
102
RTVSPost2010Prop40
 90
        0
102
RTVSPost2010PropOp40
 70
     1
102
RTVSPost2010Prop41ColorIndex
 90
       18
102
RTVSPost2010Prop41ColorRGB
 90
        0
102
RTVSPost2010PropOp41
 70
     1
102
RTVSPost2010Prop42
 90
       50
102
RTVSPost2010PropOp42
 70
     1
102
RTVSPost2010Prop43
 90
        3
102
RTVSPost2010PropOp43
 70
     1
102
RTVSPost2010Prop44ColorIndex
 90
        5
102
RTVSPost2010Prop44ColorRGB
 90
      255
102
RTVSPost2010PropOp44
 70
     1
102
RTVSPost2010Prop45
280
     0
102
RTVSPost2010PropOp45
 70
     1
102
RTVSPost2010Prop46
 90
       50
102
RTVSPost2010PropOp46
 70
     1
102
RTVSPost2010Prop47
 90
       50
102
RTVSPost2010PropOp47
 70
     1
102
RTVSPost2010Prop48
 90
       50
102
RTVSPost2010PropOp48
 70
     1
102
RTVSPost2010Prop49
280
     0
102
RTVSPost2010PropOp49
 70
     1
102
RTVSPost2010Prop50
 90
       50
102
RTVSPost2010PropOp50
 70
     1
102
RTVSPost2010Prop51ColorIndex
 90
      256
102
RTVSPost2010Prop51ColorRGB
 90
-16777216
102
RTVSPost2010PropOp51
 70
     0
102
RTVSPost2010Prop52
140
1.0
102
RTVSPost2010PropOp52
 70
     0
102
RTVSPost2010Prop53
 90
        2
102
RTVSPost2010PropOp53
 70
     1
102
RTVSPost2010Prop54
  1
strokes_ogs.tif
102
RTVSPost2010PropOp54
 70
     1
102
RTVSPost2010Prop55
280
     0
102
RTVSPost2010PropOp55
 70
     1
102
RTVSPost2010Prop56
140
1.0
102
RTVSPost2010PropOp56
 70
     1
102
RTVSPost2010Prop57
140
1.0
102
RTVSPost2010PropOp57
 70
     1
102
RTVSPropertyOp0
 70
     1
102
RTVSPropertyOp1
 70
     1
102
RTVSPropertyOp2
 70
     1
102
RTVSPropertyOp3
 70
     1
102
RTVSPropertyOp4
 70
     1
102
RTVSPropertyOp5
 70
     1
102
RTVSPropertyOp6
 70
     1
102
RTVSPropertyOp7
 70
     1
102
RTVSPropertyOp8
 70
     1
102
RTVSPropertyOp9
 70
     1
102
RTVSPropertyOp10
 70
     1
102
RTVSPropertyOp11
 70
     1
102
RTVSPropertyOp12
 70
     1
102
RTVSPropertyOp13
 70
     1
102
RTVSPropertyOp14
 70
     1
102
RTVSPropertyOp15
 70
     1
102
RTVSPropertyOp16
 70
     1
102
RTVSPropertyOp17
 70
     1
102
RTVSPropertyOp18
 70
     1
102
RTVSPropertyOp19
 70
     1
102
RTVSPropertyOp20
 70
     1
102
RTVSPropertyOp21
 70
     1
102
RTVSPropertyOp22
 70
     1
102
RTVSPropertyOp23
 70
     1
102
RTVSPropertyOp24
 70
     1
102
RTVSPropertyOp25
 70
     1
102
RTVSPropertyOp26
 70
     1
102
RTVSPropertyOp27
 70
     1
102
RTVSPropertyOp28
 70
     1
102
RTVSPropertyOp29
 70
     1
102
RTVSPropertyOp30
 70
     1
102
RTVSPropertyOp31
 70
     1
102
RTVSPropertyOp32
 70
     1
102
RTVSPropertyOp33
 70
     1
102
RTVSPropertyOp34
 70
     1
102
RTVSPropertyOp35
 70
     1
102
RTVSPropertyOp36
 70
     1
102
RTVSPropertyOp37
 70
     1
102
RTVSPropertyOp38
 70
     1
102
RTVSPropertyOp39
 70
     1
102
RTVSPropertyOp40
 70
     1
102
RTVSPropertyOp41
 70
     1
102
RTVSPropertyOp42
 70
     1
102
RTVSPropertyOp43
 70
     1
102
RTVSPropertyOp44
 70
     1
102
RTVSPropertyOp45
 70
     1
102
RTVSPropertyOp46
 70
     1
102
RTVSPropertyOp47
 70
     1
102
RTVSPropertyOp48
 70
     1
102
RTVSPropertyOp49
 70
     1
102
RTVSPropertyOp50
 70
     1
102
RTVSPropertyOp51
 70
     0
102
RTVSPropertyOp52
 70
     0
102
RTVSPropertyOp53
 70
     1
102
RTVSPropertyOp54
 70
     1
102
RTVSPropertyOp55
 70
     1
102
RTVSPropertyOp56
 70
     1
102
RTVSPropertyOp57
 70
     1
102
RTVSPropertyOp58
 70
     1
102
RTVSPropertyOp59
 70
     1
102
RTVSPropertyOp60
 70
     1
102
RTVSPropertyOp61
 70
     1
102
RTVSPropertyOp62
 70
     1
  0
XRECORD
  5
C092
102
{ACAD_REACTORS
330
C091
102
}
330
C091
100
AcDbXrecord
280
     1
102
RTVSPost2010Prop28
280
     0
102
RTVSPost2010PropOp28
 70
     1
102
RTVSPost2010Prop29
280
     1
102
RTVSPost2010PropOp29
 70
     1
102
RTVSPost2010Prop30
280
     1
102
RTVSPost2010PropOp30
 70
     1
102
RTVSPost2010Prop31
280
     0
102
RTVSPost2010PropOp31
 70
     1
102
RTVSPost2010Prop32
280
     0
102
RTVSPost2010PropOp32
 70
     1
102
RTVSPost2010Prop33
280
     0
102
RTVSPost2010PropOp33
 70
     1
102
RTVSPost2010Prop34
280
     0
102
RTVSPost2010PropOp34
 70
     1
102
RTVSPost2010Prop35
280
     0
102
RTVSPost2010PropOp35
 70
     1
102
RTVSPost2010Prop36
280
     0
102
RTVSPost2010PropOp36
 70
     1
102
RTVSPost2010Prop37
 90
       50
102
RTVSPost2010PropOp37
 70
     1
102
RTVSPost2010Prop38
140
0.0
102
RTVSPost2010PropOp38
 70
     1
102
RTVSPost2010Prop39
140
1.0
102
RTVSPost2010PropOp39
 70
     1
102
RTVSPost2010Prop40
 90
        0
102
RTVSPost2010PropOp40
 70
     1
102
RTVSPost2010Prop41ColorIndex
 90
       18
102
RTVSPost2010Prop41ColorRGB
 90
        0
102
RTVSPost2010PropOp41
 70
     1
102
RTVSPost2010Prop42
 90
       50
102
RTVSPost2010PropOp42
 70
     1
102
RTVSPost2010Prop43
 90
        3
102
RTVSPost2010PropOp43
 70
     1
102
RTVSPost2010Prop44ColorIndex
 90
        5
102
RTVSPost2010Prop44ColorRGB
 90
      255
102
RTVSPost2010PropOp44
 70
     1
102
RTVSPost2010Prop45
280
     0
102
RTVSPost2010PropOp45
 70
     1
102
RTVSPost2010Prop46
 90
       50
102
RTVSPost2010PropOp46
 70
     1
102
RTVSPost2010Prop47
 90
       50
102
RTVSPost2010PropOp47
 70
     1
102
RTVSPost2010Prop48
 90
       50
102
RTVSPost2010PropOp48
 70
     1
102
RTVSPost2010Prop49
280
     0
102
RTVSPost2010PropOp49
 70
     1
102
RTVSPost2010Prop50
 90
       50
102
RTVSPost2010PropOp50
 70
     1
102
RTVSPost2010Prop51ColorIndex
 90
      256
102
RTVSPost2010Prop51ColorRGB
 90
-16777216
102
RTVSPost2010PropOp51
 70
     0
102
RTVSPost2010Prop52
140
1.0
102
RTVSPost2010PropOp52
 70
     0
102
RTVSPost2010Prop53
 90
        2
102
RTVSPost2010PropOp53
 70
     1
102
RTVSPost2010Prop54
  1
strokes_ogs.tif
102
RTVSPost2010PropOp54
 70
     1
102
RTVSPost2010Prop55
280
     0
102
RTVSPost2010PropOp55
 70
     1
102
RTVSPost2010Prop56
140
1.0
102
RTVSPost2010PropOp56
 70
     1
102
RTVSPost2010Prop57
140
1.0
102
RTVSPost2010PropOp57
 70
     1
102
RTVSPropertyOp0
 70
     1
102
RTVSPropertyOp1
 70
     1
102
RTVSPropertyOp2
 70
     1
102
RTVSPropertyOp3
 70
     1
102
RTVSPropertyOp4
 70
     1
102
RTVSPropertyOp5
 70
     1
102
RTVSPropertyOp6
 70
     1
102
RTVSPropertyOp7
 70
     1
102
RTVSPropertyOp8
 70
     1
102
RTVSPropertyOp9
 70
     1
102
RTVSPropertyOp10
 70
     1
102
RTVSPropertyOp11
 70
     1
102
RTVSPropertyOp12
 70
     1
102
RTVSPropertyOp13
 70
     1
102
RTVSPropertyOp14
 70
     1
102
RTVSPropertyOp15
 70
     1
102
RTVSPropertyOp16
 70
     1
102
RTVSPropertyOp17
 70
     1
102
RTVSPropertyOp18
 70
     1
102
RTVSPropertyOp19
 70
     1
102
RTVSPropertyOp20
 70
     1
102
RTVSPropertyOp21
 70
     1
102
RTVSPropertyOp22
 70
     1
102
RTVSPropertyOp23
 70
     1
102
RTVSPropertyOp24
 70
     1
102
RTVSPropertyOp25
 70
     1
102
RTVSPropertyOp26
 70
     1
102
RTVSPropertyOp27
 70
     1
102
RTVSPropertyOp28
 70
     1
102
RTVSPropertyOp29
 70
     1
102
RTVSPropertyOp30
 70
     1
102
RTVSPropertyOp31
 70
     1
102
RTVSPropertyOp32
 70
     1
102
RTVSPropertyOp33
 70
     1
102
RTVSPropertyOp34
 70
     1
102
RTVSPropertyOp35
 70
     1
102
RTVSPropertyOp36
 70
     1
102
RTVSPropertyOp37
 70
     1
102
RTVSPropertyOp38
 70
     1
102
RTVSPropertyOp39
 70
     1
102
RTVSPropertyOp40
 70
     1
102
RTVSPropertyOp41
 70
     1
102
RTVSPropertyOp42
 70
     1
102
RTVSPropertyOp43
 70
     1
102
RTVSPropertyOp44
 70
     1
102
RTVSPropertyOp45
 70
     1
102
RTVSPropertyOp46
 70
     1
102
RTVSPropertyOp47
 70
     1
102
RTVSPropertyOp48
 70
     1
102
RTVSPropertyOp49
 70
     1
102
RTVSPropertyOp50
 70
     1
102
RTVSPropertyOp51
 70
     0
102
RTVSPropertyOp52
 70
     0
102
RTVSPropertyOp53
 70
     1
102
RTVSPropertyOp54
 70
     1
102
RTVSPropertyOp55
 70
     1
102
RTVSPropertyOp56
 70
     1
102
RTVSPropertyOp57
 70
     1
102
RTVSPropertyOp58
 70
     1
102
RTVSPropertyOp59
 70
     1
102
RTVSPropertyOp60
 70
     1
102
RTVSPropertyOp61
 70
     1
102
RTVSPropertyOp62
 70
     1
  0
XRECORD
  5
C096
102
{ACAD_REACTORS
330
C095
102
}
330
C095
100
AcDbXrecord
280
     1
102
RTVSPost2010Prop28
280
     0
102
RTVSPost2010PropOp28
 70
     1
102
RTVSPost2010Prop29
280
     1
102
RTVSPost2010PropOp29
 70
     1
102
RTVSPost2010Prop30
280
     1
102
RTVSPost2010PropOp30
 70
     1
102
RTVSPost2010Prop31
280
     0
102
RTVSPost2010PropOp31
 70
     1
102
RTVSPost2010Prop32
280
     0
102
RTVSPost2010PropOp32
 70
     1
102
RTVSPost2010Prop33
280
     0
102
RTVSPost2010PropOp33
 70
     1
102
RTVSPost2010Prop34
280
     0
102
RTVSPost2010PropOp34
 70
     1
102
RTVSPost2010Prop35
280
     0
102
RTVSPost2010PropOp35
 70
     1
102
RTVSPost2010Prop36
280
     0
102
RTVSPost2010PropOp36
 70
     1
102
RTVSPost2010Prop37
 90
       50
102
RTVSPost2010PropOp37
 70
     1
102
RTVSPost2010Prop38
140
0.0
102
RTVSPost2010PropOp38
 70
     1
102
RTVSPost2010Prop39
140
1.0
102
RTVSPost2010PropOp39
 70
     1
102
RTVSPost2010Prop40
 90
        0
102
RTVSPost2010PropOp40
 70
     1
102
RTVSPost2010Prop41ColorIndex
 90
       18
102
RTVSPost2010Prop41ColorRGB
 90
        0
102
RTVSPost2010PropOp41
 70
     1
102
RTVSPost2010Prop42
 90
       50
102
RTVSPost2010PropOp42
 70
     1
102
RTVSPost2010Prop43
 90
        3
102
RTVSPost2010PropOp43
 70
     1
102
RTVSPost2010Prop44ColorIndex
 90
        5
102
RTVSPost2010Prop44ColorRGB
 90
      255
102
RTVSPost2010PropOp44
 70
     1
102
RTVSPost2010Prop45
280
     0
102
RTVSPost2010PropOp45
 70
     1
102
RTVSPost2010Prop46
 90
       50
102
RTVSPost2010PropOp46
 70
     1
102
RTVSPost2010Prop47
 90
       50
102
RTVSPost2010PropOp47
 70
     1
102
RTVSPost2010Prop48
 90
       50
102
RTVSPost2010PropOp48
 70
     1
102
RTVSPost2010Prop49
280
     0
102
RTVSPost2010PropOp49
 70
     1
102
RTVSPost2010Prop50
 90
       50
102
RTVSPost2010PropOp50
 70
     1
102
RTVSPost2010Prop51ColorIndex
 90
      256
102
RTVSPost2010Prop51ColorRGB
 90
-16777216
102
RTVSPost2010PropOp51
 70
     0
102
RTVSPost2010Prop52
140
1.0
102
RTVSPost2010PropOp52
 70
     0
102
RTVSPost2010Prop53
 90
        2
102
RTVSPost2010PropOp53
 70
     1
102
RTVSPost2010Prop54
  1
strokes_ogs.tif
102
RTVSPost2010PropOp54
 70
     1
102
RTVSPost2010Prop55
280
     0
102
RTVSPost2010PropOp55
 70
     1
102
RTVSPost2010Prop56
140
1.0
102
RTVSPost2010PropOp56
 70
     1
102
RTVSPost2010Prop57
140
1.0
102
RTVSPost2010PropOp57
 70
     1
102
RTVSPropertyOp0
 70
     1
102
RTVSPropertyOp1
 70
     1
102
RTVSPropertyOp2
 70
     1
102
RTVSPropertyOp3
 70
     1
102
RTVSPropertyOp4
 70
     1
102
RTVSPropertyOp5
 70
     1
102
RTVSPropertyOp6
 70
     1
102
RTVSPropertyOp7
 70
     1
102
RTVSPropertyOp8
 70
     1
102
RTVSPropertyOp9
 70
     1
102
RTVSPropertyOp10
 70
     1
102
RTVSPropertyOp11
 70
     1
102
RTVSPropertyOp12
 70
     1
102
RTVSPropertyOp13
 70
     1
102
RTVSPropertyOp14
 70
     1
102
RTVSPropertyOp15
 70
     1
102
RTVSPropertyOp16
 70
     1
102
RTVSPropertyOp17
 70
     1
102
RTVSPropertyOp18
 70
     1
102
RTVSPropertyOp19
 70
     1
102
RTVSPropertyOp20
 70
     1
102
RTVSPropertyOp21
 70
     1
102
RTVSPropertyOp22
 70
     1
102
RTVSPropertyOp23
 70
     1
102
RTVSPropertyOp24
 70
     1
102
RTVSPropertyOp25
 70
     1
102
RTVSPropertyOp26
 70
     1
102
RTVSPropertyOp27
 70
     1
102
RTVSPropertyOp28
 70
     1
102
RTVSPropertyOp29
 70
     1
102
RTVSPropertyOp30
 70
     1
102
RTVSPropertyOp31
 70
     1
102
RTVSPropertyOp32
 70
     1
102
RTVSPropertyOp33
 70
     1
102
RTVSPropertyOp34
 70
     1
102
RTVSPropertyOp35
 70
     1
102
RTVSPropertyOp36
 70
     1
102
RTVSPropertyOp37
 70
     1
102
RTVSPropertyOp38
 70
     1
102
RTVSPropertyOp39
 70
     1
102
RTVSPropertyOp40
 70
     1
102
RTVSPropertyOp41
 70
     1
102
RTVSPropertyOp42
 70
     1
102
RTVSPropertyOp43
 70
     1
102
RTVSPropertyOp44
 70
     1
102
RTVSPropertyOp45
 70
     1
102
RTVSPropertyOp46
 70
     1
102
RTVSPropertyOp47
 70
     1
102
RTVSPropertyOp48
 70
     1
102
RTVSPropertyOp49
 70
     1
102
RTVSPropertyOp50
 70
     1
102
RTVSPropertyOp51
 70
     0
102
RTVSPropertyOp52
 70
     0
102
RTVSPropertyOp53
 70
     1
102
RTVSPropertyOp54
 70
     1
102
RTVSPropertyOp55
 70
     1
102
RTVSPropertyOp56
 70
     1
102
RTVSPropertyOp57
 70
     1
102
RTVSPropertyOp58
 70
     1
102
RTVSPropertyOp59
 70
     1
102
RTVSPropertyOp60
 70
     1
102
RTVSPropertyOp61
 70
     1
102
RTVSPropertyOp62
 70
     1
  0
XRECORD
  5
C0A8
102
{ACAD_REACTORS
330
C0A7
102
}
330
C0A7
100
AcDbXrecord
280
     1
102
RTVSPost2010Prop28
280
     0
102
RTVSPost2010PropOp28
 70
     1
102
RTVSPost2010Prop29
280
     1
102
RTVSPost2010PropOp29
 70
     1
102
RTVSPost2010Prop30
280
     1
102
RTVSPost2010PropOp30
 70
     1
102
RTVSPost2010Prop31
280
     0
102
RTVSPost2010PropOp31
 70
     1
102
RTVSPost2010Prop32
280
     0
102
RTVSPost2010PropOp32
 70
     1
102
RTVSPost2010Prop33
280
     0
102
RTVSPost2010PropOp33
 70
     1
102
RTVSPost2010Prop34
280
     0
102
RTVSPost2010PropOp34
 70
     1
102
RTVSPost2010Prop35
280
     0
102
RTVSPost2010PropOp35
 70
     1
102
RTVSPost2010Prop36
280
     0
102
RTVSPost2010PropOp36
 70
     1
102
RTVSPost2010Prop37
 90
       50
102
RTVSPost2010PropOp37
 70
     1
102
RTVSPost2010Prop38
140
0.0
102
RTVSPost2010PropOp38
 70
     1
102
RTVSPost2010Prop39
140
1.0
102
RTVSPost2010PropOp39
 70
     1
102
RTVSPost2010Prop40
 90
        0
102
RTVSPost2010PropOp40
 70
     1
102
RTVSPost2010Prop41ColorIndex
 90
       18
102
RTVSPost2010Prop41ColorRGB
 90
        0
102
RTVSPost2010PropOp41
 70
     1
102
RTVSPost2010Prop42
 90
       50
102
RTVSPost2010PropOp42
 70
     1
102
RTVSPost2010Prop43
 90
        3
102
RTVSPost2010PropOp43
 70
     1
102
RTVSPost2010Prop44ColorIndex
 90
        5
102
RTVSPost2010Prop44ColorRGB
 90
      255
102
RTVSPost2010PropOp44
 70
     1
102
RTVSPost2010Prop45
280
     0
102
RTVSPost2010PropOp45
 70
     1
102
RTVSPost2010Prop46
 90
       50
102
RTVSPost2010PropOp46
 70
     1
102
RTVSPost2010Prop47
 90
       50
102
RTVSPost2010PropOp47
 70
     1
102
RTVSPost2010Prop48
 90
       50
102
RTVSPost2010PropOp48
 70
     1
102
RTVSPost2010Prop49
280
     0
102
RTVSPost2010PropOp49
 70
     1
102
RTVSPost2010Prop50
 90
       50
102
RTVSPost2010PropOp50
 70
     1
102
RTVSPost2010Prop51ColorIndex
 90
      256
102
RTVSPost2010Prop51ColorRGB
 90
-16777216
102
RTVSPost2010PropOp51
 70
     0
102
RTVSPost2010Prop52
140
1.0
102
RTVSPost2010PropOp52
 70
     0
102
RTVSPost2010Prop53
 90
        2
102
RTVSPost2010PropOp53
 70
     1
102
RTVSPost2010Prop54
  1
strokes_ogs.tif
102
RTVSPost2010PropOp54
 70
     1
102
RTVSPost2010Prop55
280
     0
102
RTVSPost2010PropOp55
 70
     1
102
RTVSPost2010Prop56
140
1.0
102
RTVSPost2010PropOp56
 70
     1
102
RTVSPost2010Prop57
140
1.0
102
RTVSPost2010PropOp57
 70
     1
102
RTVSPropertyOp0
 70
     0
102
RTVSPropertyOp1
 70
     0
102
RTVSPropertyOp2
 70
     0
102
RTVSPropertyOp3
 70
     0
102
RTVSPropertyOp4
 70
     0
102
RTVSPropertyOp5
 70
     0
102
RTVSPropertyOp6
 70
     0
102
RTVSPropertyOp7
 70
     0
102
RTVSPropertyOp8
 70
     0
102
RTVSPropertyOp9
 70
     0
102
RTVSPropertyOp10
 70
     0
102
RTVSPropertyOp11
 70
     0
102
RTVSPropertyOp12
 70
     0
102
RTVSPropertyOp13
 70
     0
102
RTVSPropertyOp14
 70
     2
102
RTVSPropertyOp15
 70
     0
102
RTVSPropertyOp16
 70
     0
102
RTVSPropertyOp17
 70
     0
102
RTVSPropertyOp18
 70
     0
102
RTVSPropertyOp19
 70
     0
102
RTVSPropertyOp20
 70
     0
102
RTVSPropertyOp21
 70
     0
102
RTVSPropertyOp22
 70
     0
102
RTVSPropertyOp23
 70
     0
102
RTVSPropertyOp24
 70
     0
102
RTVSPropertyOp25
 70
     0
102
RTVSPropertyOp26
 70
     0
102
RTVSPropertyOp27
 70
     0
102
RTVSPropertyOp28
 70
     1
102
RTVSPropertyOp29
 70
     1
102
RTVSPropertyOp30
 70
     1
102
RTVSPropertyOp31
 70
     1
102
RTVSPropertyOp32
 70
     1
102
RTVSPropertyOp33
 70
     1
102
RTVSPropertyOp34
 70
     1
102
RTVSPropertyOp35
 70
     1
102
RTVSPropertyOp36
 70
     1
102
RTVSPropertyOp37
 70
     1
102
RTVSPropertyOp38
 70
     1
102
RTVSPropertyOp39
 70
     1
102
RTVSPropertyOp40
 70
     1
102
RTVSPropertyOp41
 70
     1
102
RTVSPropertyOp42
 70
     1
102
RTVSPropertyOp43
 70
     1
102
RTVSPropertyOp44
 70
     1
102
RTVSPropertyOp45
 70
     1
102
RTVSPropertyOp46
 70
     1
102
RTVSPropertyOp47
 70
     1
102
RTVSPropertyOp48
 70
     1
102
RTVSPropertyOp49
 70
     1
102
RTVSPropertyOp50
 70
     1
102
RTVSPropertyOp51
 70
     0
102
RTVSPropertyOp52
 70
     0
102
RTVSPropertyOp53
 70
     1
102
RTVSPropertyOp54
 70
     1
102
RTVSPropertyOp55
 70
     1
102
RTVSPropertyOp56
 70
     1
102
RTVSPropertyOp57
 70
     1
102
RTVSPropertyOp58
 70
     1
102
RTVSPropertyOp59
 70
     1
102
RTVSPropertyOp60
 70
     1
102
RTVSPropertyOp61
 70
     1
102
RTVSPropertyOp62
 70
     1
  0
XRECORD
  5
C09E
102
{ACAD_REACTORS
330
C09D
102
}
330
C09D
100
AcDbXrecord
280
     1
102
RTVSPost2010Prop28
280
     0
102
RTVSPost2010PropOp28
 70
     1
102
RTVSPost2010Prop29
280
     1
102
RTVSPost2010PropOp29
 70
     1
102
RTVSPost2010Prop30
280
     1
102
RTVSPost2010PropOp30
 70
     1
102
RTVSPost2010Prop31
280
     0
102
RTVSPost2010PropOp31
 70
     1
102
RTVSPost2010Prop32
280
     0
102
RTVSPost2010PropOp32
 70
     1
102
RTVSPost2010Prop33
280
     0
102
RTVSPost2010PropOp33
 70
     1
102
RTVSPost2010Prop34
280
     0
102
RTVSPost2010PropOp34
 70
     1
102
RTVSPost2010Prop35
280
     0
102
RTVSPost2010PropOp35
 70
     1
102
RTVSPost2010Prop36
280
     0
102
RTVSPost2010PropOp36
 70
     1
102
RTVSPost2010Prop37
 90
       50
102
RTVSPost2010PropOp37
 70
     1
102
RTVSPost2010Prop38
140
0.0
102
RTVSPost2010PropOp38
 70
     1
102
RTVSPost2010Prop39
140
1.0
102
RTVSPost2010PropOp39
 70
     1
102
RTVSPost2010Prop40
 90
        0
102
RTVSPost2010PropOp40
 70
     1
102
RTVSPost2010Prop41ColorIndex
 90
       18
102
RTVSPost2010Prop41ColorRGB
 90
        0
102
RTVSPost2010PropOp41
 70
     1
102
RTVSPost2010Prop42
 90
       50
102
RTVSPost2010PropOp42
 70
     1
102
RTVSPost2010Prop43
 90
        3
102
RTVSPost2010PropOp43
 70
     1
102
RTVSPost2010Prop44ColorIndex
 90
        5
102
RTVSPost2010Prop44ColorRGB
 90
      255
102
RTVSPost2010PropOp44
 70
     1
102
RTVSPost2010Prop45
280
     0
102
RTVSPost2010PropOp45
 70
     1
102
RTVSPost2010Prop46
 90
       50
102
RTVSPost2010PropOp46
 70
     1
102
RTVSPost2010Prop47
 90
       50
102
RTVSPost2010PropOp47
 70
     1
102
RTVSPost2010Prop48
 90
       50
102
RTVSPost2010PropOp48
 70
     1
102
RTVSPost2010Prop49
280
     0
102
RTVSPost2010PropOp49
 70
     1
102
RTVSPost2010Prop50
 90
       50
102
RTVSPost2010PropOp50
 70
     1
102
RTVSPost2010Prop51ColorIndex
 90
      256
102
RTVSPost2010Prop51ColorRGB
 90
-16777216
102
RTVSPost2010PropOp51
 70
     0
102
RTVSPost2010Prop52
140
1.0
102
RTVSPost2010PropOp52
 70
     0
102
RTVSPost2010Prop53
 90
        2
102
RTVSPost2010PropOp53
 70
     1
102
RTVSPost2010Prop54
  1
strokes_ogs.tif
102
RTVSPost2010PropOp54
 70
     1
102
RTVSPost2010Prop55
280
     0
102
RTVSPost2010PropOp55
 70
     1
102
RTVSPost2010Prop56
140
1.0
102
RTVSPost2010PropOp56
 70
     1
102
RTVSPost2010Prop57
140
1.0
102
RTVSPost2010PropOp57
 70
     1
102
RTVSPropertyOp0
 70
     1
102
RTVSPropertyOp1
 70
     1
102
RTVSPropertyOp2
 70
     1
102
RTVSPropertyOp3
 70
     1
102
RTVSPropertyOp4
 70
     1
102
RTVSPropertyOp5
 70
     1
102
RTVSPropertyOp6
 70
     1
102
RTVSPropertyOp7
 70
     1
102
RTVSPropertyOp8
 70
     1
102
RTVSPropertyOp9
 70
     1
102
RTVSPropertyOp10
 70
     1
102
RTVSPropertyOp11
 70
     1
102
RTVSPropertyOp12
 70
     1
102
RTVSPropertyOp13
 70
     1
102
RTVSPropertyOp14
 70
     1
102
RTVSPropertyOp15
 70
     1
102
RTVSPropertyOp16
 70
     1
102
RTVSPropertyOp17
 70
     1
102
RTVSPropertyOp18
 70
     1
102
RTVSPropertyOp19
 70
     1
102
RTVSPropertyOp20
 70
     1
102
RTVSPropertyOp21
 70
     1
102
RTVSPropertyOp22
 70
     1
102
RTVSPropertyOp23
 70
     1
102
RTVSPropertyOp24
 70
     1
102
RTVSPropertyOp25
 70
     1
102
RTVSPropertyOp26
 70
     1
102
RTVSPropertyOp27
 70
     1
102
RTVSPropertyOp28
 70
     1
102
RTVSPropertyOp29
 70
     1
102
RTVSPropertyOp30
 70
     1
102
RTVSPropertyOp31
 70
     1
102
RTVSPropertyOp32
 70
     1
102
RTVSPropertyOp33
 70
     1
102
RTVSPropertyOp34
 70
     1
102
RTVSPropertyOp35
 70
     1
102
RTVSPropertyOp36
 70
     1
102
RTVSPropertyOp37
 70
     1
102
RTVSPropertyOp38
 70
     1
102
RTVSPropertyOp39
 70
     1
102
RTVSPropertyOp40
 70
     1
102
RTVSPropertyOp41
 70
     1
102
RTVSPropertyOp42
 70
     1
102
RTVSPropertyOp43
 70
     1
102
RTVSPropertyOp44
 70
     1
102
RTVSPropertyOp45
 70
     1
102
RTVSPropertyOp46
 70
     1
102
RTVSPropertyOp47
 70
     1
102
RTVSPropertyOp48
 70
     1
102
RTVSPropertyOp49
 70
     1
102
RTVSPropertyOp50
 70
     1
102
RTVSPropertyOp51
 70
     0
102
RTVSPropertyOp52
 70
     0
102
RTVSPropertyOp53
 70
     1
102
RTVSPropertyOp54
 70
     1
102
RTVSPropertyOp55
 70
     1
102
RTVSPropertyOp56
 70
     1
102
RTVSPropertyOp57
 70
     1
102
RTVSPropertyOp58
 70
     1
102
RTVSPropertyOp59
 70
     1
102
RTVSPropertyOp60
 70
     1
102
RTVSPropertyOp61
 70
     1
102
RTVSPropertyOp62
 70
     1
  0
XRECORD
  5
C082
102
{ACAD_REACTORS
330
C081
102
}
330
C081
100
AcDbXrecord
280
     1
102
RTVSPost2010Prop28
280
     0
102
RTVSPost2010PropOp28
 70
     1
102
RTVSPost2010Prop29
280
     1
102
RTVSPost2010PropOp29
 70
     1
102
RTVSPost2010Prop30
280
     1
102
RTVSPost2010PropOp30
 70
     1
102
RTVSPost2010Prop31
280
     0
102
RTVSPost2010PropOp31
 70
     1
102
RTVSPost2010Prop32
280
     0
102
RTVSPost2010PropOp32
 70
     1
102
RTVSPost2010Prop33
280
     0
102
RTVSPost2010PropOp33
 70
     1
102
RTVSPost2010Prop34
280
     0
102
RTVSPost2010PropOp34
 70
     1
102
RTVSPost2010Prop35
280
     0
102
RTVSPost2010PropOp35
 70
     1
102
RTVSPost2010Prop36
280
     0
102
RTVSPost2010PropOp36
 70
     1
102
RTVSPost2010Prop37
 90
       50
102
RTVSPost2010PropOp37
 70
     1
102
RTVSPost2010Prop38
140
0.0
102
RTVSPost2010PropOp38
 70
     1
102
RTVSPost2010Prop39
140
1.0
102
RTVSPost2010PropOp39
 70
     1
102
RTVSPost2010Prop40
 90
        0
102
RTVSPost2010PropOp40
 70
     1
102
RTVSPost2010Prop41ColorIndex
 90
       18
102
RTVSPost2010Prop41ColorRGB
 90
        0
102
RTVSPost2010PropOp41
 70
     1
102
RTVSPost2010Prop42
 90
       50
102
RTVSPost2010PropOp42
 70
     1
102
RTVSPost2010Prop43
 90
        3
102
RTVSPost2010PropOp43
 70
     1
102
RTVSPost2010Prop44ColorIndex
 90
        5
102
RTVSPost2010Prop44ColorRGB
 90
      255
102
RTVSPost2010PropOp44
 70
     1
102
RTVSPost2010Prop45
280
     0
102
RTVSPost2010PropOp45
 70
     1
102
RTVSPost2010Prop46
 90
       50
102
RTVSPost2010PropOp46
 70
     1
102
RTVSPost2010Prop47
 90
       50
102
RTVSPost2010PropOp47
 70
     1
102
RTVSPost2010Prop48
 90
       50
102
RTVSPost2010PropOp48
 70
     1
102
RTVSPost2010Prop49
280
     0
102
RTVSPost2010PropOp49
 70
     1
102
RTVSPost2010Prop50
 90
       50
102
RTVSPost2010PropOp50
 70
     1
102
RTVSPost2010Prop51ColorIndex
 90
      256
102
RTVSPost2010Prop51ColorRGB
 90
-16777216
102
RTVSPost2010PropOp51
 70
     0
102
RTVSPost2010Prop52
140
1.0
102
RTVSPost2010PropOp52
 70
     0
102
RTVSPost2010Prop53
 90
        2
102
RTVSPost2010PropOp53
 70
     1
102
RTVSPost2010Prop54
  1
strokes_ogs.tif
102
RTVSPost2010PropOp54
 70
     1
102
RTVSPost2010Prop55
280
     0
102
RTVSPost2010PropOp55
 70
     1
102
RTVSPost2010Prop56
140
1.0
102
RTVSPost2010PropOp56
 70
     1
102
RTVSPost2010Prop57
140
1.0
102
RTVSPost2010PropOp57
 70
     1
102
RTVSPropertyOp0
 70
     1
102
RTVSPropertyOp1
 70
     1
102
RTVSPropertyOp2
 70
     1
102
RTVSPropertyOp3
 70
     1
102
RTVSPropertyOp4
 70
     1
102
RTVSPropertyOp5
 70
     1
102
RTVSPropertyOp6
 70
     1
102
RTVSPropertyOp7
 70
     1
102
RTVSPropertyOp8
 70
     1
102
RTVSPropertyOp9
 70
     1
102
RTVSPropertyOp10
 70
     1
102
RTVSPropertyOp11
 70
     1
102
RTVSPropertyOp12
 70
     1
102
RTVSPropertyOp13
 70
     1
102
RTVSPropertyOp14
 70
     1
102
RTVSPropertyOp15
 70
     1
102
RTVSPropertyOp16
 70
     1
102
RTVSPropertyOp17
 70
     1
102
RTVSPropertyOp18
 70
     1
102
RTVSPropertyOp19
 70
     1
102
RTVSPropertyOp20
 70
     1
102
RTVSPropertyOp21
 70
     1
102
RTVSPropertyOp22
 70
     1
102
RTVSPropertyOp23
 70
     1
102
RTVSPropertyOp24
 70
     1
102
RTVSPropertyOp25
 70
     1
102
RTVSPropertyOp26
 70
     1
102
RTVSPropertyOp27
 70
     1
102
RTVSPropertyOp28
 70
     1
102
RTVSPropertyOp29
 70
     1
102
RTVSPropertyOp30
 70
     1
102
RTVSPropertyOp31
 70
     1
102
RTVSPropertyOp32
 70
     1
102
RTVSPropertyOp33
 70
     1
102
RTVSPropertyOp34
 70
     1
102
RTVSPropertyOp35
 70
     1
102
RTVSPropertyOp36
 70
     1
102
RTVSPropertyOp37
 70
     1
102
RTVSPropertyOp38
 70
     1
102
RTVSPropertyOp39
 70
     1
102
RTVSPropertyOp40
 70
     1
102
RTVSPropertyOp41
 70
     1
102
RTVSPropertyOp42
 70
     1
102
RTVSPropertyOp43
 70
     1
102
RTVSPropertyOp44
 70
     1
102
RTVSPropertyOp45
 70
     1
102
RTVSPropertyOp46
 70
     1
102
RTVSPropertyOp47
 70
     1
102
RTVSPropertyOp48
 70
     1
102
RTVSPropertyOp49
 70
     1
102
RTVSPropertyOp50
 70
     1
102
RTVSPropertyOp51
 70
     0
102
RTVSPropertyOp52
 70
     0
102
RTVSPropertyOp53
 70
     1
102
RTVSPropertyOp54
 70
     1
102
RTVSPropertyOp55
 70
     1
102
RTVSPropertyOp56
 70
     1
102
RTVSPropertyOp57
 70
     1
102
RTVSPropertyOp58
 70
     1
102
RTVSPropertyOp59
 70
     1
102
RTVSPropertyOp60
 70
     1
102
RTVSPropertyOp61
 70
     1
102
RTVSPropertyOp62
 70
     1
  0
XRECORD
  5
C084
102
{ACAD_REACTORS
330
C083
102
}
330
C083
100
AcDbXrecord
280
     1
102
RTVSPost2010Prop28
280
     0
102
RTVSPost2010PropOp28
 70
     1
102
RTVSPost2010Prop29
280
     1
102
RTVSPost2010PropOp29
 70
     1
102
RTVSPost2010Prop30
280
     1
102
RTVSPost2010PropOp30
 70
     1
102
RTVSPost2010Prop31
280
     0
102
RTVSPost2010PropOp31
 70
     1
102
RTVSPost2010Prop32
280
     0
102
RTVSPost2010PropOp32
 70
     1
102
RTVSPost2010Prop33
280
     0
102
RTVSPost2010PropOp33
 70
     1
102
RTVSPost2010Prop34
280
     0
102
RTVSPost2010PropOp34
 70
     1
102
RTVSPost2010Prop35
280
     0
102
RTVSPost2010PropOp35
 70
     1
102
RTVSPost2010Prop36
280
     0
102
RTVSPost2010PropOp36
 70
     1
102
RTVSPost2010Prop37
 90
       50
102
RTVSPost2010PropOp37
 70
     1
102
RTVSPost2010Prop38
140
0.0
102
RTVSPost2010PropOp38
 70
     1
102
RTVSPost2010Prop39
140
1.0
102
RTVSPost2010PropOp39
 70
     1
102
RTVSPost2010Prop40
 90
        0
102
RTVSPost2010PropOp40
 70
     1
102
RTVSPost2010Prop41ColorIndex
 90
       18
102
RTVSPost2010Prop41ColorRGB
 90
        0
102
RTVSPost2010PropOp41
 70
     1
102
RTVSPost2010Prop42
 90
       50
102
RTVSPost2010PropOp42
 70
     1
102
RTVSPost2010Prop43
 90
        3
102
RTVSPost2010PropOp43
 70
     1
102
RTVSPost2010Prop44ColorIndex
 90
        5
102
RTVSPost2010Prop44ColorRGB
 90
      255
102
RTVSPost2010PropOp44
 70
     1
102
RTVSPost2010Prop45
280
     0
102
RTVSPost2010PropOp45
 70
     1
102
RTVSPost2010Prop46
 90
       50
102
RTVSPost2010PropOp46
 70
     1
102
RTVSPost2010Prop47
 90
       50
102
RTVSPost2010PropOp47
 70
     1
102
RTVSPost2010Prop48
 90
       50
102
RTVSPost2010PropOp48
 70
     1
102
RTVSPost2010Prop49
280
     0
102
RTVSPost2010PropOp49
 70
     1
102
RTVSPost2010Prop50
 90
       50
102
RTVSPost2010PropOp50
 70
     1
102
RTVSPost2010Prop51ColorIndex
 90
      256
102
RTVSPost2010Prop51ColorRGB
 90
-16777216
102
RTVSPost2010PropOp51
 70
     0
102
RTVSPost2010Prop52
140
1.0
102
RTVSPost2010PropOp52
 70
     0
102
RTVSPost2010Prop53
 90
        2
102
RTVSPost2010PropOp53
 70
     1
102
RTVSPost2010Prop54
  1
strokes_ogs.tif
102
RTVSPost2010PropOp54
 70
     1
102
RTVSPost2010Prop55
280
     0
102
RTVSPost2010PropOp55
 70
     1
102
RTVSPost2010Prop56
140
1.0
102
RTVSPost2010PropOp56
 70
     1
102
RTVSPost2010Prop57
140
1.0
102
RTVSPost2010PropOp57
 70
     1
102
RTVSPropertyOp0
 70
     1
102
RTVSPropertyOp1
 70
     1
102
RTVSPropertyOp2
 70
     1
102
RTVSPropertyOp3
 70
     1
102
RTVSPropertyOp4
 70
     1
102
RTVSPropertyOp5
 70
     1
102
RTVSPropertyOp6
 70
     1
102
RTVSPropertyOp7
 70
     1
102
RTVSPropertyOp8
 70
     1
102
RTVSPropertyOp9
 70
     1
102
RTVSPropertyOp10
 70
     1
102
RTVSPropertyOp11
 70
     1
102
RTVSPropertyOp12
 70
     1
102
RTVSPropertyOp13
 70
     1
102
RTVSPropertyOp14
 70
     1
102
RTVSPropertyOp15
 70
     1
102
RTVSPropertyOp16
 70
     1
102
RTVSPropertyOp17
 70
     1
102
RTVSPropertyOp18
 70
     1
102
RTVSPropertyOp19
 70
     1
102
RTVSPropertyOp20
 70
     1
102
RTVSPropertyOp21
 70
     1
102
RTVSPropertyOp22
 70
     1
102
RTVSPropertyOp23
 70
     1
102
RTVSPropertyOp24
 70
     1
102
RTVSPropertyOp25
 70
     1
102
RTVSPropertyOp26
 70
     1
102
RTVSPropertyOp27
 70
     1
102
RTVSPropertyOp28
 70
     1
102
RTVSPropertyOp29
 70
     1
102
RTVSPropertyOp30
 70
     1
102
RTVSPropertyOp31
 70
     1
102
RTVSPropertyOp32
 70
     1
102
RTVSPropertyOp33
 70
     1
102
RTVSPropertyOp34
 70
     1
102
RTVSPropertyOp35
 70
     1
102
RTVSPropertyOp36
 70
     1
102
RTVSPropertyOp37
 70
     1
102
RTVSPropertyOp38
 70
     1
102
RTVSPropertyOp39
 70
     1
102
RTVSPropertyOp40
 70
     1
102
RTVSPropertyOp41
 70
     1
102
RTVSPropertyOp42
 70
     1
102
RTVSPropertyOp43
 70
     1
102
RTVSPropertyOp44
 70
     1
102
RTVSPropertyOp45
 70
     1
102
RTVSPropertyOp46
 70
     1
102
RTVSPropertyOp47
 70
     1
102
RTVSPropertyOp48
 70
     1
102
RTVSPropertyOp49
 70
     1
102
RTVSPropertyOp50
 70
     1
102
RTVSPropertyOp51
 70
     0
102
RTVSPropertyOp52
 70
     0
102
RTVSPropertyOp53
 70
     1
102
RTVSPropertyOp54
 70
     1
102
RTVSPropertyOp55
 70
     1
102
RTVSPropertyOp56
 70
     1
102
RTVSPropertyOp57
 70
     1
102
RTVSPropertyOp58
 70
     1
102
RTVSPropertyOp59
 70
     1
102
RTVSPropertyOp60
 70
     1
102
RTVSPropertyOp61
 70
     1
102
RTVSPropertyOp62
 70
     1
  0
XRECORD
  5
C086
102
{ACAD_REACTORS
330
C085
102
}
330
C085
100
AcDbXrecord
280
     1
102
RTVSPost2010Prop28
280
     0
102
RTVSPost2010PropOp28
 70
     1
102
RTVSPost2010Prop29
280
     1
102
RTVSPost2010PropOp29
 70
     1
102
RTVSPost2010Prop30
280
     1
102
RTVSPost2010PropOp30
 70
     1
102
RTVSPost2010Prop31
280
     0
102
RTVSPost2010PropOp31
 70
     1
102
RTVSPost2010Prop32
280
     0
102
RTVSPost2010PropOp32
 70
     1
102
RTVSPost2010Prop33
280
     0
102
RTVSPost2010PropOp33
 70
     1
102
RTVSPost2010Prop34
280
     0
102
RTVSPost2010PropOp34
 70
     1
102
RTVSPost2010Prop35
280
     0
102
RTVSPost2010PropOp35
 70
     1
102
RTVSPost2010Prop36
280
     0
102
RTVSPost2010PropOp36
 70
     1
102
RTVSPost2010Prop37
 90
       50
102
RTVSPost2010PropOp37
 70
     1
102
RTVSPost2010Prop38
140
0.0
102
RTVSPost2010PropOp38
 70
     1
102
RTVSPost2010Prop39
140
1.0
102
RTVSPost2010PropOp39
 70
     1
102
RTVSPost2010Prop40
 90
        0
102
RTVSPost2010PropOp40
 70
     1
102
RTVSPost2010Prop41ColorIndex
 90
       18
102
RTVSPost2010Prop41ColorRGB
 90
        0
102
RTVSPost2010PropOp41
 70
     1
102
RTVSPost2010Prop42
 90
       50
102
RTVSPost2010PropOp42
 70
     1
102
RTVSPost2010Prop43
 90
        3
102
RTVSPost2010PropOp43
 70
     1
102
RTVSPost2010Prop44ColorIndex
 90
        5
102
RTVSPost2010Prop44ColorRGB
 90
      255
102
RTVSPost2010PropOp44
 70
     1
102
RTVSPost2010Prop45
280
     0
102
RTVSPost2010PropOp45
 70
     1
102
RTVSPost2010Prop46
 90
       50
102
RTVSPost2010PropOp46
 70
     1
102
RTVSPost2010Prop47
 90
       50
102
RTVSPost2010PropOp47
 70
     1
102
RTVSPost2010Prop48
 90
       50
102
RTVSPost2010PropOp48
 70
     1
102
RTVSPost2010Prop49
280
     0
102
RTVSPost2010PropOp49
 70
     1
102
RTVSPost2010Prop50
 90
       50
102
RTVSPost2010PropOp50
 70
     1
102
RTVSPost2010Prop51ColorIndex
 90
      256
102
RTVSPost2010Prop51ColorRGB
 90
-16777216
102
RTVSPost2010PropOp51
 70
     0
102
RTVSPost2010Prop52
140
1.0
102
RTVSPost2010PropOp52
 70
     0
102
RTVSPost2010Prop53
 90
        2
102
RTVSPost2010PropOp53
 70
     1
102
RTVSPost2010Prop54
  1
strokes_ogs.tif
102
RTVSPost2010PropOp54
 70
     1
102
RTVSPost2010Prop55
280
     0
102
RTVSPost2010PropOp55
 70
     1
102
RTVSPost2010Prop56
140
1.0
102
RTVSPost2010PropOp56
 70
     1
102
RTVSPost2010Prop57
140
1.0
102
RTVSPost2010PropOp57
 70
     1
102
RTVSPropertyOp0
 70
     1
102
RTVSPropertyOp1
 70
     1
102
RTVSPropertyOp2
 70
     1
102
RTVSPropertyOp3
 70
     1
102
RTVSPropertyOp4
 70
     1
102
RTVSPropertyOp5
 70
     1
102
RTVSPropertyOp6
 70
     1
102
RTVSPropertyOp7
 70
     1
102
RTVSPropertyOp8
 70
     1
102
RTVSPropertyOp9
 70
     1
102
RTVSPropertyOp10
 70
     1
102
RTVSPropertyOp11
 70
     1
102
RTVSPropertyOp12
 70
     1
102
RTVSPropertyOp13
 70
     1
102
RTVSPropertyOp14
 70
     1
102
RTVSPropertyOp15
 70
     1
102
RTVSPropertyOp16
 70
     1
102
RTVSPropertyOp17
 70
     1
102
RTVSPropertyOp18
 70
     1
102
RTVSPropertyOp19
 70
     1
102
RTVSPropertyOp20
 70
     1
102
RTVSPropertyOp21
 70
     1
102
RTVSPropertyOp22
 70
     1
102
RTVSPropertyOp23
 70
     1
102
RTVSPropertyOp24
 70
     1
102
RTVSPropertyOp25
 70
     1
102
RTVSPropertyOp26
 70
     1
102
RTVSPropertyOp27
 70
     1
102
RTVSPropertyOp28
 70
     1
102
RTVSPropertyOp29
 70
     1
102
RTVSPropertyOp30
 70
     1
102
RTVSPropertyOp31
 70
     1
102
RTVSPropertyOp32
 70
     1
102
RTVSPropertyOp33
 70
     1
102
RTVSPropertyOp34
 70
     1
102
RTVSPropertyOp35
 70
     1
102
RTVSPropertyOp36
 70
     1
102
RTVSPropertyOp37
 70
     1
102
RTVSPropertyOp38
 70
     1
102
RTVSPropertyOp39
 70
     1
102
RTVSPropertyOp40
 70
     1
102
RTVSPropertyOp41
 70
     1
102
RTVSPropertyOp42
 70
     1
102
RTVSPropertyOp43
 70
     1
102
RTVSPropertyOp44
 70
     1
102
RTVSPropertyOp45
 70
     1
102
RTVSPropertyOp46
 70
     1
102
RTVSPropertyOp47
 70
     1
102
RTVSPropertyOp48
 70
     1
102
RTVSPropertyOp49
 70
     1
102
RTVSPropertyOp50
 70
     1
102
RTVSPropertyOp51
 70
     0
102
RTVSPropertyOp52
 70
     0
102
RTVSPropertyOp53
 70
     1
102
RTVSPropertyOp54
 70
     1
102
RTVSPropertyOp55
 70
     1
102
RTVSPropertyOp56
 70
     1
102
RTVSPropertyOp57
 70
     1
102
RTVSPropertyOp58
 70
     1
102
RTVSPropertyOp59
 70
     1
102
RTVSPropertyOp60
 70
     1
102
RTVSPropertyOp61
 70
     1
102
RTVSPropertyOp62
 70
     1
  0
XRECORD
  5
C088
102
{ACAD_REACTORS
330
C087
102
}
330
C087
100
AcDbXrecord
280
     1
102
RTVSPost2010Prop28
280
     0
102
RTVSPost2010PropOp28
 70
     1
102
RTVSPost2010Prop29
280
     1
102
RTVSPost2010PropOp29
 70
     1
102
RTVSPost2010Prop30
280
     1
102
RTVSPost2010PropOp30
 70
     1
102
RTVSPost2010Prop31
280
     0
102
RTVSPost2010PropOp31
 70
     1
102
RTVSPost2010Prop32
280
     0
102
RTVSPost2010PropOp32
 70
     1
102
RTVSPost2010Prop33
280
     0
102
RTVSPost2010PropOp33
 70
     1
102
RTVSPost2010Prop34
280
     0
102
RTVSPost2010PropOp34
 70
     1
102
RTVSPost2010Prop35
280
     0
102
RTVSPost2010PropOp35
 70
     1
102
RTVSPost2010Prop36
280
     0
102
RTVSPost2010PropOp36
 70
     1
102
RTVSPost2010Prop37
 90
       50
102
RTVSPost2010PropOp37
 70
     1
102
RTVSPost2010Prop38
140
0.0
102
RTVSPost2010PropOp38
 70
     1
102
RTVSPost2010Prop39
140
1.0
102
RTVSPost2010PropOp39
 70
     1
102
RTVSPost2010Prop40
 90
        0
102
RTVSPost2010PropOp40
 70
     1
102
RTVSPost2010Prop41ColorIndex
 90
       18
102
RTVSPost2010Prop41ColorRGB
 90
        0
102
RTVSPost2010PropOp41
 70
     1
102
RTVSPost2010Prop42
 90
       50
102
RTVSPost2010PropOp42
 70
     1
102
RTVSPost2010Prop43
 90
        3
102
RTVSPost2010PropOp43
 70
     1
102
RTVSPost2010Prop44ColorIndex
 90
        5
102
RTVSPost2010Prop44ColorRGB
 90
      255
102
RTVSPost2010PropOp44
 70
     1
102
RTVSPost2010Prop45
280
     0
102
RTVSPost2010PropOp45
 70
     1
102
RTVSPost2010Prop46
 90
       50
102
RTVSPost2010PropOp46
 70
     1
102
RTVSPost2010Prop47
 90
       50
102
RTVSPost2010PropOp47
 70
     1
102
RTVSPost2010Prop48
 90
       50
102
RTVSPost2010PropOp48
 70
     1
102
RTVSPost2010Prop49
280
     0
102
RTVSPost2010PropOp49
 70
     1
102
RTVSPost2010Prop50
 90
       50
102
RTVSPost2010PropOp50
 70
     1
102
RTVSPost2010Prop51ColorIndex
 90
      256
102
RTVSPost2010Prop51ColorRGB
 90
-16777216
102
RTVSPost2010PropOp51
 70
     0
102
RTVSPost2010Prop52
140
1.0
102
RTVSPost2010PropOp52
 70
     0
102
RTVSPost2010Prop53
 90
        2
102
RTVSPost2010PropOp53
 70
     1
102
RTVSPost2010Prop54
  1
strokes_ogs.tif
102
RTVSPost2010PropOp54
 70
     1
102
RTVSPost2010Prop55
280
     0
102
RTVSPost2010PropOp55
 70
     1
102
RTVSPost2010Prop56
140
1.0
102
RTVSPost2010PropOp56
 70
     1
102
RTVSPost2010Prop57
140
1.0
102
RTVSPost2010PropOp57
 70
     1
102
RTVSPropertyOp0
 70
     1
102
RTVSPropertyOp1
 70
     1
102
RTVSPropertyOp2
 70
     1
102
RTVSPropertyOp3
 70
     1
102
RTVSPropertyOp4
 70
     1
102
RTVSPropertyOp5
 70
     1
102
RTVSPropertyOp6
 70
     1
102
RTVSPropertyOp7
 70
     1
102
RTVSPropertyOp8
 70
     1
102
RTVSPropertyOp9
 70
     1
102
RTVSPropertyOp10
 70
     1
102
RTVSPropertyOp11
 70
     1
102
RTVSPropertyOp12
 70
     1
102
RTVSPropertyOp13
 70
     1
102
RTVSPropertyOp14
 70
     1
102
RTVSPropertyOp15
 70
     1
102
RTVSPropertyOp16
 70
     1
102
RTVSPropertyOp17
 70
     1
102
RTVSPropertyOp18
 70
     1
102
RTVSPropertyOp19
 70
     1
102
RTVSPropertyOp20
 70
     1
102
RTVSPropertyOp21
 70
     1
102
RTVSPropertyOp22
 70
     1
102
RTVSPropertyOp23
 70
     1
102
RTVSPropertyOp24
 70
     1
102
RTVSPropertyOp25
 70
     1
102
RTVSPropertyOp26
 70
     1
102
RTVSPropertyOp27
 70
     1
102
RTVSPropertyOp28
 70
     1
102
RTVSPropertyOp29
 70
     1
102
RTVSPropertyOp30
 70
     1
102
RTVSPropertyOp31
 70
     1
102
RTVSPropertyOp32
 70
     1
102
RTVSPropertyOp33
 70
     1
102
RTVSPropertyOp34
 70
     1
102
RTVSPropertyOp35
 70
     1
102
RTVSPropertyOp36
 70
     1
102
RTVSPropertyOp37
 70
     1
102
RTVSPropertyOp38
 70
     1
102
RTVSPropertyOp39
 70
     1
102
RTVSPropertyOp40
 70
     1
102
RTVSPropertyOp41
 70
     1
102
RTVSPropertyOp42
 70
     1
102
RTVSPropertyOp43
 70
     1
102
RTVSPropertyOp44
 70
     1
102
RTVSPropertyOp45
 70
     1
102
RTVSPropertyOp46
 70
     1
102
RTVSPropertyOp47
 70
     1
102
RTVSPropertyOp48
 70
     1
102
RTVSPropertyOp49
 70
     1
102
RTVSPropertyOp50
 70
     1
102
RTVSPropertyOp51
 70
     0
102
RTVSPropertyOp52
 70
     0
102
RTVSPropertyOp53
 70
     1
102
RTVSPropertyOp54
 70
     1
102
RTVSPropertyOp55
 70
     1
102
RTVSPropertyOp56
 70
     1
102
RTVSPropertyOp57
 70
     1
102
RTVSPropertyOp58
 70
     1
102
RTVSPropertyOp59
 70
     1
102
RTVSPropertyOp60
 70
     1
102
RTVSPropertyOp61
 70
     1
102
RTVSPropertyOp62
 70
     1
  0
XRECORD
  5
C090
102
{ACAD_REACTORS
330
C08F
102
}
330
C08F
100
AcDbXrecord
280
     1
102
RTVSPost2010Prop28
280
     0
102
RTVSPost2010PropOp28
 70
     1
102
RTVSPost2010Prop29
280
     1
102
RTVSPost2010PropOp29
 70
     1
102
RTVSPost2010Prop30
280
     1
102
RTVSPost2010PropOp30
 70
     1
102
RTVSPost2010Prop31
280
     0
102
RTVSPost2010PropOp31
 70
     1
102
RTVSPost2010Prop32
280
     0
102
RTVSPost2010PropOp32
 70
     1
102
RTVSPost2010Prop33
280
     0
102
RTVSPost2010PropOp33
 70
     1
102
RTVSPost2010Prop34
280
     0
102
RTVSPost2010PropOp34
 70
     1
102
RTVSPost2010Prop35
280
     0
102
RTVSPost2010PropOp35
 70
     1
102
RTVSPost2010Prop36
280
     0
102
RTVSPost2010PropOp36
 70
     1
102
RTVSPost2010Prop37
 90
       50
102
RTVSPost2010PropOp37
 70
     1
102
RTVSPost2010Prop38
140
0.0
102
RTVSPost2010PropOp38
 70
     1
102
RTVSPost2010Prop39
140
1.0
102
RTVSPost2010PropOp39
 70
     1
102
RTVSPost2010Prop40
 90
        0
102
RTVSPost2010PropOp40
 70
     1
102
RTVSPost2010Prop41ColorIndex
 90
       18
102
RTVSPost2010Prop41ColorRGB
 90
        0
102
RTVSPost2010PropOp41
 70
     1
102
RTVSPost2010Prop42
 90
       50
102
RTVSPost2010PropOp42
 70
     1
102
RTVSPost2010Prop43
 90
        3
102
RTVSPost2010PropOp43
 70
     1
102
RTVSPost2010Prop44ColorIndex
 90
        5
102
RTVSPost2010Prop44ColorRGB
 90
      255
102
RTVSPost2010PropOp44
 70
     1
102
RTVSPost2010Prop45
280
     0
102
RTVSPost2010PropOp45
 70
     1
102
RTVSPost2010Prop46
 90
       50
102
RTVSPost2010PropOp46
 70
     1
102
RTVSPost2010Prop47
 90
       50
102
RTVSPost2010PropOp47
 70
     1
102
RTVSPost2010Prop48
 90
       50
102
RTVSPost2010PropOp48
 70
     1
102
RTVSPost2010Prop49
280
     0
102
RTVSPost2010PropOp49
 70
     1
102
RTVSPost2010Prop50
 90
       50
102
RTVSPost2010PropOp50
 70
     1
102
RTVSPost2010Prop51ColorIndex
 90
      256
102
RTVSPost2010Prop51ColorRGB
 90
-16777216
102
RTVSPost2010PropOp51
 70
     0
102
RTVSPost2010Prop52
140
1.0
102
RTVSPost2010PropOp52
 70
     0
102
RTVSPost2010Prop53
 90
        2
102
RTVSPost2010PropOp53
 70
     1
102
RTVSPost2010Prop54
  1
strokes_ogs.tif
102
RTVSPost2010PropOp54
 70
     1
102
RTVSPost2010Prop55
280
     0
102
RTVSPost2010PropOp55
 70
     1
102
RTVSPost2010Prop56
140
1.0
102
RTVSPost2010PropOp56
 70
     1
102
RTVSPost2010Prop57
140
1.0
102
RTVSPost2010PropOp57
 70
     1
102
RTVSPropertyOp0
 70
     1
102
RTVSPropertyOp1
 70
     1
102
RTVSPropertyOp2
 70
     1
102
RTVSPropertyOp3
 70
     1
102
RTVSPropertyOp4
 70
     1
102
RTVSPropertyOp5
 70
     1
102
RTVSPropertyOp6
 70
     1
102
RTVSPropertyOp7
 70
     1
102
RTVSPropertyOp8
 70
     1
102
RTVSPropertyOp9
 70
     1
102
RTVSPropertyOp10
 70
     1
102
RTVSPropertyOp11
 70
     1
102
RTVSPropertyOp12
 70
     1
102
RTVSPropertyOp13
 70
     1
102
RTVSPropertyOp14
 70
     1
102
RTVSPropertyOp15
 70
     1
102
RTVSPropertyOp16
 70
     1
102
RTVSPropertyOp17
 70
     1
102
RTVSPropertyOp18
 70
     1
102
RTVSPropertyOp19
 70
     1
102
RTVSPropertyOp20
 70
     1
102
RTVSPropertyOp21
 70
     1
102
RTVSPropertyOp22
 70
     1
102
RTVSPropertyOp23
 70
     1
102
RTVSPropertyOp24
 70
     1
102
RTVSPropertyOp25
 70
     1
102
RTVSPropertyOp26
 70
     1
102
RTVSPropertyOp27
 70
     1
102
RTVSPropertyOp28
 70
     1
102
RTVSPropertyOp29
 70
     1
102
RTVSPropertyOp30
 70
     1
102
RTVSPropertyOp31
 70
     1
102
RTVSPropertyOp32
 70
     1
102
RTVSPropertyOp33
 70
     1
102
RTVSPropertyOp34
 70
     1
102
RTVSPropertyOp35
 70
     1
102
RTVSPropertyOp36
 70
     1
102
RTVSPropertyOp37
 70
     1
102
RTVSPropertyOp38
 70
     1
102
RTVSPropertyOp39
 70
     1
102
RTVSPropertyOp40
 70
     1
102
RTVSPropertyOp41
 70
     1
102
RTVSPropertyOp42
 70
     1
102
RTVSPropertyOp43
 70
     1
102
RTVSPropertyOp44
 70
     1
102
RTVSPropertyOp45
 70
     1
102
RTVSPropertyOp46
 70
     1
102
RTVSPropertyOp47
 70
     1
102
RTVSPropertyOp48
 70
     1
102
RTVSPropertyOp49
 70
     1
102
RTVSPropertyOp50
 70
     1
102
RTVSPropertyOp51
 70
     0
102
RTVSPropertyOp52
 70
     0
102
RTVSPropertyOp53
 70
     1
102
RTVSPropertyOp54
 70
     1
102
RTVSPropertyOp55
 70
     1
102
RTVSPropertyOp56
 70
     1
102
RTVSPropertyOp57
 70
     1
102
RTVSPropertyOp58
 70
     1
102
RTVSPropertyOp59
 70
     1
102
RTVSPropertyOp60
 70
     1
102
RTVSPropertyOp61
 70
     1
102
RTVSPropertyOp62
 70
     1
  0
XRECORD
  5
C0A4
102
{ACAD_REACTORS
330
C0A3
102
}
330
C0A3
100
AcDbXrecord
280
     1
102
RTVSPost2010Prop28
280
     0
102
RTVSPost2010PropOp28
 70
     1
102
RTVSPost2010Prop29
280
     1
102
RTVSPost2010PropOp29
 70
     1
102
RTVSPost2010Prop30
280
     1
102
RTVSPost2010PropOp30
 70
     1
102
RTVSPost2010Prop31
280
     0
102
RTVSPost2010PropOp31
 70
     1
102
RTVSPost2010Prop32
280
     0
102
RTVSPost2010PropOp32
 70
     1
102
RTVSPost2010Prop33
280
     0
102
RTVSPost2010PropOp33
 70
     1
102
RTVSPost2010Prop34
280
     0
102
RTVSPost2010PropOp34
 70
     1
102
RTVSPost2010Prop35
280
     0
102
RTVSPost2010PropOp35
 70
     1
102
RTVSPost2010Prop36
280
     0
102
RTVSPost2010PropOp36
 70
     1
102
RTVSPost2010Prop37
 90
       50
102
RTVSPost2010PropOp37
 70
     1
102
RTVSPost2010Prop38
140
0.0
102
RTVSPost2010PropOp38
 70
     1
102
RTVSPost2010Prop39
140
1.0
102
RTVSPost2010PropOp39
 70
     1
102
RTVSPost2010Prop40
 90
        0
102
RTVSPost2010PropOp40
 70
     1
102
RTVSPost2010Prop41ColorIndex
 90
       18
102
RTVSPost2010Prop41ColorRGB
 90
        0
102
RTVSPost2010PropOp41
 70
     1
102
RTVSPost2010Prop42
 90
       50
102
RTVSPost2010PropOp42
 70
     1
102
RTVSPost2010Prop43
 90
        3
102
RTVSPost2010PropOp43
 70
     1
102
RTVSPost2010Prop44ColorIndex
 90
        5
102
RTVSPost2010Prop44ColorRGB
 90
      255
102
RTVSPost2010PropOp44
 70
     1
102
RTVSPost2010Prop45
280
     0
102
RTVSPost2010PropOp45
 70
     1
102
RTVSPost2010Prop46
 90
       50
102
RTVSPost2010PropOp46
 70
     1
102
RTVSPost2010Prop47
 90
       50
102
RTVSPost2010PropOp47
 70
     1
102
RTVSPost2010Prop48
 90
       50
102
RTVSPost2010PropOp48
 70
     1
102
RTVSPost2010Prop49
280
     0
102
RTVSPost2010PropOp49
 70
     1
102
RTVSPost2010Prop50
 90
       50
102
RTVSPost2010PropOp50
 70
     1
102
RTVSPost2010Prop51ColorIndex
 90
      256
102
RTVSPost2010Prop51ColorRGB
 90
-16777216
102
RTVSPost2010PropOp51
 70
     0
102
RTVSPost2010Prop52
140
1.0
102
RTVSPost2010PropOp52
 70
     0
102
RTVSPost2010Prop53
 90
        2
102
RTVSPost2010PropOp53
 70
     1
102
RTVSPost2010Prop54
  1
strokes_ogs.tif
102
RTVSPost2010PropOp54
 70
     1
102
RTVSPost2010Prop55
280
     0
102
RTVSPost2010PropOp55
 70
     1
102
RTVSPost2010Prop56
140
1.0
102
RTVSPost2010PropOp56
 70
     1
102
RTVSPost2010Prop57
140
1.0
102
RTVSPost2010PropOp57
 70
     1
102
RTVSPropertyOp0
 70
     0
102
RTVSPropertyOp1
 70
     0
102
RTVSPropertyOp2
 70
     0
102
RTVSPropertyOp3
 70
     0
102
RTVSPropertyOp4
 70
     0
102
RTVSPropertyOp5
 70
     0
102
RTVSPropertyOp6
 70
     0
102
RTVSPropertyOp7
 70
     0
102
RTVSPropertyOp8
 70
     0
102
RTVSPropertyOp9
 70
     0
102
RTVSPropertyOp10
 70
     0
102
RTVSPropertyOp11
 70
     0
102
RTVSPropertyOp12
 70
     0
102
RTVSPropertyOp13
 70
     0
102
RTVSPropertyOp14
 70
     2
102
RTVSPropertyOp15
 70
     0
102
RTVSPropertyOp16
 70
     0
102
RTVSPropertyOp17
 70
     0
102
RTVSPropertyOp18
 70
     0
102
RTVSPropertyOp19
 70
     0
102
RTVSPropertyOp20
 70
     0
102
RTVSPropertyOp21
 70
     0
102
RTVSPropertyOp22
 70
     0
102
RTVSPropertyOp23
 70
     0
102
RTVSPropertyOp24
 70
     0
102
RTVSPropertyOp25
 70
     0
102
RTVSPropertyOp26
 70
     0
102
RTVSPropertyOp27
 70
     0
102
RTVSPropertyOp28
 70
     1
102
RTVSPropertyOp29
 70
     1
102
RTVSPropertyOp30
 70
     1
102
RTVSPropertyOp31
 70
     1
102
RTVSPropertyOp32
 70
     1
102
RTVSPropertyOp33
 70
     1
102
RTVSPropertyOp34
 70
     1
102
RTVSPropertyOp35
 70
     1
102
RTVSPropertyOp36
 70
     1
102
RTVSPropertyOp37
 70
     1
102
RTVSPropertyOp38
 70
     1
102
RTVSPropertyOp39
 70
     1
102
RTVSPropertyOp40
 70
     1
102
RTVSPropertyOp41
 70
     1
102
RTVSPropertyOp42
 70
     1
102
RTVSPropertyOp43
 70
     1
102
RTVSPropertyOp44
 70
     1
102
RTVSPropertyOp45
 70
     1
102
RTVSPropertyOp46
 70
     1
102
RTVSPropertyOp47
 70
     1
102
RTVSPropertyOp48
 70
     1
102
RTVSPropertyOp49
 70
     1
102
RTVSPropertyOp50
 70
     1
102
RTVSPropertyOp51
 70
     0
102
RTVSPropertyOp52
 70
     0
102
RTVSPropertyOp53
 70
     1
102
RTVSPropertyOp54
 70
     1
102
RTVSPropertyOp55
 70
     1
102
RTVSPropertyOp56
 70
     1
102
RTVSPropertyOp57
 70
     1
102
RTVSPropertyOp58
 70
     1
102
RTVSPropertyOp59
 70
     1
102
RTVSPropertyOp60
 70
     1
102
RTVSPropertyOp61
 70
     1
102
RTVSPropertyOp62
 70
     1
  0
XRECORD
  5
C09C
102
{ACAD_REACTORS
330
C09B
102
}
330
C09B
100
AcDbXrecord
280
     1
102
RTVSPost2010Prop28
280
     0
102
RTVSPost2010PropOp28
 70
     1
102
RTVSPost2010Prop29
280
     1
102
RTVSPost2010PropOp29
 70
     1
102
RTVSPost2010Prop30
280
     1
102
RTVSPost2010PropOp30
 70
     1
102
RTVSPost2010Prop31
280
     0
102
RTVSPost2010PropOp31
 70
     1
102
RTVSPost2010Prop32
280
     0
102
RTVSPost2010PropOp32
 70
     1
102
RTVSPost2010Prop33
280
     0
102
RTVSPost2010PropOp33
 70
     1
102
RTVSPost2010Prop34
280
     0
102
RTVSPost2010PropOp34
 70
     1
102
RTVSPost2010Prop35
280
     0
102
RTVSPost2010PropOp35
 70
     1
102
RTVSPost2010Prop36
280
     0
102
RTVSPost2010PropOp36
 70
     1
102
RTVSPost2010Prop37
 90
       50
102
RTVSPost2010PropOp37
 70
     1
102
RTVSPost2010Prop38
140
0.0
102
RTVSPost2010PropOp38
 70
     1
102
RTVSPost2010Prop39
140
1.0
102
RTVSPost2010PropOp39
 70
     1
102
RTVSPost2010Prop40
 90
        0
102
RTVSPost2010PropOp40
 70
     1
102
RTVSPost2010Prop41ColorIndex
 90
       18
102
RTVSPost2010Prop41ColorRGB
 90
        0
102
RTVSPost2010PropOp41
 70
     1
102
RTVSPost2010Prop42
 90
       50
102
RTVSPost2010PropOp42
 70
     1
102
RTVSPost2010Prop43
 90
        3
102
RTVSPost2010PropOp43
 70
     1
102
RTVSPost2010Prop44ColorIndex
 90
        5
102
RTVSPost2010Prop44ColorRGB
 90
      255
102
RTVSPost2010PropOp44
 70
     1
102
RTVSPost2010Prop45
280
     0
102
RTVSPost2010PropOp45
 70
     1
102
RTVSPost2010Prop46
 90
       50
102
RTVSPost2010PropOp46
 70
     1
102
RTVSPost2010Prop47
 90
       50
102
RTVSPost2010PropOp47
 70
     1
102
RTVSPost2010Prop48
 90
       50
102
RTVSPost2010PropOp48
 70
     1
102
RTVSPost2010Prop49
280
     0
102
RTVSPost2010PropOp49
 70
     1
102
RTVSPost2010Prop50
 90
       50
102
RTVSPost2010PropOp50
 70
     1
102
RTVSPost2010Prop51ColorIndex
 90
      256
102
RTVSPost2010Prop51ColorRGB
 90
-16777216
102
RTVSPost2010PropOp51
 70
     0
102
RTVSPost2010Prop52
140
1.0
102
RTVSPost2010PropOp52
 70
     0
102
RTVSPost2010Prop53
 90
        2
102
RTVSPost2010PropOp53
 70
     1
102
RTVSPost2010Prop54
  1
strokes_ogs.tif
102
RTVSPost2010PropOp54
 70
     1
102
RTVSPost2010Prop55
280
     0
102
RTVSPost2010PropOp55
 70
     1
102
RTVSPost2010Prop56
140
1.0
102
RTVSPost2010PropOp56
 70
     1
102
RTVSPost2010Prop57
140
1.0
102
RTVSPost2010PropOp57
 70
     1
102
RTVSPropertyOp0
 70
     1
102
RTVSPropertyOp1
 70
     1
102
RTVSPropertyOp2
 70
     1
102
RTVSPropertyOp3
 70
     1
102
RTVSPropertyOp4
 70
     1
102
RTVSPropertyOp5
 70
     1
102
RTVSPropertyOp6
 70
     1
102
RTVSPropertyOp7
 70
     1
102
RTVSPropertyOp8
 70
     1
102
RTVSPropertyOp9
 70
     1
102
RTVSPropertyOp10
 70
     1
102
RTVSPropertyOp11
 70
     1
102
RTVSPropertyOp12
 70
     1
102
RTVSPropertyOp13
 70
     1
102
RTVSPropertyOp14
 70
     1
102
RTVSPropertyOp15
 70
     1
102
RTVSPropertyOp16
 70
     1
102
RTVSPropertyOp17
 70
     1
102
RTVSPropertyOp18
 70
     1
102
RTVSPropertyOp19
 70
     1
102
RTVSPropertyOp20
 70
     1
102
RTVSPropertyOp21
 70
     1
102
RTVSPropertyOp22
 70
     1
102
RTVSPropertyOp23
 70
     1
102
RTVSPropertyOp24
 70
     1
102
RTVSPropertyOp25
 70
     1
102
RTVSPropertyOp26
 70
     1
102
RTVSPropertyOp27
 70
     1
102
RTVSPropertyOp28
 70
     1
102
RTVSPropertyOp29
 70
     1
102
RTVSPropertyOp30
 70
     1
102
RTVSPropertyOp31
 70
     1
102
RTVSPropertyOp32
 70
     1
102
RTVSPropertyOp33
 70
     1
102
RTVSPropertyOp34
 70
     1
102
RTVSPropertyOp35
 70
     1
102
RTVSPropertyOp36
 70
     1
102
RTVSPropertyOp37
 70
     1
102
RTVSPropertyOp38
 70
     1
102
RTVSPropertyOp39
 70
     1
102
RTVSPropertyOp40
 70
     1
102
RTVSPropertyOp41
 70
     1
102
RTVSPropertyOp42
 70
     1
102
RTVSPropertyOp43
 70
     1
102
RTVSPropertyOp44
 70
     1
102
RTVSPropertyOp45
 70
     1
102
RTVSPropertyOp46
 70
     1
102
RTVSPropertyOp47
 70
     1
102
RTVSPropertyOp48
 70
     1
102
RTVSPropertyOp49
 70
     1
102
RTVSPropertyOp50
 70
     1
102
RTVSPropertyOp51
 70
     0
102
RTVSPropertyOp52
 70
     0
102
RTVSPropertyOp53
 70
     1
102
RTVSPropertyOp54
 70
     1
102
RTVSPropertyOp55
 70
     1
102
RTVSPropertyOp56
 70
     1
102
RTVSPropertyOp57
 70
     1
102
RTVSPropertyOp58
 70
     1
102
RTVSPropertyOp59
 70
     1
102
RTVSPropertyOp60
 70
     1
102
RTVSPropertyOp61
 70
     1
102
RTVSPropertyOp62
 70
     1
  0
XRECORD
  5
C0A6
102
{ACAD_REACTORS
330
C0A5
102
}
330
C0A5
100
AcDbXrecord
280
     1
102
RTVSPost2010Prop28
280
     0
102
RTVSPost2010PropOp28
 70
     1
102
RTVSPost2010Prop29
280
     1
102
RTVSPost2010PropOp29
 70
     1
102
RTVSPost2010Prop30
280
     1
102
RTVSPost2010PropOp30
 70
     1
102
RTVSPost2010Prop31
280
     0
102
RTVSPost2010PropOp31
 70
     1
102
RTVSPost2010Prop32
280
     0
102
RTVSPost2010PropOp32
 70
     1
102
RTVSPost2010Prop33
280
     0
102
RTVSPost2010PropOp33
 70
     1
102
RTVSPost2010Prop34
280
     0
102
RTVSPost2010PropOp34
 70
     1
102
RTVSPost2010Prop35
280
     0
102
RTVSPost2010PropOp35
 70
     1
102
RTVSPost2010Prop36
280
     0
102
RTVSPost2010PropOp36
 70
     1
102
RTVSPost2010Prop37
 90
       50
102
RTVSPost2010PropOp37
 70
     1
102
RTVSPost2010Prop38
140
0.0
102
RTVSPost2010PropOp38
 70
     1
102
RTVSPost2010Prop39
140
1.0
102
RTVSPost2010PropOp39
 70
     1
102
RTVSPost2010Prop40
 90
        0
102
RTVSPost2010PropOp40
 70
     1
102
RTVSPost2010Prop41ColorIndex
 90
       18
102
RTVSPost2010Prop41ColorRGB
 90
        0
102
RTVSPost2010PropOp41
 70
     1
102
RTVSPost2010Prop42
 90
       50
102
RTVSPost2010PropOp42
 70
     1
102
RTVSPost2010Prop43
 90
        3
102
RTVSPost2010PropOp43
 70
     1
102
RTVSPost2010Prop44ColorIndex
 90
        5
102
RTVSPost2010Prop44ColorRGB
 90
      255
102
RTVSPost2010PropOp44
 70
     1
102
RTVSPost2010Prop45
280
     0
102
RTVSPost2010PropOp45
 70
     1
102
RTVSPost2010Prop46
 90
       50
102
RTVSPost2010PropOp46
 70
     1
102
RTVSPost2010Prop47
 90
       50
102
RTVSPost2010PropOp47
 70
     1
102
RTVSPost2010Prop48
 90
       50
102
RTVSPost2010PropOp48
 70
     1
102
RTVSPost2010Prop49
280
     0
102
RTVSPost2010PropOp49
 70
     1
102
RTVSPost2010Prop50
 90
       50
102
RTVSPost2010PropOp50
 70
     1
102
RTVSPost2010Prop51ColorIndex
 90
      256
102
RTVSPost2010Prop51ColorRGB
 90
-16777216
102
RTVSPost2010PropOp51
 70
     0
102
RTVSPost2010Prop52
140
1.0
102
RTVSPost2010PropOp52
 70
     0
102
RTVSPost2010Prop53
 90
        2
102
RTVSPost2010PropOp53
 70
     1
102
RTVSPost2010Prop54
  1
strokes_ogs.tif
102
RTVSPost2010PropOp54
 70
     1
102
RTVSPost2010Prop55
280
     0
102
RTVSPost2010PropOp55
 70
     1
102
RTVSPost2010Prop56
140
1.0
102
RTVSPost2010PropOp56
 70
     1
102
RTVSPost2010Prop57
140
1.0
102
RTVSPost2010PropOp57
 70
     1
102
RTVSPropertyOp0
 70
     0
102
RTVSPropertyOp1
 70
     0
102
RTVSPropertyOp2
 70
     0
102
RTVSPropertyOp3
 70
     0
102
RTVSPropertyOp4
 70
     0
102
RTVSPropertyOp5
 70
     0
102
RTVSPropertyOp6
 70
     0
102
RTVSPropertyOp7
 70
     0
102
RTVSPropertyOp8
 70
     0
102
RTVSPropertyOp9
 70
     0
102
RTVSPropertyOp10
 70
     0
102
RTVSPropertyOp11
 70
     0
102
RTVSPropertyOp12
 70
     0
102
RTVSPropertyOp13
 70
     0
102
RTVSPropertyOp14
 70
     2
102
RTVSPropertyOp15
 70
     0
102
RTVSPropertyOp16
 70
     0
102
RTVSPropertyOp17
 70
     0
102
RTVSPropertyOp18
 70
     0
102
RTVSPropertyOp19
 70
     0
102
RTVSPropertyOp20
 70
     0
102
RTVSPropertyOp21
 70
     0
102
RTVSPropertyOp22
 70
     0
102
RTVSPropertyOp23
 70
     0
102
RTVSPropertyOp24
 70
     0
102
RTVSPropertyOp25
 70
     0
102
RTVSPropertyOp26
 70
     0
102
RTVSPropertyOp27
 70
     0
102
RTVSPropertyOp28
 70
     1
102
RTVSPropertyOp29
 70
     1
102
RTVSPropertyOp30
 70
     1
102
RTVSPropertyOp31
 70
     1
102
RTVSPropertyOp32
 70
     1
102
RTVSPropertyOp33
 70
     1
102
RTVSPropertyOp34
 70
     1
102
RTVSPropertyOp35
 70
     1
102
RTVSPropertyOp36
 70
     1
102
RTVSPropertyOp37
 70
     1
102
RTVSPropertyOp38
 70
     1
102
RTVSPropertyOp39
 70
     1
102
RTVSPropertyOp40
 70
     1
102
RTVSPropertyOp41
 70
     1
102
RTVSPropertyOp42
 70
     1
102
RTVSPropertyOp43
 70
     1
102
RTVSPropertyOp44
 70
     1
102
RTVSPropertyOp45
 70
     1
102
RTVSPropertyOp46
 70
     1
102
RTVSPropertyOp47
 70
     1
102
RTVSPropertyOp48
 70
     1
102
RTVSPropertyOp49
 70
     1
102
RTVSPropertyOp50
 70
     1
102
RTVSPropertyOp51
 70
     0
102
RTVSPropertyOp52
 70
     0
102
RTVSPropertyOp53
 70
     1
102
RTVSPropertyOp54
 70
     1
102
RTVSPropertyOp55
 70
     1
102
RTVSPropertyOp56
 70
     1
102
RTVSPropertyOp57
 70
     1
102
RTVSPropertyOp58
 70
     1
102
RTVSPropertyOp59
 70
     1
102
RTVSPropertyOp60
 70
     1
102
RTVSPropertyOp61
 70
     1
102
RTVSPropertyOp62
 70
     1
  0
XRECORD
  5
C094
102
{ACAD_REACTORS
330
C093
102
}
330
C093
100
AcDbXrecord
280
     1
102
RTVSPost2010Prop28
280
     0
102
RTVSPost2010PropOp28
 70
     1
102
RTVSPost2010Prop29
280
     1
102
RTVSPost2010PropOp29
 70
     1
102
RTVSPost2010Prop30
280
     1
102
RTVSPost2010PropOp30
 70
     1
102
RTVSPost2010Prop31
280
     0
102
RTVSPost2010PropOp31
 70
     1
102
RTVSPost2010Prop32
280
     0
102
RTVSPost2010PropOp32
 70
     1
102
RTVSPost2010Prop33
280
     0
102
RTVSPost2010PropOp33
 70
     1
102
RTVSPost2010Prop34
280
     0
102
RTVSPost2010PropOp34
 70
     1
102
RTVSPost2010Prop35
280
     0
102
RTVSPost2010PropOp35
 70
     1
102
RTVSPost2010Prop36
280
     0
102
RTVSPost2010PropOp36
 70
     1
102
RTVSPost2010Prop37
 90
       50
102
RTVSPost2010PropOp37
 70
     1
102
RTVSPost2010Prop38
140
0.0
102
RTVSPost2010PropOp38
 70
     1
102
RTVSPost2010Prop39
140
1.0
102
RTVSPost2010PropOp39
 70
     1
102
RTVSPost2010Prop40
 90
        0
102
RTVSPost2010PropOp40
 70
     1
102
RTVSPost2010Prop41ColorIndex
 90
       18
102
RTVSPost2010Prop41ColorRGB
 90
        0
102
RTVSPost2010PropOp41
 70
     1
102
RTVSPost2010Prop42
 90
       50
102
RTVSPost2010PropOp42
 70
     1
102
RTVSPost2010Prop43
 90
        3
102
RTVSPost2010PropOp43
 70
     1
102
RTVSPost2010Prop44ColorIndex
 90
        5
102
RTVSPost2010Prop44ColorRGB
 90
      255
102
RTVSPost2010PropOp44
 70
     1
102
RTVSPost2010Prop45
280
     0
102
RTVSPost2010PropOp45
 70
     1
102
RTVSPost2010Prop46
 90
       50
102
RTVSPost2010PropOp46
 70
     1
102
RTVSPost2010Prop47
 90
       50
102
RTVSPost2010PropOp47
 70
     1
102
RTVSPost2010Prop48
 90
       50
102
RTVSPost2010PropOp48
 70
     1
102
RTVSPost2010Prop49
280
     0
102
RTVSPost2010PropOp49
 70
     1
102
RTVSPost2010Prop50
 90
       50
102
RTVSPost2010PropOp50
 70
     1
102
RTVSPost2010Prop51ColorIndex
 90
      256
102
RTVSPost2010Prop51ColorRGB
 90
-16777216
102
RTVSPost2010PropOp51
 70
     0
102
RTVSPost2010Prop52
140
1.0
102
RTVSPost2010PropOp52
 70
     0
102
RTVSPost2010Prop53
 90
        2
102
RTVSPost2010PropOp53
 70
     1
102
RTVSPost2010Prop54
  1
strokes_ogs.tif
102
RTVSPost2010PropOp54
 70
     1
102
RTVSPost2010Prop55
280
     0
102
RTVSPost2010PropOp55
 70
     1
102
RTVSPost2010Prop56
140
1.0
102
RTVSPost2010PropOp56
 70
     1
102
RTVSPost2010Prop57
140
1.0
102
RTVSPost2010PropOp57
 70
     1
102
RTVSPropertyOp0
 70
     1
102
RTVSPropertyOp1
 70
     1
102
RTVSPropertyOp2
 70
     1
102
RTVSPropertyOp3
 70
     1
102
RTVSPropertyOp4
 70
     1
102
RTVSPropertyOp5
 70
     1
102
RTVSPropertyOp6
 70
     1
102
RTVSPropertyOp7
 70
     1
102
RTVSPropertyOp8
 70
     1
102
RTVSPropertyOp9
 70
     1
102
RTVSPropertyOp10
 70
     1
102
RTVSPropertyOp11
 70
     1
102
RTVSPropertyOp12
 70
     1
102
RTVSPropertyOp13
 70
     1
102
RTVSPropertyOp14
 70
     1
102
RTVSPropertyOp15
 70
     1
102
RTVSPropertyOp16
 70
     1
102
RTVSPropertyOp17
 70
     1
102
RTVSPropertyOp18
 70
     1
102
RTVSPropertyOp19
 70
     1
102
RTVSPropertyOp20
 70
     1
102
RTVSPropertyOp21
 70
     1
102
RTVSPropertyOp22
 70
     1
102
RTVSPropertyOp23
 70
     1
102
RTVSPropertyOp24
 70
     1
102
RTVSPropertyOp25
 70
     1
102
RTVSPropertyOp26
 70
     1
102
RTVSPropertyOp27
 70
     1
102
RTVSPropertyOp28
 70
     1
102
RTVSPropertyOp29
 70
     1
102
RTVSPropertyOp30
 70
     1
102
RTVSPropertyOp31
 70
     1
102
RTVSPropertyOp32
 70
     1
102
RTVSPropertyOp33
 70
     1
102
RTVSPropertyOp34
 70
     1
102
RTVSPropertyOp35
 70
     1
102
RTVSPropertyOp36
 70
     1
102
RTVSPropertyOp37
 70
     1
102
RTVSPropertyOp38
 70
     1
102
RTVSPropertyOp39
 70
     1
102
RTVSPropertyOp40
 70
     1
102
RTVSPropertyOp41
 70
     1
102
RTVSPropertyOp42
 70
     1
102
RTVSPropertyOp43
 70
     1
102
RTVSPropertyOp44
 70
     1
102
RTVSPropertyOp45
 70
     1
102
RTVSPropertyOp46
 70
     1
102
RTVSPropertyOp47
 70
     1
102
RTVSPropertyOp48
 70
     1
102
RTVSPropertyOp49
 70
     1
102
RTVSPropertyOp50
 70
     1
102
RTVSPropertyOp51
 70
     0
102
RTVSPropertyOp52
 70
     0
102
RTVSPropertyOp53
 70
     1
102
RTVSPropertyOp54
 70
     1
102
RTVSPropertyOp55
 70
     1
102
RTVSPropertyOp56
 70
     1
102
RTVSPropertyOp57
 70
     1
102
RTVSPropertyOp58
 70
     1
102
RTVSPropertyOp59
 70
     1
102
RTVSPropertyOp60
 70
     1
102
RTVSPropertyOp61
 70
     1
102
RTVSPropertyOp62
 70
     1
  0
XRECORD
  5
C0B2
102
{ACAD_REACTORS
330
C0B1
102
}
330
C0B1
100
AcDbXrecord
280
     1
102
RTVSPost2010Prop28
280
     0
102
RTVSPost2010PropOp28
 70
     1
102
RTVSPost2010Prop29
280
     1
102
RTVSPost2010PropOp29
 70
     1
102
RTVSPost2010Prop30
280
     1
102
RTVSPost2010PropOp30
 70
     1
102
RTVSPost2010Prop31
280
     0
102
RTVSPost2010PropOp31
 70
     1
102
RTVSPost2010Prop32
280
     0
102
RTVSPost2010PropOp32
 70
     1
102
RTVSPost2010Prop33
280
     0
102
RTVSPost2010PropOp33
 70
     1
102
RTVSPost2010Prop34
280
     0
102
RTVSPost2010PropOp34
 70
     1
102
RTVSPost2010Prop35
280
     0
102
RTVSPost2010PropOp35
 70
     1
102
RTVSPost2010Prop36
280
     0
102
RTVSPost2010PropOp36
 70
     1
102
RTVSPost2010Prop37
 90
       50
102
RTVSPost2010PropOp37
 70
     1
102
RTVSPost2010Prop38
140
0.0
102
RTVSPost2010PropOp38
 70
     1
102
RTVSPost2010Prop39
140
1.0
102
RTVSPost2010PropOp39
 70
     1
102
RTVSPost2010Prop40
 90
        0
102
RTVSPost2010PropOp40
 70
     1
102
RTVSPost2010Prop41ColorIndex
 90
       18
102
RTVSPost2010Prop41ColorRGB
 90
        0
102
RTVSPost2010PropOp41
 70
     1
102
RTVSPost2010Prop42
 90
       50
102
RTVSPost2010PropOp42
 70
     1
102
RTVSPost2010Prop43
 90
        3
102
RTVSPost2010PropOp43
 70
     1
102
RTVSPost2010Prop44ColorIndex
 90
        5
102
RTVSPost2010Prop44ColorRGB
 90
      255
102
RTVSPost2010PropOp44
 70
     1
102
RTVSPost2010Prop45
280
     0
102
RTVSPost2010PropOp45
 70
     1
102
RTVSPost2010Prop46
 90
       50
102
RTVSPost2010PropOp46
 70
     1
102
RTVSPost2010Prop47
 90
       50
102
RTVSPost2010PropOp47
 70
     1
102
RTVSPost2010Prop48
 90
       50
102
RTVSPost2010PropOp48
 70
     1
102
RTVSPost2010Prop49
280
     0
102
RTVSPost2010PropOp49
 70
     1
102
RTVSPost2010Prop50
 90
       50
102
RTVSPost2010PropOp50
 70
     1
102
RTVSPost2010Prop51ColorIndex
 90
      256
102
RTVSPost2010Prop51ColorRGB
 90
-16777216
102
RTVSPost2010PropOp51
 70
     0
102
RTVSPost2010Prop52
140
1.0
102
RTVSPost2010PropOp52
 70
     0
102
RTVSPost2010Prop53
 90
        2
102
RTVSPost2010PropOp53
 70
     1
102
RTVSPost2010Prop54
  1
strokes_ogs.tif
102
RTVSPost2010PropOp54
 70
     1
102
RTVSPost2010Prop55
280
     0
102
RTVSPost2010PropOp55
 70
     1
102
RTVSPost2010Prop56
140
1.0
102
RTVSPost2010PropOp56
 70
     1
102
RTVSPost2010Prop57
140
1.0
102
RTVSPost2010PropOp57
 70
     1
102
RTVSPropertyOp0
 70
     1
102
RTVSPropertyOp1
 70
     1
102
RTVSPropertyOp2
 70
     1
102
RTVSPropertyOp3
 70
     1
102
RTVSPropertyOp4
 70
     1
102
RTVSPropertyOp5
 70
     1
102
RTVSPropertyOp6
 70
     1
102
RTVSPropertyOp7
 70
     1
102
RTVSPropertyOp8
 70
     1
102
RTVSPropertyOp9
 70
     1
102
RTVSPropertyOp10
 70
     1
102
RTVSPropertyOp11
 70
     1
102
RTVSPropertyOp12
 70
     1
102
RTVSPropertyOp13
 70
     1
102
RTVSPropertyOp14
 70
     1
102
RTVSPropertyOp15
 70
     1
102
RTVSPropertyOp16
 70
     1
102
RTVSPropertyOp17
 70
     1
102
RTVSPropertyOp18
 70
     1
102
RTVSPropertyOp19
 70
     1
102
RTVSPropertyOp20
 70
     1
102
RTVSPropertyOp21
 70
     1
102
RTVSPropertyOp22
 70
     1
102
RTVSPropertyOp23
 70
     1
102
RTVSPropertyOp24
 70
     1
102
RTVSPropertyOp25
 70
     1
102
RTVSPropertyOp26
 70
     1
102
RTVSPropertyOp27
 70
     1
102
RTVSPropertyOp28
 70
     1
102
RTVSPropertyOp29
 70
     1
102
RTVSPropertyOp30
 70
     1
102
RTVSPropertyOp31
 70
     1
102
RTVSPropertyOp32
 70
     1
102
RTVSPropertyOp33
 70
     1
102
RTVSPropertyOp34
 70
     1
102
RTVSPropertyOp35
 70
     1
102
RTVSPropertyOp36
 70
     1
102
RTVSPropertyOp37
 70
     1
102
RTVSPropertyOp38
 70
     1
102
RTVSPropertyOp39
 70
     1
102
RTVSPropertyOp40
 70
     1
102
RTVSPropertyOp41
 70
     1
102
RTVSPropertyOp42
 70
     1
102
RTVSPropertyOp43
 70
     1
102
RTVSPropertyOp44
 70
     1
102
RTVSPropertyOp45
 70
     1
102
RTVSPropertyOp46
 70
     1
102
RTVSPropertyOp47
 70
     1
102
RTVSPropertyOp48
 70
     1
102
RTVSPropertyOp49
 70
     1
102
RTVSPropertyOp50
 70
     1
102
RTVSPropertyOp51
 70
     0
102
RTVSPropertyOp52
 70
     0
102
RTVSPropertyOp53
 70
     1
102
RTVSPropertyOp54
 70
     1
102
RTVSPropertyOp55
 70
     1
102
RTVSPropertyOp56
 70
     1
102
RTVSPropertyOp57
 70
     1
102
RTVSPropertyOp58
 70
     1
102
RTVSPropertyOp59
 70
     1
102
RTVSPropertyOp60
 70
     1
102
RTVSPropertyOp61
 70
     1
102
RTVSPropertyOp62
 70
     1
  0
XRECORD
  5
C0B0
102
{ACAD_REACTORS
330
C0AF
102
}
330
C0AF
100
AcDbXrecord
280
     1
102
RTVSPost2010Prop28
280
     0
102
RTVSPost2010PropOp28
 70
     1
102
RTVSPost2010Prop29
280
     1
102
RTVSPost2010PropOp29
 70
     1
102
RTVSPost2010Prop30
280
     1
102
RTVSPost2010PropOp30
 70
     1
102
RTVSPost2010Prop31
280
     0
102
RTVSPost2010PropOp31
 70
     1
102
RTVSPost2010Prop32
280
     0
102
RTVSPost2010PropOp32
 70
     1
102
RTVSPost2010Prop33
280
     0
102
RTVSPost2010PropOp33
 70
     1
102
RTVSPost2010Prop34
280
     0
102
RTVSPost2010PropOp34
 70
     1
102
RTVSPost2010Prop35
280
     0
102
RTVSPost2010PropOp35
 70
     1
102
RTVSPost2010Prop36
280
     0
102
RTVSPost2010PropOp36
 70
     1
102
RTVSPost2010Prop37
 90
       50
102
RTVSPost2010PropOp37
 70
     1
102
RTVSPost2010Prop38
140
0.0
102
RTVSPost2010PropOp38
 70
     1
102
RTVSPost2010Prop39
140
1.0
102
RTVSPost2010PropOp39
 70
     1
102
RTVSPost2010Prop40
 90
        0
102
RTVSPost2010PropOp40
 70
     1
102
RTVSPost2010Prop41ColorIndex
 90
       18
102
RTVSPost2010Prop41ColorRGB
 90
        0
102
RTVSPost2010PropOp41
 70
     1
102
RTVSPost2010Prop42
 90
       50
102
RTVSPost2010PropOp42
 70
     1
102
RTVSPost2010Prop43
 90
        3
102
RTVSPost2010PropOp43
 70
     1
102
RTVSPost2010Prop44ColorIndex
 90
        5
102
RTVSPost2010Prop44ColorRGB
 90
      255
102
RTVSPost2010PropOp44
 70
     1
102
RTVSPost2010Prop45
280
     0
102
RTVSPost2010PropOp45
 70
     1
102
RTVSPost2010Prop46
 90
       50
102
RTVSPost2010PropOp46
 70
     1
102
RTVSPost2010Prop47
 90
       50
102
RTVSPost2010PropOp47
 70
     1
102
RTVSPost2010Prop48
 90
       50
102
RTVSPost2010PropOp48
 70
     1
102
RTVSPost2010Prop49
280
     0
102
RTVSPost2010PropOp49
 70
     1
102
RTVSPost2010Prop50
 90
       50
102
RTVSPost2010PropOp50
 70
     1
102
RTVSPost2010Prop51ColorIndex
 90
      256
102
RTVSPost2010Prop51ColorRGB
 90
-16777216
102
RTVSPost2010PropOp51
 70
     0
102
RTVSPost2010Prop52
140
1.0
102
RTVSPost2010PropOp52
 70
     0
102
RTVSPost2010Prop53
 90
        2
102
RTVSPost2010PropOp53
 70
     1
102
RTVSPost2010Prop54
  1
strokes_ogs.tif
102
RTVSPost2010PropOp54
 70
     1
102
RTVSPost2010Prop55
280
     0
102
RTVSPost2010PropOp55
 70
     1
102
RTVSPost2010Prop56
140
1.0
102
RTVSPost2010PropOp56
 70
     1
102
RTVSPost2010Prop57
140
1.0
102
RTVSPost2010PropOp57
 70
     1
102
RTVSPropertyOp0
 70
     1
102
RTVSPropertyOp1
 70
     1
102
RTVSPropertyOp2
 70
     1
102
RTVSPropertyOp3
 70
     1
102
RTVSPropertyOp4
 70
     1
102
RTVSPropertyOp5
 70
     1
102
RTVSPropertyOp6
 70
     1
102
RTVSPropertyOp7
 70
     1
102
RTVSPropertyOp8
 70
     1
102
RTVSPropertyOp9
 70
     1
102
RTVSPropertyOp10
 70
     1
102
RTVSPropertyOp11
 70
     1
102
RTVSPropertyOp12
 70
     1
102
RTVSPropertyOp13
 70
     1
102
RTVSPropertyOp14
 70
     1
102
RTVSPropertyOp15
 70
     1
102
RTVSPropertyOp16
 70
     1
102
RTVSPropertyOp17
 70
     1
102
RTVSPropertyOp18
 70
     1
102
RTVSPropertyOp19
 70
     1
102
RTVSPropertyOp20
 70
     1
102
RTVSPropertyOp21
 70
     1
102
RTVSPropertyOp22
 70
     1
102
RTVSPropertyOp23
 70
     1
102
RTVSPropertyOp24
 70
     1
102
RTVSPropertyOp25
 70
     1
102
RTVSPropertyOp26
 70
     1
102
RTVSPropertyOp27
 70
     1
102
RTVSPropertyOp28
 70
     1
102
RTVSPropertyOp29
 70
     1
102
RTVSPropertyOp30
 70
     1
102
RTVSPropertyOp31
 70
     1
102
RTVSPropertyOp32
 70
     1
102
RTVSPropertyOp33
 70
     1
102
RTVSPropertyOp34
 70
     1
102
RTVSPropertyOp35
 70
     1
102
RTVSPropertyOp36
 70
     1
102
RTVSPropertyOp37
 70
     1
102
RTVSPropertyOp38
 70
     1
102
RTVSPropertyOp39
 70
     1
102
RTVSPropertyOp40
 70
     1
102
RTVSPropertyOp41
 70
     1
102
RTVSPropertyOp42
 70
     1
102
RTVSPropertyOp43
 70
     1
102
RTVSPropertyOp44
 70
     1
102
RTVSPropertyOp45
 70
     1
102
RTVSPropertyOp46
 70
     1
102
RTVSPropertyOp47
 70
     1
102
RTVSPropertyOp48
 70
     1
102
RTVSPropertyOp49
 70
     1
102
RTVSPropertyOp50
 70
     1
102
RTVSPropertyOp51
 70
     0
102
RTVSPropertyOp52
 70
     0
102
RTVSPropertyOp53
 70
     1
102
RTVSPropertyOp54
 70
     1
102
RTVSPropertyOp55
 70
     1
102
RTVSPropertyOp56
 70
     1
102
RTVSPropertyOp57
 70
     1
102
RTVSPropertyOp58
 70
     1
102
RTVSPropertyOp59
 70
     1
102
RTVSPropertyOp60
 70
     1
102
RTVSPropertyOp61
 70
     1
102
RTVSPropertyOp62
 70
     1
  0
XRECORD
  5
C0AA
102
{ACAD_REACTORS
330
C0A9
102
}
330
C0A9
100
AcDbXrecord
280
     1
102
RTVSPost2010Prop28
280
     0
102
RTVSPost2010PropOp28
 70
     1
102
RTVSPost2010Prop29
280
     1
102
RTVSPost2010PropOp29
 70
     1
102
RTVSPost2010Prop30
280
     1
102
RTVSPost2010PropOp30
 70
     1
102
RTVSPost2010Prop31
280
     0
102
RTVSPost2010PropOp31
 70
     1
102
RTVSPost2010Prop32
280
     0
102
RTVSPost2010PropOp32
 70
     1
102
RTVSPost2010Prop33
280
     0
102
RTVSPost2010PropOp33
 70
     1
102
RTVSPost2010Prop34
280
     0
102
RTVSPost2010PropOp34
 70
     1
102
RTVSPost2010Prop35
280
     0
102
RTVSPost2010PropOp35
 70
     1
102
RTVSPost2010Prop36
280
     0
102
RTVSPost2010PropOp36
 70
     1
102
RTVSPost2010Prop37
 90
       50
102
RTVSPost2010PropOp37
 70
     1
102
RTVSPost2010Prop38
140
0.0
102
RTVSPost2010PropOp38
 70
     1
102
RTVSPost2010Prop39
140
1.0
102
RTVSPost2010PropOp39
 70
     1
102
RTVSPost2010Prop40
 90
        0
102
RTVSPost2010PropOp40
 70
     1
102
RTVSPost2010Prop41ColorIndex
 90
       18
102
RTVSPost2010Prop41ColorRGB
 90
        0
102
RTVSPost2010PropOp41
 70
     1
102
RTVSPost2010Prop42
 90
       50
102
RTVSPost2010PropOp42
 70
     1
102
RTVSPost2010Prop43
 90
        3
102
RTVSPost2010PropOp43
 70
     1
102
RTVSPost2010Prop44ColorIndex
 90
        5
102
RTVSPost2010Prop44ColorRGB
 90
      255
102
RTVSPost2010PropOp44
 70
     1
102
RTVSPost2010Prop45
280
     0
102
RTVSPost2010PropOp45
 70
     1
102
RTVSPost2010Prop46
 90
       50
102
RTVSPost2010PropOp46
 70
     1
102
RTVSPost2010Prop47
 90
       50
102
RTVSPost2010PropOp47
 70
     1
102
RTVSPost2010Prop48
 90
       50
102
RTVSPost2010PropOp48
 70
     1
102
RTVSPost2010Prop49
280
     0
102
RTVSPost2010PropOp49
 70
     1
102
RTVSPost2010Prop50
 90
       50
102
RTVSPost2010PropOp50
 70
     1
102
RTVSPost2010Prop51ColorIndex
 90
      256
102
RTVSPost2010Prop51ColorRGB
 90
-16777216
102
RTVSPost2010PropOp51
 70
     0
102
RTVSPost2010Prop52
140
1.0
102
RTVSPost2010PropOp52
 70
     0
102
RTVSPost2010Prop53
 90
        2
102
RTVSPost2010PropOp53
 70
     1
102
RTVSPost2010Prop54
  1
strokes_ogs.tif
102
RTVSPost2010PropOp54
 70
     1
102
RTVSPost2010Prop55
280
     0
102
RTVSPost2010PropOp55
 70
     1
102
RTVSPost2010Prop56
140
1.0
102
RTVSPost2010PropOp56
 70
     1
102
RTVSPost2010Prop57
140
1.0
102
RTVSPost2010PropOp57
 70
     1
102
RTVSPropertyOp0
 70
     1
102
RTVSPropertyOp1
 70
     1
102
RTVSPropertyOp2
 70
     1
102
RTVSPropertyOp3
 70
     1
102
RTVSPropertyOp4
 70
     1
102
RTVSPropertyOp5
 70
     1
102
RTVSPropertyOp6
 70
     1
102
RTVSPropertyOp7
 70
     1
102
RTVSPropertyOp8
 70
     1
102
RTVSPropertyOp9
 70
     1
102
RTVSPropertyOp10
 70
     1
102
RTVSPropertyOp11
 70
     1
102
RTVSPropertyOp12
 70
     1
102
RTVSPropertyOp13
 70
     1
102
RTVSPropertyOp14
 70
     1
102
RTVSPropertyOp15
 70
     1
102
RTVSPropertyOp16
 70
     1
102
RTVSPropertyOp17
 70
     1
102
RTVSPropertyOp18
 70
     1
102
RTVSPropertyOp19
 70
     1
102
RTVSPropertyOp20
 70
     1
102
RTVSPropertyOp21
 70
     1
102
RTVSPropertyOp22
 70
     1
102
RTVSPropertyOp23
 70
     1
102
RTVSPropertyOp24
 70
     1
102
RTVSPropertyOp25
 70
     1
102
RTVSPropertyOp26
 70
     1
102
RTVSPropertyOp27
 70
     1
102
RTVSPropertyOp28
 70
     1
102
RTVSPropertyOp29
 70
     1
102
RTVSPropertyOp30
 70
     1
102
RTVSPropertyOp31
 70
     1
102
RTVSPropertyOp32
 70
     1
102
RTVSPropertyOp33
 70
     1
102
RTVSPropertyOp34
 70
     1
102
RTVSPropertyOp35
 70
     1
102
RTVSPropertyOp36
 70
     1
102
RTVSPropertyOp37
 70
     1
102
RTVSPropertyOp38
 70
     1
102
RTVSPropertyOp39
 70
     1
102
RTVSPropertyOp40
 70
     1
102
RTVSPropertyOp41
 70
     1
102
RTVSPropertyOp42
 70
     1
102
RTVSPropertyOp43
 70
     1
102
RTVSPropertyOp44
 70
     1
102
RTVSPropertyOp45
 70
     1
102
RTVSPropertyOp46
 70
     1
102
RTVSPropertyOp47
 70
     1
102
RTVSPropertyOp48
 70
     1
102
RTVSPropertyOp49
 70
     1
102
RTVSPropertyOp50
 70
     1
102
RTVSPropertyOp51
 70
     0
102
RTVSPropertyOp52
 70
     0
102
RTVSPropertyOp53
 70
     1
102
RTVSPropertyOp54
 70
     1
102
RTVSPropertyOp55
 70
     1
102
RTVSPropertyOp56
 70
     1
102
RTVSPropertyOp57
 70
     1
102
RTVSPropertyOp58
 70
     1
102
RTVSPropertyOp59
 70
     1
102
RTVSPropertyOp60
 70
     1
102
RTVSPropertyOp61
 70
     1
102
RTVSPropertyOp62
 70
     1
  0
XRECORD
  5
C0AC
102
{ACAD_REACTORS
330
C0AB
102
}
330
C0AB
100
AcDbXrecord
280
     1
102
RTVSPost2010Prop28
280
     0
102
RTVSPost2010PropOp28
 70
     1
102
RTVSPost2010Prop29
280
     1
102
RTVSPost2010PropOp29
 70
     1
102
RTVSPost2010Prop30
280
     1
102
RTVSPost2010PropOp30
 70
     1
102
RTVSPost2010Prop31
280
     0
102
RTVSPost2010PropOp31
 70
     1
102
RTVSPost2010Prop32
280
     0
102
RTVSPost2010PropOp32
 70
     1
102
RTVSPost2010Prop33
280
     0
102
RTVSPost2010PropOp33
 70
     1
102
RTVSPost2010Prop34
280
     0
102
RTVSPost2010PropOp34
 70
     1
102
RTVSPost2010Prop35
280
     0
102
RTVSPost2010PropOp35
 70
     1
102
RTVSPost2010Prop36
280
     0
102
RTVSPost2010PropOp36
 70
     1
102
RTVSPost2010Prop37
 90
       50
102
RTVSPost2010PropOp37
 70
     1
102
RTVSPost2010Prop38
140
0.0
102
RTVSPost2010PropOp38
 70
     1
102
RTVSPost2010Prop39
140
1.0
102
RTVSPost2010PropOp39
 70
     1
102
RTVSPost2010Prop40
 90
        0
102
RTVSPost2010PropOp40
 70
     1
102
RTVSPost2010Prop41ColorIndex
 90
       18
102
RTVSPost2010Prop41ColorRGB
 90
        0
102
RTVSPost2010PropOp41
 70
     1
102
RTVSPost2010Prop42
 90
       50
102
RTVSPost2010PropOp42
 70
     1
102
RTVSPost2010Prop43
 90
        3
102
RTVSPost2010PropOp43
 70
     1
102
RTVSPost2010Prop44ColorIndex
 90
        5
102
RTVSPost2010Prop44ColorRGB
 90
      255
102
RTVSPost2010PropOp44
 70
     1
102
RTVSPost2010Prop45
280
     0
102
RTVSPost2010PropOp45
 70
     1
102
RTVSPost2010Prop46
 90
       50
102
RTVSPost2010PropOp46
 70
     1
102
RTVSPost2010Prop47
 90
       50
102
RTVSPost2010PropOp47
 70
     1
102
RTVSPost2010Prop48
 90
       50
102
RTVSPost2010PropOp48
 70
     1
102
RTVSPost2010Prop49
280
     0
102
RTVSPost2010PropOp49
 70
     1
102
RTVSPost2010Prop50
 90
       50
102
RTVSPost2010PropOp50
 70
     1
102
RTVSPost2010Prop51ColorIndex
 90
      256
102
RTVSPost2010Prop51ColorRGB
 90
-16777216
102
RTVSPost2010PropOp51
 70
     0
102
RTVSPost2010Prop52
140
1.0
102
RTVSPost2010PropOp52
 70
     0
102
RTVSPost2010Prop53
 90
        2
102
RTVSPost2010PropOp53
 70
     1
102
RTVSPost2010Prop54
  1
strokes_ogs.tif
102
RTVSPost2010PropOp54
 70
     1
102
RTVSPost2010Prop55
280
     0
102
RTVSPost2010PropOp55
 70
     1
102
RTVSPost2010Prop56
140
1.0
102
RTVSPost2010PropOp56
 70
     1
102
RTVSPost2010Prop57
140
1.0
102
RTVSPost2010PropOp57
 70
     1
102
RTVSPropertyOp0
 70
     1
102
RTVSPropertyOp1
 70
     1
102
RTVSPropertyOp2
 70
     1
102
RTVSPropertyOp3
 70
     1
102
RTVSPropertyOp4
 70
     1
102
RTVSPropertyOp5
 70
     1
102
RTVSPropertyOp6
 70
     1
102
RTVSPropertyOp7
 70
     1
102
RTVSPropertyOp8
 70
     1
102
RTVSPropertyOp9
 70
     1
102
RTVSPropertyOp10
 70
     1
102
RTVSPropertyOp11
 70
     1
102
RTVSPropertyOp12
 70
     1
102
RTVSPropertyOp13
 70
     1
102
RTVSPropertyOp14
 70
     1
102
RTVSPropertyOp15
 70
     1
102
RTVSPropertyOp16
 70
     1
102
RTVSPropertyOp17
 70
     1
102
RTVSPropertyOp18
 70
     1
102
RTVSPropertyOp19
 70
     1
102
RTVSPropertyOp20
 70
     1
102
RTVSPropertyOp21
 70
     1
102
RTVSPropertyOp22
 70
     1
102
RTVSPropertyOp23
 70
     1
102
RTVSPropertyOp24
 70
     1
102
RTVSPropertyOp25
 70
     1
102
RTVSPropertyOp26
 70
     1
102
RTVSPropertyOp27
 70
     1
102
RTVSPropertyOp28
 70
     1
102
RTVSPropertyOp29
 70
     1
102
RTVSPropertyOp30
 70
     1
102
RTVSPropertyOp31
 70
     1
102
RTVSPropertyOp32
 70
     1
102
RTVSPropertyOp33
 70
     1
102
RTVSPropertyOp34
 70
     1
102
RTVSPropertyOp35
 70
     1
102
RTVSPropertyOp36
 70
     1
102
RTVSPropertyOp37
 70
     1
102
RTVSPropertyOp38
 70
     1
102
RTVSPropertyOp39
 70
     1
102
RTVSPropertyOp40
 70
     1
102
RTVSPropertyOp41
 70
     1
102
RTVSPropertyOp42
 70
     1
102
RTVSPropertyOp43
 70
     1
102
RTVSPropertyOp44
 70
     1
102
RTVSPropertyOp45
 70
     1
102
RTVSPropertyOp46
 70
     1
102
RTVSPropertyOp47
 70
     1
102
RTVSPropertyOp48
 70
     1
102
RTVSPropertyOp49
 70
     1
102
RTVSPropertyOp50
 70
     1
102
RTVSPropertyOp51
 70
     0
102
RTVSPropertyOp52
 70
     0
102
RTVSPropertyOp53
 70
     1
102
RTVSPropertyOp54
 70
     1
102
RTVSPropertyOp55
 70
     1
102
RTVSPropertyOp56
 70
     1
102
RTVSPropertyOp57
 70
     1
102
RTVSPropertyOp58
 70
     1
102
RTVSPropertyOp59
 70
     1
102
RTVSPropertyOp60
 70
     1
102
RTVSPropertyOp61
 70
     1
102
RTVSPropertyOp62
 70
     1
  0
XRECORD
  5
C09A
102
{ACAD_REACTORS
330
C099
102
}
330
C099
100
AcDbXrecord
280
     1
102
RTVSPost2010Prop28
280
     0
102
RTVSPost2010PropOp28
 70
     1
102
RTVSPost2010Prop29
280
     1
102
RTVSPost2010PropOp29
 70
     1
102
RTVSPost2010Prop30
280
     1
102
RTVSPost2010PropOp30
 70
     1
102
RTVSPost2010Prop31
280
     0
102
RTVSPost2010PropOp31
 70
     1
102
RTVSPost2010Prop32
280
     0
102
RTVSPost2010PropOp32
 70
     1
102
RTVSPost2010Prop33
280
     0
102
RTVSPost2010PropOp33
 70
     1
102
RTVSPost2010Prop34
280
     0
102
RTVSPost2010PropOp34
 70
     1
102
RTVSPost2010Prop35
280
     0
102
RTVSPost2010PropOp35
 70
     1
102
RTVSPost2010Prop36
280
     0
102
RTVSPost2010PropOp36
 70
     1
102
RTVSPost2010Prop37
 90
       50
102
RTVSPost2010PropOp37
 70
     1
102
RTVSPost2010Prop38
140
0.0
102
RTVSPost2010PropOp38
 70
     1
102
RTVSPost2010Prop39
140
1.0
102
RTVSPost2010PropOp39
 70
     1
102
RTVSPost2010Prop40
 90
        0
102
RTVSPost2010PropOp40
 70
     1
102
RTVSPost2010Prop41ColorIndex
 90
       18
102
RTVSPost2010Prop41ColorRGB
 90
        0
102
RTVSPost2010PropOp41
 70
     1
102
RTVSPost2010Prop42
 90
       50
102
RTVSPost2010PropOp42
 70
     1
102
RTVSPost2010Prop43
 90
        3
102
RTVSPost2010PropOp43
 70
     1
102
RTVSPost2010Prop44ColorIndex
 90
        5
102
RTVSPost2010Prop44ColorRGB
 90
      255
102
RTVSPost2010PropOp44
 70
     1
102
RTVSPost2010Prop45
280
     0
102
RTVSPost2010PropOp45
 70
     1
102
RTVSPost2010Prop46
 90
       50
102
RTVSPost2010PropOp46
 70
     1
102
RTVSPost2010Prop47
 90
       50
102
RTVSPost2010PropOp47
 70
     1
102
RTVSPost2010Prop48
 90
       50
102
RTVSPost2010PropOp48
 70
     1
102
RTVSPost2010Prop49
280
     0
102
RTVSPost2010PropOp49
 70
     1
102
RTVSPost2010Prop50
 90
       50
102
RTVSPost2010PropOp50
 70
     1
102
RTVSPost2010Prop51ColorIndex
 90
      256
102
RTVSPost2010Prop51ColorRGB
 90
-16777216
102
RTVSPost2010PropOp51
 70
     0
102
RTVSPost2010Prop52
140
1.0
102
RTVSPost2010PropOp52
 70
     0
102
RTVSPost2010Prop53
 90
        2
102
RTVSPost2010PropOp53
 70
     1
102
RTVSPost2010Prop54
  1
strokes_ogs.tif
102
RTVSPost2010PropOp54
 70
     1
102
RTVSPost2010Prop55
280
     0
102
RTVSPost2010PropOp55
 70
     1
102
RTVSPost2010Prop56
140
1.0
102
RTVSPost2010PropOp56
 70
     1
102
RTVSPost2010Prop57
140
1.0
102
RTVSPost2010PropOp57
 70
     1
102
RTVSPropertyOp0
 70
     1
102
RTVSPropertyOp1
 70
     1
102
RTVSPropertyOp2
 70
     1
102
RTVSPropertyOp3
 70
     1
102
RTVSPropertyOp4
 70
     1
102
RTVSPropertyOp5
 70
     1
102
RTVSPropertyOp6
 70
     1
102
RTVSPropertyOp7
 70
     1
102
RTVSPropertyOp8
 70
     1
102
RTVSPropertyOp9
 70
     1
102
RTVSPropertyOp10
 70
     1
102
RTVSPropertyOp11
 70
     1
102
RTVSPropertyOp12
 70
     1
102
RTVSPropertyOp13
 70
     1
102
RTVSPropertyOp14
 70
     1
102
RTVSPropertyOp15
 70
     1
102
RTVSPropertyOp16
 70
     1
102
RTVSPropertyOp17
 70
     1
102
RTVSPropertyOp18
 70
     1
102
RTVSPropertyOp19
 70
     1
102
RTVSPropertyOp20
 70
     1
102
RTVSPropertyOp21
 70
     1
102
RTVSPropertyOp22
 70
     1
102
RTVSPropertyOp23
 70
     1
102
RTVSPropertyOp24
 70
     1
102
RTVSPropertyOp25
 70
     1
102
RTVSPropertyOp26
 70
     1
102
RTVSPropertyOp27
 70
     1
102
RTVSPropertyOp28
 70
     1
102
RTVSPropertyOp29
 70
     1
102
RTVSPropertyOp30
 70
     1
102
RTVSPropertyOp31
 70
     1
102
RTVSPropertyOp32
 70
     1
102
RTVSPropertyOp33
 70
     1
102
RTVSPropertyOp34
 70
     1
102
RTVSPropertyOp35
 70
     1
102
RTVSPropertyOp36
 70
     1
102
RTVSPropertyOp37
 70
     1
102
RTVSPropertyOp38
 70
     1
102
RTVSPropertyOp39
 70
     1
102
RTVSPropertyOp40
 70
     1
102
RTVSPropertyOp41
 70
     1
102
RTVSPropertyOp42
 70
     1
102
RTVSPropertyOp43
 70
     1
102
RTVSPropertyOp44
 70
     1
102
RTVSPropertyOp45
 70
     1
102
RTVSPropertyOp46
 70
     1
102
RTVSPropertyOp47
 70
     1
102
RTVSPropertyOp48
 70
     1
102
RTVSPropertyOp49
 70
     1
102
RTVSPropertyOp50
 70
     1
102
RTVSPropertyOp51
 70
     0
102
RTVSPropertyOp52
 70
     0
102
RTVSPropertyOp53
 70
     1
102
RTVSPropertyOp54
 70
     1
102
RTVSPropertyOp55
 70
     1
102
RTVSPropertyOp56
 70
     1
102
RTVSPropertyOp57
 70
     1
102
RTVSPropertyOp58
 70
     1
102
RTVSPropertyOp59
 70
     1
102
RTVSPropertyOp60
 70
     1
102
RTVSPropertyOp61
 70
     1
102
RTVSPropertyOp62
 70
     1
  0
XRECORD
  5
C08E
102
{ACAD_REACTORS
330
C08D
102
}
330
C08D
100
AcDbXrecord
280
     1
102
RTVSPost2010Prop28
280
     0
102
RTVSPost2010PropOp28
 70
     1
102
RTVSPost2010Prop29
280
     1
102
RTVSPost2010PropOp29
 70
     1
102
RTVSPost2010Prop30
280
     1
102
RTVSPost2010PropOp30
 70
     1
102
RTVSPost2010Prop31
280
     0
102
RTVSPost2010PropOp31
 70
     1
102
RTVSPost2010Prop32
280
     0
102
RTVSPost2010PropOp32
 70
     1
102
RTVSPost2010Prop33
280
     0
102
RTVSPost2010PropOp33
 70
     1
102
RTVSPost2010Prop34
280
     0
102
RTVSPost2010PropOp34
 70
     1
102
RTVSPost2010Prop35
280
     0
102
RTVSPost2010PropOp35
 70
     1
102
RTVSPost2010Prop36
280
     0
102
RTVSPost2010PropOp36
 70
     1
102
RTVSPost2010Prop37
 90
       50
102
RTVSPost2010PropOp37
 70
     1
102
RTVSPost2010Prop38
140
0.0
102
RTVSPost2010PropOp38
 70
     1
102
RTVSPost2010Prop39
140
1.0
102
RTVSPost2010PropOp39
 70
     1
102
RTVSPost2010Prop40
 90
        0
102
RTVSPost2010PropOp40
 70
     1
102
RTVSPost2010Prop41ColorIndex
 90
       18
102
RTVSPost2010Prop41ColorRGB
 90
        0
102
RTVSPost2010PropOp41
 70
     1
102
RTVSPost2010Prop42
 90
       50
102
RTVSPost2010PropOp42
 70
     1
102
RTVSPost2010Prop43
 90
        3
102
RTVSPost2010PropOp43
 70
     1
102
RTVSPost2010Prop44ColorIndex
 90
        5
102
RTVSPost2010Prop44ColorRGB
 90
      255
102
RTVSPost2010PropOp44
 70
     1
102
RTVSPost2010Prop45
280
     0
102
RTVSPost2010PropOp45
 70
     1
102
RTVSPost2010Prop46
 90
       50
102
RTVSPost2010PropOp46
 70
     1
102
RTVSPost2010Prop47
 90
       50
102
RTVSPost2010PropOp47
 70
     1
102
RTVSPost2010Prop48
 90
       50
102
RTVSPost2010PropOp48
 70
     1
102
RTVSPost2010Prop49
280
     0
102
RTVSPost2010PropOp49
 70
     1
102
RTVSPost2010Prop50
 90
       50
102
RTVSPost2010PropOp50
 70
     1
102
RTVSPost2010Prop51ColorIndex
 90
      256
102
RTVSPost2010Prop51ColorRGB
 90
-16777216
102
RTVSPost2010PropOp51
 70
     0
102
RTVSPost2010Prop52
140
1.0
102
RTVSPost2010PropOp52
 70
     0
102
RTVSPost2010Prop53
 90
        2
102
RTVSPost2010PropOp53
 70
     1
102
RTVSPost2010Prop54
  1
strokes_ogs.tif
102
RTVSPost2010PropOp54
 70
     1
102
RTVSPost2010Prop55
280
     0
102
RTVSPost2010PropOp55
 70
     1
102
RTVSPost2010Prop56
140
1.0
102
RTVSPost2010PropOp56
 70
     1
102
RTVSPost2010Prop57
140
1.0
102
RTVSPost2010PropOp57
 70
     1
102
RTVSPropertyOp0
 70
     1
102
RTVSPropertyOp1
 70
     1
102
RTVSPropertyOp2
 70
     1
102
RTVSPropertyOp3
 70
     1
102
RTVSPropertyOp4
 70
     1
102
RTVSPropertyOp5
 70
     1
102
RTVSPropertyOp6
 70
     1
102
RTVSPropertyOp7
 70
     1
102
RTVSPropertyOp8
 70
     1
102
RTVSPropertyOp9
 70
     1
102
RTVSPropertyOp10
 70
     1
102
RTVSPropertyOp11
 70
     1
102
RTVSPropertyOp12
 70
     1
102
RTVSPropertyOp13
 70
     1
102
RTVSPropertyOp14
 70
     1
102
RTVSPropertyOp15
 70
     1
102
RTVSPropertyOp16
 70
     1
102
RTVSPropertyOp17
 70
     1
102
RTVSPropertyOp18
 70
     1
102
RTVSPropertyOp19
 70
     1
102
RTVSPropertyOp20
 70
     1
102
RTVSPropertyOp21
 70
     1
102
RTVSPropertyOp22
 70
     1
102
RTVSPropertyOp23
 70
     1
102
RTVSPropertyOp24
 70
     1
102
RTVSPropertyOp25
 70
     1
102
RTVSPropertyOp26
 70
     1
102
RTVSPropertyOp27
 70
     1
102
RTVSPropertyOp28
 70
     1
102
RTVSPropertyOp29
 70
     1
102
RTVSPropertyOp30
 70
     1
102
RTVSPropertyOp31
 70
     1
102
RTVSPropertyOp32
 70
     1
102
RTVSPropertyOp33
 70
     1
102
RTVSPropertyOp34
 70
     1
102
RTVSPropertyOp35
 70
     1
102
RTVSPropertyOp36
 70
     1
102
RTVSPropertyOp37
 70
     1
102
RTVSPropertyOp38
 70
     1
102
RTVSPropertyOp39
 70
     1
102
RTVSPropertyOp40
 70
     1
102
RTVSPropertyOp41
 70
     1
102
RTVSPropertyOp42
 70
     1
102
RTVSPropertyOp43
 70
     1
102
RTVSPropertyOp44
 70
     1
102
RTVSPropertyOp45
 70
     1
102
RTVSPropertyOp46
 70
     1
102
RTVSPropertyOp47
 70
     1
102
RTVSPropertyOp48
 70
     1
102
RTVSPropertyOp49
 70
     1
102
RTVSPropertyOp50
 70
     1
102
RTVSPropertyOp51
 70
     0
102
RTVSPropertyOp52
 70
     0
102
RTVSPropertyOp53
 70
     1
102
RTVSPropertyOp54
 70
     1
102
RTVSPropertyOp55
 70
     1
102
RTVSPropertyOp56
 70
     1
102
RTVSPropertyOp57
 70
     1
102
RTVSPropertyOp58
 70
     1
102
RTVSPropertyOp59
 70
     1
102
RTVSPropertyOp60
 70
     1
102
RTVSPropertyOp61
 70
     1
102
RTVSPropertyOp62
 70
     1
  0
XRECORD
  5
C0AE
102
{ACAD_REACTORS
330
C0AD
102
}
330
C0AD
100
AcDbXrecord
280
     1
102
RTVSPost2010Prop28
280
     0
102
RTVSPost2010PropOp28
 70
     1
102
RTVSPost2010Prop29
280
     1
102
RTVSPost2010PropOp29
 70
     1
102
RTVSPost2010Prop30
280
     1
102
RTVSPost2010PropOp30
 70
     1
102
RTVSPost2010Prop31
280
     0
102
RTVSPost2010PropOp31
 70
     1
102
RTVSPost2010Prop32
280
     0
102
RTVSPost2010PropOp32
 70
     1
102
RTVSPost2010Prop33
280
     0
102
RTVSPost2010PropOp33
 70
     1
102
RTVSPost2010Prop34
280
     0
102
RTVSPost2010PropOp34
 70
     1
102
RTVSPost2010Prop35
280
     0
102
RTVSPost2010PropOp35
 70
     1
102
RTVSPost2010Prop36
280
     0
102
RTVSPost2010PropOp36
 70
     1
102
RTVSPost2010Prop37
 90
       50
102
RTVSPost2010PropOp37
 70
     1
102
RTVSPost2010Prop38
140
0.0
102
RTVSPost2010PropOp38
 70
     1
102
RTVSPost2010Prop39
140
1.0
102
RTVSPost2010PropOp39
 70
     1
102
RTVSPost2010Prop40
 90
        0
102
RTVSPost2010PropOp40
 70
     1
102
RTVSPost2010Prop41ColorIndex
 90
       18
102
RTVSPost2010Prop41ColorRGB
 90
        0
102
RTVSPost2010PropOp41
 70
     1
102
RTVSPost2010Prop42
 90
       50
102
RTVSPost2010PropOp42
 70
     1
102
RTVSPost2010Prop43
 90
        3
102
RTVSPost2010PropOp43
 70
     1
102
RTVSPost2010Prop44ColorIndex
 90
        5
102
RTVSPost2010Prop44ColorRGB
 90
      255
102
RTVSPost2010PropOp44
 70
     1
102
RTVSPost2010Prop45
280
     0
102
RTVSPost2010PropOp45
 70
     1
102
RTVSPost2010Prop46
 90
       50
102
RTVSPost2010PropOp46
 70
     1
102
RTVSPost2010Prop47
 90
       50
102
RTVSPost2010PropOp47
 70
     1
102
RTVSPost2010Prop48
 90
       50
102
RTVSPost2010PropOp48
 70
     1
102
RTVSPost2010Prop49
280
     0
102
RTVSPost2010PropOp49
 70
     1
102
RTVSPost2010Prop50
 90
       50
102
RTVSPost2010PropOp50
 70
     1
102
RTVSPost2010Prop51ColorIndex
 90
      256
102
RTVSPost2010Prop51ColorRGB
 90
-16777216
102
RTVSPost2010PropOp51
 70
     0
102
RTVSPost2010Prop52
140
1.0
102
RTVSPost2010PropOp52
 70
     0
102
RTVSPost2010Prop53
 90
        2
102
RTVSPost2010PropOp53
 70
     1
102
RTVSPost2010Prop54
  1
strokes_ogs.tif
102
RTVSPost2010PropOp54
 70
     1
102
RTVSPost2010Prop55
280
     0
102
RTVSPost2010PropOp55
 70
     1
102
RTVSPost2010Prop56
140
1.0
102
RTVSPost2010PropOp56
 70
     1
102
RTVSPost2010Prop57
140
1.0
102
RTVSPost2010PropOp57
 70
     1
102
RTVSPropertyOp0
 70
     1
102
RTVSPropertyOp1
 70
     1
102
RTVSPropertyOp2
 70
     1
102
RTVSPropertyOp3
 70
     1
102
RTVSPropertyOp4
 70
     1
102
RTVSPropertyOp5
 70
     1
102
RTVSPropertyOp6
 70
     1
102
RTVSPropertyOp7
 70
     1
102
RTVSPropertyOp8
 70
     1
102
RTVSPropertyOp9
 70
     1
102
RTVSPropertyOp10
 70
     1
102
RTVSPropertyOp11
 70
     1
102
RTVSPropertyOp12
 70
     1
102
RTVSPropertyOp13
 70
     1
102
RTVSPropertyOp14
 70
     1
102
RTVSPropertyOp15
 70
     1
102
RTVSPropertyOp16
 70
     1
102
RTVSPropertyOp17
 70
     1
102
RTVSPropertyOp18
 70
     1
102
RTVSPropertyOp19
 70
     1
102
RTVSPropertyOp20
 70
     1
102
RTVSPropertyOp21
 70
     1
102
RTVSPropertyOp22
 70
     1
102
RTVSPropertyOp23
 70
     1
102
RTVSPropertyOp24
 70
     1
102
RTVSPropertyOp25
 70
     1
102
RTVSPropertyOp26
 70
     1
102
RTVSPropertyOp27
 70
     1
102
RTVSPropertyOp28
 70
     1
102
RTVSPropertyOp29
 70
     1
102
RTVSPropertyOp30
 70
     1
102
RTVSPropertyOp31
 70
     1
102
RTVSPropertyOp32
 70
     1
102
RTVSPropertyOp33
 70
     1
102
RTVSPropertyOp34
 70
     1
102
RTVSPropertyOp35
 70
     1
102
RTVSPropertyOp36
 70
     1
102
RTVSPropertyOp37
 70
     1
102
RTVSPropertyOp38
 70
     1
102
RTVSPropertyOp39
 70
     1
102
RTVSPropertyOp40
 70
     1
102
RTVSPropertyOp41
 70
     1
102
RTVSPropertyOp42
 70
     1
102
RTVSPropertyOp43
 70
     1
102
RTVSPropertyOp44
 70
     1
102
RTVSPropertyOp45
 70
     1
102
RTVSPropertyOp46
 70
     1
102
RTVSPropertyOp47
 70
     1
102
RTVSPropertyOp48
 70
     1
102
RTVSPropertyOp49
 70
     1
102
RTVSPropertyOp50
 70
     1
102
RTVSPropertyOp51
 70
     0
102
RTVSPropertyOp52
 70
     0
102
RTVSPropertyOp53
 70
     1
102
RTVSPropertyOp54
 70
     1
102
RTVSPropertyOp55
 70
     1
102
RTVSPropertyOp56
 70
     1
102
RTVSPropertyOp57
 70
     1
102
RTVSPropertyOp58
 70
     1
102
RTVSPropertyOp59
 70
     1
102
RTVSPropertyOp60
 70
     1
102
RTVSPropertyOp61
 70
     1
102
RTVSPropertyOp62
 70
     1
  0
ENDSEC
  0
EOF
