  0
SECTION
  2
HEADER
  9
$ACADVER
  1
AC1015
  9
$ACADMAINTVER
 70
    18
  9
$DWGCODEPAGE
  3
ANSI_1252
  9
$INSBASE
 10
0.0
 20
0.0
 30
0.0
  9
$EXTMIN
 10
-142.6702872741388
 20
-174.6443018799697
 30
-0.0015258207003583
  9
$EXTMAX
 10
162.0309455017919
 20
211.6514745911717
 30
0.0000000349246037
  9
$LIMMIN
 10
0.0
 20
0.0
  9
$LIMMAX
 10
420.0
 20
297.0
  9
$ORTHOMODE
 70
     0
  9
$REGENMODE
 70
     1
  9
$FILLMODE
 70
     1
  9
$QTEXTMODE
 70
     0
  9
$MIRRTEXT
 70
     0
  9
$LTSCALE
 40
1.0
  9
$ATTMODE
 70
     1
  9
$TEXTSIZE
 40
2.5
  9
$TRACEWID
 40
1.0
  9
$TEXTSTYLE
  7
Standard
  9
$CLAYER
  8
0
  9
$CELTYPE
  6
ByLayer
  9
$CECOLOR
 62
   256
  9
$CELTSCALE
 40
1.0
  9
$DISPSILH
 70
     0
  9
$DIMSCALE
 40
1.0
  9
$DIMASZ
 40
2.5
  9
$DIMEXO
 40
0.625
  9
$DIMDLI
 40
3.75
  9
$DIMRND
 40
0.0
  9
$DIMDLE
 40
0.0
  9
$DIMEXE
 40
1.25
  9
$DIMTP
 40
0.0
  9
$DIMTM
 40
0.0
  9
$DIMTXT
 40
2.5
  9
$DIMCEN
 40
2.5
  9
$DIMTSZ
 40
0.0
  9
$DIMTOL
 70
     0
  9
$DIMLIM
 70
     0
  9
$DIMTIH
 70
     0
  9
$DIMTOH
 70
     0
  9
$DIMSE1
 70
     0
  9
$DIMSE2
 70
     0
  9
$DIMTAD
 70
     1
  9
$DIMZIN
 70
     8
  9
$DIMBLK
  1

  9
$DIMASO
 70
     1
  9
$DIMSHO
 70
     1
  9
$DIMPOST
  1

  9
$DIMAPOST
  1

  9
$DIMALT
 70
     0
  9
$DIMALTD
 70
     3
  9
$DIMALTF
 40
0.03937007874016
  9
$DIMLFAC
 40
1.0
  9
$DIMTOFL
 70
     1
  9
$DIMTVP
 40
0.0
  9
$DIMTIX
 70
     0
  9
$DIMSOXD
 70
     0
  9
$DIMSAH
 70
     0
  9
$DIMBLK1
  1

  9
$DIMBLK2
  1

  9
$DIMSTYLE
  2
ISO-25
  9
$DIMCLRD
 70
     0
  9
$DIMCLRE
 70
     0
  9
$DIMCLRT
 70
     0
  9
$DIMTFAC
 40
1.0
  9
$DIMGAP
 40
0.625
  9
$DIMJUST
 70
     0
  9
$DIMSD1
 70
     0
  9
$DIMSD2
 70
     0
  9
$DIMTOLJ
 70
     0
  9
$DIMTZIN
 70
     8
  9
$DIMALTZ
 70
     0
  9
$DIMALTTZ
 70
     0
  9
$DIMUPT
 70
     0
  9
$DIMDEC
 70
     2
  9
$DIMTDEC
 70
     2
  9
$DIMALTU
 70
     2
  9
$DIMALTTD
 70
     3
  9
$DIMTXSTY
  7
Standard
  9
$DIMAUNIT
 70
     0
  9
$DIMADEC
 70
     0
  9
$DIMALTRND
 40
0.0
  9
$DIMAZIN
 70
     0
  9
$DIMDSEP
 70
    44
  9
$DIMATFIT
 70
     3
  9
$DIMFRAC
 70
     0
  9
$DIMLDRBLK
  1

  9
$DIMLUNIT
 70
     2
  9
$DIMLWD
 70
    -2
  9
$DIMLWE
 70
    -2
  9
$DIMTMOVE
 70
     0
  9
$LUNITS
 70
     2
  9
$LUPREC
 70
     4
  9
$SKETCHINC
 40
1.0
  9
$FILLETRAD
 40
0.0
  9
$AUNITS
 70
     0
  9
$AUPREC
 70
     0
  9
$MENU
  1
.
  9
$ELEVATION
 40
0.0
  9
$PELEVATION
 40
0.0
  9
$THICKNESS
 40
0.0
  9
$LIMCHECK
 70
     0
  9
$CHAMFERA
 40
0.0
  9
$CHAMFERB
 40
0.0
  9
$CHAMFERC
 40
0.0
  9
$CHAMFERD
 40
0.0
  9
$SKPOLY
 70
     0
  9
$TDCREATE
 40
2460286.622500000
  9
$TDUCREATE
 40
2460286.330833334
  9
$TDUPDATE
 40
2460286.638495371
  9
$TDUUPDATE
 40
2460286.346828704
  9
$TDINDWG
 40
0.0048842593
  9
$TDUSRTIMER
 40
0.0048842593
  9
$USRTIMER
 70
     1
  9
$ANGBASE
 50
0.0
  9
$ANGDIR
 70
     0
  9
$PDMODE
 70
     0
  9
$PDSIZE
 40
0.0
  9
$PLINEWID
 40
0.0
  9
$SPLFRAME
 70
     0
  9
$SPLINETYPE
 70
     6
  9
$SPLINESEGS
 70
     8
  9
$HANDSEED
  5
CE46
  9
$SURFTAB1
 70
     6
  9
$SURFTAB2
 70
     6
  9
$SURFTYPE
 70
     6
  9
$SURFU
 70
     6
  9
$SURFV
 70
     6
  9
$UCSBASE
  2

  9
$UCSNAME
  2

  9
$UCSORG
 10
0.0
 20
0.0
 30
0.0
  9
$UCSXDIR
 10
1.0
 20
0.0
 30
0.0
  9
$UCSYDIR
 10
0.0
 20
1.0
 30
0.0
  9
$UCSORTHOREF
  2

  9
$UCSORTHOVIEW
 70
     0
  9
$UCSORGTOP
 10
0.0
 20
0.0
 30
0.0
  9
$UCSORGBOTTOM
 10
0.0
 20
0.0
 30
0.0
  9
$UCSORGLEFT
 10
0.0
 20
0.0
 30
0.0
  9
$UCSORGRIGHT
 10
0.0
 20
0.0
 30
0.0
  9
$UCSORGFRONT
 10
0.0
 20
0.0
 30
0.0
  9
$UCSORGBACK
 10
0.0
 20
0.0
 30
0.0
  9
$PUCSBASE
  2

  9
$PUCSNAME
  2

  9
$PUCSORG
 10
0.0
 20
0.0
 30
0.0
  9
$PUCSXDIR
 10
1.0
 20
0.0
 30
0.0
  9
$PUCSYDIR
 10
0.0
 20
1.0
 30
0.0
  9
$PUCSORTHOREF
  2

  9
$PUCSORTHOVIEW
 70
     0
  9
$PUCSORGTOP
 10
0.0
 20
0.0
 30
0.0
  9
$PUCSORGBOTTOM
 10
0.0
 20
0.0
 30
0.0
  9
$PUCSORGLEFT
 10
0.0
 20
0.0
 30
0.0
  9
$PUCSORGRIGHT
 10
0.0
 20
0.0
 30
0.0
  9
$PUCSORGFRONT
 10
0.0
 20
0.0
 30
0.0
  9
$PUCSORGBACK
 10
0.0
 20
0.0
 30
0.0
  9
$USERI1
 70
     0
  9
$USERI2
 70
     0
  9
$USERI3
 70
     0
  9
$USERI4
 70
     0
  9
$USERI5
 70
     0
  9
$USERR1
 40
0.0
  9
$USERR2
 40
0.0
  9
$USERR3
 40
0.0
  9
$USERR4
 40
0.0
  9
$USERR5
 40
0.0
  9
$WORLDVIEW
 70
     1
  9
$SHADEDGE
 70
     3
  9
$SHADEDIF
 70
    70
  9
$TILEMODE
 70
     1
  9
$MAXACTVP
 70
    48
  9
$PINSBASE
 10
0.0
 20
0.0
 30
0.0
  9
$PLIMCHECK
 70
     0
  9
$PEXTMIN
 10
0.0
 20
0.0
 30
0.0
  9
$PEXTMAX
 10
0.0
 20
0.0
 30
0.0
  9
$PLIMMIN
 10
0.0
 20
0.0
  9
$PLIMMAX
 10
12.0
 20
9.0
  9
$UNITMODE
 70
     0
  9
$VISRETAIN
 70
     1
  9
$PLINEGEN
 70
     0
  9
$PSLTSCALE
 70
     1
  9
$TREEDEPTH
 70
  3020
  9
$CMLSTYLE
  2
Standard
  9
$CMLJUST
 70
     0
  9
$CMLSCALE
 40
20.0
  9
$PROXYGRAPHICS
 70
     1
  9
$MEASUREMENT
 70
     1
  9
$CELWEIGHT
370
    -1
  9
$ENDCAPS
280
     0
  9
$JOINSTYLE
280
     0
  9
$LWDISPLAY
290
     0
  9
$INSUNITS
 70
     4
  9
$HYPERLINKBASE
  1

  9
$STYLESHEET
  1

  9
$XEDIT
290
     1
  9
$CEPSNTYPE
380
     0
  9
$PSTYLEMODE
290
     1
  9
$FINGERPRINTGUID
  2
{F076C30E-3F10-754B-AD36-B589FE558AAC}
  9
$VERSIONGUID
  2
{595808AA-D02B-DD42-94C9-9B8C5A56A78E}
  9
$EXTNAMES
290
     1
  9
$PSVPSCALE
 40
0.0
  9
$OLESTARTUP
290
     0
  0
ENDSEC
  0
SECTION
  2
CLASSES
  0
CLASS
  1
ACDBDICTIONARYWDFLT
  2
AcDbDictionaryWithDefault
  3
ObjectDBX Classes
 90
        0
280
     0
281
     0
  0
CLASS
  1
ACDBPLACEHOLDER
  2
AcDbPlaceHolder
  3
ObjectDBX Classes
 90
        0
280
     0
281
     0
  0
CLASS
  1
LAYOUT
  2
AcDbLayout
  3
ObjectDBX Classes
 90
        0
280
     0
281
     0
  0
CLASS
  1
DICTIONARYVAR
  2
AcDbDictionaryVar
  3
ObjectDBX Classes
 90
        0
280
     0
281
     0
  0
CLASS
  1
TABLESTYLE
  2
AcDbTableStyle
  3
ObjectDBX Classes
 90
     4095
280
     0
281
     0
  0
CLASS
  1
MATERIAL
  2
AcDbMaterial
  3
ObjectDBX Classes
 90
     1153
280
     0
281
     0
  0
CLASS
  1
VISUALSTYLE
  2
AcDbVisualStyle
  3
ObjectDBX Classes
 90
     4095
280
     0
281
     0
  0
CLASS
  1
SCALE
  2
AcDbScale
  3
ObjectDBX Classes
 90
     1153
280
     0
281
     0
  0
CLASS
  1
MLEADERSTYLE
  2
AcDbMLeaderStyle
  3
ACDB_MLEADERSTYLE_CLASS
 90
     4095
280
     0
281
     0
  0
CLASS
  1
CELLSTYLEMAP
  2
AcDbCellStyleMap
  3
ObjectDBX Classes
 90
     1152
280
     0
281
     0
  0
CLASS
  1
EXACXREFPANELOBJECT
  2
ExAcXREFPanelObject
  3
EXAC_ESW
 90
    33793
280
     0
281
     0
  0
CLASS
  1
NPOCOLLECTION
  2
AcDbImpNonPersistentObjectsCollection
  3
ObjectDBX Classes
 90
    33921
280
     0
281
     0
  0
CLASS
  1
LAYER_INDEX
  2
AcDbLayerIndex
  3
ObjectDBX Classes
 90
    32768
280
     0
281
     0
  0
CLASS
  1
SPATIAL_INDEX
  2
AcDbSpatialIndex
  3
ObjectDBX Classes
 90
    32768
280
     0
281
     0
  0
CLASS
  1
IDBUFFER
  2
AcDbIdBuffer
  3
ObjectDBX Classes
 90
    32768
280
     0
281
     0
  0
CLASS
  1
ACDBSECTIONVIEWSTYLE
  2
AcDbSectionViewStyle
  3
ObjectDBX Classes
 90
     1025
280
     0
281
     0
  0
CLASS
  1
ACDBDETAILVIEWSTYLE
  2
AcDbDetailViewStyle
  3
ObjectDBX Classes
 90
     1025
280
     0
281
     0
  0
CLASS
  1
XRECORD
  2
AcDbXrecord
  3
ObjectDBX Classes
 90
        0
280
     0
281
     0
  0
ENDSEC
  0
SECTION
  2
TABLES
  0
TABLE
  2
VPORT
  5
8
102
{ACAD_XDICTIONARY
360
CD54
102
}
330
0
100
AcDbSymbolTable
 70
     1
  0
VPORT
  5
EA
330
8
100
AcDbSymbolTableRecord
100
AcDbViewportTableRecord
  2
*Active
 70
     0
 10
0.0
 20
0.0
 11
1.0
 21
1.0
 12
9.68032911382658
 22
18.50358635560096
 13
0.0
 23
0.0
 14
10.0
 24
10.0
 15
10.0
 25
10.0
 16
0.0
 26
0.0
 36
1.0
 17
0.0
 27
0.0
 37
0.0
 40
410.7905508728502
 41
0.9846153846153846
 42
50.0
 43
0.0
 44
0.0
 50
0.0
 51
0.0
 71
     0
 72
  1000
 73
     1
 74
     3
 75
     0
 76
     1
 77
     0
 78
     0
281
     0
 65
     1
110
0.0
120
0.0
130
0.0
111
1.0
121
0.0
131
0.0
112
0.0
122
1.0
132
0.0
 79
     0
146
0.0
1001
ACAD_NAV_VCDISPLAY
1070
     3
  0
ENDTAB
  0
TABLE
  2
LTYPE
  5
5
330
0
100
AcDbSymbolTable
 70
     1
  0
LTYPE
  5
14
330
5
100
AcDbSymbolTableRecord
100
AcDbLinetypeTableRecord
  2
ByBlock
 70
     0
  3

 72
    65
 73
     0
 40
0.0
  0
LTYPE
  5
15
330
5
100
AcDbSymbolTableRecord
100
AcDbLinetypeTableRecord
  2
ByLayer
 70
     0
  3

 72
    65
 73
     0
 40
0.0
  0
LTYPE
  5
16
330
5
100
AcDbSymbolTableRecord
100
AcDbLinetypeTableRecord
  2
Continuous
 70
     0
  3
Solid line
 72
    65
 73
     0
 40
0.0
  0
ENDTAB
  0
TABLE
  2
LAYER
  5
2
102
{ACAD_XDICTIONARY
360
1FF
102
}
330
0
100
AcDbSymbolTable
 70
     1
  0
LAYER
  5
10
102
{ACAD_XDICTIONARY
360
13C
102
}
330
2
100
AcDbSymbolTableRecord
100
AcDbLayerTableRecord
  2
0
 70
     0
 62
     7
  6
Continuous
370
    -3
390
F
  0
ENDTAB
  0
TABLE
  2
STYLE
  5
3
330
0
100
AcDbSymbolTable
 70
     1
  0
STYLE
  5
11
330
3
100
AcDbSymbolTableRecord
100
AcDbTextStyleTableRecord
  2
Standard
 70
     0
 40
0.0
 41
1.0
 50
0.0
 71
     0
 42
2.5
  3
arial.ttf
  4

1001
ACAD
1000
Arial
1071
       34
  0
ENDTAB
  0
TABLE
  2
VIEW
  5
6
330
0
100
AcDbSymbolTable
 70
     0
  0
ENDTAB
  0
TABLE
  2
UCS
  5
7
330
0
100
AcDbSymbolTable
 70
     0
  0
ENDTAB
  0
TABLE
  2
APPID
  5
9
330
0
100
AcDbSymbolTable
 70
     8
  0
APPID
  5
12
330
9
100
AcDbSymbolTableRecord
100
AcDbRegAppTableRecord
  2
ACAD
 70
     0
  0
APPID
  5
9E
330
9
100
AcDbSymbolTableRecord
100
AcDbRegAppTableRecord
  2
ACAD_PSEXT
 70
     0
  0
APPID
  5
133
330
9
100
AcDbSymbolTableRecord
100
AcDbRegAppTableRecord
  2
AcadAnnoPO
 70
     0
  0
APPID
  5
134
330
9
100
AcDbSymbolTableRecord
100
AcDbRegAppTableRecord
  2
AcadAnnotative
 70
     0
  0
APPID
  5
135
330
9
100
AcDbSymbolTableRecord
100
AcDbRegAppTableRecord
  2
ACAD_DSTYLE_DIMJAG
 70
     0
  0
APPID
  5
136
330
9
100
AcDbSymbolTableRecord
100
AcDbRegAppTableRecord
  2
ACAD_DSTYLE_DIMTALN
 70
     0
  0
APPID
  5
165
330
9
100
AcDbSymbolTableRecord
100
AcDbRegAppTableRecord
  2
ACAD_MLEADERVER
 70
     0
  0
APPID
  5
217
330
9
100
AcDbSymbolTableRecord
100
AcDbRegAppTableRecord
  2
ACAD_NAV_VCDISPLAY
 70
     0
  0
ENDTAB
  0
TABLE
  2
DIMSTYLE
  5
A
330
0
100
AcDbSymbolTable
 70
     1
100
AcDbDimStyleTable
 71
     0
  0
DIMSTYLE
105
27
330
A
100
AcDbSymbolTableRecord
100
AcDbDimStyleTableRecord
  2
ISO-25
 70
     0
 41
2.5
 42
0.625
 43
3.75
 44
1.25
 73
     0
 74
     0
 77
     1
 78
     8
140
2.5
141
2.5
143
0.03937007874016
147
0.625
171
     3
172
     1
271
     2
272
     2
274
     3
278
    44
283
     0
284
     8
340
11
  0
ENDTAB
  0
TABLE
  2
BLOCK_RECORD
  5
1
330
0
100
AcDbSymbolTable
 70
     7
  0
BLOCK_RECORD
  5
1F
102
{ACAD_XDICTIONARY
360
1CE
102
}
330
1
100
AcDbSymbolTableRecord
100
AcDbBlockTableRecord
  2
*Model_Space
340
22
  0
BLOCK_RECORD
  5
D2
102
{ACAD_XDICTIONARY
360
CD07
102
}
330
1
100
AcDbSymbolTableRecord
100
AcDbBlockTableRecord
  2
*Paper_Space
340
D3
  0
BLOCK_RECORD
  5
D6
102
{ACAD_XDICTIONARY
360
CD09
102
}
330
1
100
AcDbSymbolTableRecord
100
AcDbBlockTableRecord
  2
*Paper_Space0
340
D7
  0
BLOCK_RECORD
  5
CA7B
330
1
100
AcDbSymbolTableRecord
100
AcDbBlockTableRecord
  2
SBE32_114-Front
340
0
102
{BLKREFS
331
CCFD
102
}
  0
BLOCK_RECORD
  5
CAE3
330
1
100
AcDbSymbolTableRecord
100
AcDbBlockTableRecord
  2
SBE32_114-Left
340
0
102
{BLKREFS
331
CCFE
102
}
  0
BLOCK_RECORD
  5
CB17
330
1
100
AcDbSymbolTableRecord
100
AcDbBlockTableRecord
  2
SBE32_114-Right
340
0
102
{BLKREFS
331
CCFF
102
}
  0
BLOCK_RECORD
  5
CB4B
330
1
100
AcDbSymbolTableRecord
100
AcDbBlockTableRecord
  2
SBE32_114-Top
340
0
102
{BLKREFS
331
CD00
102
}
  0
BLOCK_RECORD
  5
CB9F
330
1
100
AcDbSymbolTableRecord
100
AcDbBlockTableRecord
  2
SBE32_114-Bottom
340
0
102
{BLKREFS
331
CD01
102
}
  0
BLOCK_RECORD
  5
CBD4
330
1
100
AcDbSymbolTableRecord
100
AcDbBlockTableRecord
  2
SBE32_114-ISO
340
0
102
{BLKREFS
331
CD02
102
}
  0
ENDTAB
  0
ENDSEC
  0
SECTION
  2
BLOCKS
  0
BLOCK
  5
20
330
1F
100
AcDbEntity
  8
0
100
AcDbBlockBegin
  2
*Model_Space
 70
     0
 10
0.0
 20
0.0
 30
0.0
  3
*Model_Space
  1

  0
ENDBLK
  5
21
330
1F
100
AcDbEntity
  8
0
100
AcDbBlockEnd
  0
BLOCK
  5
D4
330
D2
100
AcDbEntity
 67
     1
  8
0
100
AcDbBlockBegin
  2
*Paper_Space
 70
     0
 10
0.0
 20
0.0
 30
0.0
  3
*Paper_Space
  1

  0
ENDBLK
  5
D5
330
D2
100
AcDbEntity
 67
     1
  8
0
100
AcDbBlockEnd
  0
BLOCK
  5
D8
330
D6
100
AcDbEntity
 67
     1
  8
0
100
AcDbBlockBegin
  2
*Paper_Space0
 70
     0
 10
0.0
 20
0.0
 30
0.0
  3
*Paper_Space0
  1

  0
ENDBLK
  5
D9
330
D6
100
AcDbEntity
 67
     1
  8
0
100
AcDbBlockEnd
  0
BLOCK
  5
CA7C
330
CA7B
100
AcDbEntity
  8
0
100
AcDbBlockBegin
  2
SBE32_114-Front
 70
     0
 10
0.0
 20
0.0
 30
0.0
  3
SBE32_114-Front
  1

  0
SPLINE
  5
CA7E
330
CA7B
100
AcDbEntity
  8
0
100
AcDbSpline
210
0.0
220
0.0
230
1.0
 70
     8
 71
     3
 72
     8
 73
     4
 74
     0
 42
0.000000001
 43
0.0000000001
 40
-1.0
 40
-1.0
 40
-1.0
 40
-1.0
 40
0.0
 40
0.0
 40
0.0
 40
0.0
 10
17.50000000000003
 20
24.24925301156959
 30
0.0
 10
17.50000000000003
 20
24.92376152841206
 30
0.0
 10
18.21460183660255
 20
25.59827004525481
 30
0.0
 10
19.00000000000004
 20
26.27277856209688
 30
0.0
  0
LINE
  5
CA7F
330
CA7B
100
AcDbEntity
  8
0
100
AcDbLine
 10
19.00000000000004
 20
26.27277856209688
 30
0.0
 11
39.71031484164903
 21
40.2420623092772
 31
0.0
  0
LINE
  5
CA80
330
CA7B
100
AcDbEntity
  8
0
100
AcDbLine
 10
17.50000000000016
 20
108.0
 30
0.0
 11
17.50000000000017
 21
114.0
 31
0.0
  0
LINE
  5
CA81
330
CA7B
100
AcDbEntity
  8
0
100
AcDbLine
 10
-17.50000000000004
 20
114.0
 30
0.0
 11
-17.50000000000004
 21
108.0
 31
0.0
  0
LINE
  5
CA82
330
CA7B
100
AcDbEntity
  8
0
100
AcDbLine
 10
16.00000000000017
 20
114.0
 30
0.0
 11
16.00000000000016
 21
108.0
 31
0.0
  0
LINE
  5
CA83
330
CA7B
100
AcDbEntity
  8
0
100
AcDbLine
 10
-16.00000000000004
 20
108.0
 30
0.0
 11
-16.00000000000004
 21
114.0
 31
0.0
  0
LINE
  5
CA84
330
CA7B
100
AcDbEntity
  8
0
100
AcDbLine
 10
-45.0
 20
108.0
 30
0.0
 11
-39.0
 21
113.9999999999998
 31
0.0
  0
LINE
  5
CA85
330
CA7B
100
AcDbEntity
  8
0
100
AcDbLine
 10
-16.00000000000004
 20
114.0
 30
0.0
 11
-17.50000000000004
 21
114.0
 31
0.0
  0
LINE
  5
CA86
330
CA7B
100
AcDbEntity
  8
0
100
AcDbLine
 10
-17.50000000000004
 20
108.0
 30
0.0
 11
-16.00000000000004
 21
108.0
 31
0.0
  0
LINE
  5
CA87
330
CA7B
100
AcDbEntity
  8
0
100
AcDbLine
 10
17.50000000000017
 20
114.0
 30
0.0
 11
16.00000000000017
 21
114.0
 31
0.0
  0
LINE
  5
CA88
330
CA7B
100
AcDbEntity
  8
0
100
AcDbLine
 10
16.00000000000016
 20
108.0
 30
0.0
 11
17.50000000000016
 21
108.0
 31
0.0
  0
LINE
  5
CA89
330
CA7B
100
AcDbEntity
  8
0
100
AcDbLine
 10
39.00000000000019
 20
113.9999999999997
 30
0.0
 11
45.00000000000017
 21
108.0
 31
0.0
  0
LINE
  5
CA8A
330
CA7B
100
AcDbEntity
  8
0
100
AcDbLine
 10
17.50000000000016
 20
108.0
 30
0.0
 11
17.50000000000007
 21
50.19051317993774
 31
0.0
  0
LINE
  5
CA8B
330
CA7B
100
AcDbEntity
  8
0
100
AcDbLine
 10
17.50000000000006
 20
40.24206230927724
 30
0.0
 11
17.50000000000004
 21
32.00610095525753
 31
0.0
  0
LINE
  5
CA8C
330
CA7B
100
AcDbEntity
  8
0
100
AcDbLine
 10
-17.50000000000001
 20
32.00610095525753
 30
0.0
 11
-17.50000000000001
 21
40.24206230927724
 31
0.0
  0
LINE
  5
CA8D
330
CA7B
100
AcDbEntity
  8
0
100
AcDbLine
 10
-17.50000000000002
 20
50.19051317993774
 30
0.0
 11
-17.50000000000004
 21
108.0
 31
0.0
  0
LINE
  5
CA8E
330
CA7B
100
AcDbEntity
  8
0
100
AcDbLine
 10
16.00000000000004
 20
32.00610095525753
 30
0.0
 11
16.00000000000006
 21
40.24206230927724
 31
0.0
  0
LINE
  5
CA8F
330
CA7B
100
AcDbEntity
  8
0
100
AcDbLine
 10
16.00000000000007
 20
50.19051317993774
 30
0.0
 11
16.00000000000016
 21
108.0
 31
0.0
  0
LINE
  5
CA90
330
CA7B
100
AcDbEntity
  8
0
100
AcDbLine
 10
-16.00000000000004
 20
108.0
 30
0.0
 11
-16.00000000000002
 21
50.19051317993774
 31
0.0
  0
LINE
  5
CA91
330
CA7B
100
AcDbEntity
  8
0
100
AcDbLine
 10
-16.00000000000002
 20
40.24206230927724
 30
0.0
 11
-16.00000000000001
 21
32.00610095525752
 31
0.0
  0
LINE
  5
CA92
330
CA7B
100
AcDbEntity
  8
0
100
AcDbLine
 10
17.50000000000004
 20
32.00610095525753
 30
0.0
 11
16.00000000000004
 21
32.00610095525753
 31
0.0
  0
LINE
  5
CA93
330
CA7B
100
AcDbEntity
  8
0
100
AcDbLine
 10
-16.00000000000001
 20
32.00610095525752
 30
0.0
 11
-17.50000000000001
 21
32.00610095525753
 31
0.0
  0
LINE
  5
CA94
330
CA7B
100
AcDbEntity
  8
0
100
AcDbLine
 10
17.49999999999996
 20
40.24206230927724
 30
0.0
 11
17.49999999999997
 21
50.19051317993774
 31
0.0
  0
LINE
  5
CA95
330
CA7B
100
AcDbEntity
  8
0
100
AcDbLine
 10
-17.5
 20
50.19051317993774
 30
0.0
 11
-17.5
 21
40.24206230927724
 31
0.0
  0
LINE
  5
CA96
330
CA7B
100
AcDbEntity
  8
0
100
AcDbLine
 10
15.99999999999998
 20
50.19051317993774
 30
0.0
 11
15.99999999999996
 21
40.24206230927724
 31
0.0
  0
LINE
  5
CA97
330
CA7B
100
AcDbEntity
  8
0
100
AcDbLine
 10
-15.99999999999999
 20
40.24206230927724
 30
0.0
 11
-16.0
 21
50.19051317993774
 31
0.0
  0
ARC
  5
CA98
330
CA7B
100
AcDbEntity
  8
0
100
AcDbCircle
 10
-33.0
 20
50.19051317993765
 30
0.0
 40
12.0
100
AcDbArc
 50
180.0
 51
236.0000000000001
  0
ARC
  5
CA99
330
CA7B
100
AcDbEntity
  8
0
100
AcDbCircle
 10
33.00000000000008
 20
50.19051317993771
 30
0.0
 40
12.0
100
AcDbArc
 50
304.0
 51
0.0
  0
LINE
  5
CA9A
330
CA7B
100
AcDbEntity
  8
0
100
AcDbLine
 10
17.49999999999999
 20
1.500000000000007
 30
0.0
 11
17.50000000000004
 21
32.00610095525753
 31
0.0
  0
LINE
  5
CA9B
330
CA7B
100
AcDbEntity
  8
0
100
AcDbLine
 10
-17.50000000000001
 20
32.00610095525753
 30
0.0
 11
-17.5
 21
1.500000000000003
 31
0.0
  0
LINE
  5
CA9C
330
CA7B
100
AcDbEntity
  8
0
100
AcDbLine
 10
15.99999999999999
 20
1.500000000000007
 30
0.0
 11
16.00000000000004
 21
32.00610095525753
 31
0.0
  0
LINE
  5
CA9D
330
CA7B
100
AcDbEntity
  8
0
100
AcDbLine
 10
-16.00000000000001
 20
32.00610095525752
 30
0.0
 11
-16.0
 21
1.500000000000003
 31
0.0
  0
LINE
  5
CA9E
330
CA7B
100
AcDbEntity
  8
0
100
AcDbLine
 10
-14.50000000000001
 20
-1.49999999999999
 30
0.0
 11
14.49999999999999
 21
-1.499999999999983
 31
0.0
  0
LINE
  5
CA9F
330
CA7B
100
AcDbEntity
  8
0
100
AcDbLine
 10
-14.5
 20
0.0
 30
0.0
 11
14.49999999999998
 21
0.0
 31
0.0
  0
SPLINE
  5
CAA0
330
CA7B
100
AcDbEntity
  8
0
100
AcDbSpline
210
0.0
220
0.0
230
1.0
 70
     8
 71
     3
 72
    11
 73
     7
 74
     0
 42
0.000000001
 43
0.0000000001
 40
0.0
 40
0.0
 40
0.0
 40
0.0
 40
0.8649350770691569
 40
0.8649350770691569
 40
0.8649350770691569
 40
1.0
 40
1.0
 40
1.0
 40
1.0
 10
-17.50000000000012
 20
74.5
 30
0.0
 10
-17.50000000000012
 20
73.94341357912705
 30
0.0
 10
-18.07474017341973
 20
73.85086195460262
 30
0.0
 10
-18.71236173637528
 20
74.27070831940598
 30
0.0
 10
-18.81193025838673
 20
74.33626990710007
 30
0.0
 10
-18.90898347262203
 20
74.41308561297521
 30
0.0
 10
-19.00000000000012
 20
74.49999999999997
 30
0.0
  0
SPLINE
  5
CAA1
330
CA7B
100
AcDbEntity
  8
0
100
AcDbSpline
210
0.0
220
0.0
230
1.0
 70
     8
 71
     3
 72
    11
 73
     7
 74
     0
 42
0.000000001
 43
0.0000000001
 40
-1.0
 40
-1.0
 40
-1.0
 40
-1.0
 40
-0.8649350770691569
 40
-0.8649350770691569
 40
-0.8649350770691569
 40
-0.6929633215164292
 40
-0.6929633215164292
 40
-0.6929633215164292
 40
-0.6929633215164292
 10
-19.00000000000012
 20
74.49999999999997
 30
0.0
 10
-18.81796694524394
 20
74.41308561297521
 30
0.0
 10
-18.62386051677333
 20
74.33626990710007
 30
0.0
 10
-18.42472347275043
 20
74.27070831940598
 30
0.0
 10
-18.17117172657475
 20
74.18723186165575
 30
0.0
 10
-17.9225916167526
 20
74.12401144857955
 30
0.0
 10
-17.68702953183041
 20
74.08066694697044
 30
0.0
  0
ARC
  5
CAA2
330
CA7B
100
AcDbEntity
  8
0
100
AcDbCircle
 10
-17.50000000000017
 20
76.49999999999998
 30
0.0
 40
2.5
100
AcDbArc
 50
126.8698976458425
 51
233.1301023541573
  0
LINE
  5
CAA3
330
CA7B
100
AcDbEntity
  8
0
100
AcDbLine
 10
-39.71031484164896
 20
40.24206230927713
 30
0.0
 11
-19.00000000000005
 21
26.27277856209688
 31
0.0
  0
CIRCLE
  5
CAA4
330
CA7B
100
AcDbEntity
  8
0
100
AcDbCircle
 10
-36.00000000000019
 20
56.49999999999998
 30
0.0
 40
2.5
  0
CIRCLE
  5
CAA5
330
CA7B
100
AcDbEntity
  8
0
100
AcDbCircle
 10
-26.00000000000019
 20
86.49999999999998
 30
0.0
 40
2.5
  0
CIRCLE
  5
CAA6
330
CA7B
100
AcDbEntity
  8
0
100
AcDbCircle
 10
-26.00000000000019
 20
106.5
 30
0.0
 40
2.5
  0
CIRCLE
  5
CAA7
330
CA7B
100
AcDbEntity
  8
0
100
AcDbCircle
 10
-36.00000000000019
 20
96.49999999999998
 30
0.0
 40
2.5
  0
CIRCLE
  5
CAA8
330
CA7B
100
AcDbEntity
  8
0
100
AcDbCircle
 10
-26.00000000000019
 20
66.49999999999998
 30
0.0
 40
2.5
  0
CIRCLE
  5
CAA9
330
CA7B
100
AcDbEntity
  8
0
100
AcDbCircle
 10
-26.00000000000019
 20
46.49999999999998
 30
0.0
 40
2.5
  0
LINE
  5
CAAA
330
CA7B
100
AcDbEntity
  8
0
100
AcDbLine
 10
-30.50000000000018
 20
67.99491999999999
 30
0.0
 11
-30.50000000000018
 21
67.99999999999998
 31
0.0
  0
LINE
  5
CAAB
330
CA7B
100
AcDbEntity
  8
0
100
AcDbLine
 10
-34.50000000000018
 20
67.99999999999998
 30
0.0
 11
-34.50000000000018
 21
67.99491999999999
 31
0.0
  0
LINE
  5
CAAC
330
CA7B
100
AcDbEntity
  8
0
100
AcDbLine
 10
-34.50000000000018
 20
67.99491999999999
 30
0.0
 11
-34.50508000000018
 21
67.99491999999999
 31
0.0
  0
LINE
  5
CAAD
330
CA7B
100
AcDbEntity
  8
0
100
AcDbLine
 10
-34.50508000000018
 20
67.99491999999999
 30
0.0
 11
-34.50508000000018
 21
67.99999999999998
 31
0.0
  0
LINE
  5
CAAE
330
CA7B
100
AcDbEntity
  8
0
100
AcDbLine
 10
-34.50508000000018
 20
67.99999999999998
 30
0.0
 11
-34.51000000000018
 21
67.99999999999998
 31
0.0
  0
LINE
  5
CAAF
330
CA7B
100
AcDbEntity
  8
0
100
AcDbLine
 10
-34.51000000000018
 20
67.99999999999998
 30
0.0
 11
-34.51000000000019
 21
71.38043947198588
 31
0.0
  0
ARC
  5
CAB0
330
CA7B
100
AcDbEntity
  8
0
100
AcDbCircle
 10
-32.50000000000019
 20
76.49999999999998
 30
0.0
 40
5.5
100
AcDbArc
 50
291.4355588797962
 51
248.5644411202037
  0
LINE
  5
CAB1
330
CA7B
100
AcDbEntity
  8
0
100
AcDbLine
 10
-30.49000000000019
 20
71.38043947198588
 30
0.0
 11
-30.49000000000018
 21
67.99999999999998
 31
0.0
  0
LINE
  5
CAB2
330
CA7B
100
AcDbEntity
  8
0
100
AcDbLine
 10
-30.49000000000018
 20
67.99999999999998
 30
0.0
 11
-30.49492000000018
 21
67.99999999999998
 31
0.0
  0
LINE
  5
CAB3
330
CA7B
100
AcDbEntity
  8
0
100
AcDbLine
 10
-30.49492000000018
 20
67.99999999999998
 30
0.0
 11
-30.49492000000018
 21
67.99491999999999
 31
0.0
  0
LINE
  5
CAB4
330
CA7B
100
AcDbEntity
  8
0
100
AcDbLine
 10
-30.49492000000018
 20
67.99491999999999
 30
0.0
 11
-30.50000000000018
 21
67.99491999999999
 31
0.0
  0
LINE
  5
CAB5
330
CA7B
100
AcDbEntity
  8
0
100
AcDbLine
 10
-34.50000000000018
 20
68.0
 30
0.0
 11
-34.50000000000029
 21
70.99999999999998
 31
0.0
  0
LINE
  5
CAB6
330
CA7B
100
AcDbEntity
  8
0
100
AcDbLine
 10
-30.50000000000018
 20
70.99999999999998
 30
0.0
 11
-30.50000000000018
 21
67.99999999999998
 31
0.0
  0
LINE
  5
CAB7
330
CA7B
100
AcDbEntity
  8
0
100
AcDbLine
 10
-34.50000000000018
 20
70.99999999999998
 30
0.0
 11
-30.50000000000018
 21
70.99999999999998
 31
0.0
  0
SPLINE
  5
CAB8
330
CA7B
100
AcDbEntity
  8
0
100
AcDbSpline
210
0.0
220
0.0
230
1.0
 70
     8
 71
     3
 72
     8
 73
     4
 74
     0
 42
0.000000001
 43
0.0000000001
 40
-0.3070366784835334
 40
-0.3070366784835334
 40
-0.3070366784835334
 40
-0.3070366784835334
 40
0.0
 40
0.0
 40
0.0
 40
0.0
 10
-17.69461252515107
 20
78.91514915798052
 30
0.0
 10
-18.12655007946433
 20
78.83668253397459
 30
0.0
 10
-18.58619289676602
 20
78.69757835065832
 30
0.0
 10
-19.00000000000012
 20
78.50000000000005
 30
0.0
  0
SPLINE
  5
CAB9
330
CA7B
100
AcDbEntity
  8
0
100
AcDbSpline
210
0.0
220
0.0
230
1.0
 70
     8
 71
     3
 72
    11
 73
     7
 74
     0
 42
0.000000001
 43
0.0000000001
 40
0.0
 40
0.0
 40
0.0
 40
0.0
 40
0.864935077069016
 40
0.864935077069016
 40
0.864935077069016
 40
1.0
 40
1.0
 40
1.0
 40
1.0
 10
-19.00000000000012
 20
78.50000000000005
 30
0.0
 10
-18.41714410067361
 20
79.05658642087271
 30
0.0
 10
-17.65241843552027
 20
79.14913804539757
 30
0.0
 10
-17.52783688767231
 20
78.72929168059409
 30
0.0
 10
-17.50838271405304
 20
78.6637300928999
 30
0.0
 10
-17.50000000000013
 20
78.58691438702471
 30
0.0
 10
-17.50000000000013
 20
78.49999999999994
 30
0.0
  0
SPLINE
  5
CABA
330
CA7B
100
AcDbEntity
  8
0
100
AcDbSpline
210
0.0
220
0.0
230
1.0
 70
     8
 71
     3
 72
     8
 73
     4
 74
     0
 42
0.000000001
 43
0.0000000001
 40
0.0
 40
0.0
 40
0.0
 40
0.0
 40
1.0
 40
1.0
 40
1.0
 40
1.0
 10
-19.00000000000005
 20
26.27277856209688
 30
0.0
 10
-18.21460183660256
 20
25.59827004525481
 30
0.0
 10
-17.50000000000004
 20
24.92376152841206
 30
0.0
 10
-17.50000000000004
 20
24.24925301156959
 30
0.0
  0
SPLINE
  5
CABB
330
CA7B
100
AcDbEntity
  8
0
100
AcDbSpline
210
0.0
220
0.0
230
1.0
 70
     8
 71
     3
 72
    11
 73
     7
 74
     0
 42
0.000000001
 43
0.0000000001
 40
0.6929633215164541
 40
0.6929633215164541
 40
0.6929633215164541
 40
0.6929633215164541
 40
0.8649350770691569
 40
0.8649350770691569
 40
0.8649350770691569
 40
1.0
 40
1.0
 40
1.0
 40
1.0
 10
17.68702953183051
 20
74.08066694697048
 30
0.0
 10
17.92259161675266
 20
74.12401144857958
 30
0.0
 10
18.17117172657478
 20
74.18723186165576
 30
0.0
 10
18.42472347275042
 20
74.27070831940598
 30
0.0
 10
18.62386051677332
 20
74.33626990710007
 30
0.0
 10
18.81796694524393
 20
74.41308561297521
 30
0.0
 10
19.00000000000011
 20
74.49999999999997
 30
0.0
  0
SPLINE
  5
CABC
330
CA7B
100
AcDbEntity
  8
0
100
AcDbSpline
210
0.0
220
0.0
230
1.0
 70
     8
 71
     3
 72
    11
 73
     7
 74
     0
 42
0.000000001
 43
0.0000000001
 40
-1.0
 40
-1.0
 40
-1.0
 40
-1.0
 40
-0.864935077069016
 40
-0.864935077069016
 40
-0.864935077069016
 40
0.0
 40
0.0
 40
0.0
 40
0.0
 10
17.50000000000012
 20
78.49999999999994
 30
0.0
 10
17.50000000000012
 20
78.58691438702471
 30
0.0
 10
17.50838271405303
 20
78.6637300928999
 30
0.0
 10
17.5278368876723
 20
78.72929168059409
 30
0.0
 10
17.65241843552026
 20
79.14913804539757
 30
0.0
 10
18.41714410067361
 20
79.05658642087271
 30
0.0
 10
19.00000000000012
 20
78.50000000000005
 30
0.0
  0
ARC
  5
CABD
330
CA7B
100
AcDbEntity
  8
0
100
AcDbCircle
 10
17.50000000000016
 20
76.49999999999998
 30
0.0
 40
2.5
100
AcDbArc
 50
306.8698976458426
 51
53.13010235415735
  0
ARC
  5
CABE
330
CA7B
100
AcDbEntity
  8
0
100
AcDbCircle
 10
32.50000000000017
 20
76.49999999999998
 30
0.0
 40
5.5
100
AcDbArc
 50
291.4355588797964
 51
248.5644411202037
  0
LINE
  5
CABF
330
CA7B
100
AcDbEntity
  8
0
100
AcDbLine
 10
34.51000000000018
 20
71.38043947198588
 30
0.0
 11
34.51000000000017
 21
67.99999999999998
 31
0.0
  0
LINE
  5
CAC0
330
CA7B
100
AcDbEntity
  8
0
100
AcDbLine
 10
34.51000000000017
 20
67.99999999999998
 30
0.0
 11
34.50508000000017
 21
67.99999999999998
 31
0.0
  0
LINE
  5
CAC1
330
CA7B
100
AcDbEntity
  8
0
100
AcDbLine
 10
30.49492000000017
 20
67.99999999999998
 30
0.0
 11
30.49000000000017
 21
67.99999999999998
 31
0.0
  0
LINE
  5
CAC2
330
CA7B
100
AcDbEntity
  8
0
100
AcDbLine
 10
30.49000000000017
 20
67.99999999999998
 30
0.0
 11
30.49000000000018
 21
71.38043947198588
 31
0.0
  0
SPLINE
  5
CAC3
330
CA7B
100
AcDbEntity
  8
0
100
AcDbSpline
210
0.0
220
0.0
230
1.0
 70
     8
 71
     3
 72
     8
 73
     4
 74
     0
 42
0.000000001
 43
0.0000000001
 40
0.0
 40
0.0
 40
0.0
 40
0.0
 40
0.3070366784835558
 40
0.3070366784835558
 40
0.3070366784835558
 40
0.3070366784835558
 10
19.00000000000011
 20
78.50000000000005
 30
0.0
 10
18.58619289676598
 20
78.69757835065835
 30
0.0
 10
18.12655007946426
 20
78.83668253397463
 30
0.0
 10
17.69461252515097
 20
78.91514915798054
 30
0.0
  0
SPLINE
  5
CAC4
330
CA7B
100
AcDbEntity
  8
0
100
AcDbSpline
210
0.0
220
0.0
230
1.0
 70
     8
 71
     3
 72
    11
 73
     7
 74
     0
 42
0.000000001
 43
0.0000000001
 40
-1.0
 40
-1.0
 40
-1.0
 40
-1.0
 40
-0.8649350770691569
 40
-0.8649350770691569
 40
-0.8649350770691569
 40
0.0
 40
0.0
 40
0.0
 40
0.0
 10
19.00000000000011
 20
74.49999999999997
 30
0.0
 10
18.90898347262202
 20
74.41308561297521
 30
0.0
 10
18.81193025838672
 20
74.33626990710007
 30
0.0
 10
18.71236173637527
 20
74.27070831940598
 30
0.0
 10
18.07474017341972
 20
73.85086195460262
 30
0.0
 10
17.50000000000011
 20
73.94341357912705
 30
0.0
 10
17.50000000000011
 20
74.5
 30
0.0
  0
LINE
  5
CAC5
330
CA7B
100
AcDbEntity
  8
0
100
AcDbLine
 10
-17.50000000000004
 20
114.0
 30
0.0
 11
-19.00000000000004
 21
114.0
 31
0.0
  0
LINE
  5
CAC6
330
CA7B
100
AcDbEntity
  8
0
100
AcDbLine
 10
17.50000000000017
 20
114.0
 30
0.0
 11
19.00000000000018
 21
114.0
 31
0.0
  0
LINE
  5
CAC7
330
CA7B
100
AcDbEntity
  8
0
100
AcDbLine
 10
-19.00000000000004
 20
114.0
 30
0.0
 11
-39.0
 21
113.9999999999998
 31
0.0
  0
LINE
  5
CAC8
330
CA7B
100
AcDbEntity
  8
0
100
AcDbLine
 10
-45.0
 20
108.0
 30
0.0
 11
-45.0
 21
50.19051317993765
 31
0.0
  0
LINE
  5
CAC9
330
CA7B
100
AcDbEntity
  8
0
100
AcDbLine
 10
45.00000000000007
 20
50.1905131799377
 30
0.0
 11
45.00000000000017
 21
108.0
 31
0.0
  0
LINE
  5
CACA
330
CA7B
100
AcDbEntity
  8
0
100
AcDbLine
 10
19.00000000000018
 20
114.0
 30
0.0
 11
39.00000000000019
 21
113.9999999999997
 31
0.0
  0
CIRCLE
  5
CACB
330
CA7B
100
AcDbEntity
  8
0
100
AcDbCircle
 10
36.00000000000018
 20
96.49999999999998
 30
0.0
 40
2.5
  0
CIRCLE
  5
CACC
330
CA7B
100
AcDbEntity
  8
0
100
AcDbCircle
 10
26.00000000000018
 20
106.5
 30
0.0
 40
2.5
  0
CIRCLE
  5
CACD
330
CA7B
100
AcDbEntity
  8
0
100
AcDbCircle
 10
26.00000000000018
 20
86.49999999999998
 30
0.0
 40
2.5
  0
CIRCLE
  5
CACE
330
CA7B
100
AcDbEntity
  8
0
100
AcDbCircle
 10
26.00000000000018
 20
46.49999999999998
 30
0.0
 40
2.5
  0
CIRCLE
  5
CACF
330
CA7B
100
AcDbEntity
  8
0
100
AcDbCircle
 10
26.00000000000018
 20
66.49999999999998
 30
0.0
 40
2.5
  0
CIRCLE
  5
CAD0
330
CA7B
100
AcDbEntity
  8
0
100
AcDbCircle
 10
36.00000000000018
 20
56.49999999999998
 30
0.0
 40
2.5
  0
LINE
  5
CAD1
330
CA7B
100
AcDbEntity
  8
0
100
AcDbLine
 10
34.50508000000017
 20
67.99999999999998
 30
0.0
 11
34.50508000000017
 21
67.99491999999999
 31
0.0
  0
LINE
  5
CAD2
330
CA7B
100
AcDbEntity
  8
0
100
AcDbLine
 10
34.50508000000017
 20
67.99491999999999
 30
0.0
 11
34.50000000000017
 21
67.99491999999999
 31
0.0
  0
LINE
  5
CAD3
330
CA7B
100
AcDbEntity
  8
0
100
AcDbLine
 10
34.50000000000017
 20
67.99491999999999
 30
0.0
 11
34.50000000000017
 21
67.99999999999998
 31
0.0
  0
LINE
  5
CAD4
330
CA7B
100
AcDbEntity
  8
0
100
AcDbLine
 10
30.50000000000017
 20
67.99999999999998
 30
0.0
 11
30.50000000000017
 21
67.99491999999999
 31
0.0
  0
LINE
  5
CAD5
330
CA7B
100
AcDbEntity
  8
0
100
AcDbLine
 10
30.50000000000017
 20
67.99491999999999
 30
0.0
 11
30.49492000000017
 21
67.99491999999999
 31
0.0
  0
LINE
  5
CAD6
330
CA7B
100
AcDbEntity
  8
0
100
AcDbLine
 10
30.49492000000017
 20
67.99491999999999
 30
0.0
 11
30.49492000000017
 21
67.99999999999998
 31
0.0
  0
LINE
  5
CAD7
330
CA7B
100
AcDbEntity
  8
0
100
AcDbLine
 10
30.50000000000017
 20
70.99999999999998
 30
0.0
 11
34.50000000000017
 21
70.99999999999998
 31
0.0
  0
LINE
  5
CAD8
330
CA7B
100
AcDbEntity
  8
0
100
AcDbLine
 10
30.50000000000017
 20
68.0
 30
0.0
 11
30.50000000000022
 21
70.99999999999998
 31
0.0
  0
LINE
  5
CAD9
330
CA7B
100
AcDbEntity
  8
0
100
AcDbLine
 10
34.50000000000017
 20
70.99999999999998
 30
0.0
 11
34.50000000000018
 21
67.99999999999998
 31
0.0
  0
SPLINE
  5
CADA
330
CA7B
100
AcDbEntity
  8
0
100
AcDbSpline
210
0.0
220
0.0
230
1.0
 70
     8
 71
     3
 72
     8
 73
     4
 74
     0
 42
0.000000001
 43
0.0000000001
 40
0.0
 40
0.0
 40
0.0
 40
0.0
 40
1.0
 40
1.0
 40
1.0
 40
1.0
 10
-12.02500000000001
 20
1.500000000000004
 30
0.0
 10
-12.85000000000014
 20
0.7146018366025502
 30
0.0
 10
-13.67499999999996
 20
0.0000000000000053
 30
0.0
 10
-14.50000000000001
 20
0.000000000000005
 30
0.0
  0
LINE
  5
CADB
330
CA7B
100
AcDbEntity
  8
0
100
AcDbLine
 10
-6.250000000000008
 20
8.50000000000001
 30
0.0
 11
-12.02500000000001
 21
1.500000000000004
 31
0.0
  0
SPLINE
  5
CADC
330
CA7B
100
AcDbEntity
  8
0
100
AcDbSpline
210
0.0
220
0.0
230
1.0
 70
     8
 71
     3
 72
     8
 73
     4
 74
     0
 42
0.000000001
 43
0.0000000001
 40
0.0
 40
0.0
 40
0.0
 40
0.0
 40
1.0
 40
1.0
 40
1.0
 40
1.0
 10
14.49999999999999
 20
0.0000000000000128
 30
0.0
 10
13.67500000000014
 20
0.0000000000000129
 30
0.0
 10
12.85000000000009
 20
0.7146018366025643
 30
0.0
 10
12.025
 20
1.500000000000011
 30
0.0
  0
LINE
  5
CADD
330
CA7B
100
AcDbEntity
  8
0
100
AcDbLine
 10
12.02499999999999
 20
1.500000000000012
 30
0.0
 11
6.249999999999989
 21
8.500000000000012
 31
0.0
  0
LINE
  5
CADE
330
CA7B
100
AcDbEntity
  8
0
100
AcDbLine
 10
6.249999999999989
 20
8.500000000000012
 30
0.0
 11
-6.250000000000008
 21
8.50000000000001
 31
0.0
  0
ARC
  5
CADF
330
CA7B
100
AcDbEntity
  8
0
100
AcDbCircle
 10
-14.50000000000001
 20
1.500000000000003
 30
0.0
 40
1.499999999999999
100
AcDbArc
 50
180.0
 51
270.0000000000002
  0
ARC
  5
CAE0
330
CA7B
100
AcDbEntity
  8
0
100
AcDbCircle
 10
14.49999999999999
 20
1.500000000000012
 30
0.0
 40
2.999999999999996
100
AcDbArc
 50
270.0
 51
0.0
  0
ARC
  5
CAE1
330
CA7B
100
AcDbEntity
  8
0
100
AcDbCircle
 10
14.49999999999999
 20
1.500000000000012
 30
0.0
 40
1.500000000000001
100
AcDbArc
 50
269.9999999999997
 51
0.0
  0
ARC
  5
CAE2
330
CA7B
100
AcDbEntity
  8
0
100
AcDbCircle
 10
-14.50000000000001
 20
1.500000000000003
 30
0.0
 40
2.999999999999996
100
AcDbArc
 50
180.0
 51
269.9999999999999
  0
ENDBLK
  5
CA7D
330
CA7B
100
AcDbEntity
  8
0
100
AcDbBlockEnd
  0
BLOCK
  5
CAE4
330
CAE3
100
AcDbEntity
  8
0
100
AcDbBlockBegin
  2
SBE32_114-Left
 70
     0
 10
0.0
 20
0.0
 30
0.0
  3
SBE32_114-Left
  1

  0
SPLINE
  5
CAE6
330
CAE3
100
AcDbEntity
  8
0
100
AcDbSpline
210
0.0
220
0.0
230
1.0
 70
     8
 71
     3
 72
    11
 73
     7
 74
     0
 42
0.000000001
 43
0.0000000001
 40
0.0
 40
0.0
 40
0.0
 40
0.0
 40
0.8649350770691569
 40
0.8649350770691569
 40
0.8649350770691569
 40
1.0
 40
1.0
 40
1.0
 40
1.0
 10
3.0
 20
74.5
 30
0.0
 10
2.417144100673356
 20
73.94341357912705
 30
0.0
 10
1.652418435519964
 20
73.85086195460262
 30
0.0
 10
1.527836887672129
 20
74.27070831940598
 30
0.0
 10
1.50838271405289
 20
74.33626990710007
 30
0.0
 10
1.5
 20
74.41308561297521
 30
0.0
 10
1.5
 20
74.49999999999997
 30
0.0
  0
ARC
  5
CAE7
330
CAE3
100
AcDbEntity
  8
0
100
AcDbCircle
 10
1.499999999999954
 20
76.49999999999998
 30
0.0
 40
2.5
100
AcDbArc
 50
306.8698976458453
 51
53.13010235415469
  0
SPLINE
  5
CAE8
330
CAE3
100
AcDbEntity
  8
0
100
AcDbSpline
210
0.0
220
0.0
230
1.0
 70
     8
 71
     3
 72
     8
 73
     4
 74
     0
 42
0.000000001
 43
0.0000000001
 40
-0.3070366784835585
 40
-0.3070366784835585
 40
-0.3070366784835585
 40
-0.3070366784835585
 40
0.0
 40
0.0
 40
0.0
 40
0.0
 10
1.694612525150844
 20
74.08485084201948
 30
0.0
 10
2.126550079464118
 20
74.16331746602536
 30
0.0
 10
2.586192896765842
 20
74.30242164934165
 30
0.0
 10
2.999999999999999
 20
74.5
 30
0.0
  0
LINE
  5
CAE9
330
CAE3
100
AcDbEntity
  8
0
100
AcDbLine
 10
1.500000000000001
 20
40.24206230927713
 30
0.0
 11
1.500000000000001
 21
26.27277856209688
 31
0.0
  0
ARC
  5
CAEA
330
CAE3
100
AcDbEntity
  8
0
100
AcDbCircle
 10
-1.5
 20
67.99999999999998
 30
0.0
 40
3.0
100
AcDbArc
 50
60.0000000000001
 51
90.00000000000039
  0
ARC
  5
CAEB
330
CAE3
100
AcDbEntity
  8
0
100
AcDbCircle
 10
-1.5
 20
67.99999999999998
 30
0.0
 40
1.5
100
AcDbArc
 50
0.0
 51
90.00000000000035
  0
LINE
  5
CAEC
330
CAE3
100
AcDbEntity
  8
0
100
AcDbLine
 10
0.0
 20
26.27277856209688
 30
0.0
 11
0.0
 21
40.24206230927714
 31
0.0
  0
SPLINE
  5
CAED
330
CAE3
100
AcDbEntity
  8
0
100
AcDbSpline
210
0.0
220
0.0
230
1.0
 70
     8
 71
     3
 72
    11
 73
     7
 74
     0
 42
0.000000001
 43
0.0000000001
 40
-1.0
 40
-1.0
 40
-1.0
 40
-1.0
 40
-0.864935077069016
 40
-0.864935077069016
 40
-0.864935077069016
 40
-0.6929633215164032
 40
-0.6929633215164032
 40
-0.6929633215164032
 40
-0.6929633215164032
 10
3.000000000000006
 20
78.49999999999994
 30
0.0
 10
2.81796694524363
 20
78.58691438702471
 30
0.0
 10
2.623860516772822
 20
78.6637300928999
 30
0.0
 10
2.424723472749711
 20
78.72929168059409
 30
0.0
 10
2.171171726574196
 20
78.81276813834431
 30
0.0
 10
1.922591616752206
 20
78.87598855142048
 30
0.0
 10
1.687029531830178
 20
78.91933305302956
 30
0.0
  0
SPLINE
  5
CAEE
330
CAE3
100
AcDbEntity
  8
0
100
AcDbSpline
210
0.0
220
0.0
230
1.0
 70
     8
 71
     3
 72
    11
 73
     7
 74
     0
 42
0.000000001
 43
0.0000000001
 40
0.0
 40
0.0
 40
0.0
 40
0.0
 40
0.864935077069016
 40
0.864935077069016
 40
0.864935077069016
 40
1.0
 40
1.0
 40
1.0
 40
1.0
 10
1.5
 20
78.50000000000005
 30
0.0
 10
1.500000000000002
 20
79.05658642087271
 30
0.0
 10
2.074740173419395
 20
79.14913804539757
 30
0.0
 10
2.712361736374856
 20
78.72929168059409
 30
0.0
 10
2.811930258386412
 20
78.6637300928999
 30
0.0
 10
2.908983472621815
 20
78.58691438702471
 30
0.0
 10
3.000000000000003
 20
78.49999999999994
 30
0.0
  0
SPLINE
  5
CAEF
330
CAE3
100
AcDbEntity
  8
0
100
AcDbSpline
210
0.0
220
0.0
230
1.0
 70
     8
 71
     3
 72
     8
 73
     4
 74
     0
 42
0.000000001
 43
0.0000000001
 40
0.0
 40
0.0
 40
0.0
 40
0.0
 40
1.0
 40
1.0
 40
1.0
 40
1.0
 10
1.5
 20
26.27277856209688
 30
0.0
 10
1.5
 20
25.59827004525481
 30
0.0
 10
2.214601836602561
 20
24.92376152841206
 30
0.0
 10
3.000000000000004
 20
24.24925301156959
 30
0.0
  0
SPLINE
  5
CAF0
330
CAE3
100
AcDbEntity
  8
0
100
AcDbSpline
210
0.0
220
0.0
230
1.0
 70
     8
 71
     3
 72
     8
 73
     4
 74
     0
 42
0.000000001
 43
0.0000000001
 40
-1.0
 40
-1.0
 40
-1.0
 40
-1.0
 40
0.0
 40
0.0
 40
0.0
 40
0.0
 10
3.000000000000007
 20
24.24925301156959
 30
0.0
 10
1.429203673205121
 20
24.92376152841206
 30
0.0
 10
0.0000000000000003
 20
25.59827004525482
 30
0.0
 10
0.0
 20
26.27277856209688
 30
0.0
  0
LINE
  5
CAF1
330
CAE3
100
AcDbEntity
  8
0
100
AcDbLine
 10
1.500000000000001
 20
26.27277856209688
 30
0.0
 11
1.090140682898365
 21
26.27277856209688
 31
0.0
  0
LINE
  5
CAF2
330
CAE3
100
AcDbEntity
  8
0
100
AcDbLine
 10
1.090140682898365
 20
26.27277856209688
 30
0.0
 11
0.0
 21
26.27277856209688
 31
0.0
  0
LINE
  5
CAF3
330
CAE3
100
AcDbEntity
  8
0
100
AcDbLine
 10
-8.999999999999985
 20
70.99999999999998
 30
0.0
 11
-6.999999999999984
 21
70.99999999999998
 31
0.0
  0
LINE
  5
CAF4
330
CAE3
100
AcDbEntity
  8
0
100
AcDbLine
 10
-6.999999999999984
 20
70.99999999999998
 30
0.0
 11
-1.499999999999994
 21
70.99999999999998
 31
0.0
  0
LINE
  5
CAF5
330
CAE3
100
AcDbEntity
  8
0
100
AcDbLine
 10
-8.999999999999985
 20
70.99999999999998
 30
0.0
 11
-8.999999999999985
 21
69.49999999999999
 31
0.0
  0
LINE
  5
CAF6
330
CAE3
100
AcDbEntity
  8
0
100
AcDbLine
 10
-6.999999999999984
 20
70.99999999999998
 30
0.0
 11
-6.999999999999984
 21
69.49999999999999
 31
0.0
  0
LINE
  5
CAF7
330
CAE3
100
AcDbEntity
  8
0
100
AcDbLine
 10
-1.499999999999994
 20
69.49999999999999
 30
0.0
 11
-6.999999999999984
 21
69.49999999999999
 31
0.0
  0
LINE
  5
CAF8
330
CAE3
100
AcDbEntity
  8
0
100
AcDbLine
 10
-6.999999999999984
 20
69.49999999999999
 30
0.0
 11
-8.999999999999985
 21
69.49999999999999
 31
0.0
  0
LINE
  5
CAF9
330
CAE3
100
AcDbEntity
  8
0
100
AcDbLine
 10
3.000000000000004
 20
24.24925301156958
 30
0.0
 11
3.000000000000001
 21
1.500000000000003
 31
0.0
  0
LINE
  5
CAFA
330
CAE3
100
AcDbEntity
  8
0
100
AcDbLine
 10
3.000000000000001
 20
114.0
 30
0.0
 11
1.5
 21
114.0
 31
0.0
  0
LINE
  5
CAFB
330
CAE3
100
AcDbEntity
  8
0
100
AcDbLine
 10
3.000000000000002
 20
-1.499999999999992
 30
0.0
 11
3.000000000000002
 21
1.500000000000003
 31
0.0
  0
LINE
  5
CAFC
330
CAE3
100
AcDbEntity
  8
0
100
AcDbLine
 10
54.0
 20
32.00610095525753
 30
0.0
 11
54.0
 21
1.500000000000003
 31
0.0
  0
LINE
  5
CAFD
330
CAE3
100
AcDbEntity
  8
0
100
AcDbLine
 10
3.000000000000001
 20
114.0
 30
0.0
 11
30.50000000000001
 21
114.0
 31
0.0
  0
LINE
  5
CAFE
330
CAE3
100
AcDbEntity
  8
0
100
AcDbLine
 10
54.0
 20
32.00610095525753
 30
0.0
 11
41.78968515835103
 21
40.24206230927724
 31
0.0
  0
LINE
  5
CAFF
330
CAE3
100
AcDbEntity
  8
0
100
AcDbLine
 10
36.5
 20
50.19051317993774
 30
0.0
 11
36.50000000000001
 21
108.0
 31
0.0
  0
ARC
  5
CB00
330
CAE3
100
AcDbEntity
  8
0
100
AcDbCircle
 10
48.5
 20
50.19051317993774
 30
0.0
 40
12.0
100
AcDbArc
 50
180.0
 51
236.0
  0
LINE
  5
CB01
330
CAE3
100
AcDbEntity
  8
0
100
AcDbLine
 10
1.5
 20
50.19051317993765
 30
0.0
 11
1.500000000000001
 21
40.24206230927714
 31
0.0
  0
LINE
  5
CB02
330
CAE3
100
AcDbEntity
  8
0
100
AcDbLine
 10
0.0
 20
40.24206230927714
 30
0.0
 11
0.0
 21
50.19051317993765
 31
0.0
  0
LINE
  5
CB03
330
CAE3
100
AcDbEntity
  8
0
100
AcDbLine
 10
30.50000000000001
 20
114.0
 30
0.0
 11
36.50000000000001
 21
108.0
 31
0.0
  0
LINE
  5
CB04
330
CAE3
100
AcDbEntity
  8
0
100
AcDbLine
 10
0.0
 20
114.0
 30
0.0
 11
0.0
 21
108.0
 31
0.0
  0
LINE
  5
CB05
330
CAE3
100
AcDbEntity
  8
0
100
AcDbLine
 10
0.0
 20
108.0
 30
0.0
 11
1.499999999999996
 21
108.0
 31
0.0
  0
LINE
  5
CB06
330
CAE3
100
AcDbEntity
  8
0
100
AcDbLine
 10
1.499999999999996
 20
108.0
 30
0.0
 11
1.499999999999997
 21
113.9999999999998
 31
0.0
  0
LINE
  5
CB07
330
CAE3
100
AcDbEntity
  8
0
100
AcDbLine
 10
1.499999999999997
 20
113.9999999999998
 30
0.0
 11
0.0
 21
114.0
 31
0.0
  0
CIRCLE
  5
CB08
330
CAE3
100
AcDbEntity
  8
0
100
AcDbCircle
 10
29.00000000000001
 20
66.5
 30
0.0
 40
2.5
  0
CIRCLE
  5
CB09
330
CAE3
100
AcDbEntity
  8
0
100
AcDbCircle
 10
29.00000000000001
 20
106.5
 30
0.0
 40
2.5
  0
CIRCLE
  5
CB0A
330
CAE3
100
AcDbEntity
  8
0
100
AcDbCircle
 10
29.00000000000001
 20
86.5
 30
0.0
 40
2.5
  0
CIRCLE
  5
CB0B
330
CAE3
100
AcDbEntity
  8
0
100
AcDbCircle
 10
29.00000000000001
 20
46.5
 30
0.0
 40
2.5
  0
LINE
  5
CB0C
330
CAE3
100
AcDbEntity
  8
0
100
AcDbLine
 10
1.499999999999996
 20
108.0
 30
0.0
 11
1.499999999999997
 21
50.19051317993765
 31
0.0
  0
LINE
  5
CB0D
330
CAE3
100
AcDbEntity
  8
0
100
AcDbLine
 10
0.0
 20
108.0
 30
0.0
 11
0.0
 21
50.19051317993765
 31
0.0
  0
LINE
  5
CB0E
330
CAE3
100
AcDbEntity
  8
0
100
AcDbLine
 10
0.0
 20
1.500000000000004
 30
0.0
 11
1.090140682896969
 21
1.500000000000004
 31
0.0
  0
SPLINE
  5
CB0F
330
CAE3
100
AcDbEntity
  8
0
100
AcDbSpline
210
0.0
220
0.0
230
1.0
 70
     8
 71
     3
 72
     8
 73
     4
 74
     0
 42
0.000000001
 43
0.0000000001
 40
-1.0
 40
-1.0
 40
-1.0
 40
-1.0
 40
0.0
 40
0.0
 40
0.0
 40
0.0
 10
3.0
 20
-1.499999999999995
 30
0.0
 10
1.429203673205065
 20
-1.499999999999994
 30
0.0
 10
0.0000000000000016
 20
-0.070796326794905
 30
0.0
 10
0.0000000000000011
 20
1.500000000000003
 30
0.0
  0
SPLINE
  5
CB10
330
CAE3
100
AcDbEntity
  8
0
100
AcDbSpline
210
0.0
220
0.0
230
1.0
 70
     8
 71
     3
 72
     8
 73
     4
 74
     0
 42
0.000000001
 43
0.0000000001
 40
0.0
 40
0.0
 40
0.0
 40
0.0
 40
1.0
 40
1.0
 40
1.0
 40
1.0
 10
1.500000000000001
 20
1.500000000000004
 30
0.0
 10
1.500000000000001
 20
0.7146018366025502
 30
0.0
 10
2.214601836602533
 20
0.0000000000000053
 30
0.0
 10
3.0
 20
0.000000000000005
 30
0.0
  0
LINE
  5
CB11
330
CAE3
100
AcDbEntity
  8
0
100
AcDbLine
 10
1.090140682896969
 20
1.500000000000004
 30
0.0
 11
1.500000000000001
 21
1.500000000000004
 31
0.0
  0
LINE
  5
CB12
330
CAE3
100
AcDbEntity
  8
0
100
AcDbLine
 10
1.500000000000001
 20
8.50000000000001
 30
0.0
 11
1.500000000000001
 21
1.500000000000004
 31
0.0
  0
LINE
  5
CB13
330
CAE3
100
AcDbEntity
  8
0
100
AcDbLine
 10
0.0
 20
8.50000000000001
 30
0.0
 11
1.500000000000001
 21
8.50000000000001
 31
0.0
  0
LINE
  5
CB14
330
CAE3
100
AcDbEntity
  8
0
100
AcDbLine
 10
0.0
 20
1.500000000000004
 30
0.0
 11
0.0
 21
8.50000000000001
 31
0.0
  0
LINE
  5
CB15
330
CAE3
100
AcDbEntity
  8
0
100
AcDbLine
 10
54.0
 20
-1.49999999999999
 30
0.0
 11
3.000000000000007
 21
-1.499999999999992
 31
0.0
  0
LINE
  5
CB16
330
CAE3
100
AcDbEntity
  8
0
100
AcDbLine
 10
54.0
 20
-1.499999999999992
 30
0.0
 11
54.0
 21
1.500000000000003
 31
0.0
  0
ENDBLK
  5
CAE5
330
CAE3
100
AcDbEntity
  8
0
100
AcDbBlockEnd
  0
BLOCK
  5
CB18
330
CB17
100
AcDbEntity
  8
0
100
AcDbBlockBegin
  2
SBE32_114-Right
 70
     0
 10
0.0
 20
0.0
 30
0.0
  3
SBE32_114-Right
  1

  0
SPLINE
  5
CB1A
330
CB17
100
AcDbEntity
  8
0
100
AcDbSpline
210
0.0
220
0.0
230
1.0
 70
     8
 71
     3
 72
     8
 73
     4
 74
     0
 42
0.000000001
 43
0.0000000001
 40
-1.0
 40
-1.0
 40
-1.0
 40
-1.0
 40
0.0
 40
0.0
 40
0.0
 40
0.0
 10
-3.000000000000004
 20
24.24925301156959
 30
0.0
 10
-2.214601836602561
 20
24.92376152841206
 30
0.0
 10
-1.5
 20
25.59827004525481
 30
0.0
 10
-1.5
 20
26.27277856209688
 30
0.0
  0
LINE
  5
CB1B
330
CB17
100
AcDbEntity
  8
0
100
AcDbLine
 10
-1.500000000000001
 20
26.27277856209688
 30
0.0
 11
-1.5
 21
40.2420623092772
 31
0.0
  0
LINE
  5
CB1C
330
CB17
100
AcDbEntity
  8
0
100
AcDbLine
 10
0.0
 20
40.2420623092772
 30
0.0
 11
0.0
 21
26.27277856209688
 31
0.0
  0
SPLINE
  5
CB1D
330
CB17
100
AcDbEntity
  8
0
100
AcDbSpline
210
0.0
220
0.0
230
1.0
 70
     8
 71
     3
 72
     8
 73
     4
 74
     0
 42
0.000000001
 43
0.0000000001
 40
0.0
 40
0.0
 40
0.0
 40
0.0
 40
1.0
 40
1.0
 40
1.0
 40
1.0
 10
0.0
 20
26.27277856209688
 30
0.0
 10
-0.0000000000000003
 20
25.59827004525482
 30
0.0
 10
-1.429203673205121
 20
24.92376152841206
 30
0.0
 10
-3.000000000000007
 20
24.24925301156959
 30
0.0
  0
LINE
  5
CB1E
330
CB17
100
AcDbEntity
  8
0
100
AcDbLine
 10
-1.500000000000001
 20
26.27277856209688
 30
0.0
 11
-1.090140682898365
 21
26.27277856209688
 31
0.0
  0
LINE
  5
CB1F
330
CB17
100
AcDbEntity
  8
0
100
AcDbLine
 10
-1.090140682898365
 20
26.27277856209688
 30
0.0
 11
0.0
 21
26.27277856209688
 31
0.0
  0
ARC
  5
CB20
330
CB17
100
AcDbEntity
  8
0
100
AcDbCircle
 10
-1.499999999999954
 20
76.49999999999998
 30
0.0
 40
2.5
100
AcDbArc
 50
126.8698976458451
 51
233.1301023541547
  0
SPLINE
  5
CB21
330
CB17
100
AcDbEntity
  8
0
100
AcDbSpline
210
0.0
220
0.0
230
1.0
 70
     8
 71
     3
 72
     8
 73
     4
 74
     0
 42
0.000000001
 43
0.0000000001
 40
0.0
 40
0.0
 40
0.0
 40
0.0
 40
0.3070366784835801
 40
0.3070366784835801
 40
0.3070366784835801
 40
0.3070366784835801
 10
-2.999999999999999
 20
74.5
 30
0.0
 10
-2.586192896765813
 20
74.30242164934163
 30
0.0
 10
-2.126550079464054
 20
74.16331746602534
 30
0.0
 10
-1.694612525150753
 20
74.08485084201945
 30
0.0
  0
SPLINE
  5
CB22
330
CB17
100
AcDbEntity
  8
0
100
AcDbSpline
210
0.0
220
0.0
230
1.0
 70
     8
 71
     3
 72
    11
 73
     7
 74
     0
 42
0.000000001
 43
0.0000000001
 40
-1.0
 40
-1.0
 40
-1.0
 40
-1.0
 40
-0.864935077069016
 40
-0.864935077069016
 40
-0.864935077069016
 40
0.0
 40
0.0
 40
0.0
 40
0.0
 10
-3.000000000000003
 20
78.49999999999994
 30
0.0
 10
-2.908983472621815
 20
78.58691438702471
 30
0.0
 10
-2.811930258386412
 20
78.6637300928999
 30
0.0
 10
-2.712361736374856
 20
78.72929168059409
 30
0.0
 10
-2.074740173419395
 20
79.14913804539757
 30
0.0
 10
-1.500000000000002
 20
79.05658642087271
 30
0.0
 10
-1.5
 20
78.50000000000005
 30
0.0
  0
LINE
  5
CB23
330
CB17
100
AcDbEntity
  8
0
100
AcDbLine
 10
6.999999999999984
 20
70.99999999999998
 30
0.0
 11
8.999999999999985
 21
70.99999999999998
 31
0.0
  0
LINE
  5
CB24
330
CB17
100
AcDbEntity
  8
0
100
AcDbLine
 10
1.499999999999994
 20
70.99999999999998
 30
0.0
 11
6.999999999999984
 21
70.99999999999998
 31
0.0
  0
LINE
  5
CB25
330
CB17
100
AcDbEntity
  8
0
100
AcDbLine
 10
6.999999999999984
 20
70.99999999999998
 30
0.0
 11
6.999999999999984
 21
69.49999999999999
 31
0.0
  0
LINE
  5
CB26
330
CB17
100
AcDbEntity
  8
0
100
AcDbLine
 10
8.999999999999985
 20
69.49999999999999
 30
0.0
 11
6.999999999999984
 21
69.49999999999999
 31
0.0
  0
LINE
  5
CB27
330
CB17
100
AcDbEntity
  8
0
100
AcDbLine
 10
8.999999999999985
 20
70.99999999999998
 30
0.0
 11
8.999999999999985
 21
69.49999999999999
 31
0.0
  0
SPLINE
  5
CB28
330
CB17
100
AcDbEntity
  8
0
100
AcDbSpline
210
0.0
220
0.0
230
1.0
 70
     8
 71
     3
 72
    11
 73
     7
 74
     0
 42
0.000000001
 43
0.0000000001
 40
0.6929633215164274
 40
0.6929633215164274
 40
0.6929633215164274
 40
0.6929633215164274
 40
0.864935077069016
 40
0.864935077069016
 40
0.864935077069016
 40
1.0
 40
1.0
 40
1.0
 40
1.0
 10
-1.687029531830277
 20
78.91933305302956
 30
0.0
 10
-1.922591616752276
 20
78.87598855142048
 30
0.0
 10
-2.171171726574231
 20
78.81276813834431
 30
0.0
 10
-2.424723472749711
 20
78.72929168059409
 30
0.0
 10
-2.623860516772822
 20
78.6637300928999
 30
0.0
 10
-2.81796694524363
 20
78.58691438702471
 30
0.0
 10
-3.000000000000006
 20
78.49999999999994
 30
0.0
  0
SPLINE
  5
CB29
330
CB17
100
AcDbEntity
  8
0
100
AcDbSpline
210
0.0
220
0.0
230
1.0
 70
     8
 71
     3
 72
    11
 73
     7
 74
     0
 42
0.000000001
 43
0.0000000001
 40
-1.0
 40
-1.0
 40
-1.0
 40
-1.0
 40
-0.8649350770691569
 40
-0.8649350770691569
 40
-0.8649350770691569
 40
0.0
 40
0.0
 40
0.0
 40
0.0
 10
-1.5
 20
74.49999999999997
 30
0.0
 10
-1.5
 20
74.41308561297521
 30
0.0
 10
-1.50838271405289
 20
74.33626990710007
 30
0.0
 10
-1.527836887672129
 20
74.27070831940598
 30
0.0
 10
-1.652418435519964
 20
73.85086195460262
 30
0.0
 10
-2.417144100673356
 20
73.94341357912705
 30
0.0
 10
-3.0
 20
74.5
 30
0.0
  0
LINE
  5
CB2A
330
CB17
100
AcDbEntity
  8
0
100
AcDbLine
 10
6.999999999999984
 20
69.49999999999999
 30
0.0
 11
1.499999999999994
 21
69.49999999999999
 31
0.0
  0
LINE
  5
CB2B
330
CB17
100
AcDbEntity
  8
0
100
AcDbLine
 10
-30.50000000000001
 20
114.0
 30
0.0
 11
-3.000000000000002
 21
114.0
 31
0.0
  0
LINE
  5
CB2C
330
CB17
100
AcDbEntity
  8
0
100
AcDbLine
 10
-54.0
 20
1.500000000000007
 30
0.0
 11
-54.0
 21
32.00610095525753
 31
0.0
  0
LINE
  5
CB2D
330
CB17
100
AcDbEntity
  8
0
100
AcDbLine
 10
-36.50000000000001
 20
108.0
 30
0.0
 11
-30.50000000000001
 21
114.0
 31
0.0
  0
LINE
  5
CB2E
330
CB17
100
AcDbEntity
  8
0
100
AcDbLine
 10
0.0
 20
108.0
 30
0.0
 11
0.0
 21
113.9999999999997
 31
0.0
  0
LINE
  5
CB2F
330
CB17
100
AcDbEntity
  8
0
100
AcDbLine
 10
0.0
 20
113.9999999999997
 30
0.0
 11
-1.5
 21
113.9999999999997
 31
0.0
  0
LINE
  5
CB30
330
CB17
100
AcDbEntity
  8
0
100
AcDbLine
 10
-1.5
 20
113.9999999999997
 30
0.0
 11
-1.499999999999999
 21
108.0
 31
0.0
  0
LINE
  5
CB31
330
CB17
100
AcDbEntity
  8
0
100
AcDbLine
 10
-1.499999999999999
 20
108.0
 30
0.0
 11
0.0
 21
108.0
 31
0.0
  0
LINE
  5
CB32
330
CB17
100
AcDbEntity
  8
0
100
AcDbLine
 10
-36.50000000000001
 20
108.0
 30
0.0
 11
-36.5
 21
50.19051317993774
 31
0.0
  0
LINE
  5
CB33
330
CB17
100
AcDbEntity
  8
0
100
AcDbLine
 10
-41.78968515835103
 20
40.24206230927724
 30
0.0
 11
-54.0
 21
32.00610095525753
 31
0.0
  0
ARC
  5
CB34
330
CB17
100
AcDbEntity
  8
0
100
AcDbCircle
 10
-48.5
 20
50.19051317993774
 30
0.0
 40
12.0
100
AcDbArc
 50
304.0
 51
0.0
  0
LINE
  5
CB35
330
CB17
100
AcDbEntity
  8
0
100
AcDbLine
 10
-1.500000000000001
 20
40.2420623092772
 30
0.0
 11
-1.500000000000001
 21
50.1905131799377
 31
0.0
  0
LINE
  5
CB36
330
CB17
100
AcDbEntity
  8
0
100
AcDbLine
 10
0.0
 20
50.1905131799377
 30
0.0
 11
0.0
 21
40.2420623092772
 31
0.0
  0
LINE
  5
CB37
330
CB17
100
AcDbEntity
  8
0
100
AcDbLine
 10
-3.000000000000001
 20
1.500000000000007
 30
0.0
 11
-3.000000000000004
 21
24.24925301156958
 31
0.0
  0
LINE
  5
CB38
330
CB17
100
AcDbEntity
  8
0
100
AcDbLine
 10
-3.000000000000001
 20
114.0
 30
0.0
 11
-1.5
 21
114.0
 31
0.0
  0
LINE
  5
CB39
330
CB17
100
AcDbEntity
  8
0
100
AcDbLine
 10
-3.000000000000002
 20
1.500000000000007
 30
0.0
 11
-3.000000000000002
 21
-1.499999999999985
 31
0.0
  0
CIRCLE
  5
CB3A
330
CB17
100
AcDbEntity
  8
0
100
AcDbCircle
 10
-29.00000000000001
 20
36.50000000000001
 30
0.0
 40
2.5
  0
CIRCLE
  5
CB3B
330
CB17
100
AcDbEntity
  8
0
100
AcDbCircle
 10
-29.00000000000001
 20
76.5
 30
0.0
 40
2.5
  0
CIRCLE
  5
CB3C
330
CB17
100
AcDbEntity
  8
0
100
AcDbCircle
 10
-29.00000000000001
 20
96.5
 30
0.0
 40
2.5
  0
CIRCLE
  5
CB3D
330
CB17
100
AcDbEntity
  8
0
100
AcDbCircle
 10
-29.00000000000001
 20
56.5
 30
0.0
 40
2.5
  0
LINE
  5
CB3E
330
CB17
100
AcDbEntity
  8
0
100
AcDbLine
 10
-1.499999999999999
 20
50.1905131799377
 30
0.0
 11
-1.499999999999999
 21
108.0
 31
0.0
  0
LINE
  5
CB3F
330
CB17
100
AcDbEntity
  8
0
100
AcDbLine
 10
0.0
 20
50.1905131799377
 30
0.0
 11
0.0
 21
108.0
 31
0.0
  0
SPLINE
  5
CB40
330
CB17
100
AcDbEntity
  8
0
100
AcDbSpline
210
0.0
220
0.0
230
1.0
 70
     8
 71
     3
 72
     8
 73
     4
 74
     0
 42
0.000000001
 43
0.0000000001
 40
-1.0
 40
-1.0
 40
-1.0
 40
-1.0
 40
0.0
 40
0.0
 40
0.0
 40
0.0
 10
-0.0000000000000011
 20
1.500000000000011
 30
0.0
 10
-0.000000000000001
 20
-0.0707963267948833
 30
0.0
 10
-1.4292036732051
 20
-1.499999999999986
 30
0.0
 10
-2.999999999999998
 20
-1.499999999999987
 30
0.0
  0
LINE
  5
CB41
330
CB17
100
AcDbEntity
  8
0
100
AcDbLine
 10
0.0
 20
1.500000000000012
 30
0.0
 11
-1.090140682897047
 21
1.500000000000012
 31
0.0
  0
LINE
  5
CB42
330
CB17
100
AcDbEntity
  8
0
100
AcDbLine
 10
-1.090140682897047
 20
1.500000000000012
 30
0.0
 11
-1.500000000000001
 21
1.500000000000012
 31
0.0
  0
SPLINE
  5
CB43
330
CB17
100
AcDbEntity
  8
0
100
AcDbSpline
210
0.0
220
0.0
230
1.0
 70
     8
 71
     3
 72
     8
 73
     4
 74
     0
 42
0.000000001
 43
0.0000000001
 40
0.0
 40
0.0
 40
0.0
 40
0.0
 40
1.0
 40
1.0
 40
1.0
 40
1.0
 10
-2.999999999999999
 20
0.0000000000000128
 30
0.0
 10
-2.21460183660255
 20
0.0000000000000129
 30
0.0
 10
-1.500000000000001
 20
0.7146018366025643
 30
0.0
 10
-1.500000000000001
 20
1.500000000000011
 30
0.0
  0
LINE
  5
CB44
330
CB17
100
AcDbEntity
  8
0
100
AcDbLine
 10
-1.500000000000001
 20
1.500000000000012
 30
0.0
 11
-1.500000000000001
 21
8.500000000000012
 31
0.0
  0
LINE
  5
CB45
330
CB17
100
AcDbEntity
  8
0
100
AcDbLine
 10
0.0
 20
8.500000000000012
 30
0.0
 11
0.0
 21
1.500000000000012
 31
0.0
  0
LINE
  5
CB46
330
CB17
100
AcDbEntity
  8
0
100
AcDbLine
 10
-1.500000000000001
 20
8.500000000000012
 30
0.0
 11
0.0
 21
8.500000000000012
 31
0.0
  0
LINE
  5
CB47
330
CB17
100
AcDbEntity
  8
0
100
AcDbLine
 10
-54.0
 20
-1.499999999999983
 30
0.0
 11
-3.000000000000007
 21
-1.499999999999985
 31
0.0
  0
LINE
  5
CB48
330
CB17
100
AcDbEntity
  8
0
100
AcDbLine
 10
-54.0
 20
1.500000000000008
 30
0.0
 11
-54.0
 21
-1.499999999999983
 31
0.0
  0
ARC
  5
CB49
330
CB17
100
AcDbEntity
  8
0
100
AcDbCircle
 10
1.5
 20
67.99999999999998
 30
0.0
 40
3.0
100
AcDbArc
 50
89.99999999999969
 51
119.9999999999999
  0
ARC
  5
CB4A
330
CB17
100
AcDbEntity
  8
0
100
AcDbCircle
 10
1.5
 20
67.99999999999998
 30
0.0
 40
1.5
100
AcDbArc
 50
89.99999999999973
 51
180.0
  0
ENDBLK
  5
CB19
330
CB17
100
AcDbEntity
  8
0
100
AcDbBlockEnd
  0
BLOCK
  5
CB4C
330
CB4B
100
AcDbEntity
  8
0
100
AcDbBlockBegin
  2
SBE32_114-Top
 70
     0
 10
0.0
 20
0.0
 30
0.0
  3
SBE32_114-Top
  1

  0
LINE
  5
CB4E
330
CB4B
100
AcDbEntity
  8
0
100
AcDbLine
 10
17.50000000000017
 20
-30.50000000000001
 30
0.0
 11
17.50000000000017
 21
-3.000000000000002
 31
0.0
  0
LINE
  5
CB4F
330
CB4B
100
AcDbEntity
  8
0
100
AcDbLine
 10
-17.50000000000004
 20
-3.000000000000001
 30
0.0
 11
-17.50000000000004
 21
-30.50000000000001
 31
0.0
  0
LINE
  5
CB50
330
CB4B
100
AcDbEntity
  8
0
100
AcDbLine
 10
16.00000000000017
 20
-3.000000000000001
 30
0.0
 11
16.00000000000017
 21
-30.50000000000001
 31
0.0
  0
LINE
  5
CB51
330
CB4B
100
AcDbEntity
  8
0
100
AcDbLine
 10
-16.00000000000004
 20
-3.000000000000001
 30
0.0
 11
-16.00000000000004
 21
-30.50000000000001
 31
0.0
  0
LINE
  5
CB52
330
CB4B
100
AcDbEntity
  8
0
100
AcDbLine
 10
-14.5
 20
-54.0
 30
0.0
 11
14.49999999999998
 21
-54.0
 31
0.0
  0
LINE
  5
CB53
330
CB4B
100
AcDbEntity
  8
0
100
AcDbLine
 10
17.50000000000016
 20
-36.50000000000001
 30
0.0
 11
17.50000000000017
 21
-30.50000000000001
 31
0.0
  0
LINE
  5
CB54
330
CB4B
100
AcDbEntity
  8
0
100
AcDbLine
 10
-17.50000000000004
 20
-30.50000000000001
 30
0.0
 11
-17.50000000000004
 21
-36.50000000000001
 31
0.0
  0
LINE
  5
CB55
330
CB4B
100
AcDbEntity
  8
0
100
AcDbLine
 10
16.00000000000017
 20
-30.50000000000001
 30
0.0
 11
16.00000000000016
 21
-36.50000000000001
 31
0.0
  0
LINE
  5
CB56
330
CB4B
100
AcDbEntity
  8
0
100
AcDbLine
 10
-16.00000000000004
 20
-36.50000000000001
 30
0.0
 11
-16.00000000000004
 21
-30.50000000000001
 31
0.0
  0
LINE
  5
CB57
330
CB4B
100
AcDbEntity
  8
0
100
AcDbLine
 10
-39.0
 20
0.0
 30
0.0
 11
-45.0
 21
0.0
 31
0.0
  0
LINE
  5
CB58
330
CB4B
100
AcDbEntity
  8
0
100
AcDbLine
 10
-45.0
 20
0.0
 30
0.0
 11
-45.0
 21
-1.499999999999996
 31
0.0
  0
LINE
  5
CB59
330
CB4B
100
AcDbEntity
  8
0
100
AcDbLine
 10
-45.0
 20
-1.499999999999996
 30
0.0
 11
-39.0
 21
-1.499999999999997
 31
0.0
  0
LINE
  5
CB5A
330
CB4B
100
AcDbEntity
  8
0
100
AcDbLine
 10
-39.0
 20
-1.499999999999997
 30
0.0
 11
-39.0
 21
0.0
 31
0.0
  0
LINE
  5
CB5B
330
CB4B
100
AcDbEntity
  8
0
100
AcDbLine
 10
-16.00000000000004
 20
-30.50000000000001
 30
0.0
 11
-17.50000000000004
 21
-30.50000000000001
 31
0.0
  0
LINE
  5
CB5C
330
CB4B
100
AcDbEntity
  8
0
100
AcDbLine
 10
-17.50000000000004
 20
-36.50000000000001
 30
0.0
 11
-16.00000000000004
 21
-36.50000000000001
 31
0.0
  0
LINE
  5
CB5D
330
CB4B
100
AcDbEntity
  8
0
100
AcDbLine
 10
17.50000000000017
 20
-30.50000000000001
 30
0.0
 11
16.00000000000017
 21
-30.50000000000001
 31
0.0
  0
LINE
  5
CB5E
330
CB4B
100
AcDbEntity
  8
0
100
AcDbLine
 10
16.00000000000016
 20
-36.50000000000001
 30
0.0
 11
17.50000000000016
 21
-36.50000000000001
 31
0.0
  0
LINE
  5
CB5F
330
CB4B
100
AcDbEntity
  8
0
100
AcDbLine
 10
45.00000000000017
 20
0.0
 30
0.0
 11
39.00000000000019
 21
0.0
 31
0.0
  0
LINE
  5
CB60
330
CB4B
100
AcDbEntity
  8
0
100
AcDbLine
 10
39.00000000000019
 20
0.0
 30
0.0
 11
39.00000000000019
 21
-1.5
 31
0.0
  0
LINE
  5
CB61
330
CB4B
100
AcDbEntity
  8
0
100
AcDbLine
 10
39.00000000000019
 20
-1.5
 30
0.0
 11
45.00000000000017
 21
-1.499999999999999
 31
0.0
  0
LINE
  5
CB62
330
CB4B
100
AcDbEntity
  8
0
100
AcDbLine
 10
45.00000000000017
 20
-1.499999999999999
 30
0.0
 11
45.00000000000017
 21
0.0
 31
0.0
  0
LINE
  5
CB63
330
CB4B
100
AcDbEntity
  8
0
100
AcDbLine
 10
17.49999999999996
 20
-41.78968515835103
 30
0.0
 11
17.49999999999997
 21
-36.49999999999999
 31
0.0
  0
LINE
  5
CB64
330
CB4B
100
AcDbEntity
  8
0
100
AcDbLine
 10
-17.5
 20
-36.49999999999999
 30
0.0
 11
-17.5
 21
-41.78968515835103
 31
0.0
  0
LINE
  5
CB65
330
CB4B
100
AcDbEntity
  8
0
100
AcDbLine
 10
15.99999999999998
 20
-36.49999999999999
 30
0.0
 11
15.99999999999996
 21
-41.78968515835103
 31
0.0
  0
LINE
  5
CB66
330
CB4B
100
AcDbEntity
  8
0
100
AcDbLine
 10
-15.99999999999999
 20
-41.78968515835103
 30
0.0
 11
-16.0
 21
-36.49999999999999
 31
0.0
  0
LINE
  5
CB67
330
CB4B
100
AcDbEntity
  8
0
100
AcDbLine
 10
17.50000000000006
 20
-41.78968515835103
 30
0.0
 11
17.50000000000004
 21
-54.0
 31
0.0
  0
LINE
  5
CB68
330
CB4B
100
AcDbEntity
  8
0
100
AcDbLine
 10
-17.50000000000001
 20
-54.0
 30
0.0
 11
-17.50000000000001
 21
-41.78968515835103
 31
0.0
  0
LINE
  5
CB69
330
CB4B
100
AcDbEntity
  8
0
100
AcDbLine
 10
16.00000000000004
 20
-54.0
 30
0.0
 11
16.00000000000006
 21
-41.78968515835103
 31
0.0
  0
LINE
  5
CB6A
330
CB4B
100
AcDbEntity
  8
0
100
AcDbLine
 10
-16.00000000000002
 20
-41.78968515835103
 30
0.0
 11
-16.00000000000001
 21
-54.0
 31
0.0
  0
LINE
  5
CB6B
330
CB4B
100
AcDbEntity
  8
0
100
AcDbLine
 10
17.50000000000004
 20
-54.0
 30
0.0
 11
16.00000000000004
 21
-54.0
 31
0.0
  0
LINE
  5
CB6C
330
CB4B
100
AcDbEntity
  8
0
100
AcDbLine
 10
-16.00000000000001
 20
-54.0
 30
0.0
 11
-17.50000000000001
 21
-54.0
 31
0.0
  0
ARC
  5
CB6D
330
CB4B
100
AcDbEntity
  8
0
100
AcDbCircle
 10
-19.00000000000004
 20
-3.000000000000001
 30
0.0
 40
1.500000000000001
100
AcDbArc
 50
0.0
 51
90.0
  0
ARC
  5
CB6E
330
CB4B
100
AcDbEntity
  8
0
100
AcDbCircle
 10
-19.00000000000004
 20
-3.000000000000001
 30
0.0
 40
3.000000000000002
100
AcDbArc
 50
0.0
 51
90.0
  0
ARC
  5
CB6F
330
CB4B
100
AcDbEntity
  8
0
100
AcDbCircle
 10
19.00000000000018
 20
-3.000000000000001
 30
0.0
 40
3.0
100
AcDbArc
 50
90.00000000000005
 51
180.0
  0
LINE
  5
CB70
330
CB4B
100
AcDbEntity
  8
0
100
AcDbLine
 10
-14.50000000000001
 20
-3.000000000000002
 30
0.0
 11
-16.0
 21
-3.000000000000002
 31
0.0
  0
ARC
  5
CB71
330
CB4B
100
AcDbEntity
  8
0
100
AcDbCircle
 10
19.00000000000018
 20
-3.000000000000001
 30
0.0
 40
1.500000000000001
100
AcDbArc
 50
90.00000000000007
 51
180.0
  0
LINE
  5
CB72
330
CB4B
100
AcDbEntity
  8
0
100
AcDbLine
 10
15.99999999999999
 20
-3.000000000000002
 30
0.0
 11
14.49999999999999
 21
-3.000000000000002
 31
0.0
  0
LINE
  5
CB73
330
CB4B
100
AcDbEntity
  8
0
100
AcDbLine
 10
-19.00000000000004
 20
-1.499999999999999
 30
0.0
 11
-39.0
 21
-1.499999999999997
 31
0.0
  0
LINE
  5
CB74
330
CB4B
100
AcDbEntity
  8
0
100
AcDbLine
 10
19.00000000000018
 20
-1.500000000000001
 30
0.0
 11
39.00000000000019
 21
-1.5
 31
0.0
  0
LINE
  5
CB75
330
CB4B
100
AcDbEntity
  8
0
100
AcDbLine
 10
-19.00000000000004
 20
0.0
 30
0.0
 11
-39.0
 21
0.0
 31
0.0
  0
LINE
  5
CB76
330
CB4B
100
AcDbEntity
  8
0
100
AcDbLine
 10
39.00000000000019
 20
0.0
 30
0.0
 11
19.00000000000018
 21
0.0
 31
0.0
  0
LINE
  5
CB77
330
CB4B
100
AcDbEntity
  8
0
100
AcDbLine
 10
-34.50000000000027
 20
0.0
 30
0.0
 11
-34.50000000000029
 21
1.500000000000019
 31
0.0
  0
LINE
  5
CB78
330
CB4B
100
AcDbEntity
  8
0
100
AcDbLine
 10
-30.50000000000015
 20
1.500000000000019
 30
0.0
 11
-30.50000000000018
 21
0.0
 31
0.0
  0
LINE
  5
CB79
330
CB4B
100
AcDbEntity
  8
0
100
AcDbLine
 10
-30.50000000000018
 20
1.499999999999994
 30
0.0
 11
-30.50000000000018
 21
6.999999999999984
 31
0.0
  0
LINE
  5
CB7A
330
CB4B
100
AcDbEntity
  8
0
100
AcDbLine
 10
-30.50000000000018
 20
6.999999999999984
 30
0.0
 11
-32.50000000000019
 21
8.999999999999985
 31
0.0
  0
LINE
  5
CB7B
330
CB4B
100
AcDbEntity
  8
0
100
AcDbLine
 10
-32.50000000000019
 20
8.999999999999985
 30
0.0
 11
-34.50000000000018
 21
6.999999999999984
 31
0.0
  0
LINE
  5
CB7C
330
CB4B
100
AcDbEntity
  8
0
100
AcDbLine
 10
-34.50000000000018
 20
6.999999999999984
 30
0.0
 11
-34.50000000000018
 21
1.499999999999994
 31
0.0
  0
ARC
  5
CB7D
330
CB4B
100
AcDbEntity
  8
0
100
AcDbCircle
 10
-25.32677949145491
 20
-7.495925238298273
 30
0.0
 40
5.000000000000005
100
AcDbArc
 50
8.999999999999902
 51
71.99999999999997
  0
LINE
  5
CB7E
330
CB4B
100
AcDbEntity
  8
0
100
AcDbLine
 10
-20.38833778847921
 20
-6.713752913097121
 30
0.0
 11
-17.51846748910732
 21
-24.83340086267731
 31
0.0
  0
LINE
  5
CB7F
330
CB4B
100
AcDbEntity
  8
0
100
AcDbLine
 10
-27.37405116892452
 20
-1.573415225557271
 30
0.0
 11
-23.78169451958016
 21
-2.740642656822502
 31
0.0
  0
LINE
  5
CB80
330
CB4B
100
AcDbEntity
  8
0
100
AcDbLine
 10
34.50000000000017
 20
6.999999999999984
 30
0.0
 11
32.50000000000017
 21
8.999999999999985
 31
0.0
  0
LINE
  5
CB81
330
CB4B
100
AcDbEntity
  8
0
100
AcDbLine
 10
32.50000000000017
 20
8.999999999999985
 30
0.0
 11
30.50000000000017
 21
6.999999999999984
 31
0.0
  0
LINE
  5
CB82
330
CB4B
100
AcDbEntity
  8
0
100
AcDbLine
 10
30.50000000000017
 20
6.999999999999984
 30
0.0
 11
30.50000000000017
 21
1.499999999999994
 31
0.0
  0
LINE
  5
CB83
330
CB4B
100
AcDbEntity
  8
0
100
AcDbLine
 10
34.50000000000017
 20
1.499999999999994
 30
0.0
 11
34.50000000000017
 21
6.999999999999984
 31
0.0
  0
LINE
  5
CB84
330
CB4B
100
AcDbEntity
  8
0
100
AcDbLine
 10
-12.02500000000001
 20
0.0
 30
0.0
 11
-12.02500000000001
 21
-1.090140682896969
 31
0.0
  0
SPLINE
  5
CB85
330
CB4B
100
AcDbEntity
  8
0
100
AcDbSpline
210
0.0
220
0.0
230
1.0
 70
     8
 71
     3
 72
     8
 73
     4
 74
     0
 42
0.000000001
 43
0.0000000001
 40
-1.0
 40
-1.0
 40
-1.0
 40
-1.0
 40
0.0
 40
0.0
 40
0.0
 40
0.0
 10
-14.50000000000001
 20
-3.0
 30
0.0
 10
-13.67499999999996
 20
-1.429203673205065
 30
0.0
 10
-12.85000000000014
 20
-0.0000000000000016
 30
0.0
 10
-12.02500000000001
 20
-0.0000000000000011
 30
0.0
  0
SPLINE
  5
CB86
330
CB4B
100
AcDbEntity
  8
0
100
AcDbSpline
210
0.0
220
0.0
230
1.0
 70
     8
 71
     3
 72
     8
 73
     4
 74
     0
 42
0.000000001
 43
0.0000000001
 40
0.0
 40
0.0
 40
0.0
 40
0.0
 40
1.0
 40
1.0
 40
1.0
 40
1.0
 10
-12.02500000000001
 20
-1.500000000000001
 30
0.0
 10
-12.85000000000014
 20
-1.500000000000001
 30
0.0
 10
-13.67499999999996
 20
-2.214601836602533
 30
0.0
 10
-14.50000000000001
 20
-3.0
 30
0.0
  0
LINE
  5
CB87
330
CB4B
100
AcDbEntity
  8
0
100
AcDbLine
 10
-12.02500000000001
 20
-1.090140682896969
 30
0.0
 11
-12.02500000000001
 21
-1.500000000000001
 31
0.0
  0
LINE
  5
CB88
330
CB4B
100
AcDbEntity
  8
0
100
AcDbLine
 10
-6.250000000000008
 20
-1.500000000000001
 30
0.0
 11
-12.02500000000001
 21
-1.500000000000001
 31
0.0
  0
LINE
  5
CB89
330
CB4B
100
AcDbEntity
  8
0
100
AcDbLine
 10
-6.250000000000008
 20
0.0
 30
0.0
 11
-6.250000000000008
 21
-1.500000000000001
 31
0.0
  0
LINE
  5
CB8A
330
CB4B
100
AcDbEntity
  8
0
100
AcDbLine
 10
-12.02500000000001
 20
0.0
 30
0.0
 11
-6.250000000000008
 21
0.0
 31
0.0
  0
SPLINE
  5
CB8B
330
CB4B
100
AcDbEntity
  8
0
100
AcDbSpline
210
0.0
220
0.0
230
1.0
 70
     8
 71
     3
 72
     8
 73
     4
 74
     0
 42
0.000000001
 43
0.0000000001
 40
-1.0
 40
-1.0
 40
-1.0
 40
-1.0
 40
0.0
 40
0.0
 40
0.0
 40
0.0
 10
12.025
 20
-0.0000000000000011
 30
0.0
 10
12.85000000000009
 20
-0.000000000000001
 30
0.0
 10
13.67500000000014
 20
-1.4292036732051
 30
0.0
 10
14.49999999999999
 20
-2.999999999999998
 30
0.0
  0
LINE
  5
CB8C
330
CB4B
100
AcDbEntity
  8
0
100
AcDbLine
 10
12.02499999999999
 20
0.0
 30
0.0
 11
12.02499999999999
 21
-1.090140682897047
 31
0.0
  0
LINE
  5
CB8D
330
CB4B
100
AcDbEntity
  8
0
100
AcDbLine
 10
12.02499999999999
 20
-1.090140682897047
 30
0.0
 11
12.02499999999999
 21
-1.500000000000001
 31
0.0
  0
SPLINE
  5
CB8E
330
CB4B
100
AcDbEntity
  8
0
100
AcDbSpline
210
0.0
220
0.0
230
1.0
 70
     8
 71
     3
 72
     8
 73
     4
 74
     0
 42
0.000000001
 43
0.0000000001
 40
0.0
 40
0.0
 40
0.0
 40
0.0
 40
1.0
 40
1.0
 40
1.0
 40
1.0
 10
14.49999999999999
 20
-2.999999999999999
 30
0.0
 10
13.67500000000014
 20
-2.21460183660255
 30
0.0
 10
12.85000000000009
 20
-1.500000000000001
 30
0.0
 10
12.025
 20
-1.500000000000001
 30
0.0
  0
LINE
  5
CB8F
330
CB4B
100
AcDbEntity
  8
0
100
AcDbLine
 10
12.02499999999999
 20
-1.500000000000001
 30
0.0
 11
6.249999999999989
 21
-1.500000000000001
 31
0.0
  0
LINE
  5
CB90
330
CB4B
100
AcDbEntity
  8
0
100
AcDbLine
 10
6.249999999999989
 20
0.0
 30
0.0
 11
12.02499999999999
 21
0.0
 31
0.0
  0
LINE
  5
CB91
330
CB4B
100
AcDbEntity
  8
0
100
AcDbLine
 10
6.249999999999989
 20
-1.500000000000001
 30
0.0
 11
6.249999999999989
 21
0.0
 31
0.0
  0
LINE
  5
CB92
330
CB4B
100
AcDbEntity
  8
0
100
AcDbLine
 10
6.249999999999989
 20
-1.500000000000001
 30
0.0
 11
-6.250000000000008
 21
-1.500000000000001
 31
0.0
  0
LINE
  5
CB93
330
CB4B
100
AcDbEntity
  8
0
100
AcDbLine
 10
6.249999999999989
 20
0.0
 30
0.0
 11
-6.250000000000008
 21
0.0
 31
0.0
  0
LINE
  5
CB94
330
CB4B
100
AcDbEntity
  8
0
100
AcDbLine
 10
30.50000000000021
 20
0.0
 30
0.0
 11
30.50000000000022
 21
1.500000000000019
 31
0.0
  0
LINE
  5
CB95
330
CB4B
100
AcDbEntity
  8
0
100
AcDbLine
 10
34.50000000000017
 20
1.500000000000017
 30
0.0
 11
34.50000000000017
 21
0.0
 31
0.0
  0
LINE
  5
CB96
330
CB4B
100
AcDbEntity
  8
0
100
AcDbLine
 10
-16.0
 20
-54.0
 30
0.0
 11
-14.5
 21
-54.0
 31
0.0
  0
LINE
  5
CB97
330
CB4B
100
AcDbEntity
  8
0
100
AcDbLine
 10
14.49999999999998
 20
-54.0
 30
0.0
 11
15.99999999999999
 21
-54.0
 31
0.0
  0
ARC
  5
CB98
330
CB4B
100
AcDbEntity
  8
0
100
AcDbCircle
 10
-27.83757666048695
 20
-3.0
 30
0.0
 40
1.5
100
AcDbArc
 50
71.99999999999988
 51
90.0
  0
ARC
  5
CB99
330
CB4B
100
AcDbEntity
  8
0
100
AcDbCircle
 10
-19.00000000000003
 20
-25.06805256023766
 30
0.0
 40
1.5
100
AcDbArc
 50
0.0
 51
8.999999999999902
  0
ARC
  5
CB9A
330
CB4B
100
AcDbEntity
  8
0
100
AcDbCircle
 10
19.00000000000014
 20
-25.0680525602369
 30
0.0
 40
1.5
100
AcDbArc
 50
170.9999999999999
 51
180.0
  0
ARC
  5
CB9B
330
CB4B
100
AcDbEntity
  8
0
100
AcDbCircle
 10
27.83757666048694
 20
-3.000000000000001
 30
0.0
 40
1.5
100
AcDbArc
 50
90.0
 51
108.0000000000001
  0
LINE
  5
CB9C
330
CB4B
100
AcDbEntity
  8
0
100
AcDbLine
 10
23.78169451958015
 20
-2.740642656822502
 30
0.0
 11
27.37405116892452
 21
-1.573415225557271
 31
0.0
  0
LINE
  5
CB9D
330
CB4B
100
AcDbEntity
  8
0
100
AcDbLine
 10
17.51846748910744
 20
-24.83340086267656
 30
0.0
 11
20.3883377884792
 21
-6.713752913097121
 31
0.0
  0
ARC
  5
CB9E
330
CB4B
100
AcDbEntity
  8
0
100
AcDbCircle
 10
25.32677949145489
 20
-7.495925238298273
 30
0.0
 40
5.000000000000005
100
AcDbArc
 50
108.0
 51
171.0
  0
ENDBLK
  5
CB4D
330
CB4B
100
AcDbEntity
  8
0
100
AcDbBlockEnd
  0
BLOCK
  5
CBA0
330
CB9F
100
AcDbEntity
  8
0
100
AcDbBlockBegin
  2
SBE32_114-Bottom
 70
     0
 10
0.0
 20
0.0
 30
0.0
  3
SBE32_114-Bottom
  1

  0
SPLINE
  5
CBA2
330
CB9F
100
AcDbEntity
  8
0
100
AcDbSpline
210
0.0
220
0.0
230
1.0
 70
     8
 71
     3
 72
     8
 73
     4
 74
     0
 42
0.000000001
 43
0.0000000001
 40
-1.0
 40
-1.0
 40
-1.0
 40
-1.0
 40
0.0
 40
0.0
 40
0.0
 40
0.0
 10
17.50000000000003
 20
3.000000000000004
 30
0.0
 10
17.50000000000003
 20
2.214601836602561
 30
0.0
 10
18.21460183660255
 20
1.5
 30
0.0
 10
19.00000000000004
 20
1.5
 30
0.0
  0
LINE
  5
CBA3
330
CB9F
100
AcDbEntity
  8
0
100
AcDbLine
 10
19.00000000000004
 20
1.500000000000001
 30
0.0
 11
39.71031484164903
 21
1.5
 31
0.0
  0
LINE
  5
CBA4
330
CB9F
100
AcDbEntity
  8
0
100
AcDbLine
 10
39.71031484164903
 20
0.0
 30
0.0
 11
19.00000000000004
 21
0.0
 31
0.0
  0
SPLINE
  5
CBA5
330
CB9F
100
AcDbEntity
  8
0
100
AcDbSpline
210
0.0
220
0.0
230
1.0
 70
     8
 71
     3
 72
     8
 73
     4
 74
     0
 42
0.000000001
 43
0.0000000001
 40
0.0
 40
0.0
 40
0.0
 40
0.0
 40
1.0
 40
1.0
 40
1.0
 40
1.0
 10
19.00000000000004
 20
0.0
 30
0.0
 10
17.42920367320506
 20
0.0000000000000003
 30
0.0
 10
16.00000000000003
 20
1.429203673205121
 30
0.0
 10
16.00000000000003
 20
3.000000000000007
 30
0.0
  0
LINE
  5
CBA6
330
CB9F
100
AcDbEntity
  8
0
100
AcDbLine
 10
19.00000000000004
 20
1.500000000000001
 30
0.0
 11
19.00000000000004
 21
1.090140682898365
 31
0.0
  0
LINE
  5
CBA7
330
CB9F
100
AcDbEntity
  8
0
100
AcDbLine
 10
19.00000000000004
 20
1.090140682898365
 30
0.0
 11
19.00000000000004
 21
0.0
 31
0.0
  0
LINE
  5
CBA8
330
CB9F
100
AcDbEntity
  8
0
100
AcDbLine
 10
17.49999999999999
 20
54.0
 30
0.0
 11
17.5
 21
2.999999999999998
 31
0.0
  0
LINE
  5
CBA9
330
CB9F
100
AcDbEntity
  8
0
100
AcDbLine
 10
-17.5
 20
54.0
 30
0.0
 11
-17.5
 21
2.999999999999998
 31
0.0
  0
LINE
  5
CBAA
330
CB9F
100
AcDbEntity
  8
0
100
AcDbLine
 10
17.49999999999999
 20
54.0
 30
0.0
 11
14.49999999999999
 21
54.0
 31
0.0
  0
LINE
  5
CBAB
330
CB9F
100
AcDbEntity
  8
0
100
AcDbLine
 10
-14.50000000000001
 20
54.0
 30
0.0
 11
-17.5
 21
54.0
 31
0.0
  0
LINE
  5
CBAC
330
CB9F
100
AcDbEntity
  8
0
100
AcDbLine
 10
-45.0
 20
1.5
 30
0.0
 11
-39.71031484164895
 21
1.500000000000001
 31
0.0
  0
LINE
  5
CBAD
330
CB9F
100
AcDbEntity
  8
0
100
AcDbLine
 10
-45.0
 20
1.499999999999997
 30
0.0
 11
-45.0
 21
0.0
 31
0.0
  0
LINE
  5
CBAE
330
CB9F
100
AcDbEntity
  8
0
100
AcDbLine
 10
45.00000000000007
 20
0.0
 30
0.0
 11
45.00000000000007
 21
1.499999999999999
 31
0.0
  0
LINE
  5
CBAF
330
CB9F
100
AcDbEntity
  8
0
100
AcDbLine
 10
39.71031484164903
 20
1.500000000000001
 30
0.0
 11
45.00000000000007
 21
1.500000000000001
 31
0.0
  0
LINE
  5
CBB0
330
CB9F
100
AcDbEntity
  8
0
100
AcDbLine
 10
-39.71031484164895
 20
0.0
 30
0.0
 11
-45.0
 21
0.0
 31
0.0
  0
LINE
  5
CBB1
330
CB9F
100
AcDbEntity
  8
0
100
AcDbLine
 10
45.00000000000007
 20
0.0
 30
0.0
 11
39.71031484164903
 21
0.0
 31
0.0
  0
LINE
  5
CBB2
330
CB9F
100
AcDbEntity
  8
0
100
AcDbLine
 10
-39.71031484164896
 20
1.500000000000001
 30
0.0
 11
-19.00000000000005
 21
1.500000000000001
 31
0.0
  0
LINE
  5
CBB3
330
CB9F
100
AcDbEntity
  8
0
100
AcDbLine
 10
-34.50000000000018
 20
0.0
 30
0.0
 11
-34.50000000000024
 21
-1.500000000000009
 31
0.0
  0
LINE
  5
CBB4
330
CB9F
100
AcDbEntity
  8
0
100
AcDbLine
 10
-30.50000000000018
 20
-1.500000000000009
 30
0.0
 11
-30.50000000000022
 21
0.0
 31
0.0
  0
LINE
  5
CBB5
330
CB9F
100
AcDbEntity
  8
0
100
AcDbLine
 10
-19.00000000000005
 20
0.0
 30
0.0
 11
-39.71031484164895
 21
0.0
 31
0.0
  0
SPLINE
  5
CBB6
330
CB9F
100
AcDbEntity
  8
0
100
AcDbSpline
210
0.0
220
0.0
230
1.0
 70
     8
 71
     3
 72
     8
 73
     4
 74
     0
 42
0.000000001
 43
0.0000000001
 40
0.0
 40
0.0
 40
0.0
 40
0.0
 40
1.0
 40
1.0
 40
1.0
 40
1.0
 10
-19.00000000000005
 20
1.5
 30
0.0
 10
-18.21460183660256
 20
1.5
 30
0.0
 10
-17.50000000000004
 20
2.214601836602561
 30
0.0
 10
-17.50000000000004
 20
3.000000000000004
 30
0.0
  0
SPLINE
  5
CBB7
330
CB9F
100
AcDbEntity
  8
0
100
AcDbSpline
210
0.0
220
0.0
230
1.0
 70
     8
 71
     3
 72
     8
 73
     4
 74
     0
 42
0.000000001
 43
0.0000000001
 40
-1.0
 40
-1.0
 40
-1.0
 40
-1.0
 40
0.0
 40
0.0
 40
0.0
 40
0.0
 10
-16.00000000000004
 20
3.000000000000007
 30
0.0
 10
-16.00000000000004
 20
1.429203673205121
 30
0.0
 10
-17.42920367320507
 20
0.0000000000000003
 30
0.0
 10
-19.00000000000005
 20
0.0
 30
0.0
  0
LINE
  5
CBB8
330
CB9F
100
AcDbEntity
  8
0
100
AcDbLine
 10
-19.00000000000005
 20
1.500000000000001
 30
0.0
 11
-19.00000000000005
 21
1.090140682898365
 31
0.0
  0
LINE
  5
CBB9
330
CB9F
100
AcDbEntity
  8
0
100
AcDbLine
 10
-19.00000000000005
 20
1.090140682898365
 30
0.0
 11
-19.00000000000005
 21
0.0
 31
0.0
  0
LINE
  5
CBBA
330
CB9F
100
AcDbEntity
  8
0
100
AcDbLine
 10
-32.50000000000019
 20
-8.999999999999985
 30
0.0
 11
-30.50000000000018
 21
-6.999999999999984
 31
0.0
  0
LINE
  5
CBBB
330
CB9F
100
AcDbEntity
  8
0
100
AcDbLine
 10
-30.50000000000018
 20
-6.999999999999984
 30
0.0
 11
-30.50000000000018
 21
-1.499999999999994
 31
0.0
  0
LINE
  5
CBBC
330
CB9F
100
AcDbEntity
  8
0
100
AcDbLine
 10
-34.50000000000018
 20
-1.499999999999994
 30
0.0
 11
-34.50000000000018
 21
-6.999999999999984
 31
0.0
  0
LINE
  5
CBBD
330
CB9F
100
AcDbEntity
  8
0
100
AcDbLine
 10
-34.50000000000018
 20
-6.999999999999984
 30
0.0
 11
-32.50000000000019
 21
-8.999999999999985
 31
0.0
  0
LINE
  5
CBBE
330
CB9F
100
AcDbEntity
  8
0
100
AcDbLine
 10
32.50000000000017
 20
-8.999999999999985
 30
0.0
 11
34.50000000000017
 21
-6.999999999999984
 31
0.0
  0
LINE
  5
CBBF
330
CB9F
100
AcDbEntity
  8
0
100
AcDbLine
 10
30.50000000000017
 20
-6.999999999999984
 30
0.0
 11
32.50000000000017
 21
-8.999999999999985
 31
0.0
  0
LINE
  5
CBC0
330
CB9F
100
AcDbEntity
  8
0
100
AcDbLine
 10
30.50000000000017
 20
-1.499999999999994
 30
0.0
 11
30.50000000000017
 21
-6.999999999999984
 31
0.0
  0
LINE
  5
CBC1
330
CB9F
100
AcDbEntity
  8
0
100
AcDbLine
 10
34.50000000000017
 20
-6.999999999999984
 30
0.0
 11
34.50000000000017
 21
-1.499999999999994
 31
0.0
  0
SPLINE
  5
CBC2
330
CB9F
100
AcDbEntity
  8
0
100
AcDbSpline
210
0.0
220
0.0
230
1.0
 70
     8
 71
     3
 72
     8
 73
     4
 74
     0
 42
0.000000001
 43
0.0000000001
 40
-1.0
 40
-1.0
 40
-1.0
 40
-1.0
 40
0.0
 40
0.0
 40
0.0
 40
0.0
 10
-14.50000000000001
 20
3.0
 30
0.0
 10
-13.67499999999996
 20
1.429203673205065
 30
0.0
 10
-12.85000000000014
 20
0.0000000000000016
 30
0.0
 10
-12.02500000000001
 20
0.0000000000000011
 30
0.0
  0
SPLINE
  5
CBC3
330
CB9F
100
AcDbEntity
  8
0
100
AcDbSpline
210
0.0
220
0.0
230
1.0
 70
     8
 71
     3
 72
     8
 73
     4
 74
     0
 42
0.000000001
 43
0.0000000001
 40
-1.0
 40
-1.0
 40
-1.0
 40
-1.0
 40
0.0
 40
0.0
 40
0.0
 40
0.0
 10
12.025
 20
0.0000000000000011
 30
0.0
 10
12.85000000000009
 20
0.000000000000001
 30
0.0
 10
13.67500000000014
 20
1.4292036732051
 30
0.0
 10
14.49999999999999
 20
2.999999999999998
 30
0.0
  0
LINE
  5
CBC4
330
CB9F
100
AcDbEntity
  8
0
100
AcDbLine
 10
12.02499999999999
 20
0.0
 30
0.0
 11
-12.02500000000001
 21
0.0
 31
0.0
  0
LINE
  5
CBC5
330
CB9F
100
AcDbEntity
  8
0
100
AcDbLine
 10
-14.50000000000001
 20
3.000000000000002
 30
0.0
 11
-17.5
 21
3.000000000000002
 31
0.0
  0
LINE
  5
CBC6
330
CB9F
100
AcDbEntity
  8
0
100
AcDbLine
 10
17.49999999999999
 20
3.000000000000002
 30
0.0
 11
14.49999999999999
 21
3.000000000000002
 31
0.0
  0
LINE
  5
CBC7
330
CB9F
100
AcDbEntity
  8
0
100
AcDbLine
 10
-14.50000000000001
 20
54.0
 30
0.0
 11
14.49999999999999
 21
54.0
 31
0.0
  0
LINE
  5
CBC8
330
CB9F
100
AcDbEntity
  8
0
100
AcDbLine
 10
30.50000000000017
 20
0.0
 30
0.0
 11
30.50000000000019
 21
-1.500000000000009
 31
0.0
  0
LINE
  5
CBC9
330
CB9F
100
AcDbEntity
  8
0
100
AcDbLine
 10
34.50000000000017
 20
-1.500000000000006
 30
0.0
 11
34.50000000000018
 21
0.0
 31
0.0
  0
ARC
  5
CBCA
330
CB9F
100
AcDbEntity
  8
0
100
AcDbCircle
 10
19.00000000000008
 20
25.06805256023685
 30
0.0
 40
1.5
100
AcDbArc
 50
180.0
 51
188.9999999999998
  0
ARC
  5
CBCB
330
CB9F
100
AcDbEntity
  8
0
100
AcDbCircle
 10
27.83757666048686
 20
3.000000000000002
 30
0.0
 40
1.5
100
AcDbArc
 50
252.0
 51
270.0
  0
ARC
  5
CBCC
330
CB9F
100
AcDbEntity
  8
0
100
AcDbCircle
 10
-19.00000000000002
 20
25.06805256023728
 30
0.0
 40
1.5
100
AcDbArc
 50
351.0000000000001
 51
0.0
  0
ARC
  5
CBCD
330
CB9F
100
AcDbEntity
  8
0
100
AcDbCircle
 10
-27.83757666048688
 20
3.000000000000002
 30
0.0
 40
1.5
100
AcDbArc
 50
270.0
 51
287.9999999999999
  0
LINE
  5
CBCE
330
CB9F
100
AcDbEntity
  8
0
100
AcDbLine
 10
23.78169451958008
 20
2.740642656822504
 30
0.0
 11
27.37405116892445
 21
1.573415225557272
 31
0.0
  0
LINE
  5
CBCF
330
CB9F
100
AcDbEntity
  8
0
100
AcDbLine
 10
-27.37405116892446
 20
1.573415225557272
 30
0.0
 11
-23.78169451958009
 21
2.740642656822504
 31
0.0
  0
ARC
  5
CBD0
330
CB9F
100
AcDbEntity
  8
0
100
AcDbCircle
 10
-25.32677949145484
 20
7.495925238298274
 30
0.0
 40
5.000000000000005
100
AcDbArc
 50
288.0
 51
351.0000000000001
  0
LINE
  5
CBD1
330
CB9F
100
AcDbEntity
  8
0
100
AcDbLine
 10
-20.38833778847914
 20
6.713752913097126
 30
0.0
 11
-17.51846748910731
 21
24.83340086267693
 31
0.0
  0
LINE
  5
CBD2
330
CB9F
100
AcDbEntity
  8
0
100
AcDbLine
 10
17.51846748910737
 20
24.83340086267651
 30
0.0
 11
20.38833778847913
 21
6.713752913097126
 31
0.0
  0
ARC
  5
CBD3
330
CB9F
100
AcDbEntity
  8
0
100
AcDbCircle
 10
25.32677949145482
 20
7.495925238298274
 30
0.0
 40
5.000000000000005
100
AcDbArc
 50
188.9999999999998
 51
252.0
  0
ENDBLK
  5
CBA1
330
CB9F
100
AcDbEntity
  8
0
100
AcDbBlockEnd
  0
BLOCK
  5
CBD5
330
CBD4
100
AcDbEntity
  8
0
100
AcDbBlockBegin
  2
SBE32_114-ISO
 70
     0
 10
0.0
 20
0.0
 30
0.0
  3
SBE32_114-ISO
  1

  0
ELLIPSE
  5
CBD7
330
CBD4
100
AcDbEntity
  8
0
100
AcDbEllipse
 10
24.75307769766477
 20
-5.055882802120086
 30
0.0
 11
-0.6444133738665765
 21
1.354522574039244
 31
0.0
210
0.0
220
0.0
230
1.0
 40
0.6257331206090915
 41
0.3725120245364062
 42
0.833304307752269
  0
ELLIPSE
  5
CBD8
330
CBD4
100
AcDbEntity
  8
0
100
AcDbEllipse
 10
24.75307769766479
 20
3.056917334993825
 30
0.0
 11
-0.8425747043855439
 21
1.240994708904725
 31
0.0
210
0.0
220
0.0
230
1.0
 40
0.5245233345042678
 41
0.745204113788355
 42
1.81054917957997
  0
ELLIPSE
  5
CBD9
330
CBD4
100
AcDbEntity
  8
0
100
AcDbEllipse
 10
36.3233193126168
 20
6.905344248810019
 30
0.0
 11
-25.68345566027804
 21
-15.19796746748748
 31
0.0
210
0.0
220
0.0
230
0.9999999999999998
 40
0.1346372153812722
 41
5.14524923256838
 42
7.262116370962242
  0
ELLIPSE
  5
CBDA
330
CBD4
100
AcDbEntity
  8
0
100
AcDbEllipse
 10
26.19324092047918
 20
-4.467767642256261
 30
0.0
 11
0.5208505218990896
 21
-1.406667954365002
 31
0.0
210
0.0
220
0.0
230
0.9999999999999998
 40
0.6701973449423545
 41
3.592562058822009
 42
4.032922845143479
  0
SPLINE
  5
CBDB
330
CBD4
100
AcDbEntity
  8
0
100
AcDbSpline
210
0.0
220
0.0
230
1.0
 70
     8
 71
     3
 72
    10
 73
     6
 74
     0
 42
0.000000001
 43
0.0000000001
 40
-0.1489505020863135
 40
-0.1489505020863135
 40
-0.1489505020863135
 40
-0.1489505020863135
 40
-0.0744752510431568
 40
-0.0744752510431568
 40
0.0
 40
0.0
 40
0.0
 40
0.0
 10
25.13258074869936
 20
-3.855395206560467
 30
0.0
 10
25.30536415204423
 20
-3.791418256258589
 30
0.0
 10
25.47761734508466
 20
-3.731142144800845
 30
0.0
 10
25.82106269131841
 20
-3.616933763269756
 30
0.0
 10
25.99225570719054
 20
-3.562999271769484
 30
0.0
 10
26.16295090390224
 20
-3.511740196961459
 30
0.0
  0
ELLIPSE
  5
CBDC
330
CBD4
100
AcDbEntity
  8
0
100
AcDbEllipse
 10
27.22361107568206
 20
-4.124112632657244
 30
0.0
 11
-0.4314118640183582
 21
1.436622359419553
 31
0.0
210
0.0
220
0.0
230
0.9999999999999998
 40
0.6961202208620333
 41
0.5876585946227167
 42
0.9343160604978022
  0
ELLIPSE
  5
CBDD
330
CBD4
100
AcDbEntity
  8
0
100
AcDbEllipse
 10
27.88622619987354
 20
4.34408289001813
 30
0.0
 11
1.030044369542928
 21
1.090416707856643
 31
0.0
210
0.0
220
0.0
230
1.0
 40
0.3751864151476512
 41
4.287665715117302
 42
5.61080516211478
  0
SPLINE
  5
CBDE
330
CBD4
100
AcDbEntity
  8
0
100
AcDbSpline
210
0.0
220
0.0
230
1.0
 70
     8
 71
     3
 72
    10
 73
     6
 74
     0
 42
0.000000001
 43
0.0000000001
 40
-0.0986315057595734
 40
-0.0986315057595734
 40
-0.0986315057595734
 40
-0.0986315057595734
 40
-0.0493157528797867
 40
-0.0493157528797867
 40
0.0
 40
0.0
 40
0.0
 40
0.0
 10
28.94688637165336
 20
4.956455325713937
 30
0.0
 10
28.83611649560466
 20
5.061092283600627
 30
0.0
 10
28.7255284192518
 20
5.166283559114619
 30
0.0
 10
28.50467084613622
 20
5.377599742089529
 30
0.0
 10
28.3944013713418
 20
5.483724870989457
 30
0.0
 10
28.2842712474619
 20
5.590245822907302
 30
0.0
  0
ELLIPSE
  5
CBDF
330
CBD4
100
AcDbEntity
  8
0
100
AcDbEllipse
 10
27.22361107568208
 20
4.977873387211504
 30
0.0
 11
-1.042846028619081
 21
-1.078180022349425
 31
0.0
210
0.0
220
0.0
230
0.9999999999999998
 40
0.3623159750592227
 41
1.126298842996767
 42
2.47356633404844
  0
ELLIPSE
  5
CBE0
330
CBD4
100
AcDbEntity
  8
0
100
AcDbEllipse
 10
30.66436780310006
 20
1.325367498726919
 30
0.0
 11
1.075724519468966
 21
1.045378763039143
 31
0.0
210
0.0
220
0.0
230
0.9999999999999998
 40
0.3273577323099419
 41
4.89749971456654
 42
5.625840623118905
  0
SPLINE
  5
CBE1
330
CBD4
100
AcDbEntity
  8
0
100
AcDbSpline
210
0.0
220
0.0
230
1.0
 70
     8
 71
     3
 72
    10
 73
     6
 74
     0
 42
0.000000001
 43
0.0000000001
 40
-0.4298105547536753
 40
-0.4298105547536753
 40
-0.4298105547536753
 40
-0.4298105547536753
 40
-0.2527935054382432
 40
-0.2527935054382432
 40
-0.0000000000000004
 40
-0.0000000000000004
 40
-0.0000000000000004
 40
-0.0000000000000004
 10
31.7250279748799
 20
1.937739934422717
 30
0.0
 10
31.33646418561675
 20
2.337583139839436
 30
0.0
 10
30.96612836198936
 20
2.775437037661525
 30
0.0
 10
30.05788663961143
 20
3.818031015891776
 30
0.0
 10
29.5146949039811
 20
4.420084250794946
 30
0.0
 10
28.94688637165336
 20
4.956455325713919
 30
0.0
  0
ELLIPSE
  5
CBE2
330
CBD4
100
AcDbEntity
  8
0
100
AcDbEllipse
 10
30.66436780310006
 20
-4.444650389754238
 30
0.0
 11
0.1870368933165853
 21
1.48829338523642
 31
0.0
210
0.0
220
0.0
230
0.9999999999999998
 40
0.747999720430134
 41
5.228190434604794
 42
5.956531343157158
  0
ELLIPSE
  5
CBE3
330
CBD4
100
AcDbEntity
  8
0
100
AcDbEllipse
 10
21.49038164910484
 20
4.961706801429004
 30
0.0
 11
12.86670137892405
 21
-8.191212071365347
 31
0.0
210
0.0
220
0.0
230
1.0
 40
0.2609200613534022
 41
5.779181046885877
 42
7.116398104046122
  0
ELLIPSE
  5
CBE4
330
CBD4
100
AcDbEntity
  8
0
100
AcDbEllipse
 10
27.88622619987354
 20
-4.255444176105984
 30
0.0
 11
0.3083698224032624
 21
1.467960507858091
 31
0.0
210
0.0
220
0.0
230
0.9999999999999998
 40
0.7251908855986243
 41
5.288653074036309
 42
6.04774640875657
  0
SPLINE
  5
CBE5
330
CBD4
100
AcDbEntity
  8
0
100
AcDbSpline
210
0.0
220
0.0
230
1.0
 70
     8
 71
     3
 72
    10
 73
     6
 74
     0
 42
0.000000001
 43
0.0000000001
 40
-0.4298560553329339
 40
-0.4298560553329339
 40
-0.4298560553329339
 40
-0.4298560553329339
 40
-0.2504545042259934
 40
-0.2504545042259934
 40
0.0
 40
0.0
 40
0.0
 40
0.0
 10
28.94688637165336
 20
-3.64307174041019
 30
0.0
 10
29.34984661089985
 20
-3.727720323765697
 30
0.0
 10
29.74135014934359
 20
-3.766484200828306
 30
0.0
 10
30.65973652983817
 20
-3.802614891852176
 30
0.0
 10
31.17526425677237
 20
-3.763188015936704
 30
0.0
 10
31.7250279748799
 20
-3.832277954058467
 30
0.0
  0
ELLIPSE
  5
CBE6
330
CBD4
100
AcDbEntity
  8
0
100
AcDbEllipse
 10
27.22361107568206
 20
-4.124112632657244
 30
0.0
 11
-0.2763935293054371
 21
-1.474315643598094
 31
0.0
210
0.0
220
0.0
230
1.0
 40
0.731706089139315
 41
2.13122701721199
 42
2.680687794904653
  0
SPLINE
  5
CBE7
330
CBD4
100
AcDbEntity
  8
0
100
AcDbSpline
210
0.0
220
0.0
230
1.0
 70
     8
 71
     3
 72
    10
 73
     6
 74
     0
 42
0.000000001
 43
0.0000000001
 40
-0.0986315057595754
 40
-0.0986315057595754
 40
-0.0986315057595754
 40
-0.0986315057595754
 40
-0.0493157528797879
 40
-0.0493157528797879
 40
-0.0000000000000004
 40
-0.0000000000000004
 40
-0.0000000000000004
 40
-0.0000000000000004
 10
28.28427124746188
 20
-3.511740196961463
 30
0.0
 10
28.39440137134179
 20
-3.532386558379494
 30
0.0
 10
28.5046708461362
 20
-3.553589651391471
 30
0.0
 10
28.7255284192518
 20
-3.597297826998282
 30
0.0
 10
28.83611649560464
 20
-3.619802662787243
 30
0.0
 10
28.94688637165334
 20
-3.643071740410182
 30
0.0
  0
ELLIPSE
  5
CBE8
330
CBD4
100
AcDbEntity
  8
0
100
AcDbEllipse
 10
27.22361107568207
 20
4.977873387211522
 30
0.0
 11
-0.9743856472127156
 21
1.140426503772114
 31
0.0
210
0.0
220
0.0
230
1.0
 40
0.4267122036849472
 41
0.692402391295385
 42
1.945961861863242
  0
SPLINE
  5
CBE9
330
CBD4
100
AcDbEntity
  8
0
100
AcDbSpline
210
0.0
220
0.0
230
1.0
 70
     8
 71
     3
 72
    10
 73
     6
 74
     0
 42
0.000000001
 43
0.0000000001
 40
-0.1489505020863105
 40
-0.1489505020863105
 40
-0.1489505020863105
 40
-0.1489505020863105
 40
-0.0744752510431552
 40
-0.0744752510431552
 40
0.0
 40
0.0
 40
0.0
 40
0.0
 10
26.16295090390225
 20
5.590245822907311
 30
0.0
 10
25.99225570719056
 20
5.444403062173597
 30
0.0
 10
25.82106269131842
 20
5.300660886079553
 30
0.0
 10
25.47761734508469
 20
5.018292741410705
 30
0.0
 10
25.30536415204427
 20
4.879667998127112
 30
0.0
 10
25.13258074869939
 20
4.744131859563678
 30
0.0
  0
ELLIPSE
  5
CBEA
330
CBD4
100
AcDbEntity
  8
0
100
AcDbEllipse
 10
26.19324092047921
 20
4.13175942386788
 30
0.0
 11
0.9257933986362097
 21
-1.1802146343109
 31
0.0
210
0.0
220
0.0
230
1.0
 40
0.4663712957493042
 41
3.852704097088722
 42
5.071307076913496
  0
ELLIPSE
  5
CBEB
330
CBD4
100
AcDbEntity
  8
0
100
AcDbEllipse
 10
27.22361107568208
 20
4.977873387211522
 30
0.0
 11
-1.5
 21
-0.0000000000000874
 31
0.0
210
0.0
220
0.0
230
1.0
 40
0.5773502691896267
 41
3.926990816986997
 42
5.497787143781894
  0
ELLIPSE
  5
CBEC
330
CBD4
100
AcDbEntity
  8
0
100
AcDbEllipse
 10
27.22361107568206
 20
-4.124112632657248
 30
0.0
 11
1.5
 21
-0.0000000000000896
 31
0.0
210
0.0
220
0.0
230
1.0
 40
0.5773502691896259
 41
0.7853981633976899
 42
2.356194490192585
  0
SPLINE
  5
CBED
330
CBD4
100
AcDbEntity
  8
0
100
AcDbSpline
210
0.0
220
0.0
230
1.0
 70
     8
 71
     3
 72
     8
 73
     4
 74
     0
 42
0.000000001
 43
0.0000000001
 40
-1.15858715143267
 40
-1.15858715143267
 40
-1.15858715143267
 40
-1.15858715143267
 40
-0.9526235410209707
 40
-0.9526235410209707
 40
-0.9526235410209707
 40
-0.9526235410209707
 10
23.69241752588495
 20
-4.443510366424261
 30
0.0
 10
24.1760100232459
 20
-4.213441500261607
 30
0.0
 10
24.65471879288997
 20
-4.032334368575671
 30
0.0
 10
25.13258074869936
 20
-3.855395206560467
 30
0.0
  0
SPLINE
  5
CBEE
330
CBD4
100
AcDbEntity
  8
0
100
AcDbSpline
210
0.0
220
0.0
230
1.0
 70
     8
 71
     3
 72
     8
 73
     4
 74
     0
 42
0.000000001
 43
0.0000000001
 40
-0.2059636104117031
 40
-0.2059636104117031
 40
-0.2059636104117031
 40
-0.2059636104117031
 40
-0.0000000000000003
 40
-0.0000000000000003
 40
-0.0000000000000003
 40
-0.0000000000000003
 10
25.13258074869939
 20
4.74413185956366
 30
0.0
 10
24.65471781949591
 20
4.369282800377218
 30
0.0
 10
24.17601002324592
 20
3.997625421585846
 30
0.0
 10
23.69241752588497
 20
3.669289770689649
 30
0.0
  0
SPLINE
  5
CBEF
330
CBD4
100
AcDbEntity
  8
0
100
AcDbSpline
210
0.0
220
0.0
230
1.0
 70
     8
 71
     3
 72
    10
 73
     6
 74
     0
 42
0.000000001
 43
0.0000000001
 40
-0.1489505020863164
 40
-0.1489505020863164
 40
-0.1489505020863164
 40
-0.1489505020863164
 40
-0.0744752510431582
 40
-0.0744752510431582
 40
0.0
 40
0.0
 40
0.0
 40
0.0
 10
25.13258074869938
 20
28.80446803054853
 30
0.0
 10
25.30536415204427
 20
28.86844498085041
 30
0.0
 10
25.4776173450847
 20
28.92872109230817
 30
0.0
 10
25.82106269131844
 20
29.04292947383925
 30
0.0
 10
25.99225570719058
 20
29.09686396533953
 30
0.0
 10
26.16295090390229
 20
29.14812304014756
 30
0.0
  0
SPLINE
  5
CBF0
330
CBD4
100
AcDbEntity
  8
0
100
AcDbSpline
210
0.0
220
0.0
230
1.0
 70
     8
 71
     3
 72
     8
 73
     4
 74
     0
 42
0.000000001
 43
0.0000000001
 40
-1.158510647660077
 40
-1.158510647660077
 40
-1.158510647660077
 40
-1.158510647660077
 40
-0.9525469336706912
 40
-0.9525469336706912
 40
-0.9525469336706912
 40
-0.9525469336706912
 10
23.692417525885
 20
28.21635287068474
 30
0.0
 10
24.1760102664413
 20
28.44642185254746
 30
0.0
 10
24.65471894652293
 20
28.62752892541939
 30
0.0
 10
25.13258074869938
 20
28.80446803054855
 30
0.0
  0
ELLIPSE
  5
CBF1
330
CBD4
100
AcDbEntity
  8
0
100
AcDbEllipse
 10
36.32331931261681
 20
39.56520748591902
 30
0.0
 11
-25.68345566027804
 21
-15.19796746748748
 31
0.0
210
0.0
220
0.0
230
0.9999999999999998
 40
0.1346372153812722
 41
5.145249232568378
 42
7.262116370962244
  0
SPLINE
  5
CBF2
330
CBD4
100
AcDbEntity
  8
0
100
AcDbSpline
210
0.0
220
0.0
230
1.0
 70
     8
 71
     3
 72
     8
 73
     4
 74
     0
 42
0.000000001
 43
0.0000000001
 40
-0.2059637139893913
 40
-0.2059637139893913
 40
-0.2059637139893913
 40
-0.2059637139893913
 40
0.0
 40
0.0
 40
0.0
 40
0.0
 10
25.13258074869942
 20
37.40399509667265
 30
0.0
 10
24.65471792956424
 20
37.02914612382688
 30
0.0
 10
24.17601026644133
 20
36.65748882381262
 30
0.0
 10
23.69241752588501
 20
36.32915300779867
 30
0.0
  0
SPLINE
  5
CBF3
330
CBD4
100
AcDbEntity
  8
0
100
AcDbSpline
210
0.0
220
0.0
230
1.0
 70
     8
 71
     3
 72
    10
 73
     6
 74
     0
 42
0.000000001
 43
0.0000000001
 40
-0.1489505020863121
 40
-0.1489505020863121
 40
-0.1489505020863121
 40
-0.1489505020863121
 40
-0.0744752510431561
 40
-0.0744752510431561
 40
0.0
 40
0.0
 40
0.0
 40
0.0
 10
26.1629509039023
 20
38.25010906001633
 30
0.0
 10
25.9922557071906
 20
38.10426629928262
 30
0.0
 10
25.82106269131847
 20
37.96052412318856
 30
0.0
 10
25.47761734508473
 20
37.67815597851971
 30
0.0
 10
25.3053641520443
 20
37.53953123523612
 30
0.0
 10
25.13258074869942
 20
37.40399509667267
 30
0.0
  0
ELLIPSE
  5
CBF4
330
CBD4
100
AcDbEntity
  8
0
100
AcDbEllipse
 10
0.234319013356945
 20
14.06565347214444
 30
0.0
 11
0.9850528317504767
 21
1.131225405767189
 31
0.0
210
0.0
220
0.0
230
0.9999999999999998
 40
0.4173680013367565
 41
0.0
 42
0.5753553954488205
  0
ELLIPSE
  5
CBF5
330
CBD4
100
AcDbEntity
  8
0
100
AcDbEllipse
 10
-0.8883277479623963
 20
10.71817093131406
 30
0.0
 11
0.6735304878558958
 21
-1.340282314263904
 31
0.0
210
0.0
220
0.0
230
1.0
 40
0.6134744499317069
 41
0.8199141697227254
 42
2.003105718372863
  0
SPLINE
  5
CBF6
330
CBD4
100
AcDbEntity
  8
0
100
AcDbSpline
210
0.0
220
0.0
230
1.0
 70
     8
 71
     3
 72
    10
 73
     6
 74
     0
 42
0.000000001
 43
0.0000000001
 40
-0.3290771859225755
 40
-0.3290771859225755
 40
-0.3290771859225755
 40
-0.3290771859225755
 40
-0.1645385929612879
 40
-0.1645385929612879
 40
-0.1523870810269681
 40
-0.1523870810269681
 40
-0.1523870810269681
 40
-0.1523870810269681
 10
0.172332423817434
 20
10.10579849561826
 30
0.0
 10
0.5593419916449394
 20
10.30028195649042
 30
0.0
 10
0.9452602926930108
 20
10.47535958310726
 30
0.0
 10
1.357538056647151
 20
10.64538281342216
 30
0.0
 10
1.385880841374746
 20
10.65698514582378
 30
0.0
 10
1.414212767216063
 20
10.66849829964844
 30
0.0
  0
ELLIPSE
  5
CBF7
330
CBD4
100
AcDbEntity
  8
0
100
AcDbEllipse
 10
-2.387261377050184
 20
9.964913585664634
 30
0.0
 11
0.6735304878559005
 21
-1.340282314263911
 31
0.0
210
0.0
220
0.0
230
0.9999999999999998
 40
0.6134744499317048
 41
0.8199141697227307
 42
2.003105718372863
  0
LINE
  5
CBF8
330
CBD4
100
AcDbEntity
  8
0
100
AcDbLine
 10
-1.326601205270363
 20
9.352541149968844
 30
0.0
 11
0.1723324238174273
 21
10.10579849561826
 31
0.0
  0
ELLIPSE
  5
CBF9
330
CBD4
100
AcDbEntity
  8
0
100
AcDbEllipse
 10
-2.387261378779388
 20
16.30140721240152
 30
0.0
 11
0.8193997375741236
 21
-1.256417156128785
 31
0.0
210
0.0
220
0.0
230
0.9999999999999998
 40
0.5388095822648852
 41
0.0000000001434679
 42
0.7550720329637263
  0
ELLIPSE
  5
CBFA
330
CBD4
100
AcDbEntity
  8
0
100
AcDbEllipse
 10
5.938497376736747
 20
16.71529458592974
 30
0.0
 11
-18.92465153915224
 21
-11.19850234446446
 31
0.0
210
0.0
220
0.0
230
0.9999999999999998
 40
0.1346372153812725
 41
5.025585556707155
 42
7.381780046922148
  0
ELLIPSE
  5
CBFB
330
CBD4
100
AcDbEntity
  8
0
100
AcDbEllipse
 10
-0.8883277479623806
 20
17.27896933634515
 30
0.0
 11
0.8193997375596696
 21
-1.256417156077996
 31
0.0
210
0.0
220
0.0
230
1.0
 40
0.5388095822689494
 41
0.0
 42
0.7550720328372718
  0
LINE
  5
CBFC
330
CBD4
100
AcDbEntity
  8
0
100
AcDbLine
 10
0.1723324238174406
 20
16.66659690064937
 30
0.0
 11
-1.326601206999566
 21
15.68903477670571
 31
0.0
  0
SPLINE
  5
CBFD
330
CBD4
100
AcDbEntity
  8
0
100
AcDbSpline
210
0.0
220
0.0
230
1.0
 70
     8
 71
     3
 72
    10
 73
     6
 74
     0
 42
0.000000001
 43
0.0000000001
 40
-0.1766901048957475
 40
-0.1766901048957475
 40
-0.1766901048957475
 40
-0.1766901048957475
 40
-0.1645385929615136
 40
-0.1645385929615136
 40
0.0
 40
0.0
 40
0.0
 40
0.0
 10
1.414212767216069
 20
17.53789699775443
 30
0.0
 10
1.385880841374995
 20
17.51669526155664
 30
0.0
 10
1.35753805664764
 20
17.49557016517403
 30
0.0
 10
0.9452602926937192
 20
17.18953603948492
 30
0.0
 10
0.5593419916453724
 20
16.91899359610775
 30
0.0
 10
0.1723324238174428
 20
16.66659690064937
 30
0.0
  0
SPLINE
  5
CBFE
330
CBD4
100
AcDbEntity
  8
0
100
AcDbSpline
210
0.0
220
0.0
230
1.0
 70
     8
 71
     3
 72
    10
 73
     6
 74
     0
 42
0.000000001
 43
0.0000000001
 40
-0.3290771859225742
 40
-0.3290771859225742
 40
-0.3290771859225742
 40
-0.3290771859225742
 40
-0.1645385929612874
 40
-0.1645385929612874
 40
-0.0000000000000007
 40
-0.0000000000000007
 40
-0.0000000000000007
 40
-0.0000000000000007
 10
0.1723324238174273
 20
42.76566173272729
 30
0.0
 10
0.5593419916449305
 20
42.96014519359945
 30
0.0
 10
0.9452602926929998
 20
43.13522282021629
 30
0.0
 10
1.713108647645531
 20
43.45188325916136
 30
0.0
 10
2.095052351529487
 20
43.59358781589432
 30
0.0
 10
2.474873734163753
 20
43.72239031988553
 30
0.0
  0
LINE
  5
CBFF
330
CBD4
100
AcDbEntity
  8
0
100
AcDbLine
 10
-1.326601205270634
 20
42.01240438707772
 30
0.0
 11
0.1723324238174273
 21
42.76566173272729
 31
0.0
  0
ELLIPSE
  5
CC00
330
CBD4
100
AcDbEntity
  8
0
100
AcDbEllipse
 10
5.938497376736481
 20
49.37515782303862
 30
0.0
 11
-18.92465153915224
 21
-11.19850234446446
 31
0.0
210
0.0
220
0.0
230
0.9999999999999998
 40
0.1346372153812725
 41
5.025585556707152
 42
7.381780046922148
  0
LINE
  5
CC01
330
CBD4
100
AcDbEntity
  8
0
100
AcDbLine
 10
0.1723324238174362
 20
49.32646013775841
 30
0.0
 11
-1.326601206999833
 21
48.34889801381461
 31
0.0
  0
SPLINE
  5
CC02
330
CBD4
100
AcDbEntity
  8
0
100
AcDbSpline
210
0.0
220
0.0
230
1.0
 70
     8
 71
     3
 72
    10
 73
     6
 74
     0
 42
0.000000001
 43
0.0000000001
 40
-0.3290771859266583
 40
-0.3290771859266583
 40
-0.3290771859266583
 40
-0.3290771859266583
 40
-0.1645385929633292
 40
-0.1645385929633292
 40
0.0
 40
0.0
 40
0.0
 40
0.0
 10
2.4748737341889
 20
51.02847724134274
 30
0.0
 10
2.095052351551034
 20
50.71869979030875
 30
0.0
 10
1.71310864766317
 20
50.41937374652757
 30
0.0
 10
0.9452602927022279
 20
49.84939927659994
 30
0.0
 10
0.5593419916496334
 20
49.57885683321959
 30
0.0
 10
0.1723324238174317
 20
49.32646013775844
 30
0.0
  0
ELLIPSE
  5
CC03
330
CBD4
100
AcDbEntity
  8
0
100
AcDbEllipse
 10
0.234319013356894
 20
46.72551670925352
 30
0.0
 11
0.9850528317504684
 21
1.131225405767193
 31
0.0
210
0.0
220
0.0
230
1.0
 40
0.4173680013367587
 41
0.0
 42
0.5753553954488178
  0
SPLINE
  5
CC04
330
CBD4
100
AcDbEntity
  8
0
100
AcDbSpline
210
0.0
220
0.0
230
1.0
 70
     8
 71
     3
 72
    10
 73
     6
 74
     0
 42
0.000000001
 43
0.0000000001
 40
0.1396843436543099
 40
0.1396843436543099
 40
0.1396843436543099
 40
0.1396843436543099
 40
0.1418729186708966
 40
0.1418729186708966
 40
0.2837458373417926
 40
0.2837458373417926
 40
0.2837458373417926
 40
0.2837458373417926
 10
0.0693419984345245
 20
48.77333154595334
 30
0.0
 10
0.0733158987165106
 20
48.76870077262125
 30
0.0
 10
0.0772851297747157
 20
48.76407238278794
 30
0.0
 10
0.3382527865601315
 20
48.45957236374766
 30
0.0
 10
0.5760098970501582
 20
48.16947559365137
 30
0.0
 10
0.8038718486761453
 20
47.8983228089609
 30
0.0
  0
ELLIPSE
  5
CC05
330
CBD4
100
AcDbEntity
  8
0
100
AcDbEllipse
 10
1.414213562373005
 20
45.66420408438621
 30
0.0
 11
1.018271863351775
 21
1.101418363886384
 31
0.0
210
0.0
220
0.0
230
0.9999999999999998
 40
0.3866729749328075
 41
0.0
 42
0.6279471263398913
  0
SPLINE
  5
CC06
330
CBD4
100
AcDbEntity
  8
0
100
AcDbSpline
210
0.0
220
0.0
230
1.0
 70
     8
 71
     3
 72
    10
 73
     6
 74
     0
 42
0.000000001
 43
0.0000000001
 40
0.0
 40
0.0
 40
0.0
 40
0.0
 40
0.0866240026525026
 40
0.0866240026525026
 40
0.1732480053050051
 40
0.1732480053050051
 40
0.1732480053050051
 40
0.1732480053050051
 10
0.8038718487438112
 20
47.8983228089134
 30
0.0
 10
1.003838624677042
 20
47.71643644515404
 30
0.0
 10
1.202264697571442
 20
47.53251949126727
 30
0.0
 10
1.596764954776925
 20
47.16171471402668
 30
0.0
 10
1.792839142852264
 20
46.9748236307329
 30
0.0
 10
1.988031921823463
 20
46.78682583354256
 30
0.0
  0
ELLIPSE
  5
CC07
330
CBD4
100
AcDbEntity
  8
0
100
AcDbEllipse
 10
1.41421356238393
 20
44.33476275558132
 30
0.0
 11
0.4817249453119114
 21
-1.420542529129009
 31
0.0
210
0.0
220
0.0
230
1.0
 40
0.6821022831553123
 41
0.9100452509959993
 42
2.142595991522583
  0
SPLINE
  5
CC08
330
CBD4
100
AcDbEntity
  8
0
100
AcDbSpline
210
0.0
220
0.0
230
1.0
 70
     8
 71
     3
 72
    10
 73
     6
 74
     0
 42
0.000000001
 43
0.0000000001
 40
-0.2385842614456969
 40
-0.2385842614456969
 40
-0.2385842614456969
 40
-0.2385842614456969
 40
-0.142141620481049
 40
-0.142141620481049
 40
-0.120089773566874
 40
-0.120089773566874
 40
-0.120089773566874
 40
-0.120089773566874
 10
2.474873734174689
 20
43.72239031989184
 30
0.0
 10
2.920130698835412
 20
43.92642122602841
 30
0.0
 10
3.2270971010605
 20
44.24493806202955
 30
0.0
 10
3.342754698021177
 20
44.698456075692
 30
0.0
 10
3.353357811301662
 20
44.78528285818168
 30
0.0
 10
3.353271850902181
 20
44.87349329824444
 30
0.0
  0
SPLINE
  5
CC09
330
CBD4
100
AcDbEntity
  8
0
100
AcDbSpline
210
0.0
220
0.0
230
1.0
 70
     8
 71
     3
 72
    14
 73
    10
 74
     0
 42
0.000000001
 43
0.0000000001
 40
0.0000000000000001
 40
0.0000000000000001
 40
0.0000000000000001
 40
0.0000000000000001
 40
0.0303721411284293
 40
0.0303721411284293
 40
0.0789675669339162
 40
0.0789675669339162
 40
0.142141620481049
 40
0.142141620481049
 40
0.2385842614456969
 40
0.2385842614456969
 40
0.2385842614456969
 40
0.2385842614456969
 10
1.988031921823463
 20
46.78682583354258
 30
0.0
 10
2.056470489063828
 20
46.72090997358163
 30
0.0
 10
2.118642754124646
 20
46.65243901751657
 30
0.0
 10
2.260164267494586
 20
46.47053116209804
 30
0.0
 10
2.327241364780674
 20
46.35478036410595
 30
0.0
 10
2.424344900498733
 20
46.09241127998138
 30
0.0
 10
2.436657525361736
 20
45.94711567376372
 30
0.0
 10
2.353368504548998
 20
45.62132302764132
 30
0.0
 10
2.195510880464177
 20
45.46497419192205
 30
0.0
 10
1.968351970071808
 20
45.37980116107358
 30
0.0
  0
ELLIPSE
  5
CC0A
330
CBD4
100
AcDbEntity
  8
0
100
AcDbEllipse
 10
-0.8883277479623963
 20
43.37803416842308
 30
0.0
 11
0.673530487855897
 21
-1.340282314263903
 31
0.0
210
0.0
220
0.0
230
1.0
 40
0.6134744499317058
 41
0.8199141697227299
 42
2.003105718372864
  0
SPLINE
  5
CC0B
330
CBD4
100
AcDbEntity
  8
0
100
AcDbSpline
210
0.0
220
0.0
230
1.0
 70
     8
 71
     3
 72
    10
 73
     6
 74
     0
 42
0.000000001
 43
0.0000000001
 40
0.0000000000000007
 40
0.0000000000000007
 40
0.0000000000000007
 40
0.0000000000000007
 40
0.1645385929612874
 40
0.1645385929612874
 40
0.3290771859225742
 40
0.3290771859225742
 40
0.3290771859225742
 40
0.3290771859225742
 10
1.968351970071806
 20
45.37980116107358
 30
0.0
 10
1.580801327315939
 20
45.2344893932343
 30
0.0
 10
1.188157284938207
 20
45.07500837088124
 30
0.0
 10
0.3908476249952586
 20
44.72157969789846
 30
0.0
 10
-0.013905379615482
 20
44.5275246610537
 30
0.0
 10
-0.423931647620015
 20
44.31475087644845
 30
0.0
  0
ELLIPSE
  5
CC0C
330
CBD4
100
AcDbEntity
  8
0
100
AcDbEllipse
 10
-2.387261377050458
 20
42.62477682277352
 30
0.0
 11
0.6735304878559068
 21
-1.340282314263919
 31
0.0
210
0.0
220
0.0
230
1.0
 40
0.6134744499317036
 41
0.8199141697227361
 42
2.003105718372863
  0
LINE
  5
CC0D
330
CBD4
100
AcDbEntity
  8
0
100
AcDbLine
 10
-0.423931647620015
 20
44.31475087644847
 30
0.0
 11
-1.922865276708076
 21
43.56149353079891
 31
0.0
  0
ELLIPSE
  5
CC0E
330
CBD4
100
AcDbEntity
  8
0
100
AcDbEllipse
 10
-2.387261378779654
 20
48.9612704495104
 30
0.0
 11
0.8193997375741181
 21
-1.256417156128778
 31
0.0
210
0.0
220
0.0
230
1.0
 40
0.5388095822648836
 41
0.0000000001435015
 42
0.7550720329637592
  0
ELLIPSE
  5
CC0F
330
CBD4
100
AcDbEntity
  8
0
100
AcDbEllipse
 10
4.877837204956656
 20
49.98753025873441
 30
0.0
 11
-17.74233703997128
 21
-11.57661130405069
 31
0.0
210
0.0
220
0.0
230
1.0
 40
0.0872913523692787
 41
5.532780666771408
 42
7.404387711445657
  0
ELLIPSE
  5
CC10
330
CBD4
100
AcDbEntity
  8
0
100
AcDbEllipse
 10
-0.888327747962383
 20
49.9388325734542
 30
0.0
 11
0.8193997375596527
 21
-1.256417156077985
 31
0.0
210
0.0
220
0.0
230
1.0
 40
0.5388095822689485
 41
0.0000000000000251
 42
0.7550720328373182
  0
ELLIPSE
  5
CC11
330
CBD4
100
AcDbEntity
  8
0
100
AcDbEllipse
 10
1.414213562409087
 20
51.64084967703853
 30
0.0
 11
0.9480488983984162
 21
-1.162412700483579
 31
0.0
210
0.0
220
0.0
230
1.0
 40
0.448779614020082
 41
0.0000000000000355
 42
0.702416502782636
  0
SPLINE
  5
CC12
330
CBD4
100
AcDbEntity
  8
0
100
AcDbSpline
210
0.0
220
0.0
230
1.0
 70
     8
 71
     3
 72
    12
 73
     8
 74
     0
 42
0.000000001
 43
0.0000000001
 40
-0.1184914436323652
 40
-0.1184914436323652
 40
-0.1184914436323652
 40
-0.1184914436323652
 40
-0.0753627829472239
 40
-0.0753627829472239
 40
-0.028985685750122
 40
-0.028985685750122
 40
-0.0000000000019333
 40
-0.0000000000019333
 40
-0.0000000000019333
 40
-0.0000000000019333
 10
3.353357059493891
 20
52.32683626565532
 30
0.0
 10
3.353157573815583
 20
52.16788377295313
 30
0.0
 10
3.311934720665081
 20
52.00272134787859
 30
0.0
 10
3.142917988001507
 20
51.66249498152656
 30
0.0
 10
3.009337913627849
 20
51.48781290535481
 30
0.0
 10
2.730584124968205
 20
51.22050774864214
 30
0.0
 10
2.6086950224335
 20
51.12167958340592
 30
0.0
 10
2.47487373419849
 20
51.02847724134512
 30
0.0
  0
ELLIPSE
  5
CC13
330
CBD4
100
AcDbEntity
  8
0
100
AcDbEllipse
 10
24.75307769766481
 20
27.60398043498892
 30
0.0
 11
-0.6444133738665698
 21
1.354522574039247
 31
0.0
210
0.0
220
0.0
230
1.0
 40
0.6257331206090944
 41
0.372512024536416
 42
0.8333043077522734
  0
ELLIPSE
  5
CC14
330
CBD4
100
AcDbEntity
  8
0
100
AcDbEllipse
 10
37.38397948439664
 20
38.95283505022323
 30
0.0
 11
-26.60789148696049
 21
-14.33873511477724
 31
0.0
210
0.0
220
0.0
230
1.0
 40
0.1000225409266445
 41
5.170902668615088
 42
7.08185104812698
  0
ELLIPSE
  5
CC15
330
CBD4
100
AcDbEntity
  8
0
100
AcDbEllipse
 10
24.75307769766484
 20
35.71678057210284
 30
0.0
 11
-0.842574704385554
 21
1.240994708904729
 31
0.0
210
0.0
220
0.0
230
1.0
 40
0.5245233345042645
 41
0.7452041137883523
 42
1.810549179579968
  0
ELLIPSE
  5
CC16
330
CBD4
100
AcDbEntity
  8
0
100
AcDbEllipse
 10
26.1932409204792
 20
28.19209559485274
 30
0.0
 11
0.5208505218990948
 21
-1.406667954365009
 31
0.0
210
0.0
220
0.0
230
1.0
 40
0.6701973449423538
 41
3.592562058822004
 42
4.03292284514348
  0
ELLIPSE
  5
CC17
330
CBD4
100
AcDbEntity
  8
0
100
AcDbEllipse
 10
27.22361107568211
 20
28.53575060445177
 30
0.0
 11
-0.4314118640183616
 21
1.436622359419554
 31
0.0
210
0.0
220
0.0
230
0.9999999999999998
 40
0.6961202208620337
 41
0.5876585946227096
 42
0.9343160604977986
  0
ELLIPSE
  5
CC18
330
CBD4
100
AcDbEntity
  8
0
100
AcDbEllipse
 10
27.88622619987358
 20
37.00394612712714
 30
0.0
 11
1.030044369542928
 21
1.090416707856641
 31
0.0
210
0.0
220
0.0
230
1.0
 40
0.3751864151476544
 41
4.287665715117299
 42
5.610805162114782
  0
SPLINE
  5
CC19
330
CBD4
100
AcDbEntity
  8
0
100
AcDbSpline
210
0.0
220
0.0
230
1.0
 70
     8
 71
     3
 72
    10
 73
     6
 74
     0
 42
0.000000001
 43
0.0000000001
 40
-0.0986315057595738
 40
-0.0986315057595738
 40
-0.0986315057595738
 40
-0.0986315057595738
 40
-0.0493157528797869
 40
-0.0493157528797869
 40
0.0
 40
0.0
 40
0.0
 40
0.0
 10
28.94688637165341
 20
37.61631856282294
 30
0.0
 10
28.83611649560471
 20
37.72095552070962
 30
0.0
 10
28.72552841925186
 20
37.82614679622363
 30
0.0
 10
28.50467084613625
 20
38.03746297919857
 30
0.0
 10
28.39440137134184
 20
38.14358810809848
 30
0.0
 10
28.28427124746194
 20
38.25010906001633
 30
0.0
  0
ELLIPSE
  5
CC1A
330
CBD4
100
AcDbEntity
  8
0
100
AcDbEllipse
 10
27.22361107568211
 20
37.63773662432054
 30
0.0
 11
-1.042846028619087
 21
-1.07818002234942
 31
0.0
210
0.0
220
0.0
230
1.0
 40
0.3623159750592235
 41
1.126298842996775
 42
2.473566334048449
  0
SPLINE
  5
CC1B
330
CBD4
100
AcDbEntity
  8
0
100
AcDbSpline
210
0.0
220
0.0
230
1.0
 70
     8
 71
     3
 72
    10
 73
     6
 74
     0
 42
0.000000001
 43
0.0000000001
 40
0.0
 40
0.0
 40
0.0
 40
0.0
 40
0.0493157528797869
 40
0.0493157528797869
 40
0.0986315057595738
 40
0.0986315057595738
 40
0.0986315057595738
 40
0.0986315057595738
 10
27.12786480446242
 20
36.83299073340849
 30
0.0
 10
27.24457375527805
 20
36.72711232981862
 30
0.0
 10
27.36177223196897
 20
36.62159634294159
 30
0.0
 10
27.59728292221418
 20
36.41139373446582
 30
0.0
 10
27.71559518916934
 20
36.30670701202213
 30
0.0
 10
27.83453850671778
 20
36.20249670080755
 30
0.0
  0
ELLIPSE
  5
CC1C
330
CBD4
100
AcDbEntity
  8
0
100
AcDbEllipse
 10
30.66436780310012
 20
33.98523073583591
 30
0.0
 11
1.075724519468966
 21
1.045378763039138
 31
0.0
210
0.0
220
0.0
230
1.0
 40
0.3273577323099388
 41
4.897499714566539
 42
5.625840623118906
  0
SPLINE
  5
CC1D
330
CBD4
100
AcDbEntity
  8
0
100
AcDbSpline
210
0.0
220
0.0
230
1.0
 70
     8
 71
     3
 72
    10
 73
     6
 74
     0
 42
0.000000001
 43
0.0000000001
 40
-0.4298105547536779
 40
-0.4298105547536779
 40
-0.4298105547536779
 40
-0.4298105547536779
 40
-0.2527935054382426
 40
-0.2527935054382426
 40
-0.0000000000000012
 40
-0.0000000000000012
 40
-0.0000000000000012
 40
-0.0000000000000012
 10
31.72502797487994
 20
34.59760317153171
 30
0.0
 10
31.33646418561678
 20
34.99744637694846
 30
0.0
 10
30.96612836198939
 20
35.43530027477058
 30
0.0
 10
30.05788663961146
 20
36.47789425300082
 30
0.0
 10
29.51469490398118
 20
37.07994748790397
 30
0.0
 10
28.94688637165341
 20
37.61631856282293
 30
0.0
  0
SPLINE
  5
CC1E
330
CBD4
100
AcDbEntity
  8
0
100
AcDbSpline
210
0.0
220
0.0
230
1.0
 70
     8
 71
     3
 72
    10
 73
     6
 74
     0
 42
0.000000001
 43
0.0000000001
 40
0.0000000000000012
 40
0.0000000000000012
 40
0.0000000000000012
 40
0.0000000000000012
 40
0.2527935054382426
 40
0.2527935054382426
 40
0.4298105547536779
 40
0.4298105547536779
 40
0.4298105547536779
 40
0.4298105547536779
 10
27.83453850671779
 20
36.20249670080755
 30
0.0
 10
28.42963267799616
 20
35.81649996448868
 30
0.0
 10
29.0490903032137
 20
35.37475565098767
 30
0.0
 10
30.18245764820767
 20
34.55573276981598
 30
0.0
 10
30.6739347179055
 20
34.19628443228757
 30
0.0
 10
31.1987270999309
 20
33.83150769769386
 30
0.0
  0
ELLIPSE
  5
CC1F
330
CBD4
100
AcDbEntity
  8
0
100
AcDbEllipse
 10
30.66436780310012
 20
28.21521284735476
 30
0.0
 11
0.1870368933165866
 21
1.488293385236427
 31
0.0
210
0.0
220
0.0
230
0.9999999999999998
 40
0.7479997204301321
 41
5.22819043460479
 42
5.956531343157164
  0
ELLIPSE
  5
CC20
330
CBD4
100
AcDbEntity
  8
0
100
AcDbEllipse
 10
21.49038164910489
 20
37.62157003853801
 30
0.0
 11
12.86670137892405
 21
-8.191212071365347
 31
0.0
210
0.0
220
0.0
230
1.0
 40
0.2609200613534022
 41
5.779181046885878
 42
7.116398104046121
  0
ELLIPSE
  5
CC21
330
CBD4
100
AcDbEntity
  8
0
100
AcDbEllipse
 10
20.42972147732507
 20
37.00919760284222
 30
0.0
 11
13.6515271782338
 21
-7.074985500025722
 31
0.0
210
0.0
220
0.0
230
0.9999999999999998
 40
0.1990675239603151
 41
5.717381004953955
 42
7.054598062114195
  0
ELLIPSE
  5
CC22
330
CBD4
100
AcDbEntity
  8
0
100
AcDbEllipse
 10
27.88622619987358
 20
28.40441906100302
 30
0.0
 11
0.3083698224032711
 21
1.467960507858085
 31
0.0
210
0.0
220
0.0
230
1.0
 40
0.7251908855986223
 41
5.288653074036313
 42
6.047746408756593
  0
SPLINE
  5
CC23
330
CBD4
100
AcDbEntity
  8
0
100
AcDbSpline
210
0.0
220
0.0
230
1.0
 70
     8
 71
     3
 72
    10
 73
     6
 74
     0
 42
0.000000001
 43
0.0000000001
 40
-0.4298560553329343
 40
-0.4298560553329343
 40
-0.4298560553329343
 40
-0.4298560553329343
 40
-0.250454504225993
 40
-0.250454504225993
 40
0.0
 40
0.0
 40
0.0
 40
0.0
 10
28.9468863716534
 20
29.01679149669881
 30
0.0
 10
29.3498466108999
 20
28.93214291334331
 30
0.0
 10
29.74135014934365
 20
28.89337903628069
 30
0.0
 10
30.65973652983821
 20
28.85724834525683
 30
0.0
 10
31.17526425677243
 20
28.8966752211723
 30
0.0
 10
31.72502797487994
 20
28.82758528305055
 30
0.0
  0
SPLINE
  5
CC24
330
CBD4
100
AcDbEntity
  8
0
100
AcDbSpline
210
0.0
220
0.0
230
1.0
 70
     8
 71
     3
 72
    10
 73
     6
 74
     0
 42
0.000000001
 43
0.0000000001
 40
0.0
 40
0.0
 40
0.0
 40
0.0
 40
0.250454504225993
 40
0.250454504225993
 40
0.2614164267501718
 40
0.2614164267501718
 40
0.2614164267501718
 40
0.2614164267501718
 10
31.19872709993091
 20
29.57991556933931
 30
0.0
 10
30.45621887052566
 20
29.73008411403007
 30
0.0
 10
29.78159214303243
 20
29.73495766989483
 30
0.0
 10
29.11890116048994
 20
29.76476331034057
 30
0.0
 10
29.0911863704861
 20
29.7660346262403
 30
0.0
 10
29.06354367693111
 20
29.76733286827077
 30
0.0
  0
ELLIPSE
  5
CC25
330
CBD4
100
AcDbEntity
  8
0
100
AcDbEllipse
 10
27.2236110756821
 20
28.53575060445177
 30
0.0
 11
-0.2763935293054534
 21
-1.474315643598095
 31
0.0
210
0.0
220
0.0
230
1.0
 40
0.7317060891393155
 41
2.131227017212001
 42
2.68068779490467
  0
SPLINE
  5
CC26
330
CBD4
100
AcDbEntity
  8
0
100
AcDbSpline
210
0.0
220
0.0
230
1.0
 70
     8
 71
     3
 72
    10
 73
     6
 74
     0
 42
0.000000001
 43
0.0000000001
 40
-0.0986315057595765
 40
-0.0986315057595765
 40
-0.0986315057595765
 40
-0.0986315057595765
 40
-0.0493157528797886
 40
-0.0493157528797886
 40
-0.0000000000000007
 40
-0.0000000000000007
 40
-0.0000000000000007
 40
-0.0000000000000007
 10
28.28427124746193
 20
29.14812304014755
 30
0.0
 10
28.39440137134183
 20
29.12747667872951
 30
0.0
 10
28.50467084613624
 20
29.10627358571753
 30
0.0
 10
28.72552841925185
 20
29.06256541011071
 30
0.0
 10
28.83611649560471
 20
29.04006057432177
 30
0.0
 10
28.94688637165341
 20
29.01679149669881
 30
0.0
  0
ELLIPSE
  5
CC27
330
CBD4
100
AcDbEntity
  8
0
100
AcDbEllipse
 10
27.22361107568211
 20
37.63773662432052
 30
0.0
 11
-0.9743856472127104
 21
1.140426503772106
 31
0.0
210
0.0
220
0.0
230
1.0
 40
0.4267122036849464
 41
0.6924023912953832
 42
1.94596186186324
  0
ELLIPSE
  5
CC28
330
CBD4
100
AcDbEntity
  8
0
100
AcDbEllipse
 10
26.19324092047924
 20
36.79162266097687
 30
0.0
 11
0.9257933986362088
 21
-1.180214634310898
 31
0.0
210
0.0
220
0.0
230
1.0
 40
0.4663712957493054
 41
3.85270409708872
 42
5.071307076913496
  0
SPLINE
  5
CC29
330
CBD4
100
AcDbEntity
  8
0
100
AcDbSpline
210
0.0
220
0.0
230
1.0
 70
     8
 71
     3
 72
    10
 73
     6
 74
     0
 42
0.000000001
 43
0.0000000001
 40
0.0
 40
0.0
 40
0.0
 40
0.0
 40
0.0744752510431561
 40
0.0744752510431561
 40
0.1489505020863121
 40
0.1489505020863121
 40
0.1489505020863121
 40
0.1489505020863121
 10
26.00309232824706
 20
35.9728083476875
 30
0.0
 10
26.19287294243748
 20
36.1117897168736
 30
0.0
 10
26.38157499562059
 20
36.25323057264681
 30
0.0
 10
26.75654733717176
 20
36.54020896160535
 30
0.0
 10
26.94282042218765
 20
36.68574650015066
 30
0.0
 10
27.12786480446242
 20
36.83299073340849
 30
0.0
  0
ELLIPSE
  5
CC2A
330
CBD4
100
AcDbEntity
  8
0
100
AcDbEllipse
 10
27.22361107568212
 20
37.63773662432052
 30
0.0
 11
-1.500000000000001
 21
-0.0000000000000876
 31
0.0
210
0.0
220
0.0
230
1.0
 40
0.5773502691896267
 41
3.926990816987002
 42
5.497787143781899
  0
ELLIPSE
  5
CC2B
330
CBD4
100
AcDbEntity
  8
0
100
AcDbEllipse
 10
27.22361107568211
 20
28.53575060445177
 30
0.0
 11
1.5
 21
-0.0000000000000893
 31
0.0
210
0.0
220
0.0
230
1.0
 40
0.577350269189626
 41
0.7853981633976908
 42
2.356194490192585
  0
SPLINE
  5
CC2C
330
CBD4
100
AcDbEntity
  8
0
100
AcDbSpline
210
0.0
220
0.0
230
1.0
 70
     8
 71
     3
 72
     8
 73
     4
 74
     0
 42
0.000000001
 43
0.0000000001
 40
0.0
 40
0.0
 40
0.0
 40
0.0
 40
0.2059637139893911
 40
0.2059637139893911
 40
0.2059637139893911
 40
0.2059637139893911
 10
24.32084572784844
 20
34.99278193773311
 30
0.0
 10
24.88372180038386
 20
35.32135274810833
 30
0.0
 10
25.45223887105593
 20
35.65614241501382
 30
0.0
 10
26.00309232824706
 20
35.9728083476875
 30
0.0
  0
SPLINE
  5
CC2D
330
CBD4
100
AcDbEntity
  8
0
100
AcDbSpline
210
0.0
220
0.0
230
1.0
 70
     8
 71
     3
 72
    12
 73
     8
 74
     0
 42
0.000000001
 43
0.0000000001
 40
0.1197625046292721
 40
0.1197625046292721
 40
0.1197625046292721
 40
0.1197625046292721
 40
0.1702475024050768
 40
0.1702475024050768
 40
0.2269966698734351
 40
0.2269966698734351
 40
0.2837458373417934
 40
0.2837458373417934
 40
0.2837458373417934
 40
0.2837458373417934
 10
0.1623122079920147
 20
16.17542440031822
 30
0.0
 10
0.2743564518823316
 20
16.06804913497307
 30
0.0
 10
0.3849338315150619
 20
15.9623693781893
 30
0.0
 10
0.6175643911964302
 20
15.74238447722394
 30
0.0
 10
0.7393365146691222
 20
15.62863204988298
 30
0.0
 10
0.9808434894001605
 20
15.40760244363322
 30
0.0
 10
1.100577689260053
 20
15.30032291216009
 30
0.0
 10
1.219371845111056
 20
15.19687887791167
 30
0.0
  0
SPLINE
  5
CC2E
330
CBD4
100
AcDbEntity
  8
0
100
AcDbSpline
210
0.0
220
0.0
230
1.0
 70
     8
 71
     3
 72
     8
 73
     4
 74
     0
 42
0.000000001
 43
0.0000000001
 40
0.0
 40
0.0
 40
0.0
 40
0.0
 40
0.0275158343739833
 40
0.0275158343739833
 40
0.0275158343739833
 40
0.0275158343739833
 10
1.219371845131502
 20
15.19687887785863
 30
0.0
 10
1.284476171666635
 20
15.14018708072492
 30
0.0
 10
1.349419981620443
 20
15.08329428755146
 30
0.0
 10
1.414213562373118
 20
15.02621647414778
 30
0.0
  0
SPLINE
  5
CC2F
330
CBD4
100
AcDbEntity
  8
0
100
AcDbSpline
210
0.0
220
0.0
230
1.0
 70
     8
 71
     3
 72
    16
 73
    12
 74
     0
 42
0.000000001
 43
0.0000000001
 40
0.6935097995171882
 40
0.6935097995171882
 40
0.6935097995171882
 40
0.6935097995171882
 40
0.7904272886253814
 40
0.7904272886253814
 40
0.8873447777335744
 40
0.8873447777335744
 40
0.9842622668417677
 40
0.9842622668417677
 40
1.08117975594996
 40
1.08117975594996
 40
1.178097245058154
 40
1.178097245058154
 40
1.178097245058154
 40
1.178097245058154
 10
-8.788259628356392
 20
9.916531381255841
 30
0.0
 10
-8.406484364339444
 20
10.21991080221209
 30
0.0
 10
-8.000968530110249
 20
10.53396560122162
 30
0.0
 10
-7.146851724329148
 20
11.17982945652359
 30
0.0
 10
-6.698249501423512
 20
11.51164157997579
 30
0.0
 10
-5.762589064831842
 20
12.18948719622539
 30
0.0
 10
-5.275530755114208
 20
12.53552180154152
 30
0.0
 10
-4.26784423193637
 20
13.23827309474073
 30
0.0
 10
-3.747216600036082
 20
13.59498992449422
 30
0.0
 10
-2.677525558205777
 20
14.31554436690147
 30
0.0
 10
-2.128463144089971
 20
14.67938161002714
 30
0.0
 10
-1.567861641211782
 20
15.04499005632868
 30
0.0
  0
LINE
  5
CC30
330
CBD4
100
AcDbEntity
  8
0
100
AcDbLine
 10
-1.567861641212418
 20
15.0449900562837
 30
0.0
 11
-0.0689280104027024
 21
16.02255218026715
 31
0.0
  0
SPLINE
  5
CC31
330
CBD4
100
AcDbEntity
  8
0
100
AcDbSpline
210
0.0
220
0.0
230
1.0
 70
     8
 71
     3
 72
    14
 73
    10
 74
     0
 42
0.000000001
 43
0.0000000001
 40
0.0
 40
0.0
 40
0.0
 40
0.0
 40
0.0658154371846055
 40
0.0658154371846055
 40
0.1316308743692109
 40
0.1316308743692109
 40
0.1974463115538163
 40
0.1974463115538163
 40
0.1986913068503342
 40
0.1986913068503342
 40
0.1986913068503342
 40
0.1986913068503342
 10
-0.0689280104027046
 20
16.02255218026717
 30
0.0
 10
0.0972386363538425
 20
16.13092136806823
 30
0.0
 10
0.2627023297814413
 20
16.24205030655041
 30
0.0
 10
0.5919953187793304
 20
16.46924128929301
 30
0.0
 10
0.7558253602142595
 20
16.58530191147175
 30
0.0
 10
1.081748214192694
 20
16.8217566368353
 30
0.0
 10
1.243841938688965
 20
16.94214972923021
 30
0.0
 10
1.40811494886837
 20
17.06673622816392
 30
0.0
 10
1.411164411103911
 20
17.06904988329005
 30
0.0
 10
1.414213562373116
 20
17.07136420930631
 30
0.0
  0
SPLINE
  5
CC32
330
CBD4
100
AcDbEntity
  8
0
100
AcDbSpline
210
0.0
220
0.0
230
1.0
 70
     8
 71
     3
 72
    12
 73
     8
 74
     0
 42
0.000000001
 43
0.0000000001
 40
0.119762504629275
 40
0.119762504629275
 40
0.119762504629275
 40
0.119762504629275
 40
0.1702475024050758
 40
0.1702475024050758
 40
0.2269966698734342
 40
0.2269966698734342
 40
0.2837458373417926
 40
0.2837458373417926
 40
0.2837458373417926
 40
0.2837458373417926
 10
0.1623122079919792
 20
48.83528763742725
 30
0.0
 10
0.274356451882285
 20
48.72791237208212
 30
0.0
 10
0.3849338315150064
 20
48.62223261529838
 30
0.0
 10
0.6175643911963702
 20
48.40224771433303
 30
0.0
 10
0.7393365146690667
 20
48.28849528699206
 30
0.0
 10
0.9808434894001184
 20
48.06746568074228
 30
0.0
 10
1.100577689259969
 20
47.96018614926919
 30
0.0
 10
1.219371845111008
 20
47.85674211502073
 30
0.0
  0
SPLINE
  5
CC33
330
CBD4
100
AcDbEntity
  8
0
100
AcDbSpline
210
0.0
220
0.0
230
1.0
 70
     8
 71
     3
 72
    16
 73
    12
 74
     0
 42
0.000000001
 43
0.0000000001
 40
0.0
 40
0.0
 40
0.0
 40
0.0
 40
0.034649601061001
 40
0.034649601061001
 40
0.069299202122002
 40
0.069299202122002
 40
0.103948803183003
 40
0.103948803183003
 40
0.138598404244004
 40
0.138598404244004
 40
0.1732480053050051
 40
0.1732480053050051
 40
0.1732480053050051
 40
0.1732480053050051
 10
1.219371845131449
 20
47.85674211496767
 30
0.0
 10
1.301355146496292
 20
47.78535237888278
 30
0.0
 10
1.383083910811575
 20
47.71364391598157
 30
0.0
 10
1.546073450168081
 20
47.5696533393154
 30
0.0
 10
1.627334234588824
 20
47.4973711996025
 30
0.0
 10
1.789426715757107
 20
47.35228958174807
 30
0.0
 10
1.87025841674395
 20
47.27949007860538
 30
0.0
 10
2.031529219689283
 20
47.13342337526859
 30
0.0
 10
2.111968322439001
 20
47.06015615146855
 30
0.0
 10
2.272487935454605
 20
46.91319770766241
 30
0.0
 10
2.35256844440862
 20
46.83950646559648
 30
0.0
 10
2.432485425724772
 20
46.76562244827258
 30
0.0
  0
SPLINE
  5
CC34
330
CBD4
100
AcDbEntity
  8
0
100
AcDbSpline
210
0.0
220
0.0
230
1.0
 70
     8
 71
     3
 72
    16
 73
    12
 74
     0
 42
0.000000001
 43
0.0000000001
 40
0.0000000000000001
 40
0.0000000000000001
 40
0.0000000000000001
 40
0.0000000000000001
 40
0.0240179547133753
 40
0.0240179547133753
 40
0.0480359094267506
 40
0.0480359094267506
 40
0.0720538641401258
 40
0.0720538641401258
 40
0.0960718188535011
 40
0.0960718188535011
 40
0.1200897735668763
 40
0.1200897735668763
 40
0.1200897735668763
 40
0.1200897735668763
 10
2.432485425724772
 20
46.7656224482726
 30
0.0
 10
2.523481340448687
 20
46.68149585053151
 30
0.0
 10
2.611608568038894
 20
46.59165134711389
 30
0.0
 10
2.780326293174892
 20
46.397799051297
 30
0.0
 10
2.860947990291917
 20
46.29379779007529
 30
0.0
 10
3.011244182499588
 20
46.06786721541474
 30
0.0
 10
3.080989473842949
 20
45.94589669628141
 30
0.0
 10
3.203039760352424
 20
45.67945905578342
 30
0.0
 10
3.255395778161762
 20
45.534806434581
 30
0.0
 10
3.330746988913895
 20
45.22090788408072
 30
0.0
 10
3.353553390593184
 20
45.05136533917334
 30
0.0
 10
3.353553390593184
 20
44.87349546307812
 30
0.0
  0
SPLINE
  5
CC35
330
CBD4
100
AcDbEntity
  8
0
100
AcDbSpline
210
0.0
220
0.0
230
1.0
 70
     8
 71
     3
 72
    16
 73
    12
 74
     0
 42
0.000000001
 43
0.0000000001
 40
0.6935097995172033
 40
0.6935097995172033
 40
0.6935097995172033
 40
0.6935097995172033
 40
0.7904272886253935
 40
0.7904272886253935
 40
0.8873447777335837
 40
0.8873447777335837
 40
0.9842622668417739
 40
0.9842622668417739
 40
1.081179755949964
 40
1.081179755949964
 40
1.178097245058154
 40
1.178097245058154
 40
1.178097245058154
 40
1.178097245058154
 10
-8.788259628356476
 20
42.57639461836489
 30
0.0
 10
-8.406484364339533
 20
42.87977403932113
 30
0.0
 10
-8.000968530110345
 20
43.19382883833061
 30
0.0
 10
-7.146851724329263
 20
43.83969269363258
 30
0.0
 10
-6.698249501423636
 20
44.17150481708477
 30
0.0
 10
-5.762589064831984
 20
44.84935043333435
 30
0.0
 10
-5.275530755114363
 20
45.19538503865047
 30
0.0
 10
-4.267844231936552
 20
45.89813633184966
 30
0.0
 10
-3.747216600036282
 20
46.25485316160315
 30
0.0
 10
-2.677525558206013
 20
46.97540760401037
 30
0.0
 10
-2.12846314409022
 20
47.33924484713605
 30
0.0
 10
-1.567861641212049
 20
47.70485329343757
 30
0.0
  0
LINE
  5
CC36
330
CBD4
100
AcDbEntity
  8
0
100
AcDbLine
 10
-1.567861641212675
 20
47.70485329339259
 30
0.0
 11
-0.0689280104027046
 21
48.68241541737622
 31
0.0
  0
SPLINE
  5
CC37
330
CBD4
100
AcDbEntity
  8
0
100
AcDbSpline
210
0.0
220
0.0
230
1.0
 70
     8
 71
     3
 72
    16
 73
    12
 74
     0
 42
0.000000001
 43
0.0000000001
 40
0.0
 40
0.0
 40
0.0
 40
0.0
 40
0.0658154371853317
 40
0.0658154371853317
 40
0.1316308743706633
 40
0.1316308743706633
 40
0.197446311555995
 40
0.197446311555995
 40
0.2632617487413267
 40
0.2632617487413267
 40
0.3290771859266583
 40
0.3290771859266583
 40
0.3290771859266583
 40
0.3290771859266583
 10
-0.0689280104027068
 20
48.68241541737622
 30
0.0
 10
0.0972386363556743
 20
48.79078460517849
 30
0.0
 10
0.2627023297850917
 20
48.90191354366192
 30
0.0
 10
0.5919953187865801
 20
49.12910452640713
 30
0.0
 10
0.7558253602232901
 20
49.24516514858723
 30
0.0
 10
1.081748214205247
 20
49.48161987395359
 30
0.0
 10
1.243841938703253
 20
49.60201296634992
 30
0.0
 10
1.566288412210492
 20
49.84655999926769
 30
0.0
 10
1.726641990964223
 20
49.97071330492726
 30
0.0
 10
2.045676498496047
 20
50.22225956382595
 30
0.0
 10
2.204358030550344
 20
50.34965214729568
 30
0.0
 10
2.362262460819128
 20
50.47843697656443
 30
0.0
  0
SPLINE
  5
CC38
330
CBD4
100
AcDbEntity
  8
0
100
AcDbSpline
210
0.0
220
0.0
230
1.0
 70
     8
 71
     3
 72
    16
 73
    12
 74
     0
 42
0.000000001
 43
0.0000000001
 40
0.000000000003847
 40
0.000000000003847
 40
0.000000000003847
 40
0.000000000003847
 40
0.0236982887295506
 40
0.0236982887295506
 40
0.0473965774552543
 40
0.0473965774552543
 40
0.0710948661809579
 40
0.0710948661809579
 40
0.0947931549066615
 40
0.0947931549066615
 40
0.1184914436323652
 40
0.1184914436323652
 40
0.1184914436323652
 40
0.1184914436323652
 10
2.362262460842361
 20
50.47843697658337
 30
0.0
 10
2.454338536397575
 20
50.5535330435551
 30
0.0
 10
2.544254781093211
 20
50.63416142966461
 30
0.0
 10
2.718440697878339
 20
50.81002517352662
 30
0.0
 10
2.80276150499255
 20
50.90523332362753
 30
0.0
 10
2.962889928479852
 20
51.1159022837553
 30
0.0
 10
3.038833525807329
 20
51.23140226482459
 30
0.0
 10
3.175179023124854
 20
51.49070280318459
 30
0.0
 10
3.235735058682294
 20
51.63481410818874
 30
0.0
 10
3.325094232668073
 20
51.95727049998809
 30
0.0
 10
3.353553390593184
 20
52.13626526418082
 30
0.0
 10
3.353553390593184
 20
52.32686184090511
 30
0.0
  0
ELLIPSE
  5
CC39
330
CBD4
100
AcDbEntity
  8
0
100
AcDbEllipse
 10
37.38397948439664
 20
6.292971813114229
 30
0.0
 11
-26.60789148696049
 21
-14.33873511477723
 31
0.0
210
0.0
220
0.0
230
1.0
 40
0.1000225409266445
 41
5.170902668615097
 42
7.081851048126988
  0
SPLINE
  5
CC3A
330
CBD4
100
AcDbEntity
  8
0
100
AcDbSpline
210
0.0
220
0.0
230
1.0
 70
     8
 71
     3
 72
    10
 73
     6
 74
     0
 42
0.000000001
 43
0.0000000001
 40
0.0
 40
0.0
 40
0.0
 40
0.0
 40
0.0493157528797867
 40
0.0493157528797867
 40
0.0986315057595734
 40
0.0986315057595734
 40
0.0986315057595734
 40
0.0986315057595734
 10
27.12786480446239
 20
4.173127496299473
 30
0.0
 10
27.244573755278
 20
4.067249092709595
 30
0.0
 10
27.36177223196893
 20
3.961733105832552
 30
0.0
 10
27.59728292221411
 20
3.751530497356814
 30
0.0
 10
27.7155951891693
 20
3.646843774913124
 30
0.0
 10
27.83453850671774
 20
3.542633463698532
 30
0.0
  0
SPLINE
  5
CC3B
330
CBD4
100
AcDbEntity
  8
0
100
AcDbSpline
210
0.0
220
0.0
230
1.0
 70
     8
 71
     3
 72
    10
 73
     6
 74
     0
 42
0.000000001
 43
0.0000000001
 40
0.0000000000000004
 40
0.0000000000000004
 40
0.0000000000000004
 40
0.0000000000000004
 40
0.2527935054382432
 40
0.2527935054382432
 40
0.4298105547536753
 40
0.4298105547536753
 40
0.4298105547536753
 40
0.4298105547536753
 10
27.83453850671774
 20
3.542633463698514
 30
0.0
 10
28.42963267799608
 20
3.156636727379655
 30
0.0
 10
29.04909030321366
 20
2.714892413878615
 30
0.0
 10
30.18245764820763
 20
1.895869532706937
 30
0.0
 10
30.67393471790547
 20
1.536421195178547
 30
0.0
 10
31.19872709993086
 20
1.171644460584859
 30
0.0
  0
ELLIPSE
  5
CC3C
330
CBD4
100
AcDbEntity
  8
0
100
AcDbEllipse
 10
20.42972147732502
 20
4.349334365733215
 30
0.0
 11
13.6515271782338
 21
-7.074985500025722
 31
0.0
210
0.0
220
0.0
230
0.9999999999999998
 40
0.1990675239603151
 41
5.717381004953954
 42
7.054598062114197
  0
SPLINE
  5
CC3D
330
CBD4
100
AcDbEntity
  8
0
100
AcDbSpline
210
0.0
220
0.0
230
1.0
 70
     8
 71
     3
 72
    10
 73
     6
 74
     0
 42
0.000000001
 43
0.0000000001
 40
0.0
 40
0.0
 40
0.0
 40
0.0
 40
0.2504545042259934
 40
0.2504545042259934
 40
0.2614164267501706
 40
0.2614164267501706
 40
0.2614164267501706
 40
0.2614164267501706
 10
31.19872709993086
 20
-3.079947667769697
 30
0.0
 10
30.4562188705256
 20
-2.929779123078932
 30
0.0
 10
29.7815921430324
 20
-2.924905567214182
 30
0.0
 10
29.1189011604899
 20
-2.895099926768436
 30
0.0
 10
29.09118637048606
 20
-2.893828610868718
 30
0.0
 10
29.06354367693108
 20
-2.892530368838261
 30
0.0
  0
SPLINE
  5
CC3E
330
CBD4
100
AcDbEntity
  8
0
100
AcDbSpline
210
0.0
220
0.0
230
1.0
 70
     8
 71
     3
 72
    10
 73
     6
 74
     0
 42
0.000000001
 43
0.0000000001
 40
0.0
 40
0.0
 40
0.0
 40
0.0
 40
0.0744752510431552
 40
0.0744752510431552
 40
0.1489505020863105
 40
0.1489505020863105
 40
0.1489505020863105
 40
0.1489505020863105
 10
26.00309232824704
 20
3.312945110578491
 30
0.0
 10
26.19287294243746
 20
3.451926479764608
 30
0.0
 10
26.38157499562057
 20
3.593367335537829
 30
0.0
 10
26.7565473371717
 20
3.880345724496345
 30
0.0
 10
26.94282042218761
 20
4.025883263041638
 30
0.0
 10
27.12786480446239
 20
4.173127496299473
 30
0.0
  0
SPLINE
  5
CC3F
330
CBD4
100
AcDbEntity
  8
0
100
AcDbSpline
210
0.0
220
0.0
230
1.0
 70
     8
 71
     3
 72
     8
 73
     4
 74
     0
 42
0.000000001
 43
0.0000000001
 40
0.0000000000000003
 40
0.0000000000000003
 40
0.0000000000000003
 40
0.0000000000000003
 40
0.2059636104117029
 40
0.2059636104117029
 40
0.2059636104117029
 40
0.2059636104117029
 10
24.3208457278484
 20
2.332918700624104
 30
0.0
 10
24.88372151731744
 20
2.66148934576341
 30
0.0
 10
25.4522367632112
 20
2.996277966180334
 30
0.0
 10
26.00309232824704
 20
3.312945110578491
 30
0.0
  0
ELLIPSE
  5
CC40
330
CBD4
100
AcDbEntity
  8
0
100
AcDbEllipse
 10
32.69493313105706
 20
0.7412199537870956
 30
0.0
 11
-1.185309973000764
 21
-4.029272920503762
 31
0.0
210
0.0
220
0.0
230
1.0
 40
0.370681690811008
 41
4.714609510599322
 42
6.051826567759563
  0
SPLINE
  5
CC41
330
CBD4
100
AcDbEntity
  8
0
100
AcDbSpline
210
0.0
220
0.0
230
1.0
 70
     8
 71
     3
 72
    10
 73
     6
 74
     0
 42
0.000000001
 43
0.0000000001
 40
0.1396843436543107
 40
0.1396843436543107
 40
0.1396843436543107
 40
0.1396843436543107
 40
0.1418729186708977
 40
0.1418729186708977
 40
0.2837458373417934
 40
0.2837458373417934
 40
0.2837458373417934
 40
0.2837458373417934
 10
0.0693419984345889
 20
16.11346830884424
 30
0.0
 10
0.0733158987165772
 20
16.10883753551215
 30
0.0
 10
0.0772851297747801
 20
16.10420914567886
 30
0.0
 10
0.3382527865601892
 20
15.79970912663859
 30
0.0
 10
0.5760098970502115
 20
15.5096123565423
 30
0.0
 10
0.8038718486761986
 20
15.23845957185182
 30
0.0
  0
SPLINE
  5
CC42
330
CBD4
100
AcDbEntity
  8
0
100
AcDbSpline
210
0.0
220
0.0
230
1.0
 70
     8
 71
     3
 72
    10
 73
     6
 74
     0
 42
0.000000001
 43
0.0000000001
 40
0.0
 40
0.0
 40
0.0
 40
0.0
 40
0.0866240026524995
 40
0.0866240026524995
 40
0.0887760121734755
 40
0.0887760121734755
 40
0.0887760121734755
 40
0.0887760121734755
 10
0.803871848743871
 20
15.23845957180432
 30
0.0
 10
1.003838624677091
 20
15.05657320804497
 30
0.0
 10
1.202264697571484
 20
14.87265625415819
 30
0.0
 10
1.404415132576237
 20
14.68264789382908
 30
0.0
 10
1.409314713211222
 20
14.6780410033276
 30
0.0
 10
1.414213572595119
 20
14.67343319989024
 30
0.0
  0
SPLINE
  5
CC43
330
CBD4
100
AcDbEntity
  8
0
100
AcDbSpline
210
0.0
220
0.0
230
1.0
 70
     8
 71
     3
 72
    10
 73
     6
 74
     0
 42
0.000000001
 43
0.0000000001
 40
0.0779253004235674
 40
0.0779253004235674
 40
0.0779253004235674
 40
0.0779253004235674
 40
0.1645385929612879
 40
0.1645385929612879
 40
0.3290771859225755
 40
0.3290771859225755
 40
0.3290771859225755
 40
0.3290771859225755
 10
1.414196531673326
 20
12.50361963116612
 30
0.0
 10
1.207541540853511
 20
12.41970071287237
 30
0.0
 10
0.9993547868024577
 20
12.33145341432568
 30
0.0
 10
0.3908476249952719
 20
12.06171646078944
 30
0.0
 10
-0.0139053796154753
 20
11.86766142394468
 30
0.0
 10
-0.4239316476200106
 20
11.65488763933945
 30
0.0
  0
LINE
  5
CC44
330
CBD4
100
AcDbEntity
  8
0
100
AcDbLine
 10
-0.4239316476200128
 20
11.65488763933944
 30
0.0
 11
-1.922865276707803
 21
10.90163029369002
 31
0.0
  0
ELLIPSE
  5
CC45
330
CBD4
100
AcDbEntity
  8
0
100
AcDbEllipse
 10
4.877837204956929
 20
17.32766702162553
 30
0.0
 11
-17.74233703997129
 21
-11.57661130405069
 31
0.0
210
0.0
220
0.0
230
1.0
 40
0.087291352369279
 41
5.532780666771417
 42
7.404387711445652
  0
ELLIPSE
  5
CC46
330
CBD4
100
AcDbEntity
  8
0
100
AcDbEllipse
 10
0.1437018336545881
 20
13.5656651763855
 30
0.0
 11
1.679777606426225
 21
-2.113846539592924
 31
0.0
210
0.0
220
0.0
230
1.0
 40
0.6605596098195701
 41
3.711761074681952
 42
5.013199698257078
  0
ELLIPSE
  5
CC47
330
CBD4
100
AcDbEntity
  8
0
100
AcDbEllipse
 10
-7.299254514594921
 20
14.65102843913361
 30
0.0
 11
8.166754732810648
 21
0.0000000000000003
 31
0.0
210
0.0
220
0.0
230
1.0
 40
0.5773502691896258
 41
5.654866776461627
 42
6.408095538707124
  0
LINE
  5
CC48
330
CBD4
100
AcDbEntity
  8
0
100
AcDbLine
 10
-1.922865276707803
 20
10.90163029369002
 30
0.0
 11
-0.6922111468590742
 21
11.87957510181864
 31
0.0
  0
LINE
  5
CC49
330
CBD4
100
AcDbEntity
  8
0
100
AcDbLine
 10
-0.6922111468590742
 20
11.87957510181864
 30
0.0
 11
-0.4239316476200128
 21
11.65488763933944
 31
0.0
  0
ELLIPSE
  5
CC4A
330
CBD4
100
AcDbEntity
  8
0
100
AcDbEllipse
 10
28.51822053345323
 20
-0.8232235130044873
 30
0.0
 11
7.592729584066601
 21
0.0000000000000011
 31
0.0
210
0.0
220
0.0
230
1.0
 40
0.577350269189626
 41
1.66096275323763
 42
1.90842948738754
  0
ELLIPSE
  5
CC4B
330
CBD4
100
AcDbEntity
  8
0
100
AcDbEllipse
 10
23.11059621236248
 20
0.3057225243888029
 30
0.0
 11
1.624629784830869
 21
-3.87305797300278
 31
0.0
210
0.0
220
0.0
230
1.0
 40
0.4799246488165455
 41
0.0
 42
1.910948379511891
  0
LINE
  5
CC4C
330
CBD4
100
AcDbEntity
  8
0
100
AcDbLine
 10
19.8481276517296
 20
-5.617324265921173
 30
0.0
 11
24.73522599719335
 21
-3.567335448614006
 31
0.0
  0
SPLINE
  5
CC4D
330
CBD4
100
AcDbEntity
  8
0
100
AcDbSpline
210
0.0
220
0.0
230
1.0
 70
     8
 71
     3
 72
    16
 73
    12
 74
     0
 42
0.000000001
 43
0.0000000001
 40
3.298672286269282
 40
3.298672286269282
 40
3.298672286269282
 40
3.298672286269282
 40
3.440463867569783
 40
3.440463867569783
 40
3.582255448870285
 40
3.582255448870285
 40
3.724047030170786
 40
3.724047030170786
 40
3.865838611471288
 40
3.865838611471288
 40
4.00763019277179
 40
4.00763019277179
 40
4.00763019277179
 40
4.00763019277179
 10
24.73522599719335
 20
-3.567335448613988
 30
0.0
 10
24.94969425649467
 20
-3.47737254994568
 30
0.0
 10
25.18729782653821
 20
-3.391265854332452
 30
0.0
 10
25.69941606904236
 20
-3.234874724641159
 30
0.0
 10
25.97390852098023
 20
-3.164571221383845
 30
0.0
 10
26.54945472717247
 20
-3.045253970325303
 30
0.0
 10
26.85049748110609
 20
-2.996227155338009
 30
0.0
 10
27.46835216665928
 20
-2.922822812013565
 30
0.0
 10
27.78515788456243
 20
-2.898438133872618
 30
0.0
 10
28.42354108148017
 20
-2.875871084495149
 30
0.0
 10
28.7451140257621
 20
-2.877686658034397
 30
0.0
 10
29.06354692526421
 20
-2.892544209927043
 30
0.0
  0
LINE
  5
CC4E
330
CBD4
100
AcDbEntity
  8
0
100
AcDbLine
 10
26.16295090390221
 20
-25.29337183544568
 30
0.0
 11
26.16295090390224
 21
-3.51174019696145
 31
0.0
  0
LINE
  5
CC4F
330
CBD4
100
AcDbEntity
  8
0
100
AcDbLine
 10
28.28427124746188
 20
-3.511740196961454
 30
0.0
 11
28.28427124746185
 21
-23.64117014202024
 31
0.0
  0
LINE
  5
CC50
330
CBD4
100
AcDbEntity
  8
0
100
AcDbLine
 10
26.16295090390225
 20
5.59024582290732
 30
0.0
 11
26.16295090390226
 21
15.73619126967195
 31
0.0
  0
LINE
  5
CC51
330
CBD4
100
AcDbEntity
  8
0
100
AcDbLine
 10
26.16295090390227
 20
19.00217759338282
 30
0.0
 11
26.16295090390228
 21
29.14812304014756
 31
0.0
  0
LINE
  5
CC52
330
CBD4
100
AcDbEntity
  8
0
100
AcDbLine
 10
26.1629509039023
 20
38.25010906001632
 30
0.0
 11
26.16295090390231
 21
47.98780621631711
 31
0.0
  0
LINE
  5
CC53
330
CBD4
100
AcDbEntity
  8
0
100
AcDbLine
 10
26.16295090390219
 20
-43.86805913805198
 30
0.0
 11
26.16295090390221
 21
-25.29337183544568
 31
0.0
  0
LINE
  5
CC54
330
CBD4
100
AcDbEntity
  8
0
100
AcDbLine
 10
2.474873734152753
 20
32.67849532392233
 30
0.0
 11
2.474873734163753
 21
43.72239031988553
 31
0.0
  0
LINE
  5
CC55
330
CBD4
100
AcDbEntity
  8
0
100
AcDbLine
 10
2.474873734170865
 20
51.02847724133233
 30
0.0
 11
2.474873734152822
 21
61.66412394685661
 31
0.0
  0
ELLIPSE
  5
CC56
330
CBD4
100
AcDbEntity
  8
0
100
AcDbEllipse
 10
0.3535533905931798
 20
62.88886881824819
 30
0.0
 11
1.500000000000001
 21
0.0
 31
0.0
210
0.0
220
0.0
230
1.0
 40
0.5773502691896259
 41
5.497787143782133
 42
7.068583470577028
  0
LINE
  5
CC57
330
CBD4
100
AcDbEntity
  8
0
100
AcDbLine
 10
1.414213562372996
 20
62.2764963825524
 30
0.0
 11
1.414213562373001
 21
63.50124125394398
 31
0.0
  0
ELLIPSE
  5
CC58
330
CBD4
100
AcDbEntity
  8
0
100
AcDbEllipse
 10
0.3535533905931798
 20
62.8888688182482
 30
0.0
 11
3.000000000000002
 21
0.0
 31
0.0
210
0.0
220
0.0
230
1.0
 40
0.5773502691896259
 41
5.497787143782138
 42
7.068583470577033
  0
ELLIPSE
  5
CC59
330
CBD4
100
AcDbEntity
  8
0
100
AcDbEllipse
 10
27.22361107568213
 20
47.3754337806213
 30
0.0
 11
-3.0
 21
-0.0000000000001744
 31
0.0
210
0.0
220
0.0
230
1.0
 40
0.5773502691896267
 41
3.926990816987002
 42
5.497787143781898
  0
LINE
  5
CC5A
330
CBD4
100
AcDbEntity
  8
0
100
AcDbLine
 10
28.28427124746193
 20
29.14812304014755
 30
0.0
 11
28.28427124746191
 21
19.00217759338287
 31
0.0
  0
LINE
  5
CC5B
330
CBD4
100
AcDbEntity
  8
0
100
AcDbLine
 10
28.28427124746195
 20
47.98780621631709
 30
0.0
 11
28.28427124746194
 21
38.25010906001633
 31
0.0
  0
LINE
  5
CC5C
330
CBD4
100
AcDbEntity
  8
0
100
AcDbLine
 10
28.28427124746191
 20
15.73619126967191
 30
0.0
 11
28.2842712474619
 21
5.590245822907293
 31
0.0
  0
LINE
  5
CC5D
330
CBD4
100
AcDbEntity
  8
0
100
AcDbLine
 10
26.16295090390231
 20
47.98780621631711
 30
0.0
 11
25.10229073212248
 21
48.6001786520129
 31
0.0
  0
ELLIPSE
  5
CC5E
330
CBD4
100
AcDbEntity
  8
0
100
AcDbEllipse
 10
27.22361107568213
 20
47.37543378062132
 30
0.0
 11
1.5
 21
-0.0000000000000896
 31
0.0
210
0.0
220
0.0
230
1.0
 40
0.5773502691896259
 41
0.7853981633976855
 42
2.356194490192581
  0
LINE
  5
CC5F
330
CBD4
100
AcDbEntity
  8
0
100
AcDbLine
 10
1.414213562373001
 20
63.50124125394398
 30
0.0
 11
2.474873734152824
 21
64.11361368963979
 31
0.0
  0
LINE
  5
CC60
330
CBD4
100
AcDbEntity
  8
0
100
AcDbLine
 10
2.474873734152822
 20
61.66412394685661
 30
0.0
 11
1.414213562373001
 21
62.27649638255241
 31
0.0
  0
LINE
  5
CC61
330
CBD4
100
AcDbEntity
  8
0
100
AcDbLine
 10
29.34493141924177
 20
48.60017865201289
 30
0.0
 11
28.28427124746195
 21
47.98780621631709
 31
0.0
  0
ELLIPSE
  5
CC62
330
CBD4
100
AcDbEntity
  8
0
100
AcDbEllipse
 10
24.04163056034254
 20
-42.64331426666039
 30
0.0
 11
1.499999999999998
 21
-2.598076211353314
 31
0.0
210
0.0
220
0.0
230
0.9999999999999998
 40
0.5773502691896259
 41
0.0000000000000043
 42
0.7853981633974531
  0
LINE
  5
CC63
330
CBD4
100
AcDbEntity
  8
0
100
AcDbLine
 10
3.353553390593184
 20
52.32686184090511
 30
0.0
 11
3.35355339059318
 21
62.8888688182482
 31
0.0
  0
LINE
  5
CC64
330
CBD4
100
AcDbEntity
  8
0
100
AcDbLine
 10
3.353553390593189
 20
34.31148848577264
 30
0.0
 11
3.353553390593184
 21
44.87349546307812
 31
0.0
  0
SPLINE
  5
CC65
330
CBD4
100
AcDbEntity
  8
0
100
AcDbSpline
210
0.0
220
0.0
230
1.0
 70
     8
 71
     3
 72
     8
 73
     4
 74
     0
 42
0.000000001
 43
0.0000000001
 40
-1.0
 40
-1.0
 40
-1.0
 40
-1.0
 40
0.0
 40
0.0
 40
0.0
 40
0.0
 10
26.16295090390221
 20
-25.29337183544567
 30
0.0
 10
26.71831127117201
 20
-24.4220004800967
 30
0.0
 10
27.72891088019203
 20
-23.87126658228794
 30
0.0
 10
28.28427124746186
 20
-23.64117014202024
 30
0.0
  0
LINE
  5
CC66
330
CBD4
100
AcDbEntity
  8
0
100
AcDbLine
 10
28.28427124746185
 20
-23.64117014202024
 30
0.0
 11
42.92867531250024
 21
-20.69024835350983
 31
0.0
  0
ELLIPSE
  5
CC67
330
CBD4
100
AcDbEntity
  8
0
100
AcDbEllipse
 10
27.22361107568202
 20
17.98155686722326
 30
0.0
 11
-1.250000000000001
 21
-2.165063509461095
 31
0.0
210
0.0
220
0.0
230
1.0
 40
0.5773502691896249
 41
4.570491925780547
 42
6.425082361783728
  0
SPLINE
  5
CC68
330
CBD4
100
AcDbEntity
  8
0
100
AcDbSpline
210
0.0
220
0.0
230
1.0
 70
     8
 71
     3
 72
    11
 73
     7
 74
     0
 42
0.000000001
 43
0.0000000001
 40
0.134064526889198
 40
0.134064526889198
 40
0.134064526889198
 40
0.134064526889198
 40
0.8649350770691569
 40
0.8649350770691569
 40
0.8649350770691569
 40
0.8659354731108008
 40
0.8659354731108008
 40
0.8659354731108008
 40
0.8659354731108008
 10
25.55567679914897
 20
16.36192937935794
 30
0.0
 10
26.49418855183206
 20
16.39093504981983
 30
0.0
 10
27.98794098044536
 20
16.43777279421566
 30
0.0
 10
28.89878218168585
 20
16.37347476731327
 30
0.0
 10
28.90002891673635
 20
16.37338675789549
 30
0.0
 10
28.90127459766718
 20
16.37329886932854
 30
0.0
 10
28.90251922399988
 20
16.37321110328946
 30
0.0
  0
SPLINE
  5
CC69
330
CBD4
100
AcDbEntity
  8
0
100
AcDbSpline
210
0.0
220
0.0
230
1.0
 70
     8
 71
     3
 72
    11
 73
     7
 74
     0
 42
0.000000001
 43
0.0000000001
 40
-1.0
 40
-1.0
 40
-1.0
 40
-1.0
 40
-0.864935077069016
 40
-0.864935077069016
 40
-0.864935077069016
 40
0.0
 40
0.0
 40
0.0
 40
0.0
 10
26.16295090390227
 20
19.0021775933828
 30
0.0
 10
26.22730930761143
 20
19.11030023492806
 30
0.0
 10
26.3018637674848
 20
19.20921957625079
 30
0.0
 10
26.38602552268047
 20
19.29545693421605
 30
0.0
 10
26.92498451097105
 20
19.84770776470023
 30
0.0
 10
27.87212988859355
 20
19.69457842750304
 30
0.0
 10
28.28427124746191
 20
19.0021775933829
 30
0.0
  0
ELLIPSE
  5
CC6A
330
CBD4
100
AcDbEntity
  8
0
100
AcDbEllipse
 10
27.22361107568212
 20
17.98155686722317
 30
0.0
 11
1.249999999999999
 21
-2.165063509461097
 31
0.0
210
0.0
220
0.0
230
0.9999999999999998
 40
0.5773502691896258
 41
6.141288252575396
 42
7.99587868857867
  0
ELLIPSE
  5
CC6B
330
CBD4
100
AcDbEntity
  8
0
100
AcDbEllipse
 10
37.83021279348034
 20
11.85783251026522
 30
0.0
 11
-2.749999999999714
 21
4.763139720814576
 31
0.0
210
0.0
220
0.0
230
1.0
 40
0.5773502691896258
 41
2.73031556965014
 42
8.265258717914433
  0
LINE
  5
CC6C
330
CBD4
100
AcDbEntity
  8
0
100
AcDbLine
 10
39.2514974236653
 20
6.857149779456799
 30
0.0
 11
39.2514974236653
 21
4.097032508547178
 31
0.0
  0
LINE
  5
CC6D
330
CBD4
100
AcDbEntity
  8
0
100
AcDbLine
 10
39.2514974236653
 20
4.097032508547178
 30
0.0
 11
39.24801845830186
 21
4.099041090136275
 31
0.0
  0
LINE
  5
CC6E
330
CBD4
100
AcDbEntity
  8
0
100
AcDbLine
 10
36.41240712865882
 20
5.736182054622824
 30
0.0
 11
36.40892816329538
 21
5.738190636211912
 31
0.0
  0
LINE
  5
CC6F
330
CBD4
100
AcDbEntity
  8
0
100
AcDbLine
 10
36.40892816329538
 20
5.738190636211912
 30
0.0
 11
36.40892816329539
 21
8.498307907121525
 31
0.0
  0
LINE
  5
CC70
330
CBD4
100
AcDbEntity
  8
0
100
AcDbLine
 10
41.52350999860536
 20
11.1324206125944
 30
0.0
 11
38.53731957466688
 21
9.408342767482045
 31
0.0
  0
LINE
  5
CC71
330
CBD4
100
AcDbEntity
  8
0
100
AcDbLine
 10
26.16295090390226
 20
15.73619126967195
 30
0.0
 11
25.87313651423297
 21
15.90351568556255
 31
0.0
  0
LINE
  5
CC72
330
CBD4
100
AcDbEntity
  8
0
100
AcDbLine
 10
25.87313651423297
 20
15.90351568556255
 30
0.0
 11
25.80939751330897
 21
15.9403154149039
 31
0.0
  0
LINE
  5
CC73
330
CBD4
100
AcDbEntity
  8
0
100
AcDbLine
 10
36.40892816329539
 20
8.498307907121525
 30
0.0
 11
37.46958833507521
 21
9.110680342817323
 31
0.0
  0
ELLIPSE
  5
CC74
330
CBD4
100
AcDbEntity
  8
0
100
AcDbEllipse
 10
38.89087296526016
 20
12.47020494596101
 30
0.0
 11
2.749999999999999
 21
-4.763139720814412
 31
0.0
210
0.0
220
0.0
230
0.9999999999999998
 40
0.5773502691896259
 41
5.871908223239691
 42
6.089122209761016
  0
ELLIPSE
  5
CC75
330
CBD4
100
AcDbEntity
  8
0
100
AcDbEllipse
 10
38.89087296526016
 20
12.47020494596101
 30
0.0
 11
-2.749999999999999
 21
4.763139720814412
 31
0.0
210
0.0
220
0.0
230
0.9999999999999998
 40
0.5773502691896258
 41
0.1940630974185669
 42
1.982073410734792
  0
LINE
  5
CC76
330
CBD4
100
AcDbEntity
  8
0
100
AcDbLine
 10
39.2514974236653
 20
6.857149779456799
 30
0.0
 11
40.31215759544512
 21
7.469522215152588
 31
0.0
  0
LINE
  5
CC77
330
CBD4
100
AcDbEntity
  8
0
100
AcDbLine
 10
37.46958833507521
 20
9.110680342817323
 30
0.0
 11
37.46958833507521
 21
8.458983406371771
 31
0.0
  0
LINE
  5
CC78
330
CBD4
100
AcDbEntity
  8
0
100
AcDbLine
 10
36.40892816329538
 20
5.738190636211912
 30
0.0
 11
36.416011016253
 21
5.742279923273629
 31
0.0
  0
SPLINE
  5
CC79
330
CBD4
100
AcDbEntity
  8
0
100
AcDbSpline
210
0.0
220
0.0
230
1.0
 70
     8
 71
     3
 72
    11
 73
     7
 74
     0
 42
0.000000001
 43
0.0000000001
 40
-1.0
 40
-1.0
 40
-1.0
 40
-1.0
 40
-0.8649350770691569
 40
-0.8649350770691569
 40
-0.8649350770691569
 40
0.0
 40
0.0
 40
0.0
 40
0.0
 10
28.28427124746191
 20
15.73619126967193
 30
0.0
 10
28.21991284375281
 20
15.70238331153884
 30
0.0
 10
28.14535838387953
 20
15.6758631304443
 30
0.0
 10
28.06119662868397
 20
15.65503886402462
 30
0.0
 10
27.52223764039342
 20
15.52168345175501
 30
0.0
 10
26.57509226277072
 20
15.51969028452528
 30
0.0
 10
26.16295090390227
 20
15.73619126967195
 30
0.0
  0
LINE
  5
CC7A
330
CBD4
100
AcDbEntity
  8
0
100
AcDbLine
 10
28.28427124746191
 20
15.73619126967191
 30
0.0
 11
28.57408563713344
 21
15.9035156855638
 31
0.0
  0
LINE
  5
CC7B
330
CBD4
100
AcDbEntity
  8
0
100
AcDbLine
 10
28.57408563713344
 20
15.9035156855638
 30
0.0
 11
28.63782463805525
 21
15.94031541490388
 31
0.0
  0
LINE
  5
CC7C
330
CBD4
100
AcDbEntity
  8
0
100
AcDbLine
 10
6.717514421272248
 20
36.76097822856088
 30
0.0
 11
26.16295090390231
 21
47.98780621631711
 31
0.0
  0
LINE
  5
CC7D
330
CBD4
100
AcDbEntity
  8
0
100
AcDbLine
 10
-9.899494936611731
 20
-64.688721951709
 30
0.0
 11
-9.899494936611699
 21
-39.78059482430522
 31
0.0
  0
LINE
  5
CC7E
330
CBD4
100
AcDbEntity
  8
0
100
AcDbLine
 10
-34.64823227814089
 20
-25.49190465806999
 30
0.0
 11
-34.64823227814089
 21
-50.4000317854738
 31
0.0
  0
LINE
  5
CC7F
330
CBD4
100
AcDbEntity
  8
0
100
AcDbLine
 10
1.414213562373001
 20
62.27649638255241
 30
0.0
 11
-18.03122292025705
 21
51.04966839479616
 31
0.0
  0
LINE
  5
CC80
330
CBD4
100
AcDbEntity
  8
0
100
AcDbLine
 10
-10.96015510839155
 20
-64.07634951601321
 30
0.0
 11
-10.96015510839152
 21
-39.16822238860942
 31
0.0
  0
LINE
  5
CC81
330
CBD4
100
AcDbEntity
  8
0
100
AcDbLine
 10
25.10229073212248
 20
48.6001786520129
 30
0.0
 11
5.656854249492429
 21
37.37335066425668
 31
0.0
  0
LINE
  5
CC82
330
CBD4
100
AcDbEntity
  8
0
100
AcDbLine
 10
2.474873734152822
 20
61.66412394685661
 30
0.0
 11
-16.97056274847723
 21
50.43729595910037
 31
0.0
  0
LINE
  5
CC83
330
CBD4
100
AcDbEntity
  8
0
100
AcDbLine
 10
-33.58757210636107
 20
-26.1042770937658
 30
0.0
 11
-33.58757210636107
 21
-51.01240422116958
 31
0.0
  0
LINE
  5
CC84
330
CBD4
100
AcDbEntity
  8
0
100
AcDbLine
 10
-32.52691193458125
 20
-54.07426639964855
 30
0.0
 11
-12.02081528017137
 21
-65.91346682310057
 31
0.0
  0
LINE
  5
CC85
330
CBD4
100
AcDbEntity
  8
0
100
AcDbLine
 10
-32.52691193458125
 20
-52.84952152825697
 30
0.0
 11
-12.02081528017138
 21
-64.688721951709
 31
0.0
  0
LINE
  5
CC86
330
CBD4
100
AcDbEntity
  8
0
100
AcDbLine
 10
2.474873734152962
 20
29.41250900021136
 30
0.0
 11
6.717514421272248
 21
36.76097822856088
 31
0.0
  0
LINE
  5
CC87
330
CBD4
100
AcDbEntity
  8
0
100
AcDbLine
 10
-18.03122292025705
 20
51.04966839479616
 30
0.0
 11
-22.27386360737634
 21
43.70119916644664
 31
0.0
  0
LINE
  5
CC88
330
CBD4
100
AcDbEntity
  8
0
100
AcDbLine
 10
5.656854249492429
 20
37.37335066425668
 30
0.0
 11
1.414213562373141
 21
30.02488143590715
 31
0.0
  0
LINE
  5
CC89
330
CBD4
100
AcDbEntity
  8
0
100
AcDbLine
 10
-21.21320343559652
 20
43.08882673075085
 30
0.0
 11
-16.97056274847723
 21
50.43729595910037
 31
0.0
  0
LINE
  5
CC8A
330
CBD4
100
AcDbEntity
  8
0
100
AcDbLine
 10
-16.97056274847719
 20
69.21671732043806
 30
0.0
 11
-12.7279220613579
 21
71.6662070632211
 31
0.0
  0
LINE
  5
CC8B
330
CBD4
100
AcDbEntity
  8
0
100
AcDbLine
 10
-12.7279220613579
 20
71.6662070632211
 30
0.0
 11
-11.66726188957808
 21
72.27857949891703
 31
0.0
  0
LINE
  5
CC8C
330
CBD4
100
AcDbEntity
  8
0
100
AcDbLine
 10
-16.97056274847723
 20
50.43729595910037
 30
0.0
 11
-18.03122292025705
 21
51.04966839479616
 31
0.0
  0
LINE
  5
CC8D
330
CBD4
100
AcDbEntity
  8
0
100
AcDbLine
 10
-22.27386360737634
 20
43.70119916644664
 30
0.0
 11
-21.21320343559652
 21
43.08882673075085
 31
0.0
  0
LINE
  5
CC8E
330
CBD4
100
AcDbEntity
  8
0
100
AcDbLine
 10
6.717514421272248
 20
36.76097822856088
 30
0.0
 11
5.656854249492429
 21
37.37335066425668
 31
0.0
  0
LINE
  5
CC8F
330
CBD4
100
AcDbEntity
  8
0
100
AcDbLine
 10
1.414213562373141
 20
30.02488143590715
 30
0.0
 11
2.474873734152962
 21
29.41250900021136
 31
0.0
  0
LINE
  5
CC90
330
CBD4
100
AcDbEntity
  8
0
100
AcDbLine
 10
47.729707730092
 20
33.0867436143861
 30
0.0
 11
43.48706704297272
 21
40.4352128427354
 31
0.0
  0
LINE
  5
CC91
330
CBD4
100
AcDbEntity
  8
0
100
AcDbLine
 10
43.48706704297272
 20
40.4352128427354
 30
0.0
 11
42.4264068711929
 21
39.82284040703962
 31
0.0
  0
LINE
  5
CC92
330
CBD4
100
AcDbEntity
  8
0
100
AcDbLine
 10
42.4264068711929
 20
39.82284040703962
 30
0.0
 11
46.66904755831218
 21
32.47437117869031
 31
0.0
  0
LINE
  5
CC93
330
CBD4
100
AcDbEntity
  8
0
100
AcDbLine
 10
46.66904755831218
 20
32.47437117869031
 30
0.0
 11
47.729707730092
 21
33.0867436143861
 31
0.0
  0
LINE
  5
CC94
330
CBD4
100
AcDbEntity
  8
0
100
AcDbLine
 10
2.474873734152962
 20
29.41250900021136
 30
0.0
 11
2.474873734152902
 21
-17.78873933355588
 31
0.0
  0
LINE
  5
CC95
330
CBD4
100
AcDbEntity
  8
0
100
AcDbLine
 10
-1.265498511658964
 20
-28.07112037796652
 30
0.0
 11
-9.899494936611699
 21
-39.78059482430522
 31
0.0
  0
LINE
  5
CC96
330
CBD4
100
AcDbEntity
  8
0
100
AcDbLine
 10
-34.64823227814089
 20
-25.49190465806999
 30
0.0
 11
-26.01423585318818
 21
-13.78243021173128
 31
0.0
  0
LINE
  5
CC97
330
CBD4
100
AcDbEntity
  8
0
100
AcDbLine
 10
-22.27386360737632
 20
-3.500049167320642
 30
0.0
 11
-22.27386360737634
 21
43.70119916644663
 31
0.0
  0
LINE
  5
CC98
330
CBD4
100
AcDbEntity
  8
0
100
AcDbLine
 10
-10.96015510839152
 20
-39.16822238860942
 30
0.0
 11
-2.326158683438785
 21
-27.45874794227072
 31
0.0
  0
LINE
  5
CC99
330
CBD4
100
AcDbEntity
  8
0
100
AcDbLine
 10
1.414213562373081
 20
-17.17636689786009
 30
0.0
 11
1.414213562373141
 21
30.02488143590716
 31
0.0
  0
LINE
  5
CC9A
330
CBD4
100
AcDbEntity
  8
0
100
AcDbLine
 10
-21.21320343559652
 20
43.08882673075085
 30
0.0
 11
-21.2132034355965
 21
-4.112421603016436
 31
0.0
  0
LINE
  5
CC9B
330
CBD4
100
AcDbEntity
  8
0
100
AcDbLine
 10
-24.95357568140836
 20
-14.39480264742708
 30
0.0
 11
-33.58757210636107
 21
-26.1042770937658
 31
0.0
  0
LINE
  5
CC9C
330
CBD4
100
AcDbEntity
  8
0
100
AcDbLine
 10
-9.899494936611699
 20
-39.78059482430522
 30
0.0
 11
-10.96015510839152
 21
-39.16822238860942
 31
0.0
  0
LINE
  5
CC9D
330
CBD4
100
AcDbEntity
  8
0
100
AcDbLine
 10
-33.58757210636107
 20
-26.1042770937658
 30
0.0
 11
-34.64823227814089
 21
-25.49190465806999
 31
0.0
  0
ELLIPSE
  5
CC9E
330
CBD4
100
AcDbEntity
  8
0
100
AcDbEllipse
 10
-6.010407640085739
 20
-22.68771881912219
 30
0.0
 11
6.00000000000001
 21
10.39230484541326
 31
0.0
210
0.0
220
0.0
230
0.9999999999999998
 40
0.5773502691896252
 41
4.520402762665313
 42
5.497787143782138
  0
ELLIPSE
  5
CC9F
330
CBD4
100
AcDbEntity
  8
0
100
AcDbEllipse
 10
-30.75914498161487
 20
-8.399028652887006
 30
0.0
 11
-6.000000000000613
 21
-10.39230484541291
 31
0.0
210
0.0
220
0.0
230
0.9999999999999998
 40
0.5773502691896259
 41
1.378810109075633
 42
2.356194490192585
  0
ELLIPSE
  5
CCA0
330
CBD4
100
AcDbEntity
  8
0
100
AcDbEllipse
 10
-7.071067811865558
 20
-22.0753463834264
 30
0.0
 11
-6.000000000000642
 21
-10.39230484541289
 31
0.0
210
0.0
220
0.0
230
0.9999999999999998
 40
0.5773502691896253
 41
1.378810109075635
 42
2.356194490192587
  0
ELLIPSE
  5
CCA1
330
CBD4
100
AcDbEntity
  8
0
100
AcDbEllipse
 10
-29.69848480983505
 20
-9.0114010885828
 30
0.0
 11
5.999999999999996
 21
10.39230484541327
 31
0.0
210
0.0
220
0.0
230
1.0
 40
0.5773502691896259
 41
4.520402762665312
 42
5.497787143782137
  0
LINE
  5
CCA2
330
CBD4
100
AcDbEntity
  8
0
100
AcDbLine
 10
-21.2132034355965
 20
-4.112421603016436
 30
0.0
 11
-22.27386360737632
 21
-3.500049167320642
 31
0.0
  0
LINE
  5
CCA3
330
CBD4
100
AcDbEntity
  8
0
100
AcDbLine
 10
2.474873734152902
 20
-17.78873933355588
 30
0.0
 11
1.414213562373081
 21
-17.17636689786009
 31
0.0
  0
LINE
  5
CCA4
330
CBD4
100
AcDbEntity
  8
0
100
AcDbLine
 10
47.72970773009193
 20
-14.11450471938116
 30
0.0
 11
46.66904755831211
 21
-14.72687715507695
 31
0.0
  0
ELLIPSE
  5
CCA5
330
CBD4
100
AcDbEntity
  8
0
100
AcDbEllipse
 10
38.18376618407355
 20
-9.827897669510585
 30
0.0
 11
5.999999999999996
 21
-10.39230484541326
 31
0.0
210
0.0
220
0.0
230
1.0
 40
0.5773502691896258
 41
6.091199089460209
 42
7.068583470577033
  0
LINE
  5
CCA6
330
CBD4
100
AcDbEntity
  8
0
100
AcDbLine
 10
-26.01423585318818
 20
-13.78243021173128
 30
0.0
 11
-24.95357568140836
 21
-14.39480264742708
 31
0.0
  0
LINE
  5
CCA7
330
CBD4
100
AcDbEntity
  8
0
100
AcDbLine
 10
-2.326158683438785
 20
-27.45874794227072
 30
0.0
 11
-1.265498511658964
 21
-28.07112037796652
 31
0.0
  0
ELLIPSE
  5
CCA8
330
CBD4
100
AcDbEntity
  8
0
100
AcDbEllipse
 10
39.24442635585337
 20
-9.215525233814791
 30
0.0
 11
6.000000000000002
 21
-10.39230484541326
 31
0.0
210
0.0
220
0.0
230
0.9999999999999998
 40
0.5773502691896259
 41
0.0
 42
0.7853981633974457
  0
LINE
  5
CCA9
330
CBD4
100
AcDbEntity
  8
0
100
AcDbLine
 10
44.18376618407354
 20
-20.22020251492385
 30
0.0
 11
45.24442635585337
 21
-19.60783007922806
 31
0.0
  0
LINE
  5
CCAA
330
CBD4
100
AcDbEntity
  8
0
100
AcDbLine
 10
-9.899494936611731
 20
-64.688721951709
 30
0.0
 11
26.16295090390219
 21
-43.86805913805198
 31
0.0
  0
LINE
  5
CCAB
330
CBD4
100
AcDbEntity
  8
0
100
AcDbLine
 10
-9.394057544656355
 20
-37.04427207632625
 30
0.0
 11
-33.58757210636107
 21
-51.01240422116958
 31
0.0
  0
LINE
  5
CCAC
330
CBD4
100
AcDbEntity
  8
0
100
AcDbLine
 10
-33.58757210636107
 20
-51.01240422116958
 30
0.0
 11
-34.64823227814089
 21
-50.4000317854738
 31
0.0
  0
ELLIPSE
  5
CCAD
330
CBD4
100
AcDbEntity
  8
0
100
AcDbEllipse
 10
-32.52691193458125
 20
-51.62477665686538
 30
0.0
 11
0.7500000000000768
 21
-1.299038105676612
 31
0.0
210
0.0
220
0.0
230
1.0
 40
0.5773502691896257
 41
3.926990816987002
 42
5.497787143781902
  0
LINE
  5
CCAE
330
CBD4
100
AcDbEntity
  8
0
100
AcDbLine
 10
-10.96015510839153
 20
-40.39794866910913
 30
0.0
 11
-32.52691193458125
 21
-52.84952152825697
 31
0.0
  0
ELLIPSE
  5
CCAF
330
CBD4
100
AcDbEntity
  8
0
100
AcDbEllipse
 10
-12.02081528017137
 20
-63.46397708031741
 30
0.0
 11
1.499999999999998
 21
-2.598076211353312
 31
0.0
210
0.0
220
0.0
230
0.9999999999999998
 40
0.5773502691896258
 41
5.497787143782137
 42
7.06858347057703
  0
LINE
  5
CCB0
330
CBD4
100
AcDbEntity
  8
0
100
AcDbLine
 10
-10.96015510839155
 20
-64.07634951601321
 30
0.0
 11
-9.899494936611731
 21
-64.688721951709
 31
0.0
  0
LINE
  5
CCB1
330
CBD4
100
AcDbEntity
  8
0
100
AcDbLine
 10
-10.96015510839156
 20
-64.07634951601321
 30
0.0
 11
-12.02081528017137
 21
-64.688721951709
 31
0.0
  0
ELLIPSE
  5
CCB2
330
CBD4
100
AcDbEntity
  8
0
100
AcDbEllipse
 10
-12.02081528017137
 20
-63.46397708031741
 30
0.0
 11
0.7500000000000005
 21
-1.299038105676659
 31
0.0
210
0.0
220
0.0
230
1.0
 40
0.5773502691896258
 41
5.497787143782131
 42
7.068583470577031
  0
LINE
  5
CCB3
330
CBD4
100
AcDbEntity
  8
0
100
AcDbLine
 10
-12.02081528017137
 20
-64.688721951709
 30
0.0
 11
-12.02081528017137
 21
-65.91346682310057
 31
0.0
  0
LINE
  5
CCB4
330
CBD4
100
AcDbEntity
  8
0
100
AcDbLine
 10
-32.52691193458125
 20
-52.84952152825697
 30
0.0
 11
-32.52691193458125
 21
-54.07426639964855
 31
0.0
  0
ELLIPSE
  5
CCB5
330
CBD4
100
AcDbEntity
  8
0
100
AcDbEllipse
 10
-32.52691193458125
 20
-51.62477665686538
 30
0.0
 11
1.500000000000152
 21
-2.598076211353223
 31
0.0
210
0.0
220
0.0
230
0.9999999999999998
 40
0.5773502691896257
 41
3.926990816987
 42
5.497787143781894
  0
LINE
  5
CCB6
330
CBD4
100
AcDbEntity
  8
0
100
AcDbLine
 10
25.54163056034254
 20
-45.2413904780137
 30
0.0
 11
-10.52081528017137
 21
-66.06205329167071
 31
0.0
  0
ELLIPSE
  5
CCB7
330
CBD4
100
AcDbEntity
  8
0
100
AcDbEllipse
 10
7.778174593051987
 20
-25.90513435764204
 30
0.0
 11
-1.250000000000002
 21
-2.165063509461094
 31
0.0
210
0.0
220
0.0
230
1.0
 40
0.5773502691896249
 41
0.0
 42
6.283185307179586
  0
ELLIPSE
  5
CCB8
330
CBD4
100
AcDbEntity
  8
0
100
AcDbEllipse
 10
7.778174593052029
 20
6.754728879466975
 30
0.0
 11
-1.250000000000002
 21
-2.165063509461094
 31
0.0
210
0.0
220
0.0
230
1.0
 40
0.5773502691896249
 41
0.0
 42
6.283185307179586
  0
ELLIPSE
  5
CCB9
330
CBD4
100
AcDbEntity
  8
0
100
AcDbEllipse
 10
7.778174593052053
 20
23.08466049802147
 30
0.0
 11
-1.250000000000002
 21
-2.165063509461094
 31
0.0
210
0.0
220
0.0
230
1.0
 40
0.5773502691896249
 41
0.0
 42
6.283185307179586
  0
ELLIPSE
  5
CCBA
330
CBD4
100
AcDbEntity
  8
0
100
AcDbEllipse
 10
7.778174593052007
 20
-9.57520273908754
 30
0.0
 11
-1.250000000000002
 21
-2.165063509461094
 31
0.0
210
0.0
220
0.0
230
1.0
 40
0.5773502691896249
 41
0.0
 42
6.283185307179586
  0
ELLIPSE
  5
CCBB
330
CBD4
100
AcDbEntity
  8
0
100
AcDbEllipse
 10
6.717514421272188
 20
-8.962830303391747
 30
0.0
 11
1.249999999999874
 21
2.165063509461168
 31
0.0
210
0.0
220
0.0
230
1.0
 40
0.5773502691896249
 41
3.579741684173548
 42
5.845036276594998
  0
ELLIPSE
  5
CCBC
330
CBD4
100
AcDbEntity
  8
0
100
AcDbEllipse
 10
6.717514421272232
 20
23.69703293371728
 30
0.0
 11
1.249999999999874
 21
2.165063509461169
 31
0.0
210
0.0
220
0.0
230
0.9999999999999998
 40
0.5773502691896248
 41
3.579741684173544
 42
5.845036276594997
  0
ELLIPSE
  5
CCBD
330
CBD4
100
AcDbEntity
  8
0
100
AcDbEllipse
 10
6.71751442127221
 20
7.367101315162765
 30
0.0
 11
1.249999999999874
 21
2.165063509461168
 31
0.0
210
0.0
220
0.0
230
1.0
 40
0.5773502691896249
 41
3.579741684173546
 42
5.845036276594998
  0
ELLIPSE
  5
CCBE
330
CBD4
100
AcDbEntity
  8
0
100
AcDbEllipse
 10
6.717514421272166
 20
-25.29276192194624
 30
0.0
 11
1.249999999999874
 21
2.165063509461169
 31
0.0
210
0.0
220
0.0
230
1.0
 40
0.5773502691896249
 41
3.579741684173546
 42
5.845036276595
  0
ELLIPSE
  5
CCBF
330
CBD4
100
AcDbEntity
  8
0
100
AcDbEllipse
 10
-16.97056274847722
 20
12.87845323642496
 30
0.0
 11
1.24999999999987
 21
2.16506350946117
 31
0.0
210
0.0
220
0.0
230
1.0
 40
0.5773502691896259
 41
3.579741684173542
 42
5.845036276594997
  0
ELLIPSE
  5
CCC0
330
CBD4
100
AcDbEntity
  8
0
100
AcDbEllipse
 10
-16.97056274847723
 20
45.538316473534
 30
0.0
 11
1.24999999999987
 21
2.165063509461171
 31
0.0
210
0.0
220
0.0
230
0.9999999999999998
 40
0.5773502691896258
 41
3.579741684173542
 42
5.845036276594997
  0
ELLIPSE
  5
CCC1
330
CBD4
100
AcDbEntity
  8
0
100
AcDbEllipse
 10
-16.97056274847723
 20
29.20838485497949
 30
0.0
 11
1.24999999999987
 21
2.165063509461171
 31
0.0
210
0.0
220
0.0
230
0.9999999999999998
 40
0.5773502691896258
 41
3.579741684173544
 42
5.845036276595001
  0
ELLIPSE
  5
CCC2
330
CBD4
100
AcDbEntity
  8
0
100
AcDbEllipse
 10
-16.97056274847722
 20
-3.451478382129549
 30
0.0
 11
1.24999999999987
 21
2.16506350946117
 31
0.0
210
0.0
220
0.0
230
1.0
 40
0.5773502691896259
 41
3.579741684173542
 42
5.845036276594997
  0
ELLIPSE
  5
CCC3
330
CBD4
100
AcDbEntity
  8
0
100
AcDbEllipse
 10
-15.9099025766974
 20
-4.063850817825347
 30
0.0
 11
1.249999999999999
 21
2.165063509461096
 31
0.0
210
0.0
220
0.0
230
1.0
 40
0.577350269189626
 41
0.0
 42
6.283185307179586
  0
ELLIPSE
  5
CCC4
330
CBD4
100
AcDbEntity
  8
0
100
AcDbEllipse
 10
-15.90990257669741
 20
28.5960124192837
 30
0.0
 11
1.249999999999999
 21
2.165063509461096
 31
0.0
210
0.0
220
0.0
230
1.0
 40
0.577350269189626
 41
0.0
 42
6.283185307179586
  0
ELLIPSE
  5
CCC5
330
CBD4
100
AcDbEntity
  8
0
100
AcDbEllipse
 10
-15.90990257669741
 20
44.92594403783821
 30
0.0
 11
1.249999999999999
 21
2.165063509461096
 31
0.0
210
0.0
220
0.0
230
1.0
 40
0.577350269189626
 41
0.0
 42
6.283185307179586
  0
ELLIPSE
  5
CCC6
330
CBD4
100
AcDbEntity
  8
0
100
AcDbEllipse
 10
-15.9099025766974
 20
12.26608080072917
 30
0.0
 11
1.249999999999999
 21
2.165063509461096
 31
0.0
210
0.0
220
0.0
230
1.0
 40
0.577350269189626
 41
0.0
 42
6.283185307179586
  0
ELLIPSE
  5
CCC7
330
CBD4
100
AcDbEntity
  8
0
100
AcDbEllipse
 10
3.535533905932706
 20
31.65787459776266
 30
0.0
 11
1.250000000000127
 21
2.165063509461022
 31
0.0
210
0.0
220
0.0
230
1.0
 40
0.577350269189626
 41
1.428899272190864
 42
2.35619449019267
  0
ELLIPSE
  5
CCC8
330
CBD4
100
AcDbEntity
  8
0
100
AcDbEllipse
 10
-7.29925451459497
 20
47.31089167624268
 30
0.0
 11
8.166754732810648
 21
0.0000000000000003
 31
0.0
210
0.0
220
0.0
230
1.0
 40
0.5773502691896258
 41
5.654866776461626
 42
6.408095538707123
  0
LINE
  5
CCC9
330
CBD4
100
AcDbEntity
  8
0
100
AcDbLine
 10
-0.6922111468591253
 20
44.53943833892771
 30
0.0
 11
-0.423931647620015
 21
44.31475087644847
 31
0.0
  0
ELLIPSE
  5
CCCA
330
CBD4
100
AcDbEntity
  8
0
100
AcDbEllipse
 10
0.143701833654537
 20
46.22552841349457
 30
0.0
 11
1.679777606426224
 21
-2.113846539592925
 31
0.0
210
0.0
220
0.0
230
1.0
 40
0.6605596098195701
 41
3.711761074681975
 42
5.013199698257079
  0
ELLIPSE
  5
CCCB
330
CBD4
100
AcDbEntity
  8
0
100
AcDbEllipse
 10
-3.535533905932934
 20
60.23525493023313
 30
0.0
 11
-1.249999999999999
 21
2.165063509461097
 31
0.0
210
0.0
220
0.0
230
0.9999999999999998
 40
0.5773502691896258
 41
4.425632428173106
 42
8.140738186186071
  0
ELLIPSE
  5
CCCC
330
CBD4
100
AcDbEntity
  8
0
100
AcDbEllipse
 10
-10.60660171779841
 20
56.1527720255945
 30
0.0
 11
-1.249999999999999
 21
2.165063509461097
 31
0.0
210
0.0
220
0.0
230
0.9999999999999998
 40
0.5773502691896258
 41
4.425632428173106
 42
8.140738186186071
  0
ELLIPSE
  5
CCCD
330
CBD4
100
AcDbEntity
  8
0
100
AcDbEllipse
 10
-2.474873734153111
 20
60.84762736592892
 30
0.0
 11
1.250000000000128
 21
-2.165063509461021
 31
0.0
210
0.0
220
0.0
230
0.9999999999999998
 40
0.5773502691896259
 41
3.579741684173546
 42
4.999145532596065
  0
ELLIPSE
  5
CCCE
330
CBD4
100
AcDbEntity
  8
0
100
AcDbEllipse
 10
-9.545941546018585
 20
56.76514446129029
 30
0.0
 11
1.250000000000128
 21
-2.165063509461021
 31
0.0
210
0.0
220
0.0
230
0.9999999999999998
 40
0.5773502691896259
 41
3.579741684173544
 42
4.999145532596065
  0
ELLIPSE
  5
CCCF
330
CBD4
100
AcDbEntity
  8
0
100
AcDbEllipse
 10
3.535533905932553
 20
32.88261946915431
 30
0.0
 11
1.249999999999999
 21
-2.165063509461097
 31
0.0
210
0.0
220
0.0
230
0.9999999999999998
 40
0.5773502691896258
 41
4.662295549665651
 42
4.854286034988879
  0
SPLINE
  5
CCD0
330
CBD4
100
AcDbEntity
  8
0
100
AcDbSpline
210
0.0
220
0.0
230
1.0
 70
     8
 71
     3
 72
    11
 73
     7
 74
     0
 42
0.000000001
 43
0.0000000001
 40
-1.0
 40
-1.0
 40
-1.0
 40
-1.0
 40
-0.864935077069016
 40
-0.864935077069016
 40
-0.864935077069016
 40
-0.5000000000000096
 40
-0.5000000000000096
 40
-0.5000000000000096
 40
-0.5000000000000096
 10
2.474873734152756
 20
32.67849532392233
 30
0.0
 10
2.60359054157109
 20
32.82377530717369
 30
0.0
 10
2.728989565511585
 20
32.97258314333666
 30
0.0
 10
2.842288363548624
 20
33.12329557956454
 30
0.0
 10
3.148413038232662
 20
33.53050903911082
 30
0.0
 10
3.277547081679819
 20
33.94715066507743
 30
0.0
 10
3.262635547672041
 20
34.29438420903129
 30
0.0
  0
LINE
  5
CCD1
330
CBD4
100
AcDbEntity
  8
0
100
AcDbLine
 10
1.915348731330766
 20
31.53895683199699
 30
0.0
 11
2.474873734152764
 21
31.86199874299459
 31
0.0
  0
LINE
  5
CCD2
330
CBD4
100
AcDbEntity
  8
0
100
AcDbLine
 10
-1.922865276708076
 20
43.56149353079891
 30
0.0
 11
-0.6922111468591253
 21
44.53943833892771
 31
0.0
  0
ELLIPSE
  5
CCD3
330
CBD4
100
AcDbEntity
  8
0
100
AcDbEllipse
 10
32.69493313105711
 20
33.40108319089611
 30
0.0
 11
-1.185309973000764
 21
-4.029272920503764
 31
0.0
210
0.0
220
0.0
230
0.9999999999999998
 40
0.3706816908110078
 41
4.714609510599324
 42
6.051826567759558
  0
ELLIPSE
  5
CCD4
330
CBD4
100
AcDbEntity
  8
0
100
AcDbEllipse
 10
28.51822053345328
 20
31.83663972410453
 30
0.0
 11
7.592729584066604
 21
0.0000000000000003
 31
0.0
210
0.0
220
0.0
230
1.0
 40
0.5773502691896259
 41
1.660962753237631
 42
1.908429487387543
  0
ELLIPSE
  5
CCD5
330
CBD4
100
AcDbEntity
  8
0
100
AcDbEllipse
 10
23.11059621236253
 20
32.96558576149781
 30
0.0
 11
1.624629784830869
 21
-3.873057973002781
 31
0.0
210
0.0
220
0.0
230
1.0
 40
0.4799246488165453
 41
0.0
 42
1.910948379511893
  0
LINE
  5
CCD6
330
CBD4
100
AcDbEntity
  8
0
100
AcDbLine
 10
19.84812765172957
 20
27.04253897118781
 30
0.0
 11
24.7352259971934
 21
29.09252778849501
 31
0.0
  0
SPLINE
  5
CCD7
330
CBD4
100
AcDbEntity
  8
0
100
AcDbSpline
210
0.0
220
0.0
230
1.0
 70
     8
 71
     3
 72
    16
 73
    12
 74
     0
 42
0.000000001
 43
0.0000000001
 40
3.298672286269282
 40
3.298672286269282
 40
3.298672286269282
 40
3.298672286269282
 40
3.440463867569783
 40
3.440463867569783
 40
3.582255448870284
 40
3.582255448870284
 40
3.724047030170785
 40
3.724047030170785
 40
3.865838611471286
 40
3.865838611471286
 40
4.007630192771788
 40
4.007630192771788
 40
4.007630192771788
 40
4.007630192771788
 10
24.7352259971934
 20
29.09252778849504
 30
0.0
 10
24.94969425649472
 20
29.18249068716335
 30
0.0
 10
25.18729782653827
 20
29.26859738277656
 30
0.0
 10
25.69941606904241
 20
29.42498851246785
 30
0.0
 10
25.97390852098027
 20
29.49529201572516
 30
0.0
 10
26.54945472717252
 20
29.6146092667837
 30
0.0
 10
26.85049748110614
 20
29.66363608177102
 30
0.0
 10
27.46835216665932
 20
29.73704042509544
 30
0.0
 10
27.78515788456247
 20
29.7614251032364
 30
0.0
 10
28.42354108148021
 20
29.78399215261387
 30
0.0
 10
28.74511402576214
 20
29.78217657907462
 30
0.0
 10
29.06354692526425
 20
29.76731902718197
 30
0.0
  0
LINE
  5
CCD8
330
CBD4
100
AcDbEntity
  8
0
100
AcDbLine
 10
1.414213562373001
 20
63.50124125394398
 30
0.0
 11
-12.7279220613579
 21
71.6662070632211
 31
0.0
  0
LINE
  5
CCD9
330
CBD4
100
AcDbEntity
  8
0
100
AcDbLine
 10
-16.97056274847719
 20
69.21671732043806
 30
0.0
 11
-16.97056274847719
 21
51.66204083049199
 31
0.0
  0
LINE
  5
CCDA
330
CBD4
100
AcDbEntity
  8
0
100
AcDbLine
 10
-16.97056274847719
 20
45.94656476399793
 30
0.0
 11
-16.97056274847719
 21
43.49707502121472
 31
0.0
  0
LINE
  5
CCDB
330
CBD4
100
AcDbEntity
  8
0
100
AcDbLine
 10
-16.97056274847719
 20
29.61663314544339
 30
0.0
 11
-16.97056274847719
 21
27.16714340266019
 31
0.0
  0
LINE
  5
CCDC
330
CBD4
100
AcDbEntity
  8
0
100
AcDbLine
 10
46.66904755831211
 20
-14.72687715507695
 30
0.0
 11
46.66904755831218
 21
32.47437117869031
 31
0.0
  0
LINE
  5
CCDD
330
CBD4
100
AcDbEntity
  8
0
100
AcDbLine
 10
47.72970773009193
 20
-14.11450471938116
 30
0.0
 11
47.729707730092
 21
33.0867436143861
 31
0.0
  0
LINE
  5
CCDE
330
CBD4
100
AcDbEntity
  8
0
100
AcDbLine
 10
28.28427124746195
 20
47.98780621631709
 30
0.0
 11
42.4264068711929
 21
39.82284040703962
 31
0.0
  0
LINE
  5
CCDF
330
CBD4
100
AcDbEntity
  8
0
100
AcDbLine
 10
2.474873734152824
 20
64.11361368963979
 30
0.0
 11
-11.66726188957808
 21
72.27857949891703
 31
0.0
  0
LINE
  5
CCE0
330
CBD4
100
AcDbEntity
  8
0
100
AcDbLine
 10
43.48706704297272
 20
40.4352128427354
 30
0.0
 11
29.34493141924177
 21
48.60017865201289
 31
0.0
  0
ELLIPSE
  5
CCE1
330
CBD4
100
AcDbEntity
  8
0
100
AcDbEllipse
 10
40.30508652763325
 20
26.75889511219621
 30
0.0
 11
1.249999999999999
 21
-2.165063509461097
 31
0.0
210
0.0
220
0.0
230
0.9999999999999998
 40
0.5773502691896258
 41
0.0
 42
6.283185307179586
  0
ELLIPSE
  5
CCE2
330
CBD4
100
AcDbEntity
  8
0
100
AcDbEllipse
 10
33.23401871576779
 20
39.0063438261121
 30
0.0
 11
1.249999999999999
 21
-2.165063509461097
 31
0.0
210
0.0
220
0.0
230
0.9999999999999998
 40
0.5773502691896258
 41
0.0
 42
6.283185307179586
  0
ELLIPSE
  5
CCE3
330
CBD4
100
AcDbEntity
  8
0
100
AcDbEllipse
 10
33.23401871576779
 20
22.67641220755759
 30
0.0
 11
1.249999999999999
 21
-2.165063509461097
 31
0.0
210
0.0
220
0.0
230
0.9999999999999998
 40
0.5773502691896258
 41
0.0
 42
6.283185307179586
  0
ELLIPSE
  5
CCE4
330
CBD4
100
AcDbEntity
  8
0
100
AcDbEllipse
 10
33.23401871576779
 20
-9.983451029551453
 30
0.0
 11
1.249999999999999
 21
-2.165063509461097
 31
0.0
210
0.0
220
0.0
230
0.9999999999999998
 40
0.5773502691896258
 41
0.0
 42
6.283185307179586
  0
ELLIPSE
  5
CCE5
330
CBD4
100
AcDbEntity
  8
0
100
AcDbEllipse
 10
33.23401871576779
 20
6.346480589003062
 30
0.0
 11
1.249999999999999
 21
-2.165063509461097
 31
0.0
210
0.0
220
0.0
230
0.9999999999999998
 40
0.5773502691896258
 41
0.0
 42
6.283185307179586
  0
ELLIPSE
  5
CCE6
330
CBD4
100
AcDbEntity
  8
0
100
AcDbEllipse
 10
40.30508652763325
 20
-5.900968124912822
 30
0.0
 11
1.249999999999999
 21
-2.165063509461097
 31
0.0
210
0.0
220
0.0
230
0.9999999999999998
 40
0.5773502691896258
 41
0.0
 42
6.283185307179586
  0
ELLIPSE
  5
CCE7
330
CBD4
100
AcDbEntity
  8
0
100
AcDbEllipse
 10
41.36574669941308
 20
-5.288595689217023
 30
0.0
 11
1.250000000000128
 21
-2.165063509461021
 31
0.0
210
0.0
220
0.0
230
0.9999999999999998
 40
0.5773502691896259
 41
3.579741684173544
 42
5.845036276594999
  0
ELLIPSE
  5
CCE8
330
CBD4
100
AcDbEntity
  8
0
100
AcDbEllipse
 10
34.29467888754761
 20
23.28878464325339
 30
0.0
 11
1.250000000000128
 21
-2.165063509461021
 31
0.0
210
0.0
220
0.0
230
0.9999999999999998
 40
0.5773502691896259
 41
3.579741684173548
 42
5.845036276594999
  0
ELLIPSE
  5
CCE9
330
CBD4
100
AcDbEntity
  8
0
100
AcDbEllipse
 10
34.29467888754761
 20
39.61871626180791
 30
0.0
 11
1.250000000000128
 21
-2.165063509461021
 31
0.0
210
0.0
220
0.0
230
0.9999999999999998
 40
0.5773502691896259
 41
3.579741684173546
 42
5.845036276594999
  0
ELLIPSE
  5
CCEA
330
CBD4
100
AcDbEntity
  8
0
100
AcDbEllipse
 10
41.36574669941308
 20
27.37126754789201
 30
0.0
 11
1.250000000000128
 21
-2.165063509461021
 31
0.0
210
0.0
220
0.0
230
0.9999999999999998
 40
0.5773502691896259
 41
3.579741684173548
 42
5.845036276594999
  0
ELLIPSE
  5
CCEB
330
CBD4
100
AcDbEntity
  8
0
100
AcDbEllipse
 10
34.29467888754761
 20
6.958853024698861
 30
0.0
 11
1.250000000000128
 21
-2.165063509461021
 31
0.0
210
0.0
220
0.0
230
0.9999999999999998
 40
0.5773502691896259
 41
3.579741684173544
 42
5.845036276594996
  0
ELLIPSE
  5
CCEC
330
CBD4
100
AcDbEntity
  8
0
100
AcDbEllipse
 10
34.29467888754761
 20
-9.371078593855655
 30
0.0
 11
1.250000000000128
 21
-2.165063509461021
 31
0.0
210
0.0
220
0.0
230
0.9999999999999998
 40
0.5773502691896259
 41
3.579741684173544
 42
5.845036276594996
  0
LINE
  5
CCED
330
CBD4
100
AcDbEntity
  8
0
100
AcDbLine
 10
39.24801845830186
 20
4.099041090136275
 30
0.0
 11
39.24801845830186
 21
4.094893287505163
 31
0.0
  0
LINE
  5
CCEE
330
CBD4
100
AcDbEntity
  8
0
100
AcDbLine
 10
39.24801845830186
 20
4.094893287505163
 30
0.0
 11
39.24442635585343
 21
4.096967188820714
 31
0.0
  0
LINE
  5
CCEF
330
CBD4
100
AcDbEntity
  8
0
100
AcDbLine
 10
39.24442635585343
 20
4.096967188820714
 30
0.0
 11
39.24442635585343
 21
4.101114991451835
 31
0.0
  0
LINE
  5
CCF0
330
CBD4
100
AcDbEntity
  8
0
100
AcDbLine
 10
39.24442635585343
 20
4.101114991451835
 30
0.0
 11
36.41599923110725
 21
5.734108153307273
 31
0.0
  0
LINE
  5
CCF1
330
CBD4
100
AcDbEntity
  8
0
100
AcDbLine
 10
36.41599923110725
 20
5.734108153307273
 30
0.0
 11
36.41599923110725
 21
5.72996035067617
 31
0.0
  0
LINE
  5
CCF2
330
CBD4
100
AcDbEntity
  8
0
100
AcDbLine
 10
36.41599923110725
 20
5.72996035067617
 30
0.0
 11
36.41240712865882
 21
5.732034251991722
 31
0.0
  0
LINE
  5
CCF3
330
CBD4
100
AcDbEntity
  8
0
100
AcDbLine
 10
36.41240712865882
 20
5.732034251991722
 30
0.0
 11
36.41240712865882
 21
5.736182054622824
 31
0.0
  0
LINE
  5
CCF4
330
CBD4
100
AcDbEntity
  8
0
100
AcDbLine
 10
38.53731957466688
 20
9.408342767482045
 30
0.0
 11
41.29431440861809
 21
7.816591057945903
 31
0.0
  0
ELLIPSE
  5
CCF5
330
CBD4
100
AcDbEntity
  8
0
100
AcDbEllipse
 10
38.53731957466688
 20
6.95885302469887
 30
0.0
 11
-1.499999999999875
 21
-2.598076211353387
 31
0.0
210
0.0
220
0.0
230
0.9999999999999998
 40
0.5773502691896181
 41
3.926990816987004
 42
5.4977871437819
  0
ELLIPSE
  5
CCF6
330
CBD4
100
AcDbEntity
  8
0
100
AcDbEllipse
 10
41.36574669941307
 20
5.325859862843413
 30
0.0
 11
1.50000000000015
 21
2.598076211353228
 31
0.0
210
0.0
220
0.0
230
1.0
 40
0.577350269189627
 41
2.274522134612038
 42
2.356194490192585
  0
ELLIPSE
  5
CCF7
330
CBD4
100
AcDbEntity
  8
0
100
AcDbEllipse
 10
41.36574669941307
 20
5.325859862843413
 30
0.0
 11
1.499999999999985
 21
2.598076211353324
 31
0.0
210
0.0
220
0.0
230
0.9999999999999998
 40
0.5773502691896248
 41
0.8625158344705949
 42
0.9940868618318772
  0
LINE
  5
CCF8
330
CBD4
100
AcDbEntity
  8
0
100
AcDbLine
 10
39.24442635585343
 20
4.101114991451835
 30
0.0
 11
39.25149742366529
 21
4.105197474356465
 31
0.0
  0
LINE
  5
CCF9
330
CBD4
100
AcDbEntity
  8
0
100
AcDbLine
 10
36.41599923110725
 20
5.734108153307282
 30
0.0
 11
36.41240712865882
 21
5.732034251991722
 31
0.0
  0
LINE
  5
CCFA
330
CBD4
100
AcDbEntity
  8
0
100
AcDbLine
 10
36.41240712865882
 20
5.736182054622824
 30
0.0
 11
36.41600227242284
 21
5.738257711842758
 31
0.0
  0
LINE
  5
CCFB
330
CBD4
100
AcDbEntity
  8
0
100
AcDbLine
 10
39.24801845830186
 20
4.099041090136275
 30
0.0
 11
39.24442635585343
 21
4.096967188820714
 31
0.0
  0
LINE
  5
CCFC
330
CBD4
100
AcDbEntity
  8
0
100
AcDbLine
 10
39.2514974236653
 20
4.101049671725354
 30
0.0
 11
39.24801845830186
 21
4.099041090136275
 31
0.0
  0
ENDBLK
  5
CBD6
330
CBD4
100
AcDbEntity
  8
0
100
AcDbBlockEnd
  0
ENDSEC
  0
SECTION
  2
ENTITIES
  0
INSERT
  5
CCFD
330
1F
100
AcDbEntity
  8
0
100
AcDbBlockReference
  2
SBE32_114-Front
 10
0.0
 20
0.0
 30
0.0
  0
INSERT
  5
CCFE
330
1F
100
AcDbEntity
  8
0
100
AcDbBlockReference
  2
SBE32_114-Left
 10
88.65000000000017
 20
0.0
 30
0.0
  0
INSERT
  5
CCFF
330
1F
100
AcDbEntity
  8
0
100
AcDbBlockReference
  2
SBE32_114-Right
 10
-88.65
 20
0.0
 30
0.0
  0
INSERT
  5
CD00
330
1F
100
AcDbEntity
  8
0
100
AcDbBlockReference
  2
SBE32_114-Top
 10
0.0
 20
-45.14999999999998
 30
0.0
  0
INSERT
  5
CD01
330
1F
100
AcDbEntity
  8
0
100
AcDbBlockReference
  2
SBE32_114-Bottom
 10
0.0
 20
157.65
 30
0.0
  0
INSERT
  5
CD02
330
1F
100
AcDbEntity
  8
0
100
AcDbBlockReference
  2
SBE32_114-ISO
 10
114.2982322781411
 20
-108.428579498917
 30
0.0
  0
MTEXT
  5
CD03
330
1F
100
AcDbEntity
  8
0
100
AcDbMText
 10
0.0
 20
-133.8
 30
0.0
 40
11.55
 41
0.0
 71
     5
 72
     5
  1
SBE32/114
 73
     1
 44
1.0
1001
ACAD
1000
MTEXTBEGIN
1070
    73
1070
     1
1070
    44
1040
1.0
1070
    74
1070
     0
1000
MTEXTEND
  0
ENDSEC
  0
SECTION
  2
OBJECTS
  0
DICTIONARY
  5
C
330
0
100
AcDbDictionary
281
     1
  3
ACAD_CIP_PREVIOUS_PRODUCT_INFO
350
216
  3
ACAD_COLOR
350
6B
  3
ACAD_DETAILVIEWSTYLE
350
21B
  3
ACAD_GROUP
350
D
  3
ACAD_LAYOUT
350
1A
  3
ACAD_MATERIAL
350
6A
  3
ACAD_MLEADERSTYLE
350
12D
  3
ACAD_MLINESTYLE
350
17
  3
ACAD_PLOTSETTINGS
350
19
  3
ACAD_PLOTSTYLENAME
350
E
  3
ACAD_SCALELIST
350
10C
  3
ACAD_SECTIONVIEWSTYLE
350
219
  3
ACAD_TABLESTYLE
350
7E
  3
ACAD_VISUALSTYLE
350
EF
  3
ACDB_RECOMPOSE_DATA
350
CE04
  3
AcDbVariableDictionary
350
5E
  3
DWGPROPS
350
CE05
  0
DICTIONARY
  5
CD54
330
8
100
AcDbDictionary
280
     1
281
     1
  0
DICTIONARY
  5
1FF
330
2
100
AcDbDictionary
280
     1
281
     1
  3
ACAD_LAYERSTATES
360
200
  0
DICTIONARY
  5
13C
330
10
100
AcDbDictionary
280
     1
281
     1
  0
DICTIONARY
  5
1CE
330
1F
100
AcDbDictionary
280
     1
281
     1
  3
ACAD_LAYOUTSELFREF
360
CD5C
  0
DICTIONARY
  5
CD07
330
D2
100
AcDbDictionary
280
     1
281
     1
  3
ACAD_LAYOUTSELFREF
360
CD65
  0
DICTIONARY
  5
CD09
330
D6
100
AcDbDictionary
280
     1
281
     1
  3
ACAD_LAYOUTSELFREF
360
CD68
  0
XRECORD
  5
216
102
{ACAD_REACTORS
330
C
102
}
330
C
100
AcDbXrecord
280
     1
300
ACD
300
2021
300

  0
DICTIONARY
  5
6B
102
{ACAD_REACTORS
330
C
102
}
330
C
100
AcDbDictionary
281
     1
  0
DICTIONARY
  5
21B
102
{ACAD_REACTORS
330
C
102
}
330
C
100
AcDbDictionary
281
     1
  3
Metric50
350
21C
  0
DICTIONARY
  5
D
102
{ACAD_REACTORS
330
C
102
}
330
C
100
AcDbDictionary
281
     1
  0
DICTIONARY
  5
1A
102
{ACAD_REACTORS
330
C
102
}
330
C
100
AcDbDictionary
281
     1
  3
Layout1
350
D3
  3
Layout2
350
D7
  3
Model
350
22
  0
DICTIONARY
  5
6A
102
{ACAD_REACTORS
330
C
102
}
330
C
100
AcDbDictionary
281
     1
  3
ByBlock
350
ED
  3
ByLayer
350
EC
  3
Global
350
EE
  0
DICTIONARY
  5
12D
102
{ACAD_REACTORS
330
C
102
}
330
C
100
AcDbDictionary
281
     1
  3
Standard
350
12E
  0
DICTIONARY
  5
17
102
{ACAD_REACTORS
330
C
102
}
330
C
100
AcDbDictionary
281
     1
  3
Standard
350
18
  0
DICTIONARY
  5
19
102
{ACAD_REACTORS
330
C
102
}
330
C
100
AcDbDictionary
281
     1
  0
ACDBDICTIONARYWDFLT
  5
E
102
{ACAD_REACTORS
330
C
102
}
330
C
100
AcDbDictionary
281
     1
  3
Normal
350
F
100
AcDbDictionaryWithDefault
340
F
  0
DICTIONARY
  5
10C
102
{ACAD_REACTORS
330
C
102
}
330
C
100
AcDbDictionary
281
     1
  3
A0
350
10D
  3
A1
350
1BE
  3
A2
350
1BF
  3
A3
350
1C0
  3
A4
350
1C1
  3
A5
350
1C2
  3
A6
350
1C3
  3
A7
350
1C4
  3
A8
350
1C5
  3
A9
350
1C6
  3
B0
350
1C7
  3
B1
350
1C8
  3
B2
350
1C9
  3
B3
350
1CA
  3
B4
350
1CB
  3
B5
350
1CC
  3
B6
350
1CD
  0
DICTIONARY
  5
219
102
{ACAD_REACTORS
330
C
102
}
330
C
100
AcDbDictionary
281
     1
  3
Metric50
350
21A
  0
DICTIONARY
  5
7E
102
{ACAD_REACTORS
330
C
102
}
330
C
100
AcDbDictionary
281
     1
  3
Standard
350
7F
  0
DICTIONARY
  5
EF
102
{ACAD_REACTORS
330
C
102
}
330
C
100
AcDbDictionary
281
     1
  3
2dWireframe
350
F5
  3
Basic
350
F4
  3
Brighten
350
FB
  3
ColorChange
350
FF
  3
Conceptual
350
F8
  3
Dim
350
FA
  3
EdgeColorOff
350
1E6
  3
Facepattern
350
FE
  3
Flat
350
F0
  3
FlatWithEdges
350
F1
  3
Gouraud
350
F2
  3
GouraudWithEdges
350
F3
  3
Hidden
350
F7
  3
JitterOff
350
1E4
  3
Linepattern
350
FD
  3
OverhangOff
350
1E5
  3
Realistic
350
F9
  3
Shaded
350
1F3
  3
Shaded with edges
350
1F2
  3
Shades of Gray
350
1EF
  3
Sketchy
350
1F0
  3
Thicken
350
FC
  3
Wireframe
350
F6
  3
X-Ray
350
1F1
  0
XRECORD
  5
CE04
102
{ACAD_REACTORS
330
C
102
}
330
C
100
AcDbXrecord
280
     1
 90
        1
330
7F
  0
DICTIONARY
  5
5E
102
{ACAD_REACTORS
330
C
102
}
330
C
100
AcDbDictionary
281
     1
  3
CANNOSCALE
350
146
  3
CENTEREXE
350
259
  3
CENTERLTYPEFILE
350
25A
  3
CMLEADERSTYLE
350
145
  3
CTABLESTYLE
350
84
  3
CVIEWDETAILSTYLE
350
227
  3
CVIEWSECTIONSTYLE
350
228
  3
DIMASSOC
350
5F
  3
HIDETEXT
350
63
  3
INDEXCTL
350
CDB1
  3
LAYEREVAL
350
1AE
  3
LAYERNOTIFY
350
1AF
  3
LIGHTINGUNITS
350
CDAF
  3
MSLTSCALE
350
CDAE
  3
PSOLHEIGHT
350
CE01
  3
PSOLWIDTH
350
CE00
  3
SORTENTS
350
CDB0
  3
XCLIPFRAME
350
CE02
  0
XRECORD
  5
CE05
102
{ACAD_REACTORS
330
C
102
}
330
C
100
AcDbXrecord
280
     1
  1
DWGPROPS COOKIE
  2

  3

  4

  6

  7

  8
tronnguyen
  9

300
=
301
=
302
=
303
=
304
=
305
=
306
=
307
=
308
=
309
=
 40
0.0048842592592593
 41
2460286.6225
 42
2460286.638495371
  1

 90
        0
  0
DICTIONARY
  5
200
102
{ACAD_REACTORS
330
1FF
102
}
330
1FF
100
AcDbDictionary
281
     1
  0
XRECORD
  5
CD5C
102
{ACAD_REACTORS
330
1CE
102
}
330
1CE
100
AcDbXrecord
280
     1
340
1F
  0
XRECORD
  5
CD65
102
{ACAD_REACTORS
330
CD07
102
}
330
CD07
100
AcDbXrecord
280
     1
340
D2
  0
XRECORD
  5
CD68
102
{ACAD_REACTORS
330
CD09
102
}
330
CD09
100
AcDbXrecord
280
     1
340
D6
  0
ACDBDETAILVIEWSTYLE
  5
21C
102
{ACAD_XDICTIONARY
360
CE44
102
}
102
{ACAD_REACTORS
330
21B
102
}
330
21B
100
AcDbModelDocViewStyle
 70
     0
  3
Metric50
290
     0
100
AcDbDetailViewStyle
 70
     0
 71
     0
 90
        3
 71
     1
340
11
 40
5.0
340
0
 40
5.0
300

 40
0.0
280
     1
 71
     2
340
16
 90
       25
 71
     3
340
11
 40
5.0
 90
        0
 40
15.0
 90
        1
300
%<\AcVar ViewDetailId>% (%<\AcVar ViewScale \f "%sn">%)
 71
     4
340
16
 90
       25
340
16
 90
       25
280
     0
  0
LAYOUT
  5
D3
102
{ACAD_XDICTIONARY
360
CE09
102
}
102
{ACAD_REACTORS
330
1A
102
}
330
1A
100
AcDbPlotSettings
  1

  2
C:\Documents and Settings\basas\Application Data\Autodesk\AutoCAD 2005\R16.1\enu\plotters\Default Windows System Printer.pc3
  4

  6

 40
0.0
 41
0.0
 42
0.0
 43
0.0
 44
0.0
 45
0.0
 46
0.0
 47
0.0
 48
0.0
 49
0.0
140
0.0
141
0.0
142
1.0
143
1.0
 70
   688
 72
     0
 73
     0
 74
     5
  7

 75
    16
147
1.0
148
0.0
149
0.0
100
AcDbLayout
  1
Layout1
 70
     1
 71
     1
 10
0.0
 20
0.0
 11
12.0
 21
9.0
 12
0.0
 22
0.0
 32
0.0
 14
0.0
 24
0.0
 34
0.0
 15
0.0
 25
0.0
 35
0.0
146
0.0
 13
0.0
 23
0.0
 33
0.0
 16
1.0
 26
0.0
 36
0.0
 17
0.0
 27
1.0
 37
0.0
 76
     0
330
D2
  0
LAYOUT
  5
D7
102
{ACAD_XDICTIONARY
360
CE0B
102
}
102
{ACAD_REACTORS
330
1A
102
}
330
1A
100
AcDbPlotSettings
  1

  2
C:\Documents and Settings\basas\Application Data\Autodesk\AutoCAD 2005\R16.1\enu\plotters\Default Windows System Printer.pc3
  4

  6

 40
0.0
 41
0.0
 42
0.0
 43
0.0
 44
0.0
 45
0.0
 46
0.0
 47
0.0
 48
0.0
 49
0.0
140
0.0
141
0.0
142
1.0
143
1.0
 70
   688
 72
     0
 73
     0
 74
     5
  7

 75
    16
147
1.0
148
0.0
149
0.0
100
AcDbLayout
  1
Layout2
 70
     1
 71
     2
 10
0.0
 20
0.0
 11
12.0
 21
9.0
 12
0.0
 22
0.0
 32
0.0
 14
0.0
 24
0.0
 34
0.0
 15
0.0
 25
0.0
 35
0.0
146
0.0
 13
0.0
 23
0.0
 33
0.0
 16
1.0
 26
0.0
 36
0.0
 17
0.0
 27
1.0
 37
0.0
 76
     0
330
D6
  0
LAYOUT
  5
22
102
{ACAD_XDICTIONARY
360
CE06
102
}
102
{ACAD_REACTORS
330
1A
102
}
330
1A
100
AcDbPlotSettings
  1

  2
none_device
  4
ISO_A4_(210.00_x_297.00_MM)
  6

 40
7.5
 41
20.0
 42
7.5
 43
20.0
 44
210.0
 45
297.0
 46
11.54999923706054
 47
-13.65000009536743
 48
0.0
 49
0.0
140
0.0
141
0.0
142
1.0
143
8.704084754739808
 70
 11952
 72
     1
 73
     0
 74
     0
  7

 75
     0
147
0.1148885871608098
148
0.0
149
0.0
100
AcDbLayout
  1
Model
 70
     1
 71
     0
 10
0.0
 20
0.0
 11
12.0
 21
9.0
 12
0.0
 22
0.0
 32
0.0
 14
0.0
 24
0.0
 34
0.0
 15
0.0
 25
0.0
 35
0.0
146
0.0
 13
0.0
 23
0.0
 33
0.0
 16
1.0
 26
0.0
 36
0.0
 17
0.0
 27
1.0
 37
0.0
 76
     0
330
1F
331
EA
1001
ACAD_PSEXT
1000
None
1000
None
1000
Not applicable
1000
The layout will not be plotted unless a new plotter configuration name is selected.
1070
     0
  0
MATERIAL
  5
ED
102
{ACAD_XDICTIONARY
360
1F9
102
}
102
{ACAD_REACTORS
330
6A
102
}
330
6A
100
AcDbMaterial
  1
ByBlock
  0
MATERIAL
  5
EC
102
{ACAD_XDICTIONARY
360
1F7
102
}
102
{ACAD_REACTORS
330
6A
102
}
330
6A
100
AcDbMaterial
  1
ByLayer
  0
MATERIAL
  5
EE
102
{ACAD_XDICTIONARY
360
173
102
}
102
{ACAD_REACTORS
330
6A
102
}
330
6A
100
AcDbMaterial
  1
Global
 43
0.0007999999797903
 43
0.0
 43
0.0
 43
0.0
 43
0.0
 43
0.0007999999797903
 43
0.0
 43
0.0
 43
0.0
 43
0.0
 43
1.0
 43
0.0
 43
0.0
 43
0.0
 43
0.0
 43
1.0
 49
0.0007999999797903
 49
0.0
 49
0.0
 49
0.0
 49
0.0
 49
0.0007999999797903
 49
0.0
 49
0.0
 49
0.0
 49
0.0
 49
1.0
 49
0.0
 49
0.0
 49
0.0
 49
0.0
 49
1.0
142
0.0007999999797903
142
0.0
142
0.0
142
0.0
142
0.0
142
0.0007999999797903
142
0.0
142
0.0
142
0.0
142
0.0
142
1.0
142
0.0
142
0.0
142
0.0
142
0.0
142
1.0
144
0.0007999999797903
144
0.0
144
0.0
144
0.0
144
0.0
144
0.0007999999797903
144
0.0
144
0.0
144
0.0
144
0.0
144
1.0
144
0.0
144
0.0
144
0.0
144
0.0
144
1.0
1001
ACAD
1070
    -1
1070
     3
1070
     0
1000

1071
        0
1070
     0
  0
MLEADERSTYLE
  5
12E
102
{ACAD_XDICTIONARY
360
CE30
102
}
102
{ACAD_REACTORS
330
12D
102
}
330
12D
100
AcDbMLeaderStyle
170
     2
171
     1
172
     0
 90
        2
 40
0.0
 41
0.0
173
     1
 91
-1056964608
340
14
 92
       -2
290
     1
 42
2.0
291
     1
 43
8.0
  3
Standard
 44
4.0
300

342
11
174
     1
178
     1
175
     1
176
     0
 93
-1056964608
 45
4.0
292
     0
297
     0
 46
4.0
 94
-1056964608
 47
1.0
 49
1.0
140
1.0
293
     1
141
0.0
294
     1
177
     0
142
1.0
295
     0
296
     0
143
3.75
1001
ACAD_MLEADERVER
1070
     2
  0
MLINESTYLE
  5
18
102
{ACAD_REACTORS
330
17
102
}
330
17
100
AcDbMlineStyle
  2
STANDARD
 70
     0
  3

 62
   256
 51
90.0
 52
90.0
 71
     2
 49
0.5
 62
   256
  6
BYLAYER
 49
-0.5
 62
   256
  6
BYLAYER
  0
ACDBPLACEHOLDER
  5
F
102
{ACAD_REACTORS
330
E
102
}
330
E
  0
SCALE
  5
10D
102
{ACAD_REACTORS
330
10C
102
}
330
10C
100
AcDbScale
 70
     0
300
1:1
140
1.0
141
1.0
290
     1
  0
SCALE
  5
1BE
102
{ACAD_REACTORS
330
10C
102
}
330
10C
100
AcDbScale
 70
     0
300
1:2
140
1.0
141
2.0
290
     0
  0
SCALE
  5
1BF
102
{ACAD_REACTORS
330
10C
102
}
330
10C
100
AcDbScale
 70
     0
300
1:4
140
1.0
141
4.0
290
     0
  0
SCALE
  5
1C0
102
{ACAD_REACTORS
330
10C
102
}
330
10C
100
AcDbScale
 70
     0
300
1:5
140
1.0
141
5.0
290
     0
  0
SCALE
  5
1C1
102
{ACAD_REACTORS
330
10C
102
}
330
10C
100
AcDbScale
 70
     0
300
1:8
140
1.0
141
8.0
290
     0
  0
SCALE
  5
1C2
102
{ACAD_REACTORS
330
10C
102
}
330
10C
100
AcDbScale
 70
     0
300
1:10
140
1.0
141
10.0
290
     0
  0
SCALE
  5
1C3
102
{ACAD_REACTORS
330
10C
102
}
330
10C
100
AcDbScale
 70
     0
300
1:16
140
1.0
141
16.0
290
     0
  0
SCALE
  5
1C4
102
{ACAD_REACTORS
330
10C
102
}
330
10C
100
AcDbScale
 70
     0
300
1:20
140
1.0
141
20.0
290
     0
  0
SCALE
  5
1C5
102
{ACAD_REACTORS
330
10C
102
}
330
10C
100
AcDbScale
 70
     0
300
1:30
140
1.0
141
30.0
290
     0
  0
SCALE
  5
1C6
102
{ACAD_REACTORS
330
10C
102
}
330
10C
100
AcDbScale
 70
     0
300
1:40
140
1.0
141
40.0
290
     0
  0
SCALE
  5
1C7
102
{ACAD_REACTORS
330
10C
102
}
330
10C
100
AcDbScale
 70
     0
300
1:50
140
1.0
141
50.0
290
     0
  0
SCALE
  5
1C8
102
{ACAD_REACTORS
330
10C
102
}
330
10C
100
AcDbScale
 70
     0
300
1:100
140
1.0
141
100.0
290
     0
  0
SCALE
  5
1C9
102
{ACAD_REACTORS
330
10C
102
}
330
10C
100
AcDbScale
 70
     0
300
2:1
140
2.0
141
1.0
290
     0
  0
SCALE
  5
1CA
102
{ACAD_REACTORS
330
10C
102
}
330
10C
100
AcDbScale
 70
     0
300
4:1
140
4.0
141
1.0
290
     0
  0
SCALE
  5
1CB
102
{ACAD_REACTORS
330
10C
102
}
330
10C
100
AcDbScale
 70
     0
300
8:1
140
8.0
141
1.0
290
     0
  0
SCALE
  5
1CC
102
{ACAD_REACTORS
330
10C
102
}
330
10C
100
AcDbScale
 70
     0
300
10:1
140
10.0
141
1.0
290
     0
  0
SCALE
  5
1CD
102
{ACAD_REACTORS
330
10C
102
}
330
10C
100
AcDbScale
 70
     0
300
100:1
140
100.0
141
1.0
290
     0
  0
ACDBSECTIONVIEWSTYLE
  5
21A
102
{ACAD_XDICTIONARY
360
CE42
102
}
102
{ACAD_REACTORS
330
219
102
}
330
219
100
AcDbModelDocViewStyle
 70
     0
  3
Metric50
290
     0
100
AcDbSectionViewStyle
 70
     0
 71
     0
 90
      102
 71
     1
340
11
 40
5.0
340
0
340
0
 40
5.0
300
I, O, Q, S, X, Z
 40
10.0
 90
        0
 40
2.5
 90
        0
 71
     2
340
16
 90
       25
340
16
 90
       50
 40
5.0
 40
2.5
 40
5.0
 71
     3
340
11
 40
5.0
 90
        0
 40
15.0
 90
        1
300
%<\AcVar ViewSectionStartId>%-%<\AcVar ViewSectionEndId>% (%<\AcVar ViewScale \f "%sn">%)
 71
     4
300
ANSI31
 40
1.0
 90
        0
290
     0
290
     0
 90
        6
 40
0.0
 40
1.570796326794896
 40
0.2617993877991494
 40
1.308996938995747
 40
-0.2617993877991494
 40
1.832595714594046
  0
TABLESTYLE
  5
7F
102
{ACAD_XDICTIONARY
360
162
102
}
102
{ACAD_REACTORS
330
7E
102
}
330
7E
100
AcDbTableStyle
  3
Standard
 70
     0
 71
     0
 40
1.5
 41
1.5
280
     0
281
     0
  7
Standard
140
4.5
170
     2
 62
     0
 63
     7
283
     0
274
    -2
284
     1
 64
     0
275
    -2
285
     1
 65
     0
276
    -2
286
     1
 66
     0
277
    -2
287
     1
 67
     0
278
    -2
288
     1
 68
     0
279
    -2
289
     1
 69
     0
  7
Standard
140
6.0
170
     5
 62
     0
 63
     7
283
     0
274
    -2
284
     1
 64
     0
275
    -2
285
     1
 65
     0
276
    -2
286
     1
 66
     0
277
    -2
287
     1
 67
     0
278
    -2
288
     1
 68
     0
279
    -2
289
     1
 69
     0
  7
Standard
140
4.5
170
     5
 62
     0
 63
     7
283
     0
274
    -2
284
     1
 64
     0
275
    -2
285
     1
 65
     0
276
    -2
286
     1
 66
     0
277
    -2
287
     1
 67
     0
278
    -2
288
     1
 68
     0
279
    -2
289
     1
 69
     0
  0
VISUALSTYLE
  5
F5
102
{ACAD_XDICTIONARY
360
CE1A
102
}
102
{ACAD_REACTORS
330
EF
102
}
330
EF
100
AcDbVisualStyle
  2
2dWireframe
 70
     4
 71
     0
 72
     2
 73
     1
 90
        0
 40
-0.6
 41
-30.0
 62
     5
 63
     7
 74
     1
 91
        4
 64
     7
 65
   257
 75
     1
175
     1
 42
1.0
 92
        0
 66
   257
 43
1.0
 76
     1
 77
     6
 78
     2
 67
     7
 79
     5
170
     0
171
     0
290
     0
174
     0
 93
        1
 44
0.0
173
     0
291
     0
 45
0.0
1001
ACAD
1000
AcDbSavedByObjectVersion
1070
     0
  0
VISUALSTYLE
  5
F4
102
{ACAD_XDICTIONARY
360
CE18
102
}
102
{ACAD_REACTORS
330
EF
102
}
330
EF
100
AcDbVisualStyle
  2
Basic
 70
     7
 71
     1
 72
     0
 73
     1
 90
        0
 40
-0.6
 41
-30.0
 62
     5
 63
     7
 74
     0
 91
        4
 64
     7
 65
   257
 75
     1
175
     1
 42
1.0
 92
        8
 66
     7
 43
1.0
 76
     1
 77
     6
 78
     2
 67
     7
 79
     5
170
     0
171
     0
290
     0
174
     0
 93
        1
 44
0.0
173
     0
291
     1
 45
0.0
1001
ACAD
1000
AcDbSavedByObjectVersion
1070
     0
  0
VISUALSTYLE
  5
FB
102
{ACAD_XDICTIONARY
360
CE26
102
}
102
{ACAD_REACTORS
330
EF
102
}
330
EF
100
AcDbVisualStyle
  2
Brighten
 70
    12
 71
     2
 72
     2
 73
     1
 90
        0
 40
-0.6
 41
-30.0
 62
     5
 63
     7
 74
     1
 91
        4
 64
     7
 65
   257
 75
     1
175
     1
 42
1.0
 92
        8
 66
     7
 43
1.0
 76
     1
 77
     6
 78
     2
 67
     7
 79
     5
170
     0
171
     0
290
     0
174
     0
 93
        1
 44
50.0
173
     0
291
     1
 45
0.0
1001
ACAD
1000
AcDbSavedByObjectVersion
1070
     0
  0
VISUALSTYLE
  5
FF
102
{ACAD_XDICTIONARY
360
CE2E
102
}
102
{ACAD_REACTORS
330
EF
102
}
330
EF
100
AcDbVisualStyle
  2
ColorChange
 70
    16
 71
     2
 72
     2
 73
     3
 90
        0
 40
-0.6
 41
-30.0
 62
     5
 63
     8
 74
     1
 91
        4
 64
     7
 65
   257
 75
     1
175
     1
 42
1.0
 92
        8
 66
     8
 43
1.0
 76
     1
 77
     6
 78
     2
 67
     7
 79
     5
170
     0
171
     0
290
     0
174
     0
 93
        1
 44
0.0
173
     0
291
     1
 45
0.0
1001
ACAD
1000
AcDbSavedByObjectVersion
1070
     0
  0
VISUALSTYLE
  5
F8
102
{ACAD_XDICTIONARY
360
CE20
102
}
102
{ACAD_REACTORS
330
EF
102
}
330
EF
100
AcDbVisualStyle
  2
Conceptual
 70
     9
 71
     3
 72
     2
 73
     1
 90
        0
 40
-0.6
 41
-30.0
 62
     5
 63
     7
 74
     2
 91
        2
 64
     7
 65
   257
 75
     1
175
     1
 42
40.0
 92
        8
 66
     7
 43
1.0
 76
     1
 77
     6
 78
     2
 67
     7
 79
     3
170
     0
171
     0
290
     0
174
     0
 93
        1
 44
0.0
173
     0
291
     0
 45
0.0
1001
ACAD
1000
AcDbSavedByObjectVersion
1070
     0
  0
VISUALSTYLE
  5
FA
102
{ACAD_XDICTIONARY
360
CE24
102
}
102
{ACAD_REACTORS
330
EF
102
}
330
EF
100
AcDbVisualStyle
  2
Dim
 70
    11
 71
     2
 72
     2
 73
     1
 90
        0
 40
-0.6
 41
-30.0
 62
     5
 63
     7
 74
     1
 91
        4
 64
     7
 65
   257
 75
     1
175
     1
 42
1.0
 92
        8
 66
     7
 43
1.0
 76
     1
 77
     6
 78
     2
 67
     7
 79
     5
170
     0
171
     0
290
     0
174
     0
 93
        1
 44
-50.0
173
     0
291
     1
 45
0.0
1001
ACAD
1000
AcDbSavedByObjectVersion
1070
     0
  0
VISUALSTYLE
  5
1E6
102
{ACAD_XDICTIONARY
360
CE36
102
}
102
{ACAD_REACTORS
330
EF
102
}
330
EF
100
AcDbVisualStyle
  2
EdgeColorOff
 70
    22
 71
     2
 72
     2
 73
     0
 90
        0
 40
-0.6
 41
-30.0
 62
     5
 63
     7
 74
     1
 91
        4
 64
     7
 65
   257
 75
     1
175
     1
 42
1.0
 92
        8
 66
     7
 43
1.0
 76
     1
 77
     6
 78
     2
 67
     7
 79
     5
170
     0
171
     0
290
     0
174
     0
 93
        1
 44
0.0
173
     0
291
     1
 45
0.0
1001
ACAD
1000
AcDbSavedByObjectVersion
1070
     0
  0
VISUALSTYLE
  5
FE
102
{ACAD_XDICTIONARY
360
CE2C
102
}
102
{ACAD_REACTORS
330
EF
102
}
330
EF
100
AcDbVisualStyle
  2
Facepattern
 70
    15
 71
     2
 72
     2
 73
     1
 90
        0
 40
-0.6
 41
-30.0
 62
     5
 63
     7
 74
     1
 91
        4
 64
     7
 65
   257
 75
     1
175
     1
 42
1.0
 92
        8
 66
     7
 43
1.0
 76
     1
 77
     6
 78
     2
 67
     7
 79
     5
170
     0
171
     0
290
     0
174
     0
 93
        1
 44
0.0
173
     0
291
     1
 45
0.0
1001
ACAD
1000
AcDbSavedByObjectVersion
1070
     0
  0
VISUALSTYLE
  5
F0
102
{ACAD_XDICTIONARY
360
CE10
102
}
102
{ACAD_REACTORS
330
EF
102
}
330
EF
100
AcDbVisualStyle
  2
Flat
 70
     0
 71
     2
 72
     1
 73
     1
 90
        2
 40
-0.6
 41
30.0
 62
     5
 63
     7
 74
     0
 91
        0
 64
     7
 65
   257
 75
     1
175
     1
 42
1.0
 92
        8
 66
     7
 43
1.0
 76
     1
 77
     6
 78
     2
 67
     7
 79
     5
170
     0
171
     0
290
     0
174
     0
 93
       13
 44
0.0
173
     0
291
     1
 45
0.0
1001
ACAD
1000
AcDbSavedByObjectVersion
1070
     0
  0
VISUALSTYLE
  5
F1
102
{ACAD_XDICTIONARY
360
CE12
102
}
102
{ACAD_REACTORS
330
EF
102
}
330
EF
100
AcDbVisualStyle
  2
FlatWithEdges
 70
     1
 71
     2
 72
     1
 73
     1
 90
        2
 40
-0.6
 41
30.0
 62
     5
 63
     7
 74
     1
 91
        0
 64
     7
 65
   257
 75
     1
175
     1
 42
1.0
 92
        0
 66
   257
 43
1.0
 76
     1
 77
     6
 78
     2
 67
     7
 79
     5
170
     0
171
     0
290
     0
174
     0
 93
       13
 44
0.0
173
     0
291
     1
 45
0.0
1001
ACAD
1000
AcDbSavedByObjectVersion
1070
     0
  0
VISUALSTYLE
  5
F2
102
{ACAD_XDICTIONARY
360
CE14
102
}
102
{ACAD_REACTORS
330
EF
102
}
330
EF
100
AcDbVisualStyle
  2
Gouraud
 70
     2
 71
     2
 72
     2
 73
     1
 90
        2
 40
-0.6
 41
30.0
 62
     5
 63
     7
 74
     0
 91
        0
 64
     7
 65
   257
 75
     1
175
     1
 42
1.0
 92
        0
 66
     7
 43
1.0
 76
     1
 77
     6
 78
     2
 67
     7
 79
     5
170
     0
171
     0
290
     0
174
     0
 93
       13
 44
0.0
173
     0
291
     1
 45
0.0
1001
ACAD
1000
AcDbSavedByObjectVersion
1070
     0
  0
VISUALSTYLE
  5
F3
102
{ACAD_XDICTIONARY
360
CE16
102
}
102
{ACAD_REACTORS
330
EF
102
}
330
EF
100
AcDbVisualStyle
  2
GouraudWithEdges
 70
     3
 71
     2
 72
     2
 73
     1
 90
        2
 40
-0.6
 41
30.0
 62
     5
 63
     7
 74
     1
 91
        0
 64
     7
 65
   257
 75
     1
175
     1
 42
1.0
 92
        0
 66
   257
 43
1.0
 76
     1
 77
     6
 78
     2
 67
     7
 79
     5
170
     0
171
     0
290
     0
174
     0
 93
       13
 44
0.0
173
     0
291
     1
 45
0.0
1001
ACAD
1000
AcDbSavedByObjectVersion
1070
     0
  0
VISUALSTYLE
  5
F7
102
{ACAD_XDICTIONARY
360
CE1E
102
}
102
{ACAD_REACTORS
330
EF
102
}
330
EF
100
AcDbVisualStyle
  2
Hidden
 70
     6
 71
     1
 72
     2
 73
     2
 90
        0
 40
-0.6
 41
-30.0
 62
     5
 63
     7
 74
     2
 91
        2
 64
     7
 65
   257
 75
     2
175
     1
 42
40.0
 92
        0
 66
   257
 43
1.0
 76
     1
 77
     6
 78
     2
 67
     7
 79
     3
170
     0
171
     0
290
     0
174
     0
 93
        1
 44
0.0
173
     0
291
     0
 45
0.0
1001
ACAD
1000
AcDbSavedByObjectVersion
1070
     0
  0
VISUALSTYLE
  5
1E4
102
{ACAD_XDICTIONARY
360
CE32
102
}
102
{ACAD_REACTORS
330
EF
102
}
330
EF
100
AcDbVisualStyle
  2
JitterOff
 70
    20
 71
     2
 72
     2
 73
     0
 90
        0
 40
-0.6
 41
-30.0
 62
     5
 63
     7
 74
     1
 91
        4
 64
     7
 65
   257
 75
     1
175
     1
 42
1.0
 92
       10
 66
     7
 43
1.0
 76
     1
 77
     6
 78
     2
 67
     7
 79
     5
170
     0
171
     0
290
     0
174
     0
 93
        1
 44
0.0
173
     0
291
     1
 45
0.0
1001
ACAD
1000
AcDbSavedByObjectVersion
1070
     0
  0
VISUALSTYLE
  5
FD
102
{ACAD_XDICTIONARY
360
CE2A
102
}
102
{ACAD_REACTORS
330
EF
102
}
330
EF
100
AcDbVisualStyle
  2
Linepattern
 70
    14
 71
     2
 72
     2
 73
     1
 90
        0
 40
-0.6
 41
-30.0
 62
     5
 63
     7
 74
     1
 91
        4
 64
     7
 65
   257
 75
     7
175
     7
 42
1.0
 92
        8
 66
     7
 43
1.0
 76
     1
 77
     6
 78
     2
 67
     7
 79
     5
170
     0
171
     0
290
     0
174
     0
 93
        1
 44
0.0
173
     0
291
     1
 45
0.0
1001
ACAD
1000
AcDbSavedByObjectVersion
1070
     0
  0
VISUALSTYLE
  5
1E5
102
{ACAD_XDICTIONARY
360
CE34
102
}
102
{ACAD_REACTORS
330
EF
102
}
330
EF
100
AcDbVisualStyle
  2
OverhangOff
 70
    21
 71
     2
 72
     2
 73
     0
 90
        0
 40
-0.6
 41
-30.0
 62
     5
 63
     7
 74
     1
 91
        4
 64
     7
 65
   257
 75
     1
175
     1
 42
1.0
 92
        9
 66
     7
 43
1.0
 76
     1
 77
     6
 78
     2
 67
     7
 79
     5
170
     0
171
     0
290
     0
174
     0
 93
        1
 44
0.0
173
     0
291
     1
 45
0.0
1001
ACAD
1000
AcDbSavedByObjectVersion
1070
     0
  0
VISUALSTYLE
  5
F9
102
{ACAD_XDICTIONARY
360
CE22
102
}
102
{ACAD_REACTORS
330
EF
102
}
330
EF
100
AcDbVisualStyle
  2
Realistic
 70
     8
 71
     2
 72
     2
 73
     0
 90
        2
 40
-0.6
 41
30.0
 62
     5
 63
     7
 74
     0
 91
        0
 64
     7
 65
   257
 75
     1
175
     1
 42
1.0
 92
        8
 66
   257
 43
1.0
 76
     1
 77
     6
 78
     2
 67
     7
 79
     3
170
     0
171
     0
290
     0
174
     0
 93
       13
 44
0.0
173
     0
291
     0
 45
0.0
1001
ACAD
1000
AcDbSavedByObjectVersion
1070
     0
  0
VISUALSTYLE
  5
1F3
102
{ACAD_XDICTIONARY
360
CE40
102
}
102
{ACAD_REACTORS
330
EF
102
}
330
EF
100
AcDbVisualStyle
  2
Shaded
 70
    27
 71
     2
 72
     2
 73
     1
 90
        2
 40
-0.6
 41
30.0
 62
     5
 63
     7
 74
     0
 91
        4
 64
     7
 65
   257
 75
     1
175
     1
 42
1.0
 92
        8
 66
   257
 43
1.0
 76
     1
 77
     6
 78
     2
 67
     8
 79
     3
170
     0
171
     0
290
     0
174
     0
 93
        5
 44
0.0
173
     0
291
     0
 45
0.0
1001
ACAD
1000
AcDbSavedByObjectVersion
1070
     0
  0
VISUALSTYLE
  5
1F2
102
{ACAD_XDICTIONARY
360
CE3E
102
}
102
{ACAD_REACTORS
330
EF
102
}
330
EF
100
AcDbVisualStyle
  2
Shaded with edges
 70
    26
 71
     2
 72
     2
 73
     1
 90
        2
 40
-0.6
 41
30.0
 62
     5
 63
     7
 74
     1
 91
        2
 64
     7
 65
   257
 75
     2
175
     1
 42
1.0
 92
        8
 66
   257
 43
1.0
 76
     1
 77
     6
 78
     2
 67
     7
 79
     3
170
     0
171
     0
290
     0
174
     0
 93
        5
 44
0.0
173
     0
291
     0
 45
0.0
1001
ACAD
1000
AcDbSavedByObjectVersion
1070
     0
  0
VISUALSTYLE
  5
1EF
102
{ACAD_XDICTIONARY
360
CE38
102
}
102
{ACAD_REACTORS
330
EF
102
}
330
EF
100
AcDbVisualStyle
  2
Shades of Gray
 70
    23
 71
     2
 72
     2
 73
     3
 90
        0
 40
-0.6
 41
-30.0
 62
     5
 63
     7
 74
     2
 91
        2
 64
     7
 65
     7
 75
     1
175
     1
 42
40.0
 92
        8
 66
     7
 43
1.0
 76
     1
 77
     6
 78
     2
 67
     7
 79
     3
170
     0
171
     0
290
     0
174
     0
 93
        1
 44
0.0
173
     0
291
     0
 45
0.0
1001
ACAD
1000
AcDbSavedByObjectVersion
1070
     0
  0
VISUALSTYLE
  5
1F0
102
{ACAD_XDICTIONARY
360
CE3A
102
}
102
{ACAD_REACTORS
330
EF
102
}
330
EF
100
AcDbVisualStyle
  2
Sketchy
 70
    24
 71
     1
 72
     2
 73
     2
 90
        0
 40
-0.6
 41
-30.0
 62
     5
 63
     7
 74
     2
 91
        2
 64
     7
 65
     7
 75
     1
175
     1
 42
40.0
 92
       11
 66
     7
 43
1.0
 76
     1
 77
     6
 78
     2
 67
     7
 79
     6
170
     0
171
     0
290
     0
174
     0
 93
        1
 44
0.0
173
     0
291
     0
 45
0.0
1001
ACAD
1000
AcDbSavedByObjectVersion
1070
     0
  0
VISUALSTYLE
  5
FC
102
{ACAD_XDICTIONARY
360
CE28
102
}
102
{ACAD_REACTORS
330
EF
102
}
330
EF
100
AcDbVisualStyle
  2
Thicken
 70
    13
 71
     2
 72
     2
 73
     1
 90
        0
 40
-0.6
 41
-30.0
 62
     5
 63
     7
 74
     1
 91
        4
 64
     7
 65
   257
 75
     1
175
     1
 42
1.0
 92
       12
 66
     7
 43
1.0
 76
     1
 77
     6
 78
     2
 67
     7
 79
     5
170
     0
171
     0
290
     0
174
     0
 93
        1
 44
0.0
173
     0
291
     1
 45
0.0
1001
ACAD
1000
AcDbSavedByObjectVersion
1070
     0
  0
VISUALSTYLE
  5
F6
102
{ACAD_XDICTIONARY
360
CE1C
102
}
102
{ACAD_REACTORS
330
EF
102
}
330
EF
100
AcDbVisualStyle
  2
Wireframe
 70
     5
 71
     0
 72
     2
 73
     0
 90
        0
 40
-0.6
 41
-30.0
 62
     5
 63
     7
 74
     1
 91
        4
 64
     7
 65
   257
 75
     1
175
     1
 42
1.0
 92
        0
 66
   257
 43
1.0
 76
     1
 77
     6
 78
     2
 67
     7
 79
     3
170
     0
171
     0
290
     0
174
     0
 93
        1
 44
0.0
173
     0
291
     0
 45
0.0
1001
ACAD
1000
AcDbSavedByObjectVersion
1070
     0
  0
VISUALSTYLE
  5
1F1
102
{ACAD_XDICTIONARY
360
CE3C
102
}
102
{ACAD_REACTORS
330
EF
102
}
330
EF
100
AcDbVisualStyle
  2
X-Ray
 70
    25
 71
     2
 72
     2
 73
     1
 90
        1
 40
0.5
 41
-30.0
 62
     5
 63
     7
 74
     1
 91
        0
 64
     7
 65
   257
 75
     1
175
     1
 42
1.0
 92
        8
 66
     7
 43
1.0
 76
     1
 77
     6
 78
     2
 67
     7
 79
     3
170
     0
171
     0
290
     0
174
     0
 93
       13
 44
0.0
173
     0
291
     0
 45
0.0
1001
ACAD
1000
AcDbSavedByObjectVersion
1070
     0
  0
DICTIONARYVAR
  5
146
102
{ACAD_REACTORS
330
5E
102
}
330
5E
100
DictionaryVariables
280
     0
  1
1:1
  0
DICTIONARYVAR
  5
259
102
{ACAD_REACTORS
330
5E
102
}
330
5E
100
DictionaryVariables
280
     0
  1
3.500000
  0
DICTIONARYVAR
  5
25A
102
{ACAD_REACTORS
330
5E
102
}
330
5E
100
DictionaryVariables
280
     0
  1
acadiso.lin
  0
DICTIONARYVAR
  5
145
102
{ACAD_REACTORS
330
5E
102
}
330
5E
100
DictionaryVariables
280
     0
  1
STANDARD
  0
DICTIONARYVAR
  5
84
102
{ACAD_REACTORS
330
5E
102
}
330
5E
100
DictionaryVariables
280
     0
  1
STANDARD
  0
DICTIONARYVAR
  5
227
102
{ACAD_REACTORS
330
5E
102
}
330
5E
100
DictionaryVariables
280
     0
  1
Metric50
  0
DICTIONARYVAR
  5
228
102
{ACAD_REACTORS
330
5E
102
}
330
5E
100
DictionaryVariables
280
     0
  1
Metric50
  0
DICTIONARYVAR
  5
5F
102
{ACAD_REACTORS
330
5E
102
}
330
5E
100
DictionaryVariables
280
     0
  1
2
  0
DICTIONARYVAR
  5
63
102
{ACAD_REACTORS
330
5E
102
}
330
5E
100
DictionaryVariables
280
     0
  1
1
  0
DICTIONARYVAR
  5
CDB1
102
{ACAD_REACTORS
330
5E
102
}
330
5E
100
DictionaryVariables
280
     0
  1
0
  0
DICTIONARYVAR
  5
1AE
102
{ACAD_REACTORS
330
5E
102
}
330
5E
100
DictionaryVariables
280
     0
  1
0
  0
DICTIONARYVAR
  5
1AF
102
{ACAD_REACTORS
330
5E
102
}
330
5E
100
DictionaryVariables
280
     0
  1
0
  0
DICTIONARYVAR
  5
CDAF
102
{ACAD_REACTORS
330
5E
102
}
330
5E
100
DictionaryVariables
280
     0
  1
2
  0
DICTIONARYVAR
  5
CDAE
102
{ACAD_REACTORS
330
5E
102
}
330
5E
100
DictionaryVariables
280
     0
  1
1
  0
DICTIONARYVAR
  5
CE01
102
{ACAD_REACTORS
330
5E
102
}
330
5E
100
DictionaryVariables
280
     0
  1
80.000000
  0
DICTIONARYVAR
  5
CE00
102
{ACAD_REACTORS
330
5E
102
}
330
5E
100
DictionaryVariables
280
     0
  1
5.000000
  0
DICTIONARYVAR
  5
CDB0
102
{ACAD_REACTORS
330
5E
102
}
330
5E
100
DictionaryVariables
280
     0
  1
127
  0
DICTIONARYVAR
  5
CE02
102
{ACAD_REACTORS
330
5E
102
}
330
5E
100
DictionaryVariables
280
     0
  1
2
  0
DICTIONARY
  5
CE44
330
21C
100
AcDbDictionary
280
     1
281
     1
  3
ACAD_XREC_ROUNDTRIP
360
CE45
  0
DICTIONARY
  5
CE09
330
D3
100
AcDbDictionary
280
     1
281
     1
  3
ACAD_XREC_ROUNDTRIP
360
CE0A
  0
DICTIONARY
  5
CE0B
330
D7
100
AcDbDictionary
280
     1
281
     1
  3
ACAD_XREC_ROUNDTRIP
360
CE0C
  0
DICTIONARY
  5
CE06
330
22
100
AcDbDictionary
280
     1
281
     1
  3
ACAD_XREC_ROUNDTRIP
360
CE07
  0
DICTIONARY
  5
1F9
330
ED
100
AcDbDictionary
280
     1
281
     1
  3
ACAD_XREC_ROUNDTRIP
360
CE0E
  3
FBXASSET
360
1FA
  0
DICTIONARY
  5
1F7
330
EC
100
AcDbDictionary
280
     1
281
     1
  3
ACAD_XREC_ROUNDTRIP
360
CE0D
  3
FBXASSET
360
1F8
  0
DICTIONARY
  5
173
330
EE
100
AcDbDictionary
280
     1
281
     1
  3
ACAD_XREC_ROUNDTRIP
360
CE0F
  3
BUMPTILE
360
175
  3
DIFFUSETILE
360
174
  3
FBXASSET
360
1FB
  3
OPACITYTILE
360
176
  3
REFLECTIONTILE
360
177
  0
DICTIONARY
  5
CE30
330
12E
100
AcDbDictionary
280
     1
281
     1
  3
ACAD_XREC_ROUNDTRIP
360
CE31
  0
DICTIONARY
  5
CE42
330
21A
100
AcDbDictionary
280
     1
281
     1
  3
ACAD_XREC_ROUNDTRIP
360
CE43
  0
DICTIONARY
  5
162
330
7F
100
AcDbDictionary
280
     1
281
     1
  3
ACAD_ROUNDTRIP_2008_TABLESTYLE_CELLSTYLEMAP
360
CE03
  3
ACAD_XREC_ROUNDTRIP
360
CE08
  0
DICTIONARY
  5
CE1A
330
F5
100
AcDbDictionary
280
     1
281
     1
  3
ACAD_XREC_ROUNDTRIP
360
CE1B
  0
DICTIONARY
  5
CE18
330
F4
100
AcDbDictionary
280
     1
281
     1
  3
ACAD_XREC_ROUNDTRIP
360
CE19
  0
DICTIONARY
  5
CE26
330
FB
100
AcDbDictionary
280
     1
281
     1
  3
ACAD_XREC_ROUNDTRIP
360
CE27
  0
DICTIONARY
  5
CE2E
330
FF
100
AcDbDictionary
280
     1
281
     1
  3
ACAD_XREC_ROUNDTRIP
360
CE2F
  0
DICTIONARY
  5
CE20
330
F8
100
AcDbDictionary
280
     1
281
     1
  3
ACAD_XREC_ROUNDTRIP
360
CE21
  0
DICTIONARY
  5
CE24
330
FA
100
AcDbDictionary
280
     1
281
     1
  3
ACAD_XREC_ROUNDTRIP
360
CE25
  0
DICTIONARY
  5
CE36
330
1E6
100
AcDbDictionary
280
     1
281
     1
  3
ACAD_XREC_ROUNDTRIP
360
CE37
  0
DICTIONARY
  5
CE2C
330
FE
100
AcDbDictionary
280
     1
281
     1
  3
ACAD_XREC_ROUNDTRIP
360
CE2D
  0
DICTIONARY
  5
CE10
330
F0
100
AcDbDictionary
280
     1
281
     1
  3
ACAD_XREC_ROUNDTRIP
360
CE11
  0
DICTIONARY
  5
CE12
330
F1
100
AcDbDictionary
280
     1
281
     1
  3
ACAD_XREC_ROUNDTRIP
360
CE13
  0
DICTIONARY
  5
CE14
330
F2
100
AcDbDictionary
280
     1
281
     1
  3
ACAD_XREC_ROUNDTRIP
360
CE15
  0
DICTIONARY
  5
CE16
330
F3
100
AcDbDictionary
280
     1
281
     1
  3
ACAD_XREC_ROUNDTRIP
360
CE17
  0
DICTIONARY
  5
CE1E
330
F7
100
AcDbDictionary
280
     1
281
     1
  3
ACAD_XREC_ROUNDTRIP
360
CE1F
  0
DICTIONARY
  5
CE32
330
1E4
100
AcDbDictionary
280
     1
281
     1
  3
ACAD_XREC_ROUNDTRIP
360
CE33
  0
DICTIONARY
  5
CE2A
330
FD
100
AcDbDictionary
280
     1
281
     1
  3
ACAD_XREC_ROUNDTRIP
360
CE2B
  0
DICTIONARY
  5
CE34
330
1E5
100
AcDbDictionary
280
     1
281
     1
  3
ACAD_XREC_ROUNDTRIP
360
CE35
  0
DICTIONARY
  5
CE22
330
F9
100
AcDbDictionary
280
     1
281
     1
  3
ACAD_XREC_ROUNDTRIP
360
CE23
  0
DICTIONARY
  5
CE40
330
1F3
100
AcDbDictionary
280
     1
281
     1
  3
ACAD_XREC_ROUNDTRIP
360
CE41
  0
DICTIONARY
  5
CE3E
330
1F2
100
AcDbDictionary
280
     1
281
     1
  3
ACAD_XREC_ROUNDTRIP
360
CE3F
  0
DICTIONARY
  5
CE38
330
1EF
100
AcDbDictionary
280
     1
281
     1
  3
ACAD_XREC_ROUNDTRIP
360
CE39
  0
DICTIONARY
  5
CE3A
330
1F0
100
AcDbDictionary
280
     1
281
     1
  3
ACAD_XREC_ROUNDTRIP
360
CE3B
  0
DICTIONARY
  5
CE28
330
FC
100
AcDbDictionary
280
     1
281
     1
  3
ACAD_XREC_ROUNDTRIP
360
CE29
  0
DICTIONARY
  5
CE1C
330
F6
100
AcDbDictionary
280
     1
281
     1
  3
ACAD_XREC_ROUNDTRIP
360
CE1D
  0
DICTIONARY
  5
CE3C
330
1F1
100
AcDbDictionary
280
     1
281
     1
  3
ACAD_XREC_ROUNDTRIP
360
CE3D
  0
XRECORD
  5
CE45
102
{ACAD_REACTORS
330
CE44
102
}
330
CE44
100
AcDbXrecord
280
     1
102
DISPLAYNAME
  1
Metric50
102
FLAGS
 90
        0
  0
XRECORD
  5
CE0A
102
{ACAD_REACTORS
330
CE09
102
}
330
CE09
100
AcDbXrecord
280
     1
102
SHADEPLOT
 70
     0
102
SHADEPLOTRESLEVEL
 70
     2
102
SHADEPLOTCUSTOMDPI
 70
   300
  0
XRECORD
  5
CE0C
102
{ACAD_REACTORS
330
CE0B
102
}
330
CE0B
100
AcDbXrecord
280
     1
102
SHADEPLOT
 70
     0
102
SHADEPLOTRESLEVEL
 70
     2
102
SHADEPLOTCUSTOMDPI
 70
   300
  0
XRECORD
  5
CE07
102
{ACAD_REACTORS
330
CE06
102
}
330
CE06
100
AcDbXrecord
280
     1
102
SHADEPLOT
 70
     0
102
SHADEPLOTRESLEVEL
 70
     2
102
SHADEPLOTCUSTOMDPI
 70
   300
  0
XRECORD
  5
CE0E
102
{ACAD_REACTORS
330
1F9
102
}
330
1F9
100
AcDbXrecord
280
     1
102
MATERIAL
148
0.0
149
0.0
149
0.0
 93
        0
 94
       63
282
     0
 72
     1
 77
     1
171
     1
175
     1
179
     1
273
     0
  0
XRECORD
  5
1FA
102
{ACAD_REACTORS
330
1F9
102
}
330
1F9
100
AcDbXrecord
280
     1
 70
     1
 90
429727718
  1
D62C5603-E3A1-4AEA-B7FB-FE5D8D0755AF
310
504B03040A0000080000CC70623B3DEE336E79000000790000001B0000006175746F6465736B2D64657369676E2D7061636B6167652E786D6C3C3F786D6C2076657273696F6E3D22312E302220656E636F64696E673D227574662D3822203F3E3C666F726D6174733E3C666F726D61743E687474703A2F2F736368656D612E
310
6175746F6465736B2E636F6D2F64657369676E2D7061636B6167652F323030393C2F666F726D61743E3C2F666F726D6174733E504B0304140006080800CC70623BD486FD9CA0000000F4000000130000005B436F6E74656E745F54797065735D2E786D6C7D8EC10E82300C865F65E91D8A1E8C310C0EEA1BF002731658846E
310
D98AC1B77784ABF1D8FE5FBFBF75BBCE937A534CCEB38643598122B6FEE978D0B0485F9C41B54DDD7D022595594E1A469170414C76A4D9A4D207E29CF43ECE46F218070CC6BECC4078ACAA135ACF422C856C0E68EA1BF5669944DDD7BCDE7B1F8E415D77AECB980613C2E4AC91FC167A2B244592486606FC29C8FD7F045B9A
310
EF7053A7E60B504B0304140006080800CC70623B853B8169EB0000007C01000008000000636F72652E786D6C8D90416EC3201045AF62CDB6C206821CC7C244919D9CA01740401C94182C03558F5F9C3852BBEB6A467FFE9B197D7EFC9E1EC5975982F5AE035262288C535E5B377690E21535501C055FBC8FBF6C503839990E
310
5619041F179FE64D52DE45E362569DD7661365082642A11EB9E920A89B99642953CC8E702F67A9EE7234257977194EC9EAE275C4EABCCF5EAD5940D4AC6F0E35A568B8F43562CD7046CD199FD07E60174276A7BE677B5EADB0E0D14EEFFB6A31321A0D82627C4084204C3F096B71DD52F6819B16635EADF63F509AF53FA164
310
5DDCD1EDDD17164090FCC8732078B56691CB33A85CD7DCC40F504B0304140006080800CC70623B55019EA25F0000007C00000007000000636E782E786D6C4DCB3B0E80201045D1AD90E915ED2CF8AC45050C11660C8261F98AB1B07AC9C97D42D718D865D3E909258CFD00CCE24AC6E326A164D74DC0B4128928FF32603847
310
2BA13128B1252AC747C6BAB984FC68F0B87FE8960A5C09FE86CFB69FBA01504B0304140006080800CC70623BDBABAAF470010000D40300000C0000006662782F636F72652E786D6CC553D16E823014FD95A6AF4B694182CC941A83FA05FB810A9511A125A5257EFE2E82712ECEB8A7F100CD39F7F69E734AF9FADC366850B6
310
AF8DCE7018308C942E4C59EB2AC3DE1D498AD15A706B8CFB56869196ADCAF00863C12B6B7C374385D14E6907A836A59A41D9F7CA615434B0C8705F7CAA5606D23BA8E84F41278B93AC54100640439DE0BDB320004D43C63716C7C399D30917DCFBBA9CD9BA8469F5B156168B24CED3F7248AC8769F27244EB73B92EED8862C
310
B7F13E0C179B3C8F979C8ECD82BBBABDAA2BAC924E9558448CBD9330242CFA08E3154B5651FCC6D215639C8EE5774DBE2B5F6CF2B5768B68963BB5F5588420E442FC700B1139D4CB01F450C1E918227C2E09DF070D8140C84E1E9AAB8F1340832A9CB13130A5F1376A908D57309505ECF2A0DF179C4E9D30F5B239B87E3823
310
7A79C6F31DE1A8A5AEC08474B03C7837EAE4938639B44E5932B833D2C6B6B279CDC613877FA26EE21F4A2A4C63EC7F29A2F301D1F9F7A0E37D145F504B0304140006080800CC70623B9C113CC27E0000009D0000000B0000006662782F636E782E786D6C4DCCDF0A83201C86E15B91DFB94BFB330DD428C8FB886521330DA7
310
6397BF1A1DECE883878F57749FCDA1B7892F1BBC047A23808C7F84D9FA55424E0BE6803A256208E9EF06C84F9B91703228B1C690F78B66B34CD9A5439DF5CF0BFBF65E35BCA1B8D6A5C6F540381E886698B5741C695F9503EBA150A2F8958E3DC3EA0B504B0304140006080800CC70623B7DF2F77C2A010000120200003100
310
00006662782F41393633353835312D344632462D344230382D423046372D3739314545314133324237412F636F72652E786D6C8D51DB8EC22014FC15C2939B0D2DB4B45643319AE817EC0F6041255A68B86CFCFC856D4D76DF7CE190393373060EDB3DC707F856CE6B6B7A480A0C81328395DA5C7B18C3057510EC3873D686
310
3F34088C18550F330C39BB3A1BA7051AAC09CA84841A2BD5020AEF55806078A44B0FFD7053A328440C89E1EFC52486BBB8AA8214A99D789CF9E05200300FC927E4FB4D5B375D43103D5527440FB843077C5AA3F5861C8F645F5787F59E95B390B318B55CE45AA638FAA2957BD7248B390B7A7CC51F9C124149C82B8C378810
310
84AB2F42B7B8DD56F413775B8C5999E9FF4471926F8AA236A1AE96B8B3CC434E5839373893369E1FAF30EA395917409EB7F26AF8801C171837A4A6AC9C89E9F9C9B1A58BA30FD6A5EF5DDDCF894B9AD9B6A59C957943A9FCAE2FD5BC4DFE03504B0304140006080800CC70623BAD7543B64E01000033030000300000006662
310
782F41393633353835312D344632462D344230382D423046372D3739314545314133324237412F636E782E786D6CD593CD6EC32010845F0571AD6CE3D48AD20813A9873E410FBD12D82434182C7EAAE6EDBB2424CD25871E7B41D6EC30B3FA84F9E67BB2E40B4234DE8DB46F1925E094D7C6ED479AD3AE5951B2113C789FEE
310
6C943839C1488B4C05DF079FE72A69D8C96C13AAD6B8631503449F83828872B949AC57D26200B826A308D316B4064D6E46FCDA41C05550DC9E483A00797BFD207EFB092A45DE9514C1BBD22178396BD39D891265658C238DEA00936C654E5E433CB65A26D9F6EDB5EBC14EBF49A45CB856E66048291F6939A9A81BB5C89177
310
38143CA680F4AA299D66A042CEB3354A2684DC9D8D178FE0D9B8B41CAAD720F880EE7EF93C0C18769E099ECC04D5A102C8049A8A05632F4DDF376CF1DE0F6BB65C2F8627B65A33C6BB62177CEBBDAD973006829F89F22E814B54F4BC2BE347F8AA8F681390B50FA73F804400B5F542E796F19FF974E7F78DB802FE05E20750
310
4B0304140006080800CC70623BE75B7789680500003C100000340000006662782F41393633353835312D344632462D344230382D423046372D3739314545314133324237412F6F626A656374732E786D6CAD575B8F9B3818FD2B887D06C22499CB8AA1CA655245D5B455A356FB305264C061D8018C6C3393D95FBFC7600890
310
A4CD5EF210B0B1BFEBF98E3F7B1FF6596ABC522E1296DF9BAE3D320D9A872C4AF2F8DE2CE5CEBA358D0FBEC719939D65A691938CDE9B6ADAF4BD98B3B2D05311DD91329583D9D5FC0F438434A7A611A644887B5384CF34233629258BA878B12322891DEFF6B66BD70BFB62634E8AE781D082709A4B588AF91C528CDA28B73F
310
1C998EEF39EABBEFA97FBD6A7C7E9553F9D3D79FE442923C3C523610337627CB87ABE99D359D4CC6D6E4FACAB5E6ABF9D2726FC6A3C5F56271377BB88362213924694B38DD99FE47C48627A1E7D49F5A8BB5E1A74C0A599ED3B0F21F1E56366B89112D681E218F0915D0D6F17AD41FBA2A369DCF6335D62ABBD39779D5DDD1
310
11D4D8DE3CBB96B2E04FB8202E41051754A1AA8E8F76B4C6DFE810B580B1547F4B84911149794252234D024EF8BBE963A95AE27B3D310A9D5C215C7960FAEE415ED75694C6AFB17BCACA5D99A60A9AA65F217B0BFC53292ACB92BF283FAD0D3621576592CB5BED907C2FA8E9DF794E35E97BEA31BED21FEB401ABB94C44839
310
DCACBF0E1C5DA8DA5B2F4DFFD32AD86F543D9E565E7056502E157C00AD2671CD534549AB752FCA9CDA00677A313F04E51B22FF19E57B300579E3C97EB29F682D92935CEC18CF901B7B54FD8C51F362B56FC72FE0B3C1EAE335EDCCBF5AEC39ADB17DC238973F804BA5E6F6BFE7AF1FB32E523BE9F3BD571418E3631DCA4D48
310
5250CF639223210A9446CA30052EDF057BD35F8329C1ECD84552BF0DC8D18BE7BCE23BFE6BD960AB4A7DE79923A103BEBD80F911CBAA2C60DB19B01CF164A5583B772EE6D3FFA56666CBCDA74DC97724A48F9A58967497E489C4D979006FD7A05E227A1EBDD0F737C623387A9C844D3709995625106D157315F8B8392CD4E0
310
A0B9A720C4BE9829CEF37EA1E13111214D53925356365ADA634861B52519DD27A00AEB808EAF0628E6F435519D446F45CF2C9CF5214F0A15B2F6D06B79DA3EE3CBF7F56780D2F4E7EF73A0F5E5B02A38D07DC852C6B7C1FBB6664213E0C39E3EBA7FF4E1AD23EA2829407C85E586727488B751B2DB9502BC7B228A3FD68B6E
310
A65A22397E690AA8D158D7E404EC8CDA235CC3B7D1898680131CEC2CDF2638C65196279577750F15884AEE19F94199155B92B13297978469D4F8D358DF0AEF7631E28DC8F0D9F437D5D39A83B2231A1D52D543813A824EF8D44BCFF2FA6A31BD1E8DAD87F1CCB526B3879935BF59CDADD5C37479BB1CDD4CA7B3556B516589
310
EF352754B706114D9C885EC9131DE6EFEB43D99AFE2391C2F958179413D7CFEF6B1B6DB1E7600F00DE6E5C67454A339A4BA2E0FBA85ED26F045D454F463DBFCE484C2F90F2E5E3666003662ED8F755951A7D1BECD5B30B550B2785C8E7320B7292A4838DDA71BBC863ED7613CAF659337A3354231D4FF4A182A54904C2898C
310
98B28C4AD0CE056CCF332A80986E571EE9DBC305BB5FEB7E509220A58D25CF042D712A806AC0AD0C657FDEF80D2D9CEAA2EE4D1C76F60BFE74219A06527D6F82DF6412526107381E55E353090704D085B52408A8913C4ED159D79BDA71BB4BC506F4831350EB6F975CD22D69BF7AC49B91A2C0A9DDA3D5CA36AD20FC478E37
310
E61844E2352865EBCB61A275A65283CAAA9DD27703B4102F5AF51EF5F573B75CBB5AD38BC845F7A49F82A0966A49C2E3EA5EA0ECD326CD965F1DB402C6FA8B51A4658C5C5E2EC9E214602E55810345408596591009A82E7E7FFACA19EEA299B14A0081A705CB3296EBC14CDF658DCD336EA6D1136881AAEB87B81AB9EE53D5
310
F5EB8BC8362082DA24122F98680A4E7930C01A0079749CEA14382A0783E5EBA5A10F8C098456A03D6A4AEB6BB881E2513747552A5DB22C7EDAF83BD5528081A365F7FF06504B0304140006080000CC70623B000000000000000000000000350000006662782F41393633353835312D344632462D344230382D423046372D37
310
39314545314133324237412F76657274696365732E62696E504B0304140006080800CC70623BF270F1330600000004000000360000006662782F41393633353835312D344632462D344230382D423046372D3739314545314133324237412F747269616E676C65732E62696E636660600000504B0304140006080000CC7062
310
3B000000000000000000000000370000006662782F41393633353835312D344632462D344230382D423046372D3739314545314133324237412F617474726962757465732E62696E504B0304140006080800CC70623B08DA0BD19000000041010000360000006662782F41393633353835312D344632462D344230382D4230
310
46372D3739314545314133324237412F6469726563746F72792E786D6C858F410AC3201045AF22B36F53E9A60B35CBEEBAE80D244E44489C6234F4F835464A48035D0DF398FF9F8AF63D0E6CC63039F212F8F9020C7D47C6792B21C5FE7403D62A1188E2E60C98D7234A5830286103A55745067B9D86B8A3CF9C7F90C11DE6
310
07FB144396D7B6A82D282E9A152AD114D5EF2CB866EEE831B8EEA07A7BB5A8D7D61A2BAAEB7FD5F70921FF497D00504B0304140006080800CC70623BEDD1DC58FD000000A00100003B0000006662782F41393633353835312D344632462D344230382D423046372D3739314545314133324237412F7265736F75726365732F
310
636F72652E786D6C8D504B6E833010BD0A9A6D65B00922041947112427E8052C33A156828DFCA97AFC9A40A576D7CDCCE87D344F8F9FBFE667F689CE6B6B3A6039850C8DB2A336530731DC4903D95970676DF82583CCC8193B5861107C72362E3BA4AC096842428D1D7107A5F7182053CF7474E0D507CE32973124857FE48B
310
540F3961CEF244279DE03EB81420DB9EAC1384436FA353E879B1B182C7A8C75DA3C7F453DF353A1075D537A7BA6464B8F535A99AE14A9A2BBD90E350DD183B5CFABE3AF262350B1EF4FC9351399401471025A527C218A1E53BAB5A5AB765F5469B96525EACF23FA6B88CFF34456DC2A1DCE36E360F82A5202F42F062ED2BAD
310
579969AFDD8A6F504B010214000A0000080000CC70623B3DEE336E79000000790000001B00000000000000000000000000000000006175746F6465736B2D64657369676E2D7061636B6167652E786D6C504B01021400140006080800CC70623BD486FD9CA0000000F40000001300000000000000000000000000B20000005B
310
436F6E74656E745F54797065735D2E786D6C504B01021400140006080800CC70623B853B8169EB0000007C010000080000000000000000000000000083010000636F72652E786D6C504B01021400140006080800CC70623B55019EA25F0000007C000000070000000000000000000000000094020000636E782E786D6C504B
310
01021400140006080800CC70623BDBABAAF470010000D40300000C00000000000000000000000000180300006662782F636F72652E786D6C504B01021400140006080800CC70623B9C113CC27E0000009D0000000B00000000000000000000000000B20400006662782F636E782E786D6C504B01021400140006080800CC70
310
623B7DF2F77C2A010000120200003100000000000000000000000000590500006662782F41393633353835312D344632462D344230382D423046372D3739314545314133324237412F636F72652E786D6C504B01021400140006080800CC70623BAD7543B64E010000330300003000000000000000000000000000D2060000
310
6662782F41393633353835312D344632462D344230382D423046372D3739314545314133324237412F636E782E786D6C504B01021400140006080800CC70623BE75B7789680500003C10000034000000000000000000000000006E0800006662782F41393633353835312D344632462D344230382D423046372D3739314545
310
314133324237412F6F626A656374732E786D6C504B01021400140006080000CC70623B0000000000000000000000003500000000000000000000000000280E00006662782F41393633353835312D344632462D344230382D423046372D3739314545314133324237412F76657274696365732E62696E504B01021400140006
310
080800CC70623BF270F133060000000400000036000000000000000000000000007B0E00006662782F41393633353835312D344632462D344230382D423046372D3739314545314133324237412F747269616E676C65732E62696E504B01021400140006080000CC70623B0000000000000000000000003700000000000000
310
000000000000D50E00006662782F41393633353835312D344632462D344230382D423046372D3739314545314133324237412F617474726962757465732E62696E504B01021400140006080800CC70623B08DA0BD1900000004101000036000000000000000000000000002A0F00006662782F41393633353835312D344632
310
462D344230382D423046372D3739314545314133324237412F6469726563746F72792E786D6C504B01021400140006080800CC70623BEDD1DC58FD000000A00100003B000000000000000000000000000E1000006662782F41393633353835312D344632462D344230382D423046372D3739314545314133324237412F7265
310
736F75726365732F636F72652E786D6C504B0506000000000E000E0080040000641100000000
  0
XRECORD
  5
CE0D
102
{ACAD_REACTORS
330
1F7
102
}
330
1F7
100
AcDbXrecord
280
     1
102
MATERIAL
148
0.0
149
0.0
149
0.0
 93
        0
 94
       63
282
     0
 72
     1
 77
     1
171
     1
175
     1
179
     1
273
     0
  0
XRECORD
  5
1F8
102
{ACAD_REACTORS
330
1F7
102
}
330
1F7
100
AcDbXrecord
280
     1
 70
     1
 90
429727718
  1
30362254-06B7-45E0-A893-8CFA70E3D6BC
310
504B03040A0000080000CC70623B3DEE336E79000000790000001B0000006175746F6465736B2D64657369676E2D7061636B6167652E786D6C3C3F786D6C2076657273696F6E3D22312E302220656E636F64696E673D227574662D3822203F3E3C666F726D6174733E3C666F726D61743E687474703A2F2F736368656D612E
310
6175746F6465736B2E636F6D2F64657369676E2D7061636B6167652F323030393C2F666F726D61743E3C2F666F726D6174733E504B0304140006080800CC70623BD486FD9CA0000000F4000000130000005B436F6E74656E745F54797065735D2E786D6C7D8EC10E82300C865F65E91D8A1E8C310C0EEA1BF002731658846E
310
D98AC1B77784ABF1D8FE5FBFBF75BBCE937A534CCEB38643598122B6FEE978D0B0485F9C41B54DDD7D022595594E1A469170414C76A4D9A4D207E29CF43ECE46F218070CC6BECC4078ACAA135ACF422C856C0E68EA1BF5669944DDD7BCDE7B1F8E415D77AECB980613C2E4AC91FC167A2B244592486606FC29C8FD7F045B9A
310
EF7053A7E60B504B0304140006080800CC70623B1EC5D7A3EB0000007C01000008000000636F72652E786D6C8D90416EC3201045AF82665B6103C6756C6122AB4D4ED00B204C5C94182C03558F5F9C3852BBEB6A467FFE9B197D71FC9E6FE8CBACC17AD7032D0820E3B41FAD9B7A48F1820F808E52ACDEC75F36404ECDA687
310
4D0629A6D5A76597B477D1B89855E747B38B2A041301E95B6E7A08FAD3CCAA50296647B8168BD2573599823EBB0CA76447F43862C7BCCF5EAC59410E4DDD9C7973C2755553CCCFA4C603E3040F1565ED3B1FDE4E432BCA0D9622DAF9795FAF464533826484B498524CD807E51D79ED187F21878E10516EF63F505AC67F42C9
310
BA58B1FDDD071640D2FCC87D2045B96591CB3DA85CB7DCE40F504B0304140006080800CC70623B55019EA25F0000007C00000007000000636E782E786D6C4DCB3B0E80201045D1AD90E915ED2CF8AC45050C11660C8261F98AB1B07AC9C97D42D718D865D3E909258CFD00CCE24AC6E326A164D74DC0B4128928FF32603847
310
2BA13128B1252AC747C6BAB984FC68F0B87FE8960A5C09FE86CFB69FBA01504B0304140006080800CC70623B8C9102E971010000D40300000C0000006662782F636F72652E786D6CC5535B6E833010BC8AE5DF0A6C08340F1947A84D4ED00B38C6A128602363A31CBFCB234A53A551FA553EC09AD9F5CE8C31DB9E9B1AF5CA
310
7695D1198E428A91D2D214952E33ECDD315861B4E5CC1AE3BE9561A445A3323CC098B3D21ADFCE9034DA29ED00D5A6503328BA4E398C640D8B0C77F253352214DE4145770A5B214FA2546114020D759C75CE8200340D19DE981F0F6746269C33EFAB6266AB02A655C74A59CCF365BADC27CB5D902ED22848F6340DF238A141
310
BE88E2F57B92BFEDF23523433367AE6A2EEAA455C2A902F398D2751045018D3FA264435F3771F242571B4A1919CA6F9A7C5B3CD9E42BED16F12C776AEB308F40C848FC700B1139D4891EF410CEC810227CC6846F8386402064270EF5C5C709A05E49676C024C61FC95EA45ED154CA5211D1FF4FB8291A913A68E9B83EBBB33
310
E2A7673CDE118E5AE8124C0807CB8377834E366998436B950D7A7746DAD846D4CFD978E0F04FD455FC5D49D2D4C6FE9722321F10997F0F32DC47FE05504B0304140006080800CC70623BFFEA85907E0000009D0000000B0000006662782F636E782E786D6C4DCCD10A83201886E15B91FFDC95D95A811AB6F23E625948A6C3
310
E9D8E5AF46073BFAE0E1E365ED67B3E8ADC3CB78C7815C7240DA3DFC64DCC221C519D7805AC182F7F1EF06C88D9BE6703008B6049F9E274D7A1E938DBB5AE3D6131B2589BA0D3D965551E0B2EA732C9B9A624AAEB41E3A557677029960D9AFB4EF11165F504B0304140006080800CC70623B4FEEA4082C0100001202000031
310
0000006662782F39464131463745442D413632322D343644302D413938332D3331353338454246344243312F636F72652E786D6C8D515B6EC32010BC0AE2AB55850DD871ED0813254D72825EC00192A2C460F1A872FC42ED48ED5F7E00CDCECCCEB26C731F6FE05B39AFADE921293004CA082BB5B9F43086336A21D870E6AC
310
0D7F68109861543DCC30E4ECE26C9C164858139409093556AA051CBC570102714B8F1E7AF1A5C6A11862480C7F2DA6415C878B2A4891CA89C7990F2E050073937C42DE1DB7E4F87ED8A36D4329AA9B3D46DBAEAD504556557BD81DEBDD0761E52CE42C462D17B996298E3E6BE59E35C962CE821E1FF18553435012728A7187
310
0841987E927A8D9B35ADDF70BBC6989599FE4F1427F9A4286A132ABAC49D651EF234CD5CE04CDA78BA3DC2A8FB645D00B9DF8B57E215725C60BCA2A463E54C4CE327C7A65E1C7DB02E7DEFCBF594B864C5CA6CDBD49C957943E9FA5D5FBAF336F90F504B0304140006080800CC70623BAD7543B64E01000033030000300000
310
006662782F39464131463745442D413632322D343644302D413938332D3331353338454246344243312F636E782E786D6CD593CD6EC32010845F0571AD6CE3D48AD20813A9873E410FBD12D82434182C7EAAE6EDBB2424CD25871E7B41D6EC30B3FA84F9E67BB2E40B4234DE8DB46F1925E094D7C6ED479AD3AE5951B2113C
310
789FEE6C943839C1488B4C05DF079FE72A69D8C96C13AAD6B8631503449F83828872B949AC57D26200B826A308D316B4064D6E46FCDA41C05550DC9E483A00797BFD207EFB092A45DE9514C1BBD22178396BD39D891265658C238DEA00936C654E5E433CB65A26D9F6EDB5EBC14EBF49A45CB856E66048291F6939A9A81BB5
310
C8917738143CA680F4AA299D66A042CEB3354A2684DC9D8D178FE0D9B8B41CAAD720F880EE7EF93C0C18769E099ECC04D5A102C8049A8A05632F4DDF376CF1DE0F6BB65C2F8627B65A33C6BB62177CEBBDAD973006829F89F22E814B54F4BC2BE347F8AA8F681390B50FA73F804400B5F542E796F19FF974E7F78DB802FE05
310
E207504B0304140006080800CC70623B16AB87BA640500003C100000340000006662782F39464131463745442D413632322D343644302D413938332D3331353338454246344243312F6F626A656374732E786D6CAD575B6FA33818FD2B887DE6924B3BED8A326A92B68A663B534DD4D13E548A0C38942D60649B369D5FBFC7
310
600890A493BDE42160637FD7F31D7FF63E6FB3D478A55C242CBF3247B66B1A340F5994E4F19559CA8D75611A9F7D8F33263BCB4C232719BD32D5B4E97B316765A1A722BA21652A07B3B7B33F0D11D29C9A46981221AE4C113ED38CD8A4942CA2E2C58E882476BCD9DA23BB5ED8171B73523C0F841684D35CC252CCE79062D4
310
468DFA43D7747CCF51DF7D4FFDEB5593E3AB9CCA9FBEFE241792E4E19EB28198C968BAB8199F5D5A67D3E9C49A9E8F47D6EC76B6B0469F26EEFC7C3EBFBCBEB98462213924694B38DD98FE1D62C393D073EA4FADC5DAF04326852CCF6958F90F0F2B9BB5C48816348F90C7840A68EB78EDF68723159BCEE7891A6B95DDE9D3
310
BCEAEEE8086A6C6F9E5D4B59F0175C10A7A0820BAA5055C7473B5AE3CFDD452D602CD5DF12616444529E90D448938013FE6EFA58AA96F85E4F8C42275708571E98FE6827AF6B2B4AE3D7D83D64E5A64C53054DD3AF90BD06FEA9149565C94FCA0F6B834DC85599E4F2423B24DF0B6AFA979E534DFA9E7A4CC6FA631D486393
310
921829879BF5D781A373557BCB85E97FB90DB62B558F8795179C15944B051F40AB495CF35451D26A4727654E6D8033BD98EF82F21D91FF8AF2DD9982BCF1643BDD4EB516C9492E368C67C88DED563FC36D5EACF66DFF057C3658BDBFA69DF9578B3DA735B64F18C7F20770A9D45CFCF7FCF563D6456A277DBEF78A02637CA2
310
43B90A490AEAB94F72244481D24819A6C0E59B606BFA4B3025981DBB48EAB701D97BF19C577CC77F2D1B6C55A9EF3C732474C0B727303F625995056C3B02963D9EAC146BE78EC5FCEC7FA999EBC5EACBAAE41B12D27B4D2C0BBA49F244E2ECDC81B76B502F113D8F5EE8FB1BE3111CDD4FC2AA9B844CAB1288B68AB90A7CDC
310
1C166AB0D3DC5310625FCC14E779BFD0709F8890A629C9292B1B2DED31A4B0DA928CEE135085754027E3018A397D4D5427D15BD1330B677DC8934285AC3DF45A9EB68FF8F2B8FC0A509AFEECFD0FF2DE25CC6047F7214B195F07EFEB9A094D800F7BFAE8FED187B78EA8A3A400F115961BCAD1215E47C966530AF0EE8128FE
310
58CEBB996A8964FFA529A046635D9353B0336A8F700DDF46271A024E70B0B37C9DE01847591E54DED53D54202AB947E4076556AC49C6CA5C9E1226B7F1A7B1BE15DEED62C41B91E1B3E9AFAAA735036547343A925075041DF0A9979E893B391F8FCFA6967B3EFB644DCF6E5CEBFAE272625DCC6FAF3FB93793C5F90CE1EF57
310
407342756B10D1C489E8953CD1617E5CEECAD6F4EF8914CE5D5D504E5C3F1F9736DA62CFC11E00BCDDB8CC8A9466349744C1F75EBDA4DF09BA8A9E8C7A7E9991989E20E5DBDD6A6003664ED8F7A04A8DBE0DF6EAD9B9AA858342E47399053949D2C146EDB85DE4B176BB0965FBAC19BD19AA918E27FA50C1D22402E144464C
310
59462568E704B6E71915404CB72B8FF4EDE184DDAF753F284990D2C6926782963815403548A70C657FDEF80D2D9CEAA2AE4C1C76F60BFE74219A06527D6582DF6412526107381E55E353090704D085B52408D0933C4ED159D79BDA71BB4BC506F4831350EB6F979CD22D69BF7AC49B91A2C0A9DDA3D5CA36AD20FC478E37E6
310
1844E2352865EBCB6EA275A652E3836BE04EFB400BF1A2556F515F1FBB35B2AB35BD889C744FFA1004B5544B121E57F70215746DD2F5E2C1412B602CBF19455AC6C8E5E9922C4E01E65215385004546899059180EAFCF7A707CE7017CD8CDB0410789AB32C63B91E5CEBBBACB17AC6CD347A022D5075FD106377347AAABA7E
310
7D11590744509B44E205134DC1290F06580320F78E537D3D73540E06CB970B431F185308AD40BBD794D6D77003C5A36E8EAA54BA64597CD8F83BD552A080A365F7FF06504B0304140006080000CC70623B000000000000000000000000350000006662782F39464131463745442D413632322D343644302D413938332D3331
310
353338454246344243312F76657274696365732E62696E504B0304140006080800CC70623BF270F1330600000004000000360000006662782F39464131463745442D413632322D343644302D413938332D3331353338454246344243312F747269616E676C65732E62696E636660600000504B0304140006080000CC70623B
310
000000000000000000000000370000006662782F39464131463745442D413632322D343644302D413938332D3331353338454246344243312F617474726962757465732E62696E504B0304140006080800CC70623B08DA0BD19000000041010000360000006662782F39464131463745442D413632322D343644302D413938
310
332D3331353338454246344243312F6469726563746F72792E786D6C858F410AC3201045AF22B36F53E9A60B35CBEEBAE80D244E44489C6234F4F835464A48035D0DF398FF9F8AF63D0E6CC63039F212F8F9020C7D47C6792B21C5FE7403D62A1188E2E60C98D7234A5830286103A55745067B9D86B8A3CF9C7F90C11DE607
310
FB144396D7B6A82D282E9A152AD114D5EF2CB866EEE831B8EEA07A7BB5A8D7D61A2BAAEB7FD5F70921FF497D00504B0304140006080800CC70623B0D6EF93BFE000000A00100003B0000006662782F39464131463745442D413632322D343644302D413938332D3331353338454246344243312F7265736F75726365732F63
310
6F72652E786D6C8D50596E833010BD0A9ADFCA60B334011947A8694ED00B586642AC041B79A97AFC9A40A5F6AF3F33A3B7689E1E3F7DCD8FEC139DD7D6F4C0720A191A65476DA61E62B892236427C19DB5E1970C322367EC618541F0C9D9B8EC90B226A009093576C41D94DE63804C3DD2D18357379C652E63480A7FCF17A9
310
EE72C29CE5894E3AC17D702940B63D59270887DE46A7D0F36263058F518FBB468FE9A7BE6A7420864373B8D4873369AA8691FA421B3294352543C5CAF65C0F6FEF43CB8BD52C78D0F34F46E550061C419494B6843142CB0F5677F4B52BEB177AEC28E5C52AFF638ACBF84F53D42654E51E77B379102C05791282176B5F693D
310
CB4C7BED567C03504B010214000A0000080000CC70623B3DEE336E79000000790000001B00000000000000000000000000000000006175746F6465736B2D64657369676E2D7061636B6167652E786D6C504B01021400140006080800CC70623BD486FD9CA0000000F40000001300000000000000000000000000B20000005B
310
436F6E74656E745F54797065735D2E786D6C504B01021400140006080800CC70623B1EC5D7A3EB0000007C010000080000000000000000000000000083010000636F72652E786D6C504B01021400140006080800CC70623B55019EA25F0000007C000000070000000000000000000000000094020000636E782E786D6C504B
310
01021400140006080800CC70623B8C9102E971010000D40300000C00000000000000000000000000180300006662782F636F72652E786D6C504B01021400140006080800CC70623BFFEA85907E0000009D0000000B00000000000000000000000000B30400006662782F636E782E786D6C504B01021400140006080800CC70
310
623B4FEEA4082C0100001202000031000000000000000000000000005A0500006662782F39464131463745442D413632322D343644302D413938332D3331353338454246344243312F636F72652E786D6C504B01021400140006080800CC70623BAD7543B64E010000330300003000000000000000000000000000D5060000
310
6662782F39464131463745442D413632322D343644302D413938332D3331353338454246344243312F636E782E786D6C504B01021400140006080800CC70623B16AB87BA640500003C1000003400000000000000000000000000710800006662782F39464131463745442D413632322D343644302D413938332D3331353338
310
454246344243312F6F626A656374732E786D6C504B01021400140006080000CC70623B0000000000000000000000003500000000000000000000000000270E00006662782F39464131463745442D413632322D343644302D413938332D3331353338454246344243312F76657274696365732E62696E504B01021400140006
310
080800CC70623BF270F133060000000400000036000000000000000000000000007A0E00006662782F39464131463745442D413632322D343644302D413938332D3331353338454246344243312F747269616E676C65732E62696E504B01021400140006080000CC70623B0000000000000000000000003700000000000000
310
000000000000D40E00006662782F39464131463745442D413632322D343644302D413938332D3331353338454246344243312F617474726962757465732E62696E504B01021400140006080800CC70623B08DA0BD190000000410100003600000000000000000000000000290F00006662782F39464131463745442D413632
310
322D343644302D413938332D3331353338454246344243312F6469726563746F72792E786D6C504B01021400140006080800CC70623B0D6EF93BFE000000A00100003B000000000000000000000000000D1000006662782F39464131463745442D413632322D343644302D413938332D3331353338454246344243312F7265
310
736F75726365732F636F72652E786D6C504B0506000000000E000E0080040000641100000000
  0
XRECORD
  5
CE0F
102
{ACAD_REACTORS
330
173
102
}
330
173
100
AcDbXrecord
280
     1
102
MATERIAL
148
0.0
149
0.0
149
0.0
 93
        0
 94
       63
282
     0
 72
     1
 77
     1
171
     1
175
     1
179
     1
273
     0
  0
XRECORD
  5
175
102
{ACAD_REACTORS
330
173
102
}
330
173
100
AcDbXrecord
280
     1
270
     1
271
     1
  0
XRECORD
  5
174
102
{ACAD_REACTORS
330
173
102
}
330
173
100
AcDbXrecord
280
     1
270
     1
271
     1
  0
XRECORD
  5
1FB
102
{ACAD_REACTORS
330
173
102
}
330
173
100
AcDbXrecord
280
     1
 70
     0
 90
1673772943
  1
ECE7A1D2-D628-4531-984C-D00F80459256
310
504B03040A0000080000CC70623B3DEE336E79000000790000001B0000006175746F6465736B2D64657369676E2D7061636B6167652E786D6C3C3F786D6C2076657273696F6E3D22312E302220656E636F64696E673D227574662D3822203F3E3C666F726D6174733E3C666F726D61743E687474703A2F2F736368656D612E
310
6175746F6465736B2E636F6D2F64657369676E2D7061636B6167652F323030393C2F666F726D61743E3C2F666F726D6174733E504B0304140006080800CC70623BD486FD9CA0000000F4000000130000005B436F6E74656E745F54797065735D2E786D6C7D8EC10E82300C865F65E91D8A1E8C310C0EEA1BF002731658846E
310
D98AC1B77784ABF1D8FE5FBFBF75BBCE937A534CCEB38643598122B6FEE978D0B0485F9C41B54DDD7D022595594E1A469170414C76A4D9A4D207E29CF43ECE46F218070CC6BECC4078ACAA135ACF422C856C0E68EA1BF5669944DDD7BCDE7B1F8E415D77AECB980613C2E4AC91FC167A2B244592486606FC29C8FD7F045B9A
310
EF7053A7E60B504B0304140006080800CC70623BD9DDAED0EC0000007C01000008000000636F72652E786D6C8D90416EC3201045AF82665B61836D9CD8C2444DD39CA01740405C94182C03558F5F9C3852BBEB6A467FFE9B197D7EF89E6EE8CB2CC17A37002D0820E394D7D68D03A478C17B4007C117EFE32F1B20272733C0
310
2A83E0E3E2D3BC49CABB685CCCAAF3DA6CA20CC14440EA969B0182FA34932C648AD911AEC52CD5558EA6A0CF2EC329598D1E47ACCEFBECC59A050463A7EA5833865FEBDD0E37353BE3EE8DBDE3F6786A48D375FBF6CC78B9C282473B3DEFABC5C86834888A900E538A49F5419B9EB47DD5BC907D4F082F57FB1F28CDFA9F50
310
B22ED6D5F6EE030B20687EE43E10BC5CB3C8E51E54AE6B6EE207504B0304140006080800CC70623B55019EA25F0000007C00000007000000636E782E786D6C4DCB3B0E80201045D1AD90E915ED2CF8AC45050C11660C8261F98AB1B07AC9C97D42D718D865D3E909258CFD00CCE24AC6E326A164D74DC0B4128928FF326038
310
472BA13128B1252AC747C6BAB984FC68F0B87FE8960A5C09FE86CFB69FBA01504B0304140006080800CC70623BA24EB22D72010000D40300000C0000006662782F636F72652E786D6CC5535B6E833010BC8AE5DF0A6C5E49888CA3A6694ED00B38E05014B091B1518EDFE511A5A9D228FD2A1F60CDEC7A67C6986DCE4D8D7A
310
69BA4AAB0C073EC548AA5C17952A33ECECD15B61B4E1CC686DBF9561A44423333CC098B3D268D7CE50AE9595CA02AA74216750749DB418E5352C32DCE59FB211BE70162ABA93DF8AFC244AE9073ED050C759670D0840D390E18DF9F1706664C23973AE2A66B62A605A75ACA4C13C4976E1364A12EF355A2EBD384AF65EFA96
310
BC7B8BED2EA6719AAE16FB8491A199335B351775B991C2CA02F390D2D40B028F861F41BCA68B7518BFD0D59A524686F29B26D7164F36B94AD9289CE54E6D1DE6010819891F6E21228B3AD1831EC219194284CF98F06DD01008846CC5A1BEF83801D4CBDC6A1303536877A57A513B0953A94FC707FDBE6064EA84A9E3E6E0FA
310
EE8CF0E9198F7784A316AA0413C2C2F2E0ECA0934D1AE6D05A69BCDE9E91D2A611F573361E38FC1375157F5752AE6B6DFE4B11990F88CCBF0719EE23FF02504B0304140006080800CC70623B408A7D3B7C0000009D0000000B0000006662782F636E782E786D6C4DCCD10A83201886E15B91FFDC552A92A0064DBC8F581632
310
D3703A76F9ABD1C18E3E78F878E5F0D9027ABBFCF2292AE86E2D20171F69F6715550CB827B40839639A5F2770314A7CD293819B45C73AAFB45B35BA61ACAA1C1C7E7855C58C15BC331339661262CC762340413D68D77DA5B42298546CBE6573AF60CEB2F504B0304140006080800CC70623B449FB9BD290100001202000031
310
0000006662782F36394639363044362D344446342D343946362D394244322D3234314243333846323333332F636F72652E786D6C8D515B6EC32010BC0AE22B55850D98B871848994463E412FE002495162B07854397EA176A4F62F3F2C9A9D991D587EB84F37F0AD7D30CEF6905418026DA553C65E7A98E219ED203808EE9D
310
8B7F6810D871D23D2C3014FCE25D9A57483A1BB58D19B54EE9151C43D0110279CB971E06F9A5A7B11A53CC8C70ADE6515EC78BAE4895DB992778883E0700CB907242D17643D7E2538BD869608875438BBAE38922CAC8F1BDD90DB4691A5E2F42C153326A951B95E398B3D1FE599322163C9AE9115F7A3D46ADA0A018778810
310
84E907617BDCEE297BC5BB3DC6BC2EF47FA234AB2745C9D8D8D035EE220B50105E2F0DC1954B9FB747187D9F9D8FA0CCDB042D5FA0C015C65B42DF78BD10F3F3B363CB56C7109DCFDFBBB97E662ED92EB62D13BC2E1BCAE5777DB9966D8A1F504B0304140006080800CC70623BAD7543B64E01000033030000300000006662
310
782F36394639363044362D344446342D343946362D394244322D3234314243333846323333332F636E782E786D6CD593CD6EC32010845F0571AD6CE3D48AD20813A9873E410FBD12D82434182C7EAAE6EDBB2424CD25871E7B41D6EC30B3FA84F9E67BB2E40B4234DE8DB46F1925E094D7C6ED479AD3AE5951B2113C789FEE
310
6C943839C1488B4C05DF079FE72A69D8C96C13AAD6B8631503449F83828872B949AC57D26200B826A308D316B4064D6E46FCDA41C05550DC9E483A00797BFD207EFB092A45DE9514C1BBD22178396BD39D891265658C238DEA00936C654E5E433CB65A26D9F6EDB5EBC14EBF49A45CB856E66048291F6939A9A81BB5C89177
310
38143CA680F4AA299D66A042CEB3354A2684DC9D8D178FE0D9B8B41CAAD720F880EE7EF93C0C18769E099ECC04D5A102C8049A8A05632F4DDF376CF1DE0F6BB65C2F8627B65A33C6BB62177CEBBDAD973006829F89F22E814B54F4BC2BE347F8AA8F681390B50FA73F804400B5F542E796F19FF974E7F78DB802FE05E20750
310
4B0304140006080800CC70623B8D05915C650500003B100000340000006662782F36394639363044362D344446342D343946362D394244322D3234314243333846323333332F6F626A656374732E786D6CAD575B6FA33814FE2B887D06429276DA1565D4266D158D3A339A6846FB502932E050B66023DB74D2FDF5FB190C01
310
9276B2973C046C8ECFF53B17071F77456EBD502133CEAE6CDF9DD81665314F32965ED995DA3A17B6F5310C04E7AA47665B8C14F4CAD6DB7618A48257A5D94AE89654B91AEDDEDDFC61C998326A5B714EA4BCB265FC440BE2924AF184CA6737218AB8E976E7FA6E4338649B0A523E8D98964450A6A029F619B8588D52FE7039
310
B1BD30F0F4F730D0FF866AF6369557DB33949F31A9088B0F848DD8CCFCF9F2767A76E99CCDE733677E3EF59D9BBB9BA5E37F984D16E78BC5E5F5ED25044B25C0C96822E8D60EEFE11B91C581D77CEA34368A1F5329E68CD1B8B61F16D63A1B8E092D294B10C78C4A48EB593D192E7DED9BDEE7995E1B91FDEDD3ACEA9FE831
310
6A756F9F7D4D79F4274C90A7A04248AA51D5F8C718DAE06FB2F75AC4796EBE65D22A88A22223B995679120E2D50E41AA49C260C046A35368846B0BECD0DFF3EBEB8AD4F835768F69B9ADF25C43D30E6B646F807FAA64AD59F61715C7A54127C4AACA98BA3006A9D792DAE165E0D59B61A01FB3A9F9D838D2DAE62445C86166
310
F37564E842E7DE6A69879FEEA2DD5AE7E371E1A5E025154AC307D06A03D73EB5978C58FFA4C8E9033066E0F3BD53BEC1F39F91BE7B55103791EDE6BBB991A2046172CB4581D8B893FA674DDA17A77B3B7C413D1B511FD2743BFF8A38F03A658705E3ADF8015C3A3417FF3D7E439FF591DA0B5F18BC20C1B8981957AE6392A3
310
F43C640C01D1A0B4728E2DD4F26DB4B3C3152A252A3B4E913CEC1C72F012782FF88EFF8637AA552DBEF76408E8A8DE9E50F9E1CB3A2DA0DB1B6039A893B56063DC5B3E3FFB5F72E67AB9FEB4AEC496C4F4C1149625DD662C53E89D7BF0F6151A046260D1337DFDC94502430F83B0EE07A130A224BCAD7DAE1D9FB6CD422FF6
310
920702629C4BB9AE79C12F243C6432A6794E18E5552BA56B431AAB5D91317302B2B071E86C3A42B1A02F999E24061403B5D0EB639195DA655DD3EBEAB4FB862DDF579F014AD0E73C22F99E28DA57FB98E75C6CA2D74D53086D600F4786E0FE3144B771A8A7B900F03594DB8A633CBC49B2EDB69228BB479CF863B5E807AAAB
310
23872F6DFEB4129B949CA33823F58830E86D65621E10047D9DB34D862E8EAC3C2ABC2F7B2C40D67CDFE01F5545B92105AF983AC54D93D69E56FB8E797F88913F898A9FEC705D3F9D1B54EC8426FB500D40A03BD0119B06E1B95DDC7EB8F6975367793EBD70E66733DFB9BC982F9CE564727731999F5D4ECFCE3B8D6A4DC2A0
310
6D50FD148437D110834A64C6CDDF57FBACB5C307A2A477DFE4939736CFEF2B175371E0E10CF0DD1D5C15654E0BCA14D1E87DD02FF93782A162C0A3D95F1524A52770F972BF1EE9809D13CE7DD599467F8ECE9ADD85CE85A34CD45355448C64F9E8A031DC2D596ACC6E5DD93D9B82DE2EF5CAF81363A8E47996A0DE24564A79
310
4115AACE09C55E14540231FDA13C319787134EBF34E3A022514E5B4D9E0826E25C02D5805B15ABE1BEF51B26383D445DD9E875EE33FE4C22DA16427D65A3BCA92CA6D28DD01DF5DC53330704308475351050232CCD31583787BA75774AFB06E5070DD0C8EF484E19968C5D83BA5B90B244D31E54D55A372320FE4786B7EA58
310
44E135AA5467CB7EA333A61683CC6A8C3257034C10CF46F40EF9F5BE59BE5BD30C3C72D235E95D10345C1D45445A5F0BB47E46A5EBE5570F9380B5FA629579952296A773720405982B9DE04011506178964401AA8BDF1FBF0A8EAB6861DD6580C0E38217056766716DAEB2D6FA0917D3E4116581EADB879C4E7CFFB11EFACD
310
3D641311495D92C8676CB409A72D18610D803CE8A626049E8EC1887CB5B44CC39883690DDA8399B4B9855B481E7D71D4A9D22F96E5BB73BF5793020C02137BF837504B0304140006080000CC70623B000000000000000000000000350000006662782F36394639363044362D344446342D343946362D394244322D32343142
310
43333846323333332F76657274696365732E62696E504B0304140006080800CC70623BF270F1330600000004000000360000006662782F36394639363044362D344446342D343946362D394244322D3234314243333846323333332F747269616E676C65732E62696E636660600000504B0304140006080000CC70623B0000
310
00000000000000000000370000006662782F36394639363044362D344446342D343946362D394244322D3234314243333846323333332F617474726962757465732E62696E504B0304140006080800CC70623B08DA0BD19000000041010000360000006662782F36394639363044362D344446342D343946362D394244322D
310
3234314243333846323333332F6469726563746F72792E786D6C858F410AC3201045AF22B36F53E9A60B35CBEEBAE80D244E44489C6234F4F835464A48035D0DF398FF9F8AF63D0E6CC63039F212F8F9020C7D47C6792B21C5FE7403D62A1188E2E60C98D7234A5830286103A55745067B9D86B8A3CF9C7F90C11DE607FB14
310
4396D7B6A82D282E9A152AD114D5EF2CB866EEE831B8EEA07A7BB5A8D7D61A2BAAEB7FD5F70921FF497D00504B0304140006080800CC70623BCA768048FE000000A00100003B0000006662782F36394639363044362D344446342D343946362D394244322D3234314243333846323333332F7265736F75726365732F636F72
310
652E786D6C8D50596E833010BD0A9ADFCA60D600328E9AA639412F609909B1126CE4A5EAF16B0295DABFFECC8CDEA2797AECF8353F924FB44E193D409E5248504B332A3D0D10FC95B4901C39B3C6F85F3248B49871801506CE266BC2B243D2688FDA47549B11775038871E12F988C7004EDE7016A9083E2ADC3D5D84BC8B09
310
D33C8D74D471E6BC8D0192EDC93A815B742658898E651BCB59086ADC356A8C3FD555A1055ED7E7E254D615792D0F075295F585746FF53B694EE78A565DD736979A65AB9933AFE69F8CD2A2F038022F28ED489E135A7CE4554F9BBEA85E68DB53CAB255FEC71496F19FA6A0B42F8B3DEE6673C0F318E4497096AD7DC5F52C33
310
EEB55BFE0D504B010214000A0000080000CC70623B3DEE336E79000000790000001B00000000000000000000000000000000006175746F6465736B2D64657369676E2D7061636B6167652E786D6C504B01021400140006080800CC70623BD486FD9CA0000000F40000001300000000000000000000000000B20000005B436F
310
6E74656E745F54797065735D2E786D6C504B01021400140006080800CC70623BD9DDAED0EC0000007C010000080000000000000000000000000083010000636F72652E786D6C504B01021400140006080800CC70623B55019EA25F0000007C000000070000000000000000000000000095020000636E782E786D6C504B0102
310
1400140006080800CC70623BA24EB22D72010000D40300000C00000000000000000000000000190300006662782F636F72652E786D6C504B01021400140006080800CC70623B408A7D3B7C0000009D0000000B00000000000000000000000000B50400006662782F636E782E786D6C504B01021400140006080800CC70623B
310
449FB9BD290100001202000031000000000000000000000000005A0500006662782F36394639363044362D344446342D343946362D394244322D3234314243333846323333332F636F72652E786D6C504B01021400140006080800CC70623BAD7543B64E010000330300003000000000000000000000000000D20600006662
310
782F36394639363044362D344446342D343946362D394244322D3234314243333846323333332F636E782E786D6C504B01021400140006080800CC70623B8D05915C650500003B10000034000000000000000000000000006E0800006662782F36394639363044362D344446342D343946362D394244322D32343142433338
310
46323333332F6F626A656374732E786D6C504B01021400140006080000CC70623B0000000000000000000000003500000000000000000000000000250E00006662782F36394639363044362D344446342D343946362D394244322D3234314243333846323333332F76657274696365732E62696E504B010214001400060808
310
00CC70623BF270F13306000000040000003600000000000000000000000000780E00006662782F36394639363044362D344446342D343946362D394244322D3234314243333846323333332F747269616E676C65732E62696E504B01021400140006080000CC70623B00000000000000000000000037000000000000000000
310
00000000D20E00006662782F36394639363044362D344446342D343946362D394244322D3234314243333846323333332F617474726962757465732E62696E504B01021400140006080800CC70623B08DA0BD190000000410100003600000000000000000000000000270F00006662782F36394639363044362D344446342D
310
343946362D394244322D3234314243333846323333332F6469726563746F72792E786D6C504B01021400140006080800CC70623BCA768048FE000000A00100003B000000000000000000000000000B1000006662782F36394639363044362D344446342D343946362D394244322D3234314243333846323333332F7265736F
310
75726365732F636F72652E786D6C504B0506000000000E000E0080040000621100000000
  0
XRECORD
  5
176
102
{ACAD_REACTORS
330
173
102
}
330
173
100
AcDbXrecord
280
     1
270
     1
271
     1
  0
XRECORD
  5
177
102
{ACAD_REACTORS
330
173
102
}
330
173
100
AcDbXrecord
280
     1
270
     1
271
     1
  0
XRECORD
  5
CE31
102
{ACAD_REACTORS
330
CE30
102
}
330
CE30
100
AcDbXrecord
280
     1
102
ACAD_ROUNDTRIP_2012_MLEADER_STYLE
298
     1
  0
XRECORD
  5
CE43
102
{ACAD_REACTORS
330
CE42
102
}
330
CE42
100
AcDbXrecord
280
     1
102
DISPLAYNAME
  1
Metric50
102
FLAGS
 90
        0
  0
CELLSTYLEMAP
  5
CE03
102
{ACAD_REACTORS
330
162
102
}
330
162
100
AcDbCellStyleMap
 90
        3
300
CELLSTYLE
  1
TABLEFORMAT_BEGIN
 90
        5
170
     1
 91
        0
 92
    32768
 62
   257
 93
        1
300
CONTENTFORMAT
  1
CONTENTFORMAT_BEGIN
 90
        0
 91
        0
 92
      512
 93
        0
300

 40
0.0
140
1.0
 94
        5
 62
     0
340
11
144
6.0
309
CONTENTFORMAT_END
171
     1
301
MARGIN
  1
CELLMARGIN_BEGIN
 40
1.5
 40
1.5
 40
1.5
 40
1.5
 40
4.5
 40
4.5
309
CELLMARGIN_END
 94
        6
 95
        1
302
GRIDFORMAT
  1
GRIDFORMAT_BEGIN
 90
        0
 91
        1
 62
     0
 92
       -2
340
14
 93
        0
 40
1.125
309
GRIDFORMAT_END
 95
        2
302
GRIDFORMAT
  1
GRIDFORMAT_BEGIN
 90
        0
 91
        1
 62
     0
 92
       -2
340
14
 93
        0
 40
1.125
309
GRIDFORMAT_END
 95
        4
302
GRIDFORMAT
  1
GRIDFORMAT_BEGIN
 90
        0
 91
        1
 62
     0
 92
       -2
340
14
 93
        0
 40
1.125
309
GRIDFORMAT_END
 95
        8
302
GRIDFORMAT
  1
GRIDFORMAT_BEGIN
 90
        0
 91
        1
 62
     0
 92
       -2
340
14
 93
        0
 40
1.125
309
GRIDFORMAT_END
 95
       16
302
GRIDFORMAT
  1
GRIDFORMAT_BEGIN
 90
        0
 91
        1
 62
     0
 92
       -2
340
14
 93
        0
 40
1.125
309
GRIDFORMAT_END
 95
       32
302
GRIDFORMAT
  1
GRIDFORMAT_BEGIN
 90
        0
 91
        1
 62
     0
 92
       -2
340
14
 93
        0
 40
1.125
309
GRIDFORMAT_END
309
TABLEFORMAT_END
  1
CELLSTYLE_BEGIN
 90
        1
 91
        1
300
_TITLE
309
CELLSTYLE_END
300
CELLSTYLE
  1
TABLEFORMAT_BEGIN
 90
        5
170
     1
 91
        0
 92
        0
 62
   257
 93
        1
300
CONTENTFORMAT
  1
CONTENTFORMAT_BEGIN
 90
        0
 91
        0
 92
      512
 93
        0
300

 40
0.0
140
1.0
 94
        5
 62
     0
340
11
144
4.5
309
CONTENTFORMAT_END
171
     1
301
MARGIN
  1
CELLMARGIN_BEGIN
 40
1.5
 40
1.5
 40
1.5
 40
1.5
 40
4.5
 40
4.5
309
CELLMARGIN_END
 94
        6
 95
        1
302
GRIDFORMAT
  1
GRIDFORMAT_BEGIN
 90
        0
 91
        1
 62
     0
 92
       -2
340
14
 93
        0
 40
1.125
309
GRIDFORMAT_END
 95
        2
302
GRIDFORMAT
  1
GRIDFORMAT_BEGIN
 90
        0
 91
        1
 62
     0
 92
       -2
340
14
 93
        0
 40
1.125
309
GRIDFORMAT_END
 95
        4
302
GRIDFORMAT
  1
GRIDFORMAT_BEGIN
 90
        0
 91
        1
 62
     0
 92
       -2
340
14
 93
        0
 40
1.125
309
GRIDFORMAT_END
 95
        8
302
GRIDFORMAT
  1
GRIDFORMAT_BEGIN
 90
        0
 91
        1
 62
     0
 92
       -2
340
14
 93
        0
 40
1.125
309
GRIDFORMAT_END
 95
       16
302
GRIDFORMAT
  1
GRIDFORMAT_BEGIN
 90
        0
 91
        1
 62
     0
 92
       -2
340
14
 93
        0
 40
1.125
309
GRIDFORMAT_END
 95
       32
302
GRIDFORMAT
  1
GRIDFORMAT_BEGIN
 90
        0
 91
        1
 62
     0
 92
       -2
340
14
 93
        0
 40
1.125
309
GRIDFORMAT_END
309
TABLEFORMAT_END
  1
CELLSTYLE_BEGIN
 90
        2
 91
        1
300
_HEADER
309
CELLSTYLE_END
300
CELLSTYLE
  1
TABLEFORMAT_BEGIN
 90
        5
170
     1
 91
        0
 92
        0
 62
   257
 93
        1
300
CONTENTFORMAT
  1
CONTENTFORMAT_BEGIN
 90
        0
 91
        0
 92
      512
 93
        0
300

 40
0.0
140
1.0
 94
        2
 62
     0
340
11
144
4.5
309
CONTENTFORMAT_END
171
     1
301
MARGIN
  1
CELLMARGIN_BEGIN
 40
1.5
 40
1.5
 40
1.5
 40
1.5
 40
4.5
 40
4.5
309
CELLMARGIN_END
 94
        6
 95
        1
302
GRIDFORMAT
  1
GRIDFORMAT_BEGIN
 90
        0
 91
        1
 62
     0
 92
       -2
340
14
 93
        0
 40
1.125
309
GRIDFORMAT_END
 95
        2
302
GRIDFORMAT
  1
GRIDFORMAT_BEGIN
 90
        0
 91
        1
 62
     0
 92
       -2
340
14
 93
        0
 40
1.125
309
GRIDFORMAT_END
 95
        4
302
GRIDFORMAT
  1
GRIDFORMAT_BEGIN
 90
        0
 91
        1
 62
     0
 92
       -2
340
14
 93
        0
 40
1.125
309
GRIDFORMAT_END
 95
        8
302
GRIDFORMAT
  1
GRIDFORMAT_BEGIN
 90
        0
 91
        1
 62
     0
 92
       -2
340
14
 93
        0
 40
1.125
309
GRIDFORMAT_END
 95
       16
302
GRIDFORMAT
  1
GRIDFORMAT_BEGIN
 90
        0
 91
        1
 62
     0
 92
       -2
340
14
 93
        0
 40
1.125
309
GRIDFORMAT_END
 95
       32
302
GRIDFORMAT
  1
GRIDFORMAT_BEGIN
 90
        0
 91
        1
 62
     0
 92
       -2
340
14
 93
        0
 40
1.125
309
GRIDFORMAT_END
309
TABLEFORMAT_END
  1
CELLSTYLE_BEGIN
 90
        3
 91
        2
300
_DATA
309
CELLSTYLE_END
  0
XRECORD
  5
CE08
102
{ACAD_REACTORS
330
162
102
}
330
162
100
AcDbXrecord
280
     1
102
ACAD_ROUNDTRIP_PRE2007_TABLESTYLE
 90
      512
 91
        0
  1

 92
      512
 93
        0
  2

 94
      512
 95
        0
  3

  0
XRECORD
  5
CE1B
102
{ACAD_REACTORS
330
CE1A
102
}
330
CE1A
100
AcDbXrecord
280
     1
102
RTVSPost2010Prop28
280
     1
102
RTVSPost2010PropOp28
 70
     1
102
RTVSPost2010Prop29
280
     1
102
RTVSPost2010PropOp29
 70
     1
102
RTVSPost2010Prop30
280
     0
102
RTVSPost2010PropOp30
 70
     1
102
RTVSPost2010Prop31
280
     0
102
RTVSPost2010PropOp31
 70
     1
102
RTVSPost2010Prop32
280
     0
102
RTVSPost2010PropOp32
 70
     1
102
RTVSPost2010Prop33
280
     0
102
RTVSPost2010PropOp33
 70
     1
102
RTVSPost2010Prop34
280
     0
102
RTVSPost2010PropOp34
 70
     1
102
RTVSPost2010Prop35
280
     0
102
RTVSPost2010PropOp35
 70
     1
102
RTVSPost2010Prop36
280
     0
102
RTVSPost2010PropOp36
 70
     1
102
RTVSPost2010Prop37
 90
       50
102
RTVSPost2010PropOp37
 70
     1
102
RTVSPost2010Prop38
140
0.0
102
RTVSPost2010PropOp38
 70
     1
102
RTVSPost2010Prop39
140
1.0
102
RTVSPost2010PropOp39
 70
     1
102
RTVSPost2010Prop40
 90
        0
102
RTVSPost2010PropOp40
 70
     1
102
RTVSPost2010Prop41ColorIndex
 90
       18
102
RTVSPost2010Prop41ColorRGB
 90
        0
102
RTVSPost2010PropOp41
 70
     1
102
RTVSPost2010Prop42
 90
       50
102
RTVSPost2010PropOp42
 70
     1
102
RTVSPost2010Prop43
 90
        3
102
RTVSPost2010PropOp43
 70
     1
102
RTVSPost2010Prop44ColorIndex
 90
        5
102
RTVSPost2010Prop44ColorRGB
 90
      255
102
RTVSPost2010PropOp44
 70
     1
102
RTVSPost2010Prop45
280
     0
102
RTVSPost2010PropOp45
 70
     1
102
RTVSPost2010Prop46
 90
       50
102
RTVSPost2010PropOp46
 70
     1
102
RTVSPost2010Prop47
 90
       50
102
RTVSPost2010PropOp47
 70
     1
102
RTVSPost2010Prop48
 90
       50
102
RTVSPost2010PropOp48
 70
     1
102
RTVSPost2010Prop49
280
     0
102
RTVSPost2010PropOp49
 70
     1
102
RTVSPost2010Prop50
 90
       50
102
RTVSPost2010PropOp50
 70
     1
102
RTVSPost2010Prop51ColorIndex
 90
      256
102
RTVSPost2010Prop51ColorRGB
 90
-16777216
102
RTVSPost2010PropOp51
 70
     0
102
RTVSPost2010Prop52
140
1.0
102
RTVSPost2010PropOp52
 70
     0
102
RTVSPost2010Prop53
 90
        2
102
RTVSPost2010PropOp53
 70
     1
102
RTVSPost2010Prop54
  1
strokes_ogs.tif
102
RTVSPost2010PropOp54
 70
     1
102
RTVSPost2010Prop55
280
     0
102
RTVSPost2010PropOp55
 70
     1
102
RTVSPost2010Prop56
140
1.0
102
RTVSPost2010PropOp56
 70
     1
102
RTVSPost2010Prop57
140
1.0
102
RTVSPost2010PropOp57
 70
     1
102
RTVSPropertyOp0
 70
     1
102
RTVSPropertyOp1
 70
     1
102
RTVSPropertyOp2
 70
     1
102
RTVSPropertyOp3
 70
     1
102
RTVSPropertyOp4
 70
     1
102
RTVSPropertyOp5
 70
     1
102
RTVSPropertyOp6
 70
     1
102
RTVSPropertyOp7
 70
     1
102
RTVSPropertyOp8
 70
     1
102
RTVSPropertyOp9
 70
     1
102
RTVSPropertyOp10
 70
     1
102
RTVSPropertyOp11
 70
     1
102
RTVSPropertyOp12
 70
     1
102
RTVSPropertyOp13
 70
     1
102
RTVSPropertyOp14
 70
     1
102
RTVSPropertyOp15
 70
     1
102
RTVSPropertyOp16
 70
     1
102
RTVSPropertyOp17
 70
     1
102
RTVSPropertyOp18
 70
     1
102
RTVSPropertyOp19
 70
     1
102
RTVSPropertyOp20
 70
     1
102
RTVSPropertyOp21
 70
     1
102
RTVSPropertyOp22
 70
     1
102
RTVSPropertyOp23
 70
     1
102
RTVSPropertyOp24
 70
     1
102
RTVSPropertyOp25
 70
     1
102
RTVSPropertyOp26
 70
     1
102
RTVSPropertyOp27
 70
     1
102
RTVSPropertyOp28
 70
     1
102
RTVSPropertyOp29
 70
     1
102
RTVSPropertyOp30
 70
     1
102
RTVSPropertyOp31
 70
     1
102
RTVSPropertyOp32
 70
     1
102
RTVSPropertyOp33
 70
     1
102
RTVSPropertyOp34
 70
     1
102
RTVSPropertyOp35
 70
     1
102
RTVSPropertyOp36
 70
     1
102
RTVSPropertyOp37
 70
     1
102
RTVSPropertyOp38
 70
     1
102
RTVSPropertyOp39
 70
     1
102
RTVSPropertyOp40
 70
     1
102
RTVSPropertyOp41
 70
     1
102
RTVSPropertyOp42
 70
     1
102
RTVSPropertyOp43
 70
     1
102
RTVSPropertyOp44
 70
     1
102
RTVSPropertyOp45
 70
     1
102
RTVSPropertyOp46
 70
     1
102
RTVSPropertyOp47
 70
     1
102
RTVSPropertyOp48
 70
     1
102
RTVSPropertyOp49
 70
     1
102
RTVSPropertyOp50
 70
     1
102
RTVSPropertyOp51
 70
     0
102
RTVSPropertyOp52
 70
     0
102
RTVSPropertyOp53
 70
     1
102
RTVSPropertyOp54
 70
     1
102
RTVSPropertyOp55
 70
     1
102
RTVSPropertyOp56
 70
     1
102
RTVSPropertyOp57
 70
     1
102
RTVSPropertyOp58
 70
     1
102
RTVSPropertyOp59
 70
     1
102
RTVSPropertyOp60
 70
     1
102
RTVSPropertyOp61
 70
     1
102
RTVSPropertyOp62
 70
     1
  0
XRECORD
  5
CE19
102
{ACAD_REACTORS
330
CE18
102
}
330
CE18
100
AcDbXrecord
280
     1
102
RTVSPost2010Prop28
280
     0
102
RTVSPost2010PropOp28
 70
     1
102
RTVSPost2010Prop29
280
     1
102
RTVSPost2010PropOp29
 70
     1
102
RTVSPost2010Prop30
280
     1
102
RTVSPost2010PropOp30
 70
     1
102
RTVSPost2010Prop31
280
     0
102
RTVSPost2010PropOp31
 70
     1
102
RTVSPost2010Prop32
280
     0
102
RTVSPost2010PropOp32
 70
     1
102
RTVSPost2010Prop33
280
     0
102
RTVSPost2010PropOp33
 70
     1
102
RTVSPost2010Prop34
280
     0
102
RTVSPost2010PropOp34
 70
     1
102
RTVSPost2010Prop35
280
     0
102
RTVSPost2010PropOp35
 70
     1
102
RTVSPost2010Prop36
280
     0
102
RTVSPost2010PropOp36
 70
     1
102
RTVSPost2010Prop37
 90
       50
102
RTVSPost2010PropOp37
 70
     1
102
RTVSPost2010Prop38
140
0.0
102
RTVSPost2010PropOp38
 70
     1
102
RTVSPost2010Prop39
140
1.0
102
RTVSPost2010PropOp39
 70
     1
102
RTVSPost2010Prop40
 90
        0
102
RTVSPost2010PropOp40
 70
     1
102
RTVSPost2010Prop41ColorIndex
 90
       18
102
RTVSPost2010Prop41ColorRGB
 90
        0
102
RTVSPost2010PropOp41
 70
     1
102
RTVSPost2010Prop42
 90
       50
102
RTVSPost2010PropOp42
 70
     1
102
RTVSPost2010Prop43
 90
        3
102
RTVSPost2010PropOp43
 70
     1
102
RTVSPost2010Prop44ColorIndex
 90
        5
102
RTVSPost2010Prop44ColorRGB
 90
      255
102
RTVSPost2010PropOp44
 70
     1
102
RTVSPost2010Prop45
280
     0
102
RTVSPost2010PropOp45
 70
     1
102
RTVSPost2010Prop46
 90
       50
102
RTVSPost2010PropOp46
 70
     1
102
RTVSPost2010Prop47
 90
       50
102
RTVSPost2010PropOp47
 70
     1
102
RTVSPost2010Prop48
 90
       50
102
RTVSPost2010PropOp48
 70
     1
102
RTVSPost2010Prop49
280
     0
102
RTVSPost2010PropOp49
 70
     1
102
RTVSPost2010Prop50
 90
       50
102
RTVSPost2010PropOp50
 70
     1
102
RTVSPost2010Prop51ColorIndex
 90
      256
102
RTVSPost2010Prop51ColorRGB
 90
-16777216
102
RTVSPost2010PropOp51
 70
     0
102
RTVSPost2010Prop52
140
1.0
102
RTVSPost2010PropOp52
 70
     0
102
RTVSPost2010Prop53
 90
        2
102
RTVSPost2010PropOp53
 70
     1
102
RTVSPost2010Prop54
  1
strokes_ogs.tif
102
RTVSPost2010PropOp54
 70
     1
102
RTVSPost2010Prop55
280
     0
102
RTVSPost2010PropOp55
 70
     1
102
RTVSPost2010Prop56
140
1.0
102
RTVSPost2010PropOp56
 70
     1
102
RTVSPost2010Prop57
140
1.0
102
RTVSPost2010PropOp57
 70
     1
102
RTVSPropertyOp0
 70
     1
102
RTVSPropertyOp1
 70
     1
102
RTVSPropertyOp2
 70
     1
102
RTVSPropertyOp3
 70
     1
102
RTVSPropertyOp4
 70
     1
102
RTVSPropertyOp5
 70
     1
102
RTVSPropertyOp6
 70
     1
102
RTVSPropertyOp7
 70
     1
102
RTVSPropertyOp8
 70
     1
102
RTVSPropertyOp9
 70
     1
102
RTVSPropertyOp10
 70
     1
102
RTVSPropertyOp11
 70
     1
102
RTVSPropertyOp12
 70
     1
102
RTVSPropertyOp13
 70
     1
102
RTVSPropertyOp14
 70
     1
102
RTVSPropertyOp15
 70
     1
102
RTVSPropertyOp16
 70
     1
102
RTVSPropertyOp17
 70
     1
102
RTVSPropertyOp18
 70
     1
102
RTVSPropertyOp19
 70
     1
102
RTVSPropertyOp20
 70
     1
102
RTVSPropertyOp21
 70
     1
102
RTVSPropertyOp22
 70
     1
102
RTVSPropertyOp23
 70
     1
102
RTVSPropertyOp24
 70
     1
102
RTVSPropertyOp25
 70
     1
102
RTVSPropertyOp26
 70
     1
102
RTVSPropertyOp27
 70
     1
102
RTVSPropertyOp28
 70
     1
102
RTVSPropertyOp29
 70
     1
102
RTVSPropertyOp30
 70
     1
102
RTVSPropertyOp31
 70
     1
102
RTVSPropertyOp32
 70
     1
102
RTVSPropertyOp33
 70
     1
102
RTVSPropertyOp34
 70
     1
102
RTVSPropertyOp35
 70
     1
102
RTVSPropertyOp36
 70
     1
102
RTVSPropertyOp37
 70
     1
102
RTVSPropertyOp38
 70
     1
102
RTVSPropertyOp39
 70
     1
102
RTVSPropertyOp40
 70
     1
102
RTVSPropertyOp41
 70
     1
102
RTVSPropertyOp42
 70
     1
102
RTVSPropertyOp43
 70
     1
102
RTVSPropertyOp44
 70
     1
102
RTVSPropertyOp45
 70
     1
102
RTVSPropertyOp46
 70
     1
102
RTVSPropertyOp47
 70
     1
102
RTVSPropertyOp48
 70
     1
102
RTVSPropertyOp49
 70
     1
102
RTVSPropertyOp50
 70
     1
102
RTVSPropertyOp51
 70
     0
102
RTVSPropertyOp52
 70
     0
102
RTVSPropertyOp53
 70
     1
102
RTVSPropertyOp54
 70
     1
102
RTVSPropertyOp55
 70
     1
102
RTVSPropertyOp56
 70
     1
102
RTVSPropertyOp57
 70
     1
102
RTVSPropertyOp58
 70
     1
102
RTVSPropertyOp59
 70
     1
102
RTVSPropertyOp60
 70
     1
102
RTVSPropertyOp61
 70
     1
102
RTVSPropertyOp62
 70
     1
  0
XRECORD
  5
CE27
102
{ACAD_REACTORS
330
CE26
102
}
330
CE26
100
AcDbXrecord
280
     1
102
RTVSPost2010Prop28
280
     0
102
RTVSPost2010PropOp28
 70
     1
102
RTVSPost2010Prop29
280
     1
102
RTVSPost2010PropOp29
 70
     1
102
RTVSPost2010Prop30
280
     1
102
RTVSPost2010PropOp30
 70
     1
102
RTVSPost2010Prop31
280
     0
102
RTVSPost2010PropOp31
 70
     1
102
RTVSPost2010Prop32
280
     0
102
RTVSPost2010PropOp32
 70
     1
102
RTVSPost2010Prop33
280
     0
102
RTVSPost2010PropOp33
 70
     1
102
RTVSPost2010Prop34
280
     0
102
RTVSPost2010PropOp34
 70
     1
102
RTVSPost2010Prop35
280
     0
102
RTVSPost2010PropOp35
 70
     1
102
RTVSPost2010Prop36
280
     0
102
RTVSPost2010PropOp36
 70
     1
102
RTVSPost2010Prop37
 90
       50
102
RTVSPost2010PropOp37
 70
     1
102
RTVSPost2010Prop38
140
0.0
102
RTVSPost2010PropOp38
 70
     1
102
RTVSPost2010Prop39
140
1.0
102
RTVSPost2010PropOp39
 70
     1
102
RTVSPost2010Prop40
 90
        0
102
RTVSPost2010PropOp40
 70
     1
102
RTVSPost2010Prop41ColorIndex
 90
       18
102
RTVSPost2010Prop41ColorRGB
 90
        0
102
RTVSPost2010PropOp41
 70
     1
102
RTVSPost2010Prop42
 90
       50
102
RTVSPost2010PropOp42
 70
     1
102
RTVSPost2010Prop43
 90
        3
102
RTVSPost2010PropOp43
 70
     1
102
RTVSPost2010Prop44ColorIndex
 90
        5
102
RTVSPost2010Prop44ColorRGB
 90
      255
102
RTVSPost2010PropOp44
 70
     1
102
RTVSPost2010Prop45
280
     0
102
RTVSPost2010PropOp45
 70
     1
102
RTVSPost2010Prop46
 90
       50
102
RTVSPost2010PropOp46
 70
     1
102
RTVSPost2010Prop47
 90
       50
102
RTVSPost2010PropOp47
 70
     1
102
RTVSPost2010Prop48
 90
       50
102
RTVSPost2010PropOp48
 70
     1
102
RTVSPost2010Prop49
280
     0
102
RTVSPost2010PropOp49
 70
     1
102
RTVSPost2010Prop50
 90
       50
102
RTVSPost2010PropOp50
 70
     1
102
RTVSPost2010Prop51ColorIndex
 90
      256
102
RTVSPost2010Prop51ColorRGB
 90
-16777216
102
RTVSPost2010PropOp51
 70
     0
102
RTVSPost2010Prop52
140
1.0
102
RTVSPost2010PropOp52
 70
     0
102
RTVSPost2010Prop53
 90
        2
102
RTVSPost2010PropOp53
 70
     1
102
RTVSPost2010Prop54
  1
strokes_ogs.tif
102
RTVSPost2010PropOp54
 70
     1
102
RTVSPost2010Prop55
280
     0
102
RTVSPost2010PropOp55
 70
     1
102
RTVSPost2010Prop56
140
1.0
102
RTVSPost2010PropOp56
 70
     1
102
RTVSPost2010Prop57
140
1.0
102
RTVSPost2010PropOp57
 70
     1
102
RTVSPropertyOp0
 70
     1
102
RTVSPropertyOp1
 70
     1
102
RTVSPropertyOp2
 70
     1
102
RTVSPropertyOp3
 70
     1
102
RTVSPropertyOp4
 70
     1
102
RTVSPropertyOp5
 70
     1
102
RTVSPropertyOp6
 70
     1
102
RTVSPropertyOp7
 70
     1
102
RTVSPropertyOp8
 70
     1
102
RTVSPropertyOp9
 70
     1
102
RTVSPropertyOp10
 70
     1
102
RTVSPropertyOp11
 70
     1
102
RTVSPropertyOp12
 70
     1
102
RTVSPropertyOp13
 70
     1
102
RTVSPropertyOp14
 70
     1
102
RTVSPropertyOp15
 70
     1
102
RTVSPropertyOp16
 70
     1
102
RTVSPropertyOp17
 70
     1
102
RTVSPropertyOp18
 70
     1
102
RTVSPropertyOp19
 70
     1
102
RTVSPropertyOp20
 70
     1
102
RTVSPropertyOp21
 70
     1
102
RTVSPropertyOp22
 70
     1
102
RTVSPropertyOp23
 70
     1
102
RTVSPropertyOp24
 70
     1
102
RTVSPropertyOp25
 70
     1
102
RTVSPropertyOp26
 70
     1
102
RTVSPropertyOp27
 70
     1
102
RTVSPropertyOp28
 70
     1
102
RTVSPropertyOp29
 70
     1
102
RTVSPropertyOp30
 70
     1
102
RTVSPropertyOp31
 70
     1
102
RTVSPropertyOp32
 70
     1
102
RTVSPropertyOp33
 70
     1
102
RTVSPropertyOp34
 70
     1
102
RTVSPropertyOp35
 70
     1
102
RTVSPropertyOp36
 70
     1
102
RTVSPropertyOp37
 70
     1
102
RTVSPropertyOp38
 70
     1
102
RTVSPropertyOp39
 70
     1
102
RTVSPropertyOp40
 70
     1
102
RTVSPropertyOp41
 70
     1
102
RTVSPropertyOp42
 70
     1
102
RTVSPropertyOp43
 70
     1
102
RTVSPropertyOp44
 70
     1
102
RTVSPropertyOp45
 70
     1
102
RTVSPropertyOp46
 70
     1
102
RTVSPropertyOp47
 70
     1
102
RTVSPropertyOp48
 70
     1
102
RTVSPropertyOp49
 70
     1
102
RTVSPropertyOp50
 70
     1
102
RTVSPropertyOp51
 70
     0
102
RTVSPropertyOp52
 70
     0
102
RTVSPropertyOp53
 70
     1
102
RTVSPropertyOp54
 70
     1
102
RTVSPropertyOp55
 70
     1
102
RTVSPropertyOp56
 70
     1
102
RTVSPropertyOp57
 70
     1
102
RTVSPropertyOp58
 70
     1
102
RTVSPropertyOp59
 70
     1
102
RTVSPropertyOp60
 70
     1
102
RTVSPropertyOp61
 70
     1
102
RTVSPropertyOp62
 70
     1
  0
XRECORD
  5
CE2F
102
{ACAD_REACTORS
330
CE2E
102
}
330
CE2E
100
AcDbXrecord
280
     1
102
RTVSPost2010Prop28
280
     0
102
RTVSPost2010PropOp28
 70
     1
102
RTVSPost2010Prop29
280
     1
102
RTVSPost2010PropOp29
 70
     1
102
RTVSPost2010Prop30
280
     1
102
RTVSPost2010PropOp30
 70
     1
102
RTVSPost2010Prop31
280
     0
102
RTVSPost2010PropOp31
 70
     1
102
RTVSPost2010Prop32
280
     0
102
RTVSPost2010PropOp32
 70
     1
102
RTVSPost2010Prop33
280
     0
102
RTVSPost2010PropOp33
 70
     1
102
RTVSPost2010Prop34
280
     0
102
RTVSPost2010PropOp34
 70
     1
102
RTVSPost2010Prop35
280
     0
102
RTVSPost2010PropOp35
 70
     1
102
RTVSPost2010Prop36
280
     0
102
RTVSPost2010PropOp36
 70
     1
102
RTVSPost2010Prop37
 90
       50
102
RTVSPost2010PropOp37
 70
     1
102
RTVSPost2010Prop38
140
0.0
102
RTVSPost2010PropOp38
 70
     1
102
RTVSPost2010Prop39
140
1.0
102
RTVSPost2010PropOp39
 70
     1
102
RTVSPost2010Prop40
 90
        0
102
RTVSPost2010PropOp40
 70
     1
102
RTVSPost2010Prop41ColorIndex
 90
       18
102
RTVSPost2010Prop41ColorRGB
 90
        0
102
RTVSPost2010PropOp41
 70
     1
102
RTVSPost2010Prop42
 90
       50
102
RTVSPost2010PropOp42
 70
     1
102
RTVSPost2010Prop43
 90
        3
102
RTVSPost2010PropOp43
 70
     1
102
RTVSPost2010Prop44ColorIndex
 90
        5
102
RTVSPost2010Prop44ColorRGB
 90
      255
102
RTVSPost2010PropOp44
 70
     1
102
RTVSPost2010Prop45
280
     0
102
RTVSPost2010PropOp45
 70
     1
102
RTVSPost2010Prop46
 90
       50
102
RTVSPost2010PropOp46
 70
     1
102
RTVSPost2010Prop47
 90
       50
102
RTVSPost2010PropOp47
 70
     1
102
RTVSPost2010Prop48
 90
       50
102
RTVSPost2010PropOp48
 70
     1
102
RTVSPost2010Prop49
280
     0
102
RTVSPost2010PropOp49
 70
     1
102
RTVSPost2010Prop50
 90
       50
102
RTVSPost2010PropOp50
 70
     1
102
RTVSPost2010Prop51ColorIndex
 90
      256
102
RTVSPost2010Prop51ColorRGB
 90
-16777216
102
RTVSPost2010PropOp51
 70
     0
102
RTVSPost2010Prop52
140
1.0
102
RTVSPost2010PropOp52
 70
     0
102
RTVSPost2010Prop53
 90
        2
102
RTVSPost2010PropOp53
 70
     1
102
RTVSPost2010Prop54
  1
strokes_ogs.tif
102
RTVSPost2010PropOp54
 70
     1
102
RTVSPost2010Prop55
280
     0
102
RTVSPost2010PropOp55
 70
     1
102
RTVSPost2010Prop56
140
1.0
102
RTVSPost2010PropOp56
 70
     1
102
RTVSPost2010Prop57
140
1.0
102
RTVSPost2010PropOp57
 70
     1
102
RTVSPropertyOp0
 70
     1
102
RTVSPropertyOp1
 70
     1
102
RTVSPropertyOp2
 70
     1
102
RTVSPropertyOp3
 70
     1
102
RTVSPropertyOp4
 70
     1
102
RTVSPropertyOp5
 70
     1
102
RTVSPropertyOp6
 70
     1
102
RTVSPropertyOp7
 70
     1
102
RTVSPropertyOp8
 70
     1
102
RTVSPropertyOp9
 70
     1
102
RTVSPropertyOp10
 70
     1
102
RTVSPropertyOp11
 70
     1
102
RTVSPropertyOp12
 70
     1
102
RTVSPropertyOp13
 70
     1
102
RTVSPropertyOp14
 70
     1
102
RTVSPropertyOp15
 70
     1
102
RTVSPropertyOp16
 70
     1
102
RTVSPropertyOp17
 70
     1
102
RTVSPropertyOp18
 70
     1
102
RTVSPropertyOp19
 70
     1
102
RTVSPropertyOp20
 70
     1
102
RTVSPropertyOp21
 70
     1
102
RTVSPropertyOp22
 70
     1
102
RTVSPropertyOp23
 70
     1
102
RTVSPropertyOp24
 70
     1
102
RTVSPropertyOp25
 70
     1
102
RTVSPropertyOp26
 70
     1
102
RTVSPropertyOp27
 70
     1
102
RTVSPropertyOp28
 70
     1
102
RTVSPropertyOp29
 70
     1
102
RTVSPropertyOp30
 70
     1
102
RTVSPropertyOp31
 70
     1
102
RTVSPropertyOp32
 70
     1
102
RTVSPropertyOp33
 70
     1
102
RTVSPropertyOp34
 70
     1
102
RTVSPropertyOp35
 70
     1
102
RTVSPropertyOp36
 70
     1
102
RTVSPropertyOp37
 70
     1
102
RTVSPropertyOp38
 70
     1
102
RTVSPropertyOp39
 70
     1
102
RTVSPropertyOp40
 70
     1
102
RTVSPropertyOp41
 70
     1
102
RTVSPropertyOp42
 70
     1
102
RTVSPropertyOp43
 70
     1
102
RTVSPropertyOp44
 70
     1
102
RTVSPropertyOp45
 70
     1
102
RTVSPropertyOp46
 70
     1
102
RTVSPropertyOp47
 70
     1
102
RTVSPropertyOp48
 70
     1
102
RTVSPropertyOp49
 70
     1
102
RTVSPropertyOp50
 70
     1
102
RTVSPropertyOp51
 70
     0
102
RTVSPropertyOp52
 70
     0
102
RTVSPropertyOp53
 70
     1
102
RTVSPropertyOp54
 70
     1
102
RTVSPropertyOp55
 70
     1
102
RTVSPropertyOp56
 70
     1
102
RTVSPropertyOp57
 70
     1
102
RTVSPropertyOp58
 70
     1
102
RTVSPropertyOp59
 70
     1
102
RTVSPropertyOp60
 70
     1
102
RTVSPropertyOp61
 70
     1
102
RTVSPropertyOp62
 70
     1
  0
XRECORD
  5
CE21
102
{ACAD_REACTORS
330
CE20
102
}
330
CE20
100
AcDbXrecord
280
     1
102
RTVSPost2010Prop28
280
     0
102
RTVSPost2010PropOp28
 70
     1
102
RTVSPost2010Prop29
280
     1
102
RTVSPost2010PropOp29
 70
     1
102
RTVSPost2010Prop30
280
     1
102
RTVSPost2010PropOp30
 70
     1
102
RTVSPost2010Prop31
280
     0
102
RTVSPost2010PropOp31
 70
     1
102
RTVSPost2010Prop32
280
     0
102
RTVSPost2010PropOp32
 70
     1
102
RTVSPost2010Prop33
280
     0
102
RTVSPost2010PropOp33
 70
     1
102
RTVSPost2010Prop34
280
     0
102
RTVSPost2010PropOp34
 70
     1
102
RTVSPost2010Prop35
280
     0
102
RTVSPost2010PropOp35
 70
     1
102
RTVSPost2010Prop36
280
     0
102
RTVSPost2010PropOp36
 70
     1
102
RTVSPost2010Prop37
 90
       50
102
RTVSPost2010PropOp37
 70
     1
102
RTVSPost2010Prop38
140
0.0
102
RTVSPost2010PropOp38
 70
     1
102
RTVSPost2010Prop39
140
1.0
102
RTVSPost2010PropOp39
 70
     1
102
RTVSPost2010Prop40
 90
        0
102
RTVSPost2010PropOp40
 70
     1
102
RTVSPost2010Prop41ColorIndex
 90
       18
102
RTVSPost2010Prop41ColorRGB
 90
        0
102
RTVSPost2010PropOp41
 70
     1
102
RTVSPost2010Prop42
 90
       50
102
RTVSPost2010PropOp42
 70
     1
102
RTVSPost2010Prop43
 90
        3
102
RTVSPost2010PropOp43
 70
     1
102
RTVSPost2010Prop44ColorIndex
 90
        5
102
RTVSPost2010Prop44ColorRGB
 90
      255
102
RTVSPost2010PropOp44
 70
     1
102
RTVSPost2010Prop45
280
     0
102
RTVSPost2010PropOp45
 70
     1
102
RTVSPost2010Prop46
 90
       50
102
RTVSPost2010PropOp46
 70
     1
102
RTVSPost2010Prop47
 90
       50
102
RTVSPost2010PropOp47
 70
     1
102
RTVSPost2010Prop48
 90
       50
102
RTVSPost2010PropOp48
 70
     1
102
RTVSPost2010Prop49
280
     0
102
RTVSPost2010PropOp49
 70
     1
102
RTVSPost2010Prop50
 90
       50
102
RTVSPost2010PropOp50
 70
     1
102
RTVSPost2010Prop51ColorIndex
 90
      256
102
RTVSPost2010Prop51ColorRGB
 90
-16777216
102
RTVSPost2010PropOp51
 70
     0
102
RTVSPost2010Prop52
140
1.0
102
RTVSPost2010PropOp52
 70
     0
102
RTVSPost2010Prop53
 90
        2
102
RTVSPost2010PropOp53
 70
     1
102
RTVSPost2010Prop54
  1
strokes_ogs.tif
102
RTVSPost2010PropOp54
 70
     1
102
RTVSPost2010Prop55
280
     0
102
RTVSPost2010PropOp55
 70
     1
102
RTVSPost2010Prop56
140
1.0
102
RTVSPost2010PropOp56
 70
     1
102
RTVSPost2010Prop57
140
1.0
102
RTVSPost2010PropOp57
 70
     1
102
RTVSPropertyOp0
 70
     1
102
RTVSPropertyOp1
 70
     1
102
RTVSPropertyOp2
 70
     1
102
RTVSPropertyOp3
 70
     1
102
RTVSPropertyOp4
 70
     1
102
RTVSPropertyOp5
 70
     1
102
RTVSPropertyOp6
 70
     1
102
RTVSPropertyOp7
 70
     1
102
RTVSPropertyOp8
 70
     1
102
RTVSPropertyOp9
 70
     1
102
RTVSPropertyOp10
 70
     1
102
RTVSPropertyOp11
 70
     1
102
RTVSPropertyOp12
 70
     1
102
RTVSPropertyOp13
 70
     1
102
RTVSPropertyOp14
 70
     1
102
RTVSPropertyOp15
 70
     1
102
RTVSPropertyOp16
 70
     1
102
RTVSPropertyOp17
 70
     1
102
RTVSPropertyOp18
 70
     1
102
RTVSPropertyOp19
 70
     1
102
RTVSPropertyOp20
 70
     1
102
RTVSPropertyOp21
 70
     1
102
RTVSPropertyOp22
 70
     1
102
RTVSPropertyOp23
 70
     1
102
RTVSPropertyOp24
 70
     1
102
RTVSPropertyOp25
 70
     1
102
RTVSPropertyOp26
 70
     1
102
RTVSPropertyOp27
 70
     1
102
RTVSPropertyOp28
 70
     1
102
RTVSPropertyOp29
 70
     1
102
RTVSPropertyOp30
 70
     1
102
RTVSPropertyOp31
 70
     1
102
RTVSPropertyOp32
 70
     1
102
RTVSPropertyOp33
 70
     1
102
RTVSPropertyOp34
 70
     1
102
RTVSPropertyOp35
 70
     1
102
RTVSPropertyOp36
 70
     1
102
RTVSPropertyOp37
 70
     1
102
RTVSPropertyOp38
 70
     1
102
RTVSPropertyOp39
 70
     1
102
RTVSPropertyOp40
 70
     1
102
RTVSPropertyOp41
 70
     1
102
RTVSPropertyOp42
 70
     1
102
RTVSPropertyOp43
 70
     1
102
RTVSPropertyOp44
 70
     1
102
RTVSPropertyOp45
 70
     1
102
RTVSPropertyOp46
 70
     1
102
RTVSPropertyOp47
 70
     1
102
RTVSPropertyOp48
 70
     1
102
RTVSPropertyOp49
 70
     1
102
RTVSPropertyOp50
 70
     1
102
RTVSPropertyOp51
 70
     0
102
RTVSPropertyOp52
 70
     0
102
RTVSPropertyOp53
 70
     1
102
RTVSPropertyOp54
 70
     1
102
RTVSPropertyOp55
 70
     1
102
RTVSPropertyOp56
 70
     1
102
RTVSPropertyOp57
 70
     1
102
RTVSPropertyOp58
 70
     1
102
RTVSPropertyOp59
 70
     1
102
RTVSPropertyOp60
 70
     1
102
RTVSPropertyOp61
 70
     1
102
RTVSPropertyOp62
 70
     1
  0
XRECORD
  5
CE25
102
{ACAD_REACTORS
330
CE24
102
}
330
CE24
100
AcDbXrecord
280
     1
102
RTVSPost2010Prop28
280
     0
102
RTVSPost2010PropOp28
 70
     1
102
RTVSPost2010Prop29
280
     1
102
RTVSPost2010PropOp29
 70
     1
102
RTVSPost2010Prop30
280
     1
102
RTVSPost2010PropOp30
 70
     1
102
RTVSPost2010Prop31
280
     0
102
RTVSPost2010PropOp31
 70
     1
102
RTVSPost2010Prop32
280
     0
102
RTVSPost2010PropOp32
 70
     1
102
RTVSPost2010Prop33
280
     0
102
RTVSPost2010PropOp33
 70
     1
102
RTVSPost2010Prop34
280
     0
102
RTVSPost2010PropOp34
 70
     1
102
RTVSPost2010Prop35
280
     0
102
RTVSPost2010PropOp35
 70
     1
102
RTVSPost2010Prop36
280
     0
102
RTVSPost2010PropOp36
 70
     1
102
RTVSPost2010Prop37
 90
       50
102
RTVSPost2010PropOp37
 70
     1
102
RTVSPost2010Prop38
140
0.0
102
RTVSPost2010PropOp38
 70
     1
102
RTVSPost2010Prop39
140
1.0
102
RTVSPost2010PropOp39
 70
     1
102
RTVSPost2010Prop40
 90
        0
102
RTVSPost2010PropOp40
 70
     1
102
RTVSPost2010Prop41ColorIndex
 90
       18
102
RTVSPost2010Prop41ColorRGB
 90
        0
102
RTVSPost2010PropOp41
 70
     1
102
RTVSPost2010Prop42
 90
       50
102
RTVSPost2010PropOp42
 70
     1
102
RTVSPost2010Prop43
 90
        3
102
RTVSPost2010PropOp43
 70
     1
102
RTVSPost2010Prop44ColorIndex
 90
        5
102
RTVSPost2010Prop44ColorRGB
 90
      255
102
RTVSPost2010PropOp44
 70
     1
102
RTVSPost2010Prop45
280
     0
102
RTVSPost2010PropOp45
 70
     1
102
RTVSPost2010Prop46
 90
       50
102
RTVSPost2010PropOp46
 70
     1
102
RTVSPost2010Prop47
 90
       50
102
RTVSPost2010PropOp47
 70
     1
102
RTVSPost2010Prop48
 90
       50
102
RTVSPost2010PropOp48
 70
     1
102
RTVSPost2010Prop49
280
     0
102
RTVSPost2010PropOp49
 70
     1
102
RTVSPost2010Prop50
 90
       50
102
RTVSPost2010PropOp50
 70
     1
102
RTVSPost2010Prop51ColorIndex
 90
      256
102
RTVSPost2010Prop51ColorRGB
 90
-16777216
102
RTVSPost2010PropOp51
 70
     0
102
RTVSPost2010Prop52
140
1.0
102
RTVSPost2010PropOp52
 70
     0
102
RTVSPost2010Prop53
 90
        2
102
RTVSPost2010PropOp53
 70
     1
102
RTVSPost2010Prop54
  1
strokes_ogs.tif
102
RTVSPost2010PropOp54
 70
     1
102
RTVSPost2010Prop55
280
     0
102
RTVSPost2010PropOp55
 70
     1
102
RTVSPost2010Prop56
140
1.0
102
RTVSPost2010PropOp56
 70
     1
102
RTVSPost2010Prop57
140
1.0
102
RTVSPost2010PropOp57
 70
     1
102
RTVSPropertyOp0
 70
     1
102
RTVSPropertyOp1
 70
     1
102
RTVSPropertyOp2
 70
     1
102
RTVSPropertyOp3
 70
     1
102
RTVSPropertyOp4
 70
     1
102
RTVSPropertyOp5
 70
     1
102
RTVSPropertyOp6
 70
     1
102
RTVSPropertyOp7
 70
     1
102
RTVSPropertyOp8
 70
     1
102
RTVSPropertyOp9
 70
     1
102
RTVSPropertyOp10
 70
     1
102
RTVSPropertyOp11
 70
     1
102
RTVSPropertyOp12
 70
     1
102
RTVSPropertyOp13
 70
     1
102
RTVSPropertyOp14
 70
     1
102
RTVSPropertyOp15
 70
     1
102
RTVSPropertyOp16
 70
     1
102
RTVSPropertyOp17
 70
     1
102
RTVSPropertyOp18
 70
     1
102
RTVSPropertyOp19
 70
     1
102
RTVSPropertyOp20
 70
     1
102
RTVSPropertyOp21
 70
     1
102
RTVSPropertyOp22
 70
     1
102
RTVSPropertyOp23
 70
     1
102
RTVSPropertyOp24
 70
     1
102
RTVSPropertyOp25
 70
     1
102
RTVSPropertyOp26
 70
     1
102
RTVSPropertyOp27
 70
     1
102
RTVSPropertyOp28
 70
     1
102
RTVSPropertyOp29
 70
     1
102
RTVSPropertyOp30
 70
     1
102
RTVSPropertyOp31
 70
     1
102
RTVSPropertyOp32
 70
     1
102
RTVSPropertyOp33
 70
     1
102
RTVSPropertyOp34
 70
     1
102
RTVSPropertyOp35
 70
     1
102
RTVSPropertyOp36
 70
     1
102
RTVSPropertyOp37
 70
     1
102
RTVSPropertyOp38
 70
     1
102
RTVSPropertyOp39
 70
     1
102
RTVSPropertyOp40
 70
     1
102
RTVSPropertyOp41
 70
     1
102
RTVSPropertyOp42
 70
     1
102
RTVSPropertyOp43
 70
     1
102
RTVSPropertyOp44
 70
     1
102
RTVSPropertyOp45
 70
     1
102
RTVSPropertyOp46
 70
     1
102
RTVSPropertyOp47
 70
     1
102
RTVSPropertyOp48
 70
     1
102
RTVSPropertyOp49
 70
     1
102
RTVSPropertyOp50
 70
     1
102
RTVSPropertyOp51
 70
     0
102
RTVSPropertyOp52
 70
     0
102
RTVSPropertyOp53
 70
     1
102
RTVSPropertyOp54
 70
     1
102
RTVSPropertyOp55
 70
     1
102
RTVSPropertyOp56
 70
     1
102
RTVSPropertyOp57
 70
     1
102
RTVSPropertyOp58
 70
     1
102
RTVSPropertyOp59
 70
     1
102
RTVSPropertyOp60
 70
     1
102
RTVSPropertyOp61
 70
     1
102
RTVSPropertyOp62
 70
     1
  0
XRECORD
  5
CE37
102
{ACAD_REACTORS
330
CE36
102
}
330
CE36
100
AcDbXrecord
280
     1
102
RTVSPost2010Prop28
280
     0
102
RTVSPost2010PropOp28
 70
     1
102
RTVSPost2010Prop29
280
     1
102
RTVSPost2010PropOp29
 70
     1
102
RTVSPost2010Prop30
280
     1
102
RTVSPost2010PropOp30
 70
     1
102
RTVSPost2010Prop31
280
     0
102
RTVSPost2010PropOp31
 70
     1
102
RTVSPost2010Prop32
280
     0
102
RTVSPost2010PropOp32
 70
     1
102
RTVSPost2010Prop33
280
     0
102
RTVSPost2010PropOp33
 70
     1
102
RTVSPost2010Prop34
280
     0
102
RTVSPost2010PropOp34
 70
     1
102
RTVSPost2010Prop35
280
     0
102
RTVSPost2010PropOp35
 70
     1
102
RTVSPost2010Prop36
280
     0
102
RTVSPost2010PropOp36
 70
     1
102
RTVSPost2010Prop37
 90
       50
102
RTVSPost2010PropOp37
 70
     1
102
RTVSPost2010Prop38
140
0.0
102
RTVSPost2010PropOp38
 70
     1
102
RTVSPost2010Prop39
140
1.0
102
RTVSPost2010PropOp39
 70
     1
102
RTVSPost2010Prop40
 90
        0
102
RTVSPost2010PropOp40
 70
     1
102
RTVSPost2010Prop41ColorIndex
 90
       18
102
RTVSPost2010Prop41ColorRGB
 90
        0
102
RTVSPost2010PropOp41
 70
     1
102
RTVSPost2010Prop42
 90
       50
102
RTVSPost2010PropOp42
 70
     1
102
RTVSPost2010Prop43
 90
        3
102
RTVSPost2010PropOp43
 70
     1
102
RTVSPost2010Prop44ColorIndex
 90
        5
102
RTVSPost2010Prop44ColorRGB
 90
      255
102
RTVSPost2010PropOp44
 70
     1
102
RTVSPost2010Prop45
280
     0
102
RTVSPost2010PropOp45
 70
     1
102
RTVSPost2010Prop46
 90
       50
102
RTVSPost2010PropOp46
 70
     1
102
RTVSPost2010Prop47
 90
       50
102
RTVSPost2010PropOp47
 70
     1
102
RTVSPost2010Prop48
 90
       50
102
RTVSPost2010PropOp48
 70
     1
102
RTVSPost2010Prop49
280
     0
102
RTVSPost2010PropOp49
 70
     1
102
RTVSPost2010Prop50
 90
       50
102
RTVSPost2010PropOp50
 70
     1
102
RTVSPost2010Prop51ColorIndex
 90
      256
102
RTVSPost2010Prop51ColorRGB
 90
-16777216
102
RTVSPost2010PropOp51
 70
     0
102
RTVSPost2010Prop52
140
1.0
102
RTVSPost2010PropOp52
 70
     0
102
RTVSPost2010Prop53
 90
        2
102
RTVSPost2010PropOp53
 70
     1
102
RTVSPost2010Prop54
  1
strokes_ogs.tif
102
RTVSPost2010PropOp54
 70
     1
102
RTVSPost2010Prop55
280
     0
102
RTVSPost2010PropOp55
 70
     1
102
RTVSPost2010Prop56
140
1.0
102
RTVSPost2010PropOp56
 70
     1
102
RTVSPost2010Prop57
140
1.0
102
RTVSPost2010PropOp57
 70
     1
102
RTVSPropertyOp0
 70
     0
102
RTVSPropertyOp1
 70
     0
102
RTVSPropertyOp2
 70
     0
102
RTVSPropertyOp3
 70
     0
102
RTVSPropertyOp4
 70
     0
102
RTVSPropertyOp5
 70
     0
102
RTVSPropertyOp6
 70
     0
102
RTVSPropertyOp7
 70
     0
102
RTVSPropertyOp8
 70
     0
102
RTVSPropertyOp9
 70
     0
102
RTVSPropertyOp10
 70
     0
102
RTVSPropertyOp11
 70
     0
102
RTVSPropertyOp12
 70
     0
102
RTVSPropertyOp13
 70
     0
102
RTVSPropertyOp14
 70
     2
102
RTVSPropertyOp15
 70
     0
102
RTVSPropertyOp16
 70
     0
102
RTVSPropertyOp17
 70
     0
102
RTVSPropertyOp18
 70
     0
102
RTVSPropertyOp19
 70
     0
102
RTVSPropertyOp20
 70
     0
102
RTVSPropertyOp21
 70
     0
102
RTVSPropertyOp22
 70
     0
102
RTVSPropertyOp23
 70
     0
102
RTVSPropertyOp24
 70
     0
102
RTVSPropertyOp25
 70
     0
102
RTVSPropertyOp26
 70
     0
102
RTVSPropertyOp27
 70
     0
102
RTVSPropertyOp28
 70
     1
102
RTVSPropertyOp29
 70
     1
102
RTVSPropertyOp30
 70
     1
102
RTVSPropertyOp31
 70
     1
102
RTVSPropertyOp32
 70
     1
102
RTVSPropertyOp33
 70
     1
102
RTVSPropertyOp34
 70
     1
102
RTVSPropertyOp35
 70
     1
102
RTVSPropertyOp36
 70
     1
102
RTVSPropertyOp37
 70
     1
102
RTVSPropertyOp38
 70
     1
102
RTVSPropertyOp39
 70
     1
102
RTVSPropertyOp40
 70
     1
102
RTVSPropertyOp41
 70
     1
102
RTVSPropertyOp42
 70
     1
102
RTVSPropertyOp43
 70
     1
102
RTVSPropertyOp44
 70
     1
102
RTVSPropertyOp45
 70
     1
102
RTVSPropertyOp46
 70
     1
102
RTVSPropertyOp47
 70
     1
102
RTVSPropertyOp48
 70
     1
102
RTVSPropertyOp49
 70
     1
102
RTVSPropertyOp50
 70
     1
102
RTVSPropertyOp51
 70
     0
102
RTVSPropertyOp52
 70
     0
102
RTVSPropertyOp53
 70
     1
102
RTVSPropertyOp54
 70
     1
102
RTVSPropertyOp55
 70
     1
102
RTVSPropertyOp56
 70
     1
102
RTVSPropertyOp57
 70
     1
102
RTVSPropertyOp58
 70
     1
102
RTVSPropertyOp59
 70
     1
102
RTVSPropertyOp60
 70
     1
102
RTVSPropertyOp61
 70
     1
102
RTVSPropertyOp62
 70
     1
  0
XRECORD
  5
CE2D
102
{ACAD_REACTORS
330
CE2C
102
}
330
CE2C
100
AcDbXrecord
280
     1
102
RTVSPost2010Prop28
280
     0
102
RTVSPost2010PropOp28
 70
     1
102
RTVSPost2010Prop29
280
     1
102
RTVSPost2010PropOp29
 70
     1
102
RTVSPost2010Prop30
280
     1
102
RTVSPost2010PropOp30
 70
     1
102
RTVSPost2010Prop31
280
     0
102
RTVSPost2010PropOp31
 70
     1
102
RTVSPost2010Prop32
280
     0
102
RTVSPost2010PropOp32
 70
     1
102
RTVSPost2010Prop33
280
     0
102
RTVSPost2010PropOp33
 70
     1
102
RTVSPost2010Prop34
280
     0
102
RTVSPost2010PropOp34
 70
     1
102
RTVSPost2010Prop35
280
     0
102
RTVSPost2010PropOp35
 70
     1
102
RTVSPost2010Prop36
280
     0
102
RTVSPost2010PropOp36
 70
     1
102
RTVSPost2010Prop37
 90
       50
102
RTVSPost2010PropOp37
 70
     1
102
RTVSPost2010Prop38
140
0.0
102
RTVSPost2010PropOp38
 70
     1
102
RTVSPost2010Prop39
140
1.0
102
RTVSPost2010PropOp39
 70
     1
102
RTVSPost2010Prop40
 90
        0
102
RTVSPost2010PropOp40
 70
     1
102
RTVSPost2010Prop41ColorIndex
 90
       18
102
RTVSPost2010Prop41ColorRGB
 90
        0
102
RTVSPost2010PropOp41
 70
     1
102
RTVSPost2010Prop42
 90
       50
102
RTVSPost2010PropOp42
 70
     1
102
RTVSPost2010Prop43
 90
        3
102
RTVSPost2010PropOp43
 70
     1
102
RTVSPost2010Prop44ColorIndex
 90
        5
102
RTVSPost2010Prop44ColorRGB
 90
      255
102
RTVSPost2010PropOp44
 70
     1
102
RTVSPost2010Prop45
280
     0
102
RTVSPost2010PropOp45
 70
     1
102
RTVSPost2010Prop46
 90
       50
102
RTVSPost2010PropOp46
 70
     1
102
RTVSPost2010Prop47
 90
       50
102
RTVSPost2010PropOp47
 70
     1
102
RTVSPost2010Prop48
 90
       50
102
RTVSPost2010PropOp48
 70
     1
102
RTVSPost2010Prop49
280
     0
102
RTVSPost2010PropOp49
 70
     1
102
RTVSPost2010Prop50
 90
       50
102
RTVSPost2010PropOp50
 70
     1
102
RTVSPost2010Prop51ColorIndex
 90
      256
102
RTVSPost2010Prop51ColorRGB
 90
-16777216
102
RTVSPost2010PropOp51
 70
     0
102
RTVSPost2010Prop52
140
1.0
102
RTVSPost2010PropOp52
 70
     0
102
RTVSPost2010Prop53
 90
        2
102
RTVSPost2010PropOp53
 70
     1
102
RTVSPost2010Prop54
  1
strokes_ogs.tif
102
RTVSPost2010PropOp54
 70
     1
102
RTVSPost2010Prop55
280
     0
102
RTVSPost2010PropOp55
 70
     1
102
RTVSPost2010Prop56
140
1.0
102
RTVSPost2010PropOp56
 70
     1
102
RTVSPost2010Prop57
140
1.0
102
RTVSPost2010PropOp57
 70
     1
102
RTVSPropertyOp0
 70
     1
102
RTVSPropertyOp1
 70
     1
102
RTVSPropertyOp2
 70
     1
102
RTVSPropertyOp3
 70
     1
102
RTVSPropertyOp4
 70
     1
102
RTVSPropertyOp5
 70
     1
102
RTVSPropertyOp6
 70
     1
102
RTVSPropertyOp7
 70
     1
102
RTVSPropertyOp8
 70
     1
102
RTVSPropertyOp9
 70
     1
102
RTVSPropertyOp10
 70
     1
102
RTVSPropertyOp11
 70
     1
102
RTVSPropertyOp12
 70
     1
102
RTVSPropertyOp13
 70
     1
102
RTVSPropertyOp14
 70
     1
102
RTVSPropertyOp15
 70
     1
102
RTVSPropertyOp16
 70
     1
102
RTVSPropertyOp17
 70
     1
102
RTVSPropertyOp18
 70
     1
102
RTVSPropertyOp19
 70
     1
102
RTVSPropertyOp20
 70
     1
102
RTVSPropertyOp21
 70
     1
102
RTVSPropertyOp22
 70
     1
102
RTVSPropertyOp23
 70
     1
102
RTVSPropertyOp24
 70
     1
102
RTVSPropertyOp25
 70
     1
102
RTVSPropertyOp26
 70
     1
102
RTVSPropertyOp27
 70
     1
102
RTVSPropertyOp28
 70
     1
102
RTVSPropertyOp29
 70
     1
102
RTVSPropertyOp30
 70
     1
102
RTVSPropertyOp31
 70
     1
102
RTVSPropertyOp32
 70
     1
102
RTVSPropertyOp33
 70
     1
102
RTVSPropertyOp34
 70
     1
102
RTVSPropertyOp35
 70
     1
102
RTVSPropertyOp36
 70
     1
102
RTVSPropertyOp37
 70
     1
102
RTVSPropertyOp38
 70
     1
102
RTVSPropertyOp39
 70
     1
102
RTVSPropertyOp40
 70
     1
102
RTVSPropertyOp41
 70
     1
102
RTVSPropertyOp42
 70
     1
102
RTVSPropertyOp43
 70
     1
102
RTVSPropertyOp44
 70
     1
102
RTVSPropertyOp45
 70
     1
102
RTVSPropertyOp46
 70
     1
102
RTVSPropertyOp47
 70
     1
102
RTVSPropertyOp48
 70
     1
102
RTVSPropertyOp49
 70
     1
102
RTVSPropertyOp50
 70
     1
102
RTVSPropertyOp51
 70
     0
102
RTVSPropertyOp52
 70
     0
102
RTVSPropertyOp53
 70
     1
102
RTVSPropertyOp54
 70
     1
102
RTVSPropertyOp55
 70
     1
102
RTVSPropertyOp56
 70
     1
102
RTVSPropertyOp57
 70
     1
102
RTVSPropertyOp58
 70
     1
102
RTVSPropertyOp59
 70
     1
102
RTVSPropertyOp60
 70
     1
102
RTVSPropertyOp61
 70
     1
102
RTVSPropertyOp62
 70
     1
  0
XRECORD
  5
CE11
102
{ACAD_REACTORS
330
CE10
102
}
330
CE10
100
AcDbXrecord
280
     1
102
RTVSPost2010Prop28
280
     0
102
RTVSPost2010PropOp28
 70
     1
102
RTVSPost2010Prop29
280
     1
102
RTVSPost2010PropOp29
 70
     1
102
RTVSPost2010Prop30
280
     1
102
RTVSPost2010PropOp30
 70
     1
102
RTVSPost2010Prop31
280
     0
102
RTVSPost2010PropOp31
 70
     1
102
RTVSPost2010Prop32
280
     0
102
RTVSPost2010PropOp32
 70
     1
102
RTVSPost2010Prop33
280
     0
102
RTVSPost2010PropOp33
 70
     1
102
RTVSPost2010Prop34
280
     0
102
RTVSPost2010PropOp34
 70
     1
102
RTVSPost2010Prop35
280
     0
102
RTVSPost2010PropOp35
 70
     1
102
RTVSPost2010Prop36
280
     0
102
RTVSPost2010PropOp36
 70
     1
102
RTVSPost2010Prop37
 90
       50
102
RTVSPost2010PropOp37
 70
     1
102
RTVSPost2010Prop38
140
0.0
102
RTVSPost2010PropOp38
 70
     1
102
RTVSPost2010Prop39
140
1.0
102
RTVSPost2010PropOp39
 70
     1
102
RTVSPost2010Prop40
 90
        0
102
RTVSPost2010PropOp40
 70
     1
102
RTVSPost2010Prop41ColorIndex
 90
       18
102
RTVSPost2010Prop41ColorRGB
 90
        0
102
RTVSPost2010PropOp41
 70
     1
102
RTVSPost2010Prop42
 90
       50
102
RTVSPost2010PropOp42
 70
     1
102
RTVSPost2010Prop43
 90
        3
102
RTVSPost2010PropOp43
 70
     1
102
RTVSPost2010Prop44ColorIndex
 90
        5
102
RTVSPost2010Prop44ColorRGB
 90
      255
102
RTVSPost2010PropOp44
 70
     1
102
RTVSPost2010Prop45
280
     0
102
RTVSPost2010PropOp45
 70
     1
102
RTVSPost2010Prop46
 90
       50
102
RTVSPost2010PropOp46
 70
     1
102
RTVSPost2010Prop47
 90
       50
102
RTVSPost2010PropOp47
 70
     1
102
RTVSPost2010Prop48
 90
       50
102
RTVSPost2010PropOp48
 70
     1
102
RTVSPost2010Prop49
280
     0
102
RTVSPost2010PropOp49
 70
     1
102
RTVSPost2010Prop50
 90
       50
102
RTVSPost2010PropOp50
 70
     1
102
RTVSPost2010Prop51ColorIndex
 90
      256
102
RTVSPost2010Prop51ColorRGB
 90
-16777216
102
RTVSPost2010PropOp51
 70
     0
102
RTVSPost2010Prop52
140
1.0
102
RTVSPost2010PropOp52
 70
     0
102
RTVSPost2010Prop53
 90
        2
102
RTVSPost2010PropOp53
 70
     1
102
RTVSPost2010Prop54
  1
strokes_ogs.tif
102
RTVSPost2010PropOp54
 70
     1
102
RTVSPost2010Prop55
280
     0
102
RTVSPost2010PropOp55
 70
     1
102
RTVSPost2010Prop56
140
1.0
102
RTVSPost2010PropOp56
 70
     1
102
RTVSPost2010Prop57
140
1.0
102
RTVSPost2010PropOp57
 70
     1
102
RTVSPropertyOp0
 70
     1
102
RTVSPropertyOp1
 70
     1
102
RTVSPropertyOp2
 70
     1
102
RTVSPropertyOp3
 70
     1
102
RTVSPropertyOp4
 70
     1
102
RTVSPropertyOp5
 70
     1
102
RTVSPropertyOp6
 70
     1
102
RTVSPropertyOp7
 70
     1
102
RTVSPropertyOp8
 70
     1
102
RTVSPropertyOp9
 70
     1
102
RTVSPropertyOp10
 70
     1
102
RTVSPropertyOp11
 70
     1
102
RTVSPropertyOp12
 70
     1
102
RTVSPropertyOp13
 70
     1
102
RTVSPropertyOp14
 70
     1
102
RTVSPropertyOp15
 70
     1
102
RTVSPropertyOp16
 70
     1
102
RTVSPropertyOp17
 70
     1
102
RTVSPropertyOp18
 70
     1
102
RTVSPropertyOp19
 70
     1
102
RTVSPropertyOp20
 70
     1
102
RTVSPropertyOp21
 70
     1
102
RTVSPropertyOp22
 70
     1
102
RTVSPropertyOp23
 70
     1
102
RTVSPropertyOp24
 70
     1
102
RTVSPropertyOp25
 70
     1
102
RTVSPropertyOp26
 70
     1
102
RTVSPropertyOp27
 70
     1
102
RTVSPropertyOp28
 70
     1
102
RTVSPropertyOp29
 70
     1
102
RTVSPropertyOp30
 70
     1
102
RTVSPropertyOp31
 70
     1
102
RTVSPropertyOp32
 70
     1
102
RTVSPropertyOp33
 70
     1
102
RTVSPropertyOp34
 70
     1
102
RTVSPropertyOp35
 70
     1
102
RTVSPropertyOp36
 70
     1
102
RTVSPropertyOp37
 70
     1
102
RTVSPropertyOp38
 70
     1
102
RTVSPropertyOp39
 70
     1
102
RTVSPropertyOp40
 70
     1
102
RTVSPropertyOp41
 70
     1
102
RTVSPropertyOp42
 70
     1
102
RTVSPropertyOp43
 70
     1
102
RTVSPropertyOp44
 70
     1
102
RTVSPropertyOp45
 70
     1
102
RTVSPropertyOp46
 70
     1
102
RTVSPropertyOp47
 70
     1
102
RTVSPropertyOp48
 70
     1
102
RTVSPropertyOp49
 70
     1
102
RTVSPropertyOp50
 70
     1
102
RTVSPropertyOp51
 70
     0
102
RTVSPropertyOp52
 70
     0
102
RTVSPropertyOp53
 70
     1
102
RTVSPropertyOp54
 70
     1
102
RTVSPropertyOp55
 70
     1
102
RTVSPropertyOp56
 70
     1
102
RTVSPropertyOp57
 70
     1
102
RTVSPropertyOp58
 70
     1
102
RTVSPropertyOp59
 70
     1
102
RTVSPropertyOp60
 70
     1
102
RTVSPropertyOp61
 70
     1
102
RTVSPropertyOp62
 70
     1
  0
XRECORD
  5
CE13
102
{ACAD_REACTORS
330
CE12
102
}
330
CE12
100
AcDbXrecord
280
     1
102
RTVSPost2010Prop28
280
     0
102
RTVSPost2010PropOp28
 70
     1
102
RTVSPost2010Prop29
280
     1
102
RTVSPost2010PropOp29
 70
     1
102
RTVSPost2010Prop30
280
     1
102
RTVSPost2010PropOp30
 70
     1
102
RTVSPost2010Prop31
280
     0
102
RTVSPost2010PropOp31
 70
     1
102
RTVSPost2010Prop32
280
     0
102
RTVSPost2010PropOp32
 70
     1
102
RTVSPost2010Prop33
280
     0
102
RTVSPost2010PropOp33
 70
     1
102
RTVSPost2010Prop34
280
     0
102
RTVSPost2010PropOp34
 70
     1
102
RTVSPost2010Prop35
280
     0
102
RTVSPost2010PropOp35
 70
     1
102
RTVSPost2010Prop36
280
     0
102
RTVSPost2010PropOp36
 70
     1
102
RTVSPost2010Prop37
 90
       50
102
RTVSPost2010PropOp37
 70
     1
102
RTVSPost2010Prop38
140
0.0
102
RTVSPost2010PropOp38
 70
     1
102
RTVSPost2010Prop39
140
1.0
102
RTVSPost2010PropOp39
 70
     1
102
RTVSPost2010Prop40
 90
        0
102
RTVSPost2010PropOp40
 70
     1
102
RTVSPost2010Prop41ColorIndex
 90
       18
102
RTVSPost2010Prop41ColorRGB
 90
        0
102
RTVSPost2010PropOp41
 70
     1
102
RTVSPost2010Prop42
 90
       50
102
RTVSPost2010PropOp42
 70
     1
102
RTVSPost2010Prop43
 90
        3
102
RTVSPost2010PropOp43
 70
     1
102
RTVSPost2010Prop44ColorIndex
 90
        5
102
RTVSPost2010Prop44ColorRGB
 90
      255
102
RTVSPost2010PropOp44
 70
     1
102
RTVSPost2010Prop45
280
     0
102
RTVSPost2010PropOp45
 70
     1
102
RTVSPost2010Prop46
 90
       50
102
RTVSPost2010PropOp46
 70
     1
102
RTVSPost2010Prop47
 90
       50
102
RTVSPost2010PropOp47
 70
     1
102
RTVSPost2010Prop48
 90
       50
102
RTVSPost2010PropOp48
 70
     1
102
RTVSPost2010Prop49
280
     0
102
RTVSPost2010PropOp49
 70
     1
102
RTVSPost2010Prop50
 90
       50
102
RTVSPost2010PropOp50
 70
     1
102
RTVSPost2010Prop51ColorIndex
 90
      256
102
RTVSPost2010Prop51ColorRGB
 90
-16777216
102
RTVSPost2010PropOp51
 70
     0
102
RTVSPost2010Prop52
140
1.0
102
RTVSPost2010PropOp52
 70
     0
102
RTVSPost2010Prop53
 90
        2
102
RTVSPost2010PropOp53
 70
     1
102
RTVSPost2010Prop54
  1
strokes_ogs.tif
102
RTVSPost2010PropOp54
 70
     1
102
RTVSPost2010Prop55
280
     0
102
RTVSPost2010PropOp55
 70
     1
102
RTVSPost2010Prop56
140
1.0
102
RTVSPost2010PropOp56
 70
     1
102
RTVSPost2010Prop57
140
1.0
102
RTVSPost2010PropOp57
 70
     1
102
RTVSPropertyOp0
 70
     1
102
RTVSPropertyOp1
 70
     1
102
RTVSPropertyOp2
 70
     1
102
RTVSPropertyOp3
 70
     1
102
RTVSPropertyOp4
 70
     1
102
RTVSPropertyOp5
 70
     1
102
RTVSPropertyOp6
 70
     1
102
RTVSPropertyOp7
 70
     1
102
RTVSPropertyOp8
 70
     1
102
RTVSPropertyOp9
 70
     1
102
RTVSPropertyOp10
 70
     1
102
RTVSPropertyOp11
 70
     1
102
RTVSPropertyOp12
 70
     1
102
RTVSPropertyOp13
 70
     1
102
RTVSPropertyOp14
 70
     1
102
RTVSPropertyOp15
 70
     1
102
RTVSPropertyOp16
 70
     1
102
RTVSPropertyOp17
 70
     1
102
RTVSPropertyOp18
 70
     1
102
RTVSPropertyOp19
 70
     1
102
RTVSPropertyOp20
 70
     1
102
RTVSPropertyOp21
 70
     1
102
RTVSPropertyOp22
 70
     1
102
RTVSPropertyOp23
 70
     1
102
RTVSPropertyOp24
 70
     1
102
RTVSPropertyOp25
 70
     1
102
RTVSPropertyOp26
 70
     1
102
RTVSPropertyOp27
 70
     1
102
RTVSPropertyOp28
 70
     1
102
RTVSPropertyOp29
 70
     1
102
RTVSPropertyOp30
 70
     1
102
RTVSPropertyOp31
 70
     1
102
RTVSPropertyOp32
 70
     1
102
RTVSPropertyOp33
 70
     1
102
RTVSPropertyOp34
 70
     1
102
RTVSPropertyOp35
 70
     1
102
RTVSPropertyOp36
 70
     1
102
RTVSPropertyOp37
 70
     1
102
RTVSPropertyOp38
 70
     1
102
RTVSPropertyOp39
 70
     1
102
RTVSPropertyOp40
 70
     1
102
RTVSPropertyOp41
 70
     1
102
RTVSPropertyOp42
 70
     1
102
RTVSPropertyOp43
 70
     1
102
RTVSPropertyOp44
 70
     1
102
RTVSPropertyOp45
 70
     1
102
RTVSPropertyOp46
 70
     1
102
RTVSPropertyOp47
 70
     1
102
RTVSPropertyOp48
 70
     1
102
RTVSPropertyOp49
 70
     1
102
RTVSPropertyOp50
 70
     1
102
RTVSPropertyOp51
 70
     0
102
RTVSPropertyOp52
 70
     0
102
RTVSPropertyOp53
 70
     1
102
RTVSPropertyOp54
 70
     1
102
RTVSPropertyOp55
 70
     1
102
RTVSPropertyOp56
 70
     1
102
RTVSPropertyOp57
 70
     1
102
RTVSPropertyOp58
 70
     1
102
RTVSPropertyOp59
 70
     1
102
RTVSPropertyOp60
 70
     1
102
RTVSPropertyOp61
 70
     1
102
RTVSPropertyOp62
 70
     1
  0
XRECORD
  5
CE15
102
{ACAD_REACTORS
330
CE14
102
}
330
CE14
100
AcDbXrecord
280
     1
102
RTVSPost2010Prop28
280
     0
102
RTVSPost2010PropOp28
 70
     1
102
RTVSPost2010Prop29
280
     1
102
RTVSPost2010PropOp29
 70
     1
102
RTVSPost2010Prop30
280
     1
102
RTVSPost2010PropOp30
 70
     1
102
RTVSPost2010Prop31
280
     0
102
RTVSPost2010PropOp31
 70
     1
102
RTVSPost2010Prop32
280
     0
102
RTVSPost2010PropOp32
 70
     1
102
RTVSPost2010Prop33
280
     0
102
RTVSPost2010PropOp33
 70
     1
102
RTVSPost2010Prop34
280
     0
102
RTVSPost2010PropOp34
 70
     1
102
RTVSPost2010Prop35
280
     0
102
RTVSPost2010PropOp35
 70
     1
102
RTVSPost2010Prop36
280
     0
102
RTVSPost2010PropOp36
 70
     1
102
RTVSPost2010Prop37
 90
       50
102
RTVSPost2010PropOp37
 70
     1
102
RTVSPost2010Prop38
140
0.0
102
RTVSPost2010PropOp38
 70
     1
102
RTVSPost2010Prop39
140
1.0
102
RTVSPost2010PropOp39
 70
     1
102
RTVSPost2010Prop40
 90
        0
102
RTVSPost2010PropOp40
 70
     1
102
RTVSPost2010Prop41ColorIndex
 90
       18
102
RTVSPost2010Prop41ColorRGB
 90
        0
102
RTVSPost2010PropOp41
 70
     1
102
RTVSPost2010Prop42
 90
       50
102
RTVSPost2010PropOp42
 70
     1
102
RTVSPost2010Prop43
 90
        3
102
RTVSPost2010PropOp43
 70
     1
102
RTVSPost2010Prop44ColorIndex
 90
        5
102
RTVSPost2010Prop44ColorRGB
 90
      255
102
RTVSPost2010PropOp44
 70
     1
102
RTVSPost2010Prop45
280
     0
102
RTVSPost2010PropOp45
 70
     1
102
RTVSPost2010Prop46
 90
       50
102
RTVSPost2010PropOp46
 70
     1
102
RTVSPost2010Prop47
 90
       50
102
RTVSPost2010PropOp47
 70
     1
102
RTVSPost2010Prop48
 90
       50
102
RTVSPost2010PropOp48
 70
     1
102
RTVSPost2010Prop49
280
     0
102
RTVSPost2010PropOp49
 70
     1
102
RTVSPost2010Prop50
 90
       50
102
RTVSPost2010PropOp50
 70
     1
102
RTVSPost2010Prop51ColorIndex
 90
      256
102
RTVSPost2010Prop51ColorRGB
 90
-16777216
102
RTVSPost2010PropOp51
 70
     0
102
RTVSPost2010Prop52
140
1.0
102
RTVSPost2010PropOp52
 70
     0
102
RTVSPost2010Prop53
 90
        2
102
RTVSPost2010PropOp53
 70
     1
102
RTVSPost2010Prop54
  1
strokes_ogs.tif
102
RTVSPost2010PropOp54
 70
     1
102
RTVSPost2010Prop55
280
     0
102
RTVSPost2010PropOp55
 70
     1
102
RTVSPost2010Prop56
140
1.0
102
RTVSPost2010PropOp56
 70
     1
102
RTVSPost2010Prop57
140
1.0
102
RTVSPost2010PropOp57
 70
     1
102
RTVSPropertyOp0
 70
     1
102
RTVSPropertyOp1
 70
     1
102
RTVSPropertyOp2
 70
     1
102
RTVSPropertyOp3
 70
     1
102
RTVSPropertyOp4
 70
     1
102
RTVSPropertyOp5
 70
     1
102
RTVSPropertyOp6
 70
     1
102
RTVSPropertyOp7
 70
     1
102
RTVSPropertyOp8
 70
     1
102
RTVSPropertyOp9
 70
     1
102
RTVSPropertyOp10
 70
     1
102
RTVSPropertyOp11
 70
     1
102
RTVSPropertyOp12
 70
     1
102
RTVSPropertyOp13
 70
     1
102
RTVSPropertyOp14
 70
     1
102
RTVSPropertyOp15
 70
     1
102
RTVSPropertyOp16
 70
     1
102
RTVSPropertyOp17
 70
     1
102
RTVSPropertyOp18
 70
     1
102
RTVSPropertyOp19
 70
     1
102
RTVSPropertyOp20
 70
     1
102
RTVSPropertyOp21
 70
     1
102
RTVSPropertyOp22
 70
     1
102
RTVSPropertyOp23
 70
     1
102
RTVSPropertyOp24
 70
     1
102
RTVSPropertyOp25
 70
     1
102
RTVSPropertyOp26
 70
     1
102
RTVSPropertyOp27
 70
     1
102
RTVSPropertyOp28
 70
     1
102
RTVSPropertyOp29
 70
     1
102
RTVSPropertyOp30
 70
     1
102
RTVSPropertyOp31
 70
     1
102
RTVSPropertyOp32
 70
     1
102
RTVSPropertyOp33
 70
     1
102
RTVSPropertyOp34
 70
     1
102
RTVSPropertyOp35
 70
     1
102
RTVSPropertyOp36
 70
     1
102
RTVSPropertyOp37
 70
     1
102
RTVSPropertyOp38
 70
     1
102
RTVSPropertyOp39
 70
     1
102
RTVSPropertyOp40
 70
     1
102
RTVSPropertyOp41
 70
     1
102
RTVSPropertyOp42
 70
     1
102
RTVSPropertyOp43
 70
     1
102
RTVSPropertyOp44
 70
     1
102
RTVSPropertyOp45
 70
     1
102
RTVSPropertyOp46
 70
     1
102
RTVSPropertyOp47
 70
     1
102
RTVSPropertyOp48
 70
     1
102
RTVSPropertyOp49
 70
     1
102
RTVSPropertyOp50
 70
     1
102
RTVSPropertyOp51
 70
     0
102
RTVSPropertyOp52
 70
     0
102
RTVSPropertyOp53
 70
     1
102
RTVSPropertyOp54
 70
     1
102
RTVSPropertyOp55
 70
     1
102
RTVSPropertyOp56
 70
     1
102
RTVSPropertyOp57
 70
     1
102
RTVSPropertyOp58
 70
     1
102
RTVSPropertyOp59
 70
     1
102
RTVSPropertyOp60
 70
     1
102
RTVSPropertyOp61
 70
     1
102
RTVSPropertyOp62
 70
     1
  0
XRECORD
  5
CE17
102
{ACAD_REACTORS
330
CE16
102
}
330
CE16
100
AcDbXrecord
280
     1
102
RTVSPost2010Prop28
280
     0
102
RTVSPost2010PropOp28
 70
     1
102
RTVSPost2010Prop29
280
     1
102
RTVSPost2010PropOp29
 70
     1
102
RTVSPost2010Prop30
280
     1
102
RTVSPost2010PropOp30
 70
     1
102
RTVSPost2010Prop31
280
     0
102
RTVSPost2010PropOp31
 70
     1
102
RTVSPost2010Prop32
280
     0
102
RTVSPost2010PropOp32
 70
     1
102
RTVSPost2010Prop33
280
     0
102
RTVSPost2010PropOp33
 70
     1
102
RTVSPost2010Prop34
280
     0
102
RTVSPost2010PropOp34
 70
     1
102
RTVSPost2010Prop35
280
     0
102
RTVSPost2010PropOp35
 70
     1
102
RTVSPost2010Prop36
280
     0
102
RTVSPost2010PropOp36
 70
     1
102
RTVSPost2010Prop37
 90
       50
102
RTVSPost2010PropOp37
 70
     1
102
RTVSPost2010Prop38
140
0.0
102
RTVSPost2010PropOp38
 70
     1
102
RTVSPost2010Prop39
140
1.0
102
RTVSPost2010PropOp39
 70
     1
102
RTVSPost2010Prop40
 90
        0
102
RTVSPost2010PropOp40
 70
     1
102
RTVSPost2010Prop41ColorIndex
 90
       18
102
RTVSPost2010Prop41ColorRGB
 90
        0
102
RTVSPost2010PropOp41
 70
     1
102
RTVSPost2010Prop42
 90
       50
102
RTVSPost2010PropOp42
 70
     1
102
RTVSPost2010Prop43
 90
        3
102
RTVSPost2010PropOp43
 70
     1
102
RTVSPost2010Prop44ColorIndex
 90
        5
102
RTVSPost2010Prop44ColorRGB
 90
      255
102
RTVSPost2010PropOp44
 70
     1
102
RTVSPost2010Prop45
280
     0
102
RTVSPost2010PropOp45
 70
     1
102
RTVSPost2010Prop46
 90
       50
102
RTVSPost2010PropOp46
 70
     1
102
RTVSPost2010Prop47
 90
       50
102
RTVSPost2010PropOp47
 70
     1
102
RTVSPost2010Prop48
 90
       50
102
RTVSPost2010PropOp48
 70
     1
102
RTVSPost2010Prop49
280
     0
102
RTVSPost2010PropOp49
 70
     1
102
RTVSPost2010Prop50
 90
       50
102
RTVSPost2010PropOp50
 70
     1
102
RTVSPost2010Prop51ColorIndex
 90
      256
102
RTVSPost2010Prop51ColorRGB
 90
-16777216
102
RTVSPost2010PropOp51
 70
     0
102
RTVSPost2010Prop52
140
1.0
102
RTVSPost2010PropOp52
 70
     0
102
RTVSPost2010Prop53
 90
        2
102
RTVSPost2010PropOp53
 70
     1
102
RTVSPost2010Prop54
  1
strokes_ogs.tif
102
RTVSPost2010PropOp54
 70
     1
102
RTVSPost2010Prop55
280
     0
102
RTVSPost2010PropOp55
 70
     1
102
RTVSPost2010Prop56
140
1.0
102
RTVSPost2010PropOp56
 70
     1
102
RTVSPost2010Prop57
140
1.0
102
RTVSPost2010PropOp57
 70
     1
102
RTVSPropertyOp0
 70
     1
102
RTVSPropertyOp1
 70
     1
102
RTVSPropertyOp2
 70
     1
102
RTVSPropertyOp3
 70
     1
102
RTVSPropertyOp4
 70
     1
102
RTVSPropertyOp5
 70
     1
102
RTVSPropertyOp6
 70
     1
102
RTVSPropertyOp7
 70
     1
102
RTVSPropertyOp8
 70
     1
102
RTVSPropertyOp9
 70
     1
102
RTVSPropertyOp10
 70
     1
102
RTVSPropertyOp11
 70
     1
102
RTVSPropertyOp12
 70
     1
102
RTVSPropertyOp13
 70
     1
102
RTVSPropertyOp14
 70
     1
102
RTVSPropertyOp15
 70
     1
102
RTVSPropertyOp16
 70
     1
102
RTVSPropertyOp17
 70
     1
102
RTVSPropertyOp18
 70
     1
102
RTVSPropertyOp19
 70
     1
102
RTVSPropertyOp20
 70
     1
102
RTVSPropertyOp21
 70
     1
102
RTVSPropertyOp22
 70
     1
102
RTVSPropertyOp23
 70
     1
102
RTVSPropertyOp24
 70
     1
102
RTVSPropertyOp25
 70
     1
102
RTVSPropertyOp26
 70
     1
102
RTVSPropertyOp27
 70
     1
102
RTVSPropertyOp28
 70
     1
102
RTVSPropertyOp29
 70
     1
102
RTVSPropertyOp30
 70
     1
102
RTVSPropertyOp31
 70
     1
102
RTVSPropertyOp32
 70
     1
102
RTVSPropertyOp33
 70
     1
102
RTVSPropertyOp34
 70
     1
102
RTVSPropertyOp35
 70
     1
102
RTVSPropertyOp36
 70
     1
102
RTVSPropertyOp37
 70
     1
102
RTVSPropertyOp38
 70
     1
102
RTVSPropertyOp39
 70
     1
102
RTVSPropertyOp40
 70
     1
102
RTVSPropertyOp41
 70
     1
102
RTVSPropertyOp42
 70
     1
102
RTVSPropertyOp43
 70
     1
102
RTVSPropertyOp44
 70
     1
102
RTVSPropertyOp45
 70
     1
102
RTVSPropertyOp46
 70
     1
102
RTVSPropertyOp47
 70
     1
102
RTVSPropertyOp48
 70
     1
102
RTVSPropertyOp49
 70
     1
102
RTVSPropertyOp50
 70
     1
102
RTVSPropertyOp51
 70
     0
102
RTVSPropertyOp52
 70
     0
102
RTVSPropertyOp53
 70
     1
102
RTVSPropertyOp54
 70
     1
102
RTVSPropertyOp55
 70
     1
102
RTVSPropertyOp56
 70
     1
102
RTVSPropertyOp57
 70
     1
102
RTVSPropertyOp58
 70
     1
102
RTVSPropertyOp59
 70
     1
102
RTVSPropertyOp60
 70
     1
102
RTVSPropertyOp61
 70
     1
102
RTVSPropertyOp62
 70
     1
  0
XRECORD
  5
CE1F
102
{ACAD_REACTORS
330
CE1E
102
}
330
CE1E
100
AcDbXrecord
280
     1
102
RTVSPost2010Prop28
280
     0
102
RTVSPost2010PropOp28
 70
     1
102
RTVSPost2010Prop29
280
     1
102
RTVSPost2010PropOp29
 70
     1
102
RTVSPost2010Prop30
280
     1
102
RTVSPost2010PropOp30
 70
     1
102
RTVSPost2010Prop31
280
     0
102
RTVSPost2010PropOp31
 70
     1
102
RTVSPost2010Prop32
280
     0
102
RTVSPost2010PropOp32
 70
     1
102
RTVSPost2010Prop33
280
     0
102
RTVSPost2010PropOp33
 70
     1
102
RTVSPost2010Prop34
280
     0
102
RTVSPost2010PropOp34
 70
     1
102
RTVSPost2010Prop35
280
     0
102
RTVSPost2010PropOp35
 70
     1
102
RTVSPost2010Prop36
280
     0
102
RTVSPost2010PropOp36
 70
     1
102
RTVSPost2010Prop37
 90
       50
102
RTVSPost2010PropOp37
 70
     1
102
RTVSPost2010Prop38
140
0.0
102
RTVSPost2010PropOp38
 70
     1
102
RTVSPost2010Prop39
140
1.0
102
RTVSPost2010PropOp39
 70
     1
102
RTVSPost2010Prop40
 90
        0
102
RTVSPost2010PropOp40
 70
     1
102
RTVSPost2010Prop41ColorIndex
 90
       18
102
RTVSPost2010Prop41ColorRGB
 90
        0
102
RTVSPost2010PropOp41
 70
     1
102
RTVSPost2010Prop42
 90
       50
102
RTVSPost2010PropOp42
 70
     1
102
RTVSPost2010Prop43
 90
        3
102
RTVSPost2010PropOp43
 70
     1
102
RTVSPost2010Prop44ColorIndex
 90
        5
102
RTVSPost2010Prop44ColorRGB
 90
      255
102
RTVSPost2010PropOp44
 70
     1
102
RTVSPost2010Prop45
280
     0
102
RTVSPost2010PropOp45
 70
     1
102
RTVSPost2010Prop46
 90
       50
102
RTVSPost2010PropOp46
 70
     1
102
RTVSPost2010Prop47
 90
       50
102
RTVSPost2010PropOp47
 70
     1
102
RTVSPost2010Prop48
 90
       50
102
RTVSPost2010PropOp48
 70
     1
102
RTVSPost2010Prop49
280
     0
102
RTVSPost2010PropOp49
 70
     1
102
RTVSPost2010Prop50
 90
       50
102
RTVSPost2010PropOp50
 70
     1
102
RTVSPost2010Prop51ColorIndex
 90
      256
102
RTVSPost2010Prop51ColorRGB
 90
-16777216
102
RTVSPost2010PropOp51
 70
     0
102
RTVSPost2010Prop52
140
1.0
102
RTVSPost2010PropOp52
 70
     0
102
RTVSPost2010Prop53
 90
        2
102
RTVSPost2010PropOp53
 70
     1
102
RTVSPost2010Prop54
  1
strokes_ogs.tif
102
RTVSPost2010PropOp54
 70
     1
102
RTVSPost2010Prop55
280
     0
102
RTVSPost2010PropOp55
 70
     1
102
RTVSPost2010Prop56
140
1.0
102
RTVSPost2010PropOp56
 70
     1
102
RTVSPost2010Prop57
140
1.0
102
RTVSPost2010PropOp57
 70
     1
102
RTVSPropertyOp0
 70
     1
102
RTVSPropertyOp1
 70
     1
102
RTVSPropertyOp2
 70
     1
102
RTVSPropertyOp3
 70
     1
102
RTVSPropertyOp4
 70
     1
102
RTVSPropertyOp5
 70
     1
102
RTVSPropertyOp6
 70
     1
102
RTVSPropertyOp7
 70
     1
102
RTVSPropertyOp8
 70
     1
102
RTVSPropertyOp9
 70
     1
102
RTVSPropertyOp10
 70
     1
102
RTVSPropertyOp11
 70
     1
102
RTVSPropertyOp12
 70
     1
102
RTVSPropertyOp13
 70
     1
102
RTVSPropertyOp14
 70
     1
102
RTVSPropertyOp15
 70
     1
102
RTVSPropertyOp16
 70
     1
102
RTVSPropertyOp17
 70
     1
102
RTVSPropertyOp18
 70
     1
102
RTVSPropertyOp19
 70
     1
102
RTVSPropertyOp20
 70
     1
102
RTVSPropertyOp21
 70
     1
102
RTVSPropertyOp22
 70
     1
102
RTVSPropertyOp23
 70
     1
102
RTVSPropertyOp24
 70
     1
102
RTVSPropertyOp25
 70
     1
102
RTVSPropertyOp26
 70
     1
102
RTVSPropertyOp27
 70
     1
102
RTVSPropertyOp28
 70
     1
102
RTVSPropertyOp29
 70
     1
102
RTVSPropertyOp30
 70
     1
102
RTVSPropertyOp31
 70
     1
102
RTVSPropertyOp32
 70
     1
102
RTVSPropertyOp33
 70
     1
102
RTVSPropertyOp34
 70
     1
102
RTVSPropertyOp35
 70
     1
102
RTVSPropertyOp36
 70
     1
102
RTVSPropertyOp37
 70
     1
102
RTVSPropertyOp38
 70
     1
102
RTVSPropertyOp39
 70
     1
102
RTVSPropertyOp40
 70
     1
102
RTVSPropertyOp41
 70
     1
102
RTVSPropertyOp42
 70
     1
102
RTVSPropertyOp43
 70
     1
102
RTVSPropertyOp44
 70
     1
102
RTVSPropertyOp45
 70
     1
102
RTVSPropertyOp46
 70
     1
102
RTVSPropertyOp47
 70
     1
102
RTVSPropertyOp48
 70
     1
102
RTVSPropertyOp49
 70
     1
102
RTVSPropertyOp50
 70
     1
102
RTVSPropertyOp51
 70
     0
102
RTVSPropertyOp52
 70
     0
102
RTVSPropertyOp53
 70
     1
102
RTVSPropertyOp54
 70
     1
102
RTVSPropertyOp55
 70
     1
102
RTVSPropertyOp56
 70
     1
102
RTVSPropertyOp57
 70
     1
102
RTVSPropertyOp58
 70
     1
102
RTVSPropertyOp59
 70
     1
102
RTVSPropertyOp60
 70
     1
102
RTVSPropertyOp61
 70
     1
102
RTVSPropertyOp62
 70
     1
  0
XRECORD
  5
CE33
102
{ACAD_REACTORS
330
CE32
102
}
330
CE32
100
AcDbXrecord
280
     1
102
RTVSPost2010Prop28
280
     0
102
RTVSPost2010PropOp28
 70
     1
102
RTVSPost2010Prop29
280
     1
102
RTVSPost2010PropOp29
 70
     1
102
RTVSPost2010Prop30
280
     1
102
RTVSPost2010PropOp30
 70
     1
102
RTVSPost2010Prop31
280
     0
102
RTVSPost2010PropOp31
 70
     1
102
RTVSPost2010Prop32
280
     0
102
RTVSPost2010PropOp32
 70
     1
102
RTVSPost2010Prop33
280
     0
102
RTVSPost2010PropOp33
 70
     1
102
RTVSPost2010Prop34
280
     0
102
RTVSPost2010PropOp34
 70
     1
102
RTVSPost2010Prop35
280
     0
102
RTVSPost2010PropOp35
 70
     1
102
RTVSPost2010Prop36
280
     0
102
RTVSPost2010PropOp36
 70
     1
102
RTVSPost2010Prop37
 90
       50
102
RTVSPost2010PropOp37
 70
     1
102
RTVSPost2010Prop38
140
0.0
102
RTVSPost2010PropOp38
 70
     1
102
RTVSPost2010Prop39
140
1.0
102
RTVSPost2010PropOp39
 70
     1
102
RTVSPost2010Prop40
 90
        0
102
RTVSPost2010PropOp40
 70
     1
102
RTVSPost2010Prop41ColorIndex
 90
       18
102
RTVSPost2010Prop41ColorRGB
 90
        0
102
RTVSPost2010PropOp41
 70
     1
102
RTVSPost2010Prop42
 90
       50
102
RTVSPost2010PropOp42
 70
     1
102
RTVSPost2010Prop43
 90
        3
102
RTVSPost2010PropOp43
 70
     1
102
RTVSPost2010Prop44ColorIndex
 90
        5
102
RTVSPost2010Prop44ColorRGB
 90
      255
102
RTVSPost2010PropOp44
 70
     1
102
RTVSPost2010Prop45
280
     0
102
RTVSPost2010PropOp45
 70
     1
102
RTVSPost2010Prop46
 90
       50
102
RTVSPost2010PropOp46
 70
     1
102
RTVSPost2010Prop47
 90
       50
102
RTVSPost2010PropOp47
 70
     1
102
RTVSPost2010Prop48
 90
       50
102
RTVSPost2010PropOp48
 70
     1
102
RTVSPost2010Prop49
280
     0
102
RTVSPost2010PropOp49
 70
     1
102
RTVSPost2010Prop50
 90
       50
102
RTVSPost2010PropOp50
 70
     1
102
RTVSPost2010Prop51ColorIndex
 90
      256
102
RTVSPost2010Prop51ColorRGB
 90
-16777216
102
RTVSPost2010PropOp51
 70
     0
102
RTVSPost2010Prop52
140
1.0
102
RTVSPost2010PropOp52
 70
     0
102
RTVSPost2010Prop53
 90
        2
102
RTVSPost2010PropOp53
 70
     1
102
RTVSPost2010Prop54
  1
strokes_ogs.tif
102
RTVSPost2010PropOp54
 70
     1
102
RTVSPost2010Prop55
280
     0
102
RTVSPost2010PropOp55
 70
     1
102
RTVSPost2010Prop56
140
1.0
102
RTVSPost2010PropOp56
 70
     1
102
RTVSPost2010Prop57
140
1.0
102
RTVSPost2010PropOp57
 70
     1
102
RTVSPropertyOp0
 70
     0
102
RTVSPropertyOp1
 70
     0
102
RTVSPropertyOp2
 70
     0
102
RTVSPropertyOp3
 70
     0
102
RTVSPropertyOp4
 70
     0
102
RTVSPropertyOp5
 70
     0
102
RTVSPropertyOp6
 70
     0
102
RTVSPropertyOp7
 70
     0
102
RTVSPropertyOp8
 70
     0
102
RTVSPropertyOp9
 70
     0
102
RTVSPropertyOp10
 70
     0
102
RTVSPropertyOp11
 70
     0
102
RTVSPropertyOp12
 70
     0
102
RTVSPropertyOp13
 70
     0
102
RTVSPropertyOp14
 70
     2
102
RTVSPropertyOp15
 70
     0
102
RTVSPropertyOp16
 70
     0
102
RTVSPropertyOp17
 70
     0
102
RTVSPropertyOp18
 70
     0
102
RTVSPropertyOp19
 70
     0
102
RTVSPropertyOp20
 70
     0
102
RTVSPropertyOp21
 70
     0
102
RTVSPropertyOp22
 70
     0
102
RTVSPropertyOp23
 70
     0
102
RTVSPropertyOp24
 70
     0
102
RTVSPropertyOp25
 70
     0
102
RTVSPropertyOp26
 70
     0
102
RTVSPropertyOp27
 70
     0
102
RTVSPropertyOp28
 70
     1
102
RTVSPropertyOp29
 70
     1
102
RTVSPropertyOp30
 70
     1
102
RTVSPropertyOp31
 70
     1
102
RTVSPropertyOp32
 70
     1
102
RTVSPropertyOp33
 70
     1
102
RTVSPropertyOp34
 70
     1
102
RTVSPropertyOp35
 70
     1
102
RTVSPropertyOp36
 70
     1
102
RTVSPropertyOp37
 70
     1
102
RTVSPropertyOp38
 70
     1
102
RTVSPropertyOp39
 70
     1
102
RTVSPropertyOp40
 70
     1
102
RTVSPropertyOp41
 70
     1
102
RTVSPropertyOp42
 70
     1
102
RTVSPropertyOp43
 70
     1
102
RTVSPropertyOp44
 70
     1
102
RTVSPropertyOp45
 70
     1
102
RTVSPropertyOp46
 70
     1
102
RTVSPropertyOp47
 70
     1
102
RTVSPropertyOp48
 70
     1
102
RTVSPropertyOp49
 70
     1
102
RTVSPropertyOp50
 70
     1
102
RTVSPropertyOp51
 70
     0
102
RTVSPropertyOp52
 70
     0
102
RTVSPropertyOp53
 70
     1
102
RTVSPropertyOp54
 70
     1
102
RTVSPropertyOp55
 70
     1
102
RTVSPropertyOp56
 70
     1
102
RTVSPropertyOp57
 70
     1
102
RTVSPropertyOp58
 70
     1
102
RTVSPropertyOp59
 70
     1
102
RTVSPropertyOp60
 70
     1
102
RTVSPropertyOp61
 70
     1
102
RTVSPropertyOp62
 70
     1
  0
XRECORD
  5
CE2B
102
{ACAD_REACTORS
330
CE2A
102
}
330
CE2A
100
AcDbXrecord
280
     1
102
RTVSPost2010Prop28
280
     0
102
RTVSPost2010PropOp28
 70
     1
102
RTVSPost2010Prop29
280
     1
102
RTVSPost2010PropOp29
 70
     1
102
RTVSPost2010Prop30
280
     1
102
RTVSPost2010PropOp30
 70
     1
102
RTVSPost2010Prop31
280
     0
102
RTVSPost2010PropOp31
 70
     1
102
RTVSPost2010Prop32
280
     0
102
RTVSPost2010PropOp32
 70
     1
102
RTVSPost2010Prop33
280
     0
102
RTVSPost2010PropOp33
 70
     1
102
RTVSPost2010Prop34
280
     0
102
RTVSPost2010PropOp34
 70
     1
102
RTVSPost2010Prop35
280
     0
102
RTVSPost2010PropOp35
 70
     1
102
RTVSPost2010Prop36
280
     0
102
RTVSPost2010PropOp36
 70
     1
102
RTVSPost2010Prop37
 90
       50
102
RTVSPost2010PropOp37
 70
     1
102
RTVSPost2010Prop38
140
0.0
102
RTVSPost2010PropOp38
 70
     1
102
RTVSPost2010Prop39
140
1.0
102
RTVSPost2010PropOp39
 70
     1
102
RTVSPost2010Prop40
 90
        0
102
RTVSPost2010PropOp40
 70
     1
102
RTVSPost2010Prop41ColorIndex
 90
       18
102
RTVSPost2010Prop41ColorRGB
 90
        0
102
RTVSPost2010PropOp41
 70
     1
102
RTVSPost2010Prop42
 90
       50
102
RTVSPost2010PropOp42
 70
     1
102
RTVSPost2010Prop43
 90
        3
102
RTVSPost2010PropOp43
 70
     1
102
RTVSPost2010Prop44ColorIndex
 90
        5
102
RTVSPost2010Prop44ColorRGB
 90
      255
102
RTVSPost2010PropOp44
 70
     1
102
RTVSPost2010Prop45
280
     0
102
RTVSPost2010PropOp45
 70
     1
102
RTVSPost2010Prop46
 90
       50
102
RTVSPost2010PropOp46
 70
     1
102
RTVSPost2010Prop47
 90
       50
102
RTVSPost2010PropOp47
 70
     1
102
RTVSPost2010Prop48
 90
       50
102
RTVSPost2010PropOp48
 70
     1
102
RTVSPost2010Prop49
280
     0
102
RTVSPost2010PropOp49
 70
     1
102
RTVSPost2010Prop50
 90
       50
102
RTVSPost2010PropOp50
 70
     1
102
RTVSPost2010Prop51ColorIndex
 90
      256
102
RTVSPost2010Prop51ColorRGB
 90
-16777216
102
RTVSPost2010PropOp51
 70
     0
102
RTVSPost2010Prop52
140
1.0
102
RTVSPost2010PropOp52
 70
     0
102
RTVSPost2010Prop53
 90
        2
102
RTVSPost2010PropOp53
 70
     1
102
RTVSPost2010Prop54
  1
strokes_ogs.tif
102
RTVSPost2010PropOp54
 70
     1
102
RTVSPost2010Prop55
280
     0
102
RTVSPost2010PropOp55
 70
     1
102
RTVSPost2010Prop56
140
1.0
102
RTVSPost2010PropOp56
 70
     1
102
RTVSPost2010Prop57
140
1.0
102
RTVSPost2010PropOp57
 70
     1
102
RTVSPropertyOp0
 70
     1
102
RTVSPropertyOp1
 70
     1
102
RTVSPropertyOp2
 70
     1
102
RTVSPropertyOp3
 70
     1
102
RTVSPropertyOp4
 70
     1
102
RTVSPropertyOp5
 70
     1
102
RTVSPropertyOp6
 70
     1
102
RTVSPropertyOp7
 70
     1
102
RTVSPropertyOp8
 70
     1
102
RTVSPropertyOp9
 70
     1
102
RTVSPropertyOp10
 70
     1
102
RTVSPropertyOp11
 70
     1
102
RTVSPropertyOp12
 70
     1
102
RTVSPropertyOp13
 70
     1
102
RTVSPropertyOp14
 70
     1
102
RTVSPropertyOp15
 70
     1
102
RTVSPropertyOp16
 70
     1
102
RTVSPropertyOp17
 70
     1
102
RTVSPropertyOp18
 70
     1
102
RTVSPropertyOp19
 70
     1
102
RTVSPropertyOp20
 70
     1
102
RTVSPropertyOp21
 70
     1
102
RTVSPropertyOp22
 70
     1
102
RTVSPropertyOp23
 70
     1
102
RTVSPropertyOp24
 70
     1
102
RTVSPropertyOp25
 70
     1
102
RTVSPropertyOp26
 70
     1
102
RTVSPropertyOp27
 70
     1
102
RTVSPropertyOp28
 70
     1
102
RTVSPropertyOp29
 70
     1
102
RTVSPropertyOp30
 70
     1
102
RTVSPropertyOp31
 70
     1
102
RTVSPropertyOp32
 70
     1
102
RTVSPropertyOp33
 70
     1
102
RTVSPropertyOp34
 70
     1
102
RTVSPropertyOp35
 70
     1
102
RTVSPropertyOp36
 70
     1
102
RTVSPropertyOp37
 70
     1
102
RTVSPropertyOp38
 70
     1
102
RTVSPropertyOp39
 70
     1
102
RTVSPropertyOp40
 70
     1
102
RTVSPropertyOp41
 70
     1
102
RTVSPropertyOp42
 70
     1
102
RTVSPropertyOp43
 70
     1
102
RTVSPropertyOp44
 70
     1
102
RTVSPropertyOp45
 70
     1
102
RTVSPropertyOp46
 70
     1
102
RTVSPropertyOp47
 70
     1
102
RTVSPropertyOp48
 70
     1
102
RTVSPropertyOp49
 70
     1
102
RTVSPropertyOp50
 70
     1
102
RTVSPropertyOp51
 70
     0
102
RTVSPropertyOp52
 70
     0
102
RTVSPropertyOp53
 70
     1
102
RTVSPropertyOp54
 70
     1
102
RTVSPropertyOp55
 70
     1
102
RTVSPropertyOp56
 70
     1
102
RTVSPropertyOp57
 70
     1
102
RTVSPropertyOp58
 70
     1
102
RTVSPropertyOp59
 70
     1
102
RTVSPropertyOp60
 70
     1
102
RTVSPropertyOp61
 70
     1
102
RTVSPropertyOp62
 70
     1
  0
XRECORD
  5
CE35
102
{ACAD_REACTORS
330
CE34
102
}
330
CE34
100
AcDbXrecord
280
     1
102
RTVSPost2010Prop28
280
     0
102
RTVSPost2010PropOp28
 70
     1
102
RTVSPost2010Prop29
280
     1
102
RTVSPost2010PropOp29
 70
     1
102
RTVSPost2010Prop30
280
     1
102
RTVSPost2010PropOp30
 70
     1
102
RTVSPost2010Prop31
280
     0
102
RTVSPost2010PropOp31
 70
     1
102
RTVSPost2010Prop32
280
     0
102
RTVSPost2010PropOp32
 70
     1
102
RTVSPost2010Prop33
280
     0
102
RTVSPost2010PropOp33
 70
     1
102
RTVSPost2010Prop34
280
     0
102
RTVSPost2010PropOp34
 70
     1
102
RTVSPost2010Prop35
280
     0
102
RTVSPost2010PropOp35
 70
     1
102
RTVSPost2010Prop36
280
     0
102
RTVSPost2010PropOp36
 70
     1
102
RTVSPost2010Prop37
 90
       50
102
RTVSPost2010PropOp37
 70
     1
102
RTVSPost2010Prop38
140
0.0
102
RTVSPost2010PropOp38
 70
     1
102
RTVSPost2010Prop39
140
1.0
102
RTVSPost2010PropOp39
 70
     1
102
RTVSPost2010Prop40
 90
        0
102
RTVSPost2010PropOp40
 70
     1
102
RTVSPost2010Prop41ColorIndex
 90
       18
102
RTVSPost2010Prop41ColorRGB
 90
        0
102
RTVSPost2010PropOp41
 70
     1
102
RTVSPost2010Prop42
 90
       50
102
RTVSPost2010PropOp42
 70
     1
102
RTVSPost2010Prop43
 90
        3
102
RTVSPost2010PropOp43
 70
     1
102
RTVSPost2010Prop44ColorIndex
 90
        5
102
RTVSPost2010Prop44ColorRGB
 90
      255
102
RTVSPost2010PropOp44
 70
     1
102
RTVSPost2010Prop45
280
     0
102
RTVSPost2010PropOp45
 70
     1
102
RTVSPost2010Prop46
 90
       50
102
RTVSPost2010PropOp46
 70
     1
102
RTVSPost2010Prop47
 90
       50
102
RTVSPost2010PropOp47
 70
     1
102
RTVSPost2010Prop48
 90
       50
102
RTVSPost2010PropOp48
 70
     1
102
RTVSPost2010Prop49
280
     0
102
RTVSPost2010PropOp49
 70
     1
102
RTVSPost2010Prop50
 90
       50
102
RTVSPost2010PropOp50
 70
     1
102
RTVSPost2010Prop51ColorIndex
 90
      256
102
RTVSPost2010Prop51ColorRGB
 90
-16777216
102
RTVSPost2010PropOp51
 70
     0
102
RTVSPost2010Prop52
140
1.0
102
RTVSPost2010PropOp52
 70
     0
102
RTVSPost2010Prop53
 90
        2
102
RTVSPost2010PropOp53
 70
     1
102
RTVSPost2010Prop54
  1
strokes_ogs.tif
102
RTVSPost2010PropOp54
 70
     1
102
RTVSPost2010Prop55
280
     0
102
RTVSPost2010PropOp55
 70
     1
102
RTVSPost2010Prop56
140
1.0
102
RTVSPost2010PropOp56
 70
     1
102
RTVSPost2010Prop57
140
1.0
102
RTVSPost2010PropOp57
 70
     1
102
RTVSPropertyOp0
 70
     0
102
RTVSPropertyOp1
 70
     0
102
RTVSPropertyOp2
 70
     0
102
RTVSPropertyOp3
 70
     0
102
RTVSPropertyOp4
 70
     0
102
RTVSPropertyOp5
 70
     0
102
RTVSPropertyOp6
 70
     0
102
RTVSPropertyOp7
 70
     0
102
RTVSPropertyOp8
 70
     0
102
RTVSPropertyOp9
 70
     0
102
RTVSPropertyOp10
 70
     0
102
RTVSPropertyOp11
 70
     0
102
RTVSPropertyOp12
 70
     0
102
RTVSPropertyOp13
 70
     0
102
RTVSPropertyOp14
 70
     2
102
RTVSPropertyOp15
 70
     0
102
RTVSPropertyOp16
 70
     0
102
RTVSPropertyOp17
 70
     0
102
RTVSPropertyOp18
 70
     0
102
RTVSPropertyOp19
 70
     0
102
RTVSPropertyOp20
 70
     0
102
RTVSPropertyOp21
 70
     0
102
RTVSPropertyOp22
 70
     0
102
RTVSPropertyOp23
 70
     0
102
RTVSPropertyOp24
 70
     0
102
RTVSPropertyOp25
 70
     0
102
RTVSPropertyOp26
 70
     0
102
RTVSPropertyOp27
 70
     0
102
RTVSPropertyOp28
 70
     1
102
RTVSPropertyOp29
 70
     1
102
RTVSPropertyOp30
 70
     1
102
RTVSPropertyOp31
 70
     1
102
RTVSPropertyOp32
 70
     1
102
RTVSPropertyOp33
 70
     1
102
RTVSPropertyOp34
 70
     1
102
RTVSPropertyOp35
 70
     1
102
RTVSPropertyOp36
 70
     1
102
RTVSPropertyOp37
 70
     1
102
RTVSPropertyOp38
 70
     1
102
RTVSPropertyOp39
 70
     1
102
RTVSPropertyOp40
 70
     1
102
RTVSPropertyOp41
 70
     1
102
RTVSPropertyOp42
 70
     1
102
RTVSPropertyOp43
 70
     1
102
RTVSPropertyOp44
 70
     1
102
RTVSPropertyOp45
 70
     1
102
RTVSPropertyOp46
 70
     1
102
RTVSPropertyOp47
 70
     1
102
RTVSPropertyOp48
 70
     1
102
RTVSPropertyOp49
 70
     1
102
RTVSPropertyOp50
 70
     1
102
RTVSPropertyOp51
 70
     0
102
RTVSPropertyOp52
 70
     0
102
RTVSPropertyOp53
 70
     1
102
RTVSPropertyOp54
 70
     1
102
RTVSPropertyOp55
 70
     1
102
RTVSPropertyOp56
 70
     1
102
RTVSPropertyOp57
 70
     1
102
RTVSPropertyOp58
 70
     1
102
RTVSPropertyOp59
 70
     1
102
RTVSPropertyOp60
 70
     1
102
RTVSPropertyOp61
 70
     1
102
RTVSPropertyOp62
 70
     1
  0
XRECORD
  5
CE23
102
{ACAD_REACTORS
330
CE22
102
}
330
CE22
100
AcDbXrecord
280
     1
102
RTVSPost2010Prop28
280
     0
102
RTVSPost2010PropOp28
 70
     1
102
RTVSPost2010Prop29
280
     1
102
RTVSPost2010PropOp29
 70
     1
102
RTVSPost2010Prop30
280
     1
102
RTVSPost2010PropOp30
 70
     1
102
RTVSPost2010Prop31
280
     0
102
RTVSPost2010PropOp31
 70
     1
102
RTVSPost2010Prop32
280
     0
102
RTVSPost2010PropOp32
 70
     1
102
RTVSPost2010Prop33
280
     0
102
RTVSPost2010PropOp33
 70
     1
102
RTVSPost2010Prop34
280
     0
102
RTVSPost2010PropOp34
 70
     1
102
RTVSPost2010Prop35
280
     0
102
RTVSPost2010PropOp35
 70
     1
102
RTVSPost2010Prop36
280
     0
102
RTVSPost2010PropOp36
 70
     1
102
RTVSPost2010Prop37
 90
       50
102
RTVSPost2010PropOp37
 70
     1
102
RTVSPost2010Prop38
140
0.0
102
RTVSPost2010PropOp38
 70
     1
102
RTVSPost2010Prop39
140
1.0
102
RTVSPost2010PropOp39
 70
     1
102
RTVSPost2010Prop40
 90
        0
102
RTVSPost2010PropOp40
 70
     1
102
RTVSPost2010Prop41ColorIndex
 90
       18
102
RTVSPost2010Prop41ColorRGB
 90
        0
102
RTVSPost2010PropOp41
 70
     1
102
RTVSPost2010Prop42
 90
       50
102
RTVSPost2010PropOp42
 70
     1
102
RTVSPost2010Prop43
 90
        3
102
RTVSPost2010PropOp43
 70
     1
102
RTVSPost2010Prop44ColorIndex
 90
        5
102
RTVSPost2010Prop44ColorRGB
 90
      255
102
RTVSPost2010PropOp44
 70
     1
102
RTVSPost2010Prop45
280
     0
102
RTVSPost2010PropOp45
 70
     1
102
RTVSPost2010Prop46
 90
       50
102
RTVSPost2010PropOp46
 70
     1
102
RTVSPost2010Prop47
 90
       50
102
RTVSPost2010PropOp47
 70
     1
102
RTVSPost2010Prop48
 90
       50
102
RTVSPost2010PropOp48
 70
     1
102
RTVSPost2010Prop49
280
     0
102
RTVSPost2010PropOp49
 70
     1
102
RTVSPost2010Prop50
 90
       50
102
RTVSPost2010PropOp50
 70
     1
102
RTVSPost2010Prop51ColorIndex
 90
      256
102
RTVSPost2010Prop51ColorRGB
 90
-16777216
102
RTVSPost2010PropOp51
 70
     0
102
RTVSPost2010Prop52
140
1.0
102
RTVSPost2010PropOp52
 70
     0
102
RTVSPost2010Prop53
 90
        2
102
RTVSPost2010PropOp53
 70
     1
102
RTVSPost2010Prop54
  1
strokes_ogs.tif
102
RTVSPost2010PropOp54
 70
     1
102
RTVSPost2010Prop55
280
     0
102
RTVSPost2010PropOp55
 70
     1
102
RTVSPost2010Prop56
140
1.0
102
RTVSPost2010PropOp56
 70
     1
102
RTVSPost2010Prop57
140
1.0
102
RTVSPost2010PropOp57
 70
     1
102
RTVSPropertyOp0
 70
     1
102
RTVSPropertyOp1
 70
     1
102
RTVSPropertyOp2
 70
     1
102
RTVSPropertyOp3
 70
     1
102
RTVSPropertyOp4
 70
     1
102
RTVSPropertyOp5
 70
     1
102
RTVSPropertyOp6
 70
     1
102
RTVSPropertyOp7
 70
     1
102
RTVSPropertyOp8
 70
     1
102
RTVSPropertyOp9
 70
     1
102
RTVSPropertyOp10
 70
     1
102
RTVSPropertyOp11
 70
     1
102
RTVSPropertyOp12
 70
     1
102
RTVSPropertyOp13
 70
     1
102
RTVSPropertyOp14
 70
     1
102
RTVSPropertyOp15
 70
     1
102
RTVSPropertyOp16
 70
     1
102
RTVSPropertyOp17
 70
     1
102
RTVSPropertyOp18
 70
     1
102
RTVSPropertyOp19
 70
     1
102
RTVSPropertyOp20
 70
     1
102
RTVSPropertyOp21
 70
     1
102
RTVSPropertyOp22
 70
     1
102
RTVSPropertyOp23
 70
     1
102
RTVSPropertyOp24
 70
     1
102
RTVSPropertyOp25
 70
     1
102
RTVSPropertyOp26
 70
     1
102
RTVSPropertyOp27
 70
     1
102
RTVSPropertyOp28
 70
     1
102
RTVSPropertyOp29
 70
     1
102
RTVSPropertyOp30
 70
     1
102
RTVSPropertyOp31
 70
     1
102
RTVSPropertyOp32
 70
     1
102
RTVSPropertyOp33
 70
     1
102
RTVSPropertyOp34
 70
     1
102
RTVSPropertyOp35
 70
     1
102
RTVSPropertyOp36
 70
     1
102
RTVSPropertyOp37
 70
     1
102
RTVSPropertyOp38
 70
     1
102
RTVSPropertyOp39
 70
     1
102
RTVSPropertyOp40
 70
     1
102
RTVSPropertyOp41
 70
     1
102
RTVSPropertyOp42
 70
     1
102
RTVSPropertyOp43
 70
     1
102
RTVSPropertyOp44
 70
     1
102
RTVSPropertyOp45
 70
     1
102
RTVSPropertyOp46
 70
     1
102
RTVSPropertyOp47
 70
     1
102
RTVSPropertyOp48
 70
     1
102
RTVSPropertyOp49
 70
     1
102
RTVSPropertyOp50
 70
     1
102
RTVSPropertyOp51
 70
     0
102
RTVSPropertyOp52
 70
     0
102
RTVSPropertyOp53
 70
     1
102
RTVSPropertyOp54
 70
     1
102
RTVSPropertyOp55
 70
     1
102
RTVSPropertyOp56
 70
     1
102
RTVSPropertyOp57
 70
     1
102
RTVSPropertyOp58
 70
     1
102
RTVSPropertyOp59
 70
     1
102
RTVSPropertyOp60
 70
     1
102
RTVSPropertyOp61
 70
     1
102
RTVSPropertyOp62
 70
     1
  0
XRECORD
  5
CE41
102
{ACAD_REACTORS
330
CE40
102
}
330
CE40
100
AcDbXrecord
280
     1
102
RTVSPost2010Prop28
280
     0
102
RTVSPost2010PropOp28
 70
     1
102
RTVSPost2010Prop29
280
     1
102
RTVSPost2010PropOp29
 70
     1
102
RTVSPost2010Prop30
280
     1
102
RTVSPost2010PropOp30
 70
     1
102
RTVSPost2010Prop31
280
     0
102
RTVSPost2010PropOp31
 70
     1
102
RTVSPost2010Prop32
280
     0
102
RTVSPost2010PropOp32
 70
     1
102
RTVSPost2010Prop33
280
     0
102
RTVSPost2010PropOp33
 70
     1
102
RTVSPost2010Prop34
280
     0
102
RTVSPost2010PropOp34
 70
     1
102
RTVSPost2010Prop35
280
     0
102
RTVSPost2010PropOp35
 70
     1
102
RTVSPost2010Prop36
280
     0
102
RTVSPost2010PropOp36
 70
     1
102
RTVSPost2010Prop37
 90
       50
102
RTVSPost2010PropOp37
 70
     1
102
RTVSPost2010Prop38
140
0.0
102
RTVSPost2010PropOp38
 70
     1
102
RTVSPost2010Prop39
140
1.0
102
RTVSPost2010PropOp39
 70
     1
102
RTVSPost2010Prop40
 90
        0
102
RTVSPost2010PropOp40
 70
     1
102
RTVSPost2010Prop41ColorIndex
 90
       18
102
RTVSPost2010Prop41ColorRGB
 90
        0
102
RTVSPost2010PropOp41
 70
     1
102
RTVSPost2010Prop42
 90
       50
102
RTVSPost2010PropOp42
 70
     1
102
RTVSPost2010Prop43
 90
        3
102
RTVSPost2010PropOp43
 70
     1
102
RTVSPost2010Prop44ColorIndex
 90
        5
102
RTVSPost2010Prop44ColorRGB
 90
      255
102
RTVSPost2010PropOp44
 70
     1
102
RTVSPost2010Prop45
280
     0
102
RTVSPost2010PropOp45
 70
     1
102
RTVSPost2010Prop46
 90
       50
102
RTVSPost2010PropOp46
 70
     1
102
RTVSPost2010Prop47
 90
       50
102
RTVSPost2010PropOp47
 70
     1
102
RTVSPost2010Prop48
 90
       50
102
RTVSPost2010PropOp48
 70
     1
102
RTVSPost2010Prop49
280
     0
102
RTVSPost2010PropOp49
 70
     1
102
RTVSPost2010Prop50
 90
       50
102
RTVSPost2010PropOp50
 70
     1
102
RTVSPost2010Prop51ColorIndex
 90
      256
102
RTVSPost2010Prop51ColorRGB
 90
-16777216
102
RTVSPost2010PropOp51
 70
     0
102
RTVSPost2010Prop52
140
1.0
102
RTVSPost2010PropOp52
 70
     0
102
RTVSPost2010Prop53
 90
        2
102
RTVSPost2010PropOp53
 70
     1
102
RTVSPost2010Prop54
  1
strokes_ogs.tif
102
RTVSPost2010PropOp54
 70
     1
102
RTVSPost2010Prop55
280
     0
102
RTVSPost2010PropOp55
 70
     1
102
RTVSPost2010Prop56
140
1.0
102
RTVSPost2010PropOp56
 70
     1
102
RTVSPost2010Prop57
140
1.0
102
RTVSPost2010PropOp57
 70
     1
102
RTVSPropertyOp0
 70
     1
102
RTVSPropertyOp1
 70
     1
102
RTVSPropertyOp2
 70
     1
102
RTVSPropertyOp3
 70
     1
102
RTVSPropertyOp4
 70
     1
102
RTVSPropertyOp5
 70
     1
102
RTVSPropertyOp6
 70
     1
102
RTVSPropertyOp7
 70
     1
102
RTVSPropertyOp8
 70
     1
102
RTVSPropertyOp9
 70
     1
102
RTVSPropertyOp10
 70
     1
102
RTVSPropertyOp11
 70
     1
102
RTVSPropertyOp12
 70
     1
102
RTVSPropertyOp13
 70
     1
102
RTVSPropertyOp14
 70
     1
102
RTVSPropertyOp15
 70
     1
102
RTVSPropertyOp16
 70
     1
102
RTVSPropertyOp17
 70
     1
102
RTVSPropertyOp18
 70
     1
102
RTVSPropertyOp19
 70
     1
102
RTVSPropertyOp20
 70
     1
102
RTVSPropertyOp21
 70
     1
102
RTVSPropertyOp22
 70
     1
102
RTVSPropertyOp23
 70
     1
102
RTVSPropertyOp24
 70
     1
102
RTVSPropertyOp25
 70
     1
102
RTVSPropertyOp26
 70
     1
102
RTVSPropertyOp27
 70
     1
102
RTVSPropertyOp28
 70
     1
102
RTVSPropertyOp29
 70
     1
102
RTVSPropertyOp30
 70
     1
102
RTVSPropertyOp31
 70
     1
102
RTVSPropertyOp32
 70
     1
102
RTVSPropertyOp33
 70
     1
102
RTVSPropertyOp34
 70
     1
102
RTVSPropertyOp35
 70
     1
102
RTVSPropertyOp36
 70
     1
102
RTVSPropertyOp37
 70
     1
102
RTVSPropertyOp38
 70
     1
102
RTVSPropertyOp39
 70
     1
102
RTVSPropertyOp40
 70
     1
102
RTVSPropertyOp41
 70
     1
102
RTVSPropertyOp42
 70
     1
102
RTVSPropertyOp43
 70
     1
102
RTVSPropertyOp44
 70
     1
102
RTVSPropertyOp45
 70
     1
102
RTVSPropertyOp46
 70
     1
102
RTVSPropertyOp47
 70
     1
102
RTVSPropertyOp48
 70
     1
102
RTVSPropertyOp49
 70
     1
102
RTVSPropertyOp50
 70
     1
102
RTVSPropertyOp51
 70
     0
102
RTVSPropertyOp52
 70
     0
102
RTVSPropertyOp53
 70
     1
102
RTVSPropertyOp54
 70
     1
102
RTVSPropertyOp55
 70
     1
102
RTVSPropertyOp56
 70
     1
102
RTVSPropertyOp57
 70
     1
102
RTVSPropertyOp58
 70
     1
102
RTVSPropertyOp59
 70
     1
102
RTVSPropertyOp60
 70
     1
102
RTVSPropertyOp61
 70
     1
102
RTVSPropertyOp62
 70
     1
  0
XRECORD
  5
CE3F
102
{ACAD_REACTORS
330
CE3E
102
}
330
CE3E
100
AcDbXrecord
280
     1
102
RTVSPost2010Prop28
280
     0
102
RTVSPost2010PropOp28
 70
     1
102
RTVSPost2010Prop29
280
     1
102
RTVSPost2010PropOp29
 70
     1
102
RTVSPost2010Prop30
280
     1
102
RTVSPost2010PropOp30
 70
     1
102
RTVSPost2010Prop31
280
     0
102
RTVSPost2010PropOp31
 70
     1
102
RTVSPost2010Prop32
280
     0
102
RTVSPost2010PropOp32
 70
     1
102
RTVSPost2010Prop33
280
     0
102
RTVSPost2010PropOp33
 70
     1
102
RTVSPost2010Prop34
280
     0
102
RTVSPost2010PropOp34
 70
     1
102
RTVSPost2010Prop35
280
     0
102
RTVSPost2010PropOp35
 70
     1
102
RTVSPost2010Prop36
280
     0
102
RTVSPost2010PropOp36
 70
     1
102
RTVSPost2010Prop37
 90
       50
102
RTVSPost2010PropOp37
 70
     1
102
RTVSPost2010Prop38
140
0.0
102
RTVSPost2010PropOp38
 70
     1
102
RTVSPost2010Prop39
140
1.0
102
RTVSPost2010PropOp39
 70
     1
102
RTVSPost2010Prop40
 90
        0
102
RTVSPost2010PropOp40
 70
     1
102
RTVSPost2010Prop41ColorIndex
 90
       18
102
RTVSPost2010Prop41ColorRGB
 90
        0
102
RTVSPost2010PropOp41
 70
     1
102
RTVSPost2010Prop42
 90
       50
102
RTVSPost2010PropOp42
 70
     1
102
RTVSPost2010Prop43
 90
        3
102
RTVSPost2010PropOp43
 70
     1
102
RTVSPost2010Prop44ColorIndex
 90
        5
102
RTVSPost2010Prop44ColorRGB
 90
      255
102
RTVSPost2010PropOp44
 70
     1
102
RTVSPost2010Prop45
280
     0
102
RTVSPost2010PropOp45
 70
     1
102
RTVSPost2010Prop46
 90
       50
102
RTVSPost2010PropOp46
 70
     1
102
RTVSPost2010Prop47
 90
       50
102
RTVSPost2010PropOp47
 70
     1
102
RTVSPost2010Prop48
 90
       50
102
RTVSPost2010PropOp48
 70
     1
102
RTVSPost2010Prop49
280
     0
102
RTVSPost2010PropOp49
 70
     1
102
RTVSPost2010Prop50
 90
       50
102
RTVSPost2010PropOp50
 70
     1
102
RTVSPost2010Prop51ColorIndex
 90
      256
102
RTVSPost2010Prop51ColorRGB
 90
-16777216
102
RTVSPost2010PropOp51
 70
     0
102
RTVSPost2010Prop52
140
1.0
102
RTVSPost2010PropOp52
 70
     0
102
RTVSPost2010Prop53
 90
        2
102
RTVSPost2010PropOp53
 70
     1
102
RTVSPost2010Prop54
  1
strokes_ogs.tif
102
RTVSPost2010PropOp54
 70
     1
102
RTVSPost2010Prop55
280
     0
102
RTVSPost2010PropOp55
 70
     1
102
RTVSPost2010Prop56
140
1.0
102
RTVSPost2010PropOp56
 70
     1
102
RTVSPost2010Prop57
140
1.0
102
RTVSPost2010PropOp57
 70
     1
102
RTVSPropertyOp0
 70
     1
102
RTVSPropertyOp1
 70
     1
102
RTVSPropertyOp2
 70
     1
102
RTVSPropertyOp3
 70
     1
102
RTVSPropertyOp4
 70
     1
102
RTVSPropertyOp5
 70
     1
102
RTVSPropertyOp6
 70
     1
102
RTVSPropertyOp7
 70
     1
102
RTVSPropertyOp8
 70
     1
102
RTVSPropertyOp9
 70
     1
102
RTVSPropertyOp10
 70
     1
102
RTVSPropertyOp11
 70
     1
102
RTVSPropertyOp12
 70
     1
102
RTVSPropertyOp13
 70
     1
102
RTVSPropertyOp14
 70
     1
102
RTVSPropertyOp15
 70
     1
102
RTVSPropertyOp16
 70
     1
102
RTVSPropertyOp17
 70
     1
102
RTVSPropertyOp18
 70
     1
102
RTVSPropertyOp19
 70
     1
102
RTVSPropertyOp20
 70
     1
102
RTVSPropertyOp21
 70
     1
102
RTVSPropertyOp22
 70
     1
102
RTVSPropertyOp23
 70
     1
102
RTVSPropertyOp24
 70
     1
102
RTVSPropertyOp25
 70
     1
102
RTVSPropertyOp26
 70
     1
102
RTVSPropertyOp27
 70
     1
102
RTVSPropertyOp28
 70
     1
102
RTVSPropertyOp29
 70
     1
102
RTVSPropertyOp30
 70
     1
102
RTVSPropertyOp31
 70
     1
102
RTVSPropertyOp32
 70
     1
102
RTVSPropertyOp33
 70
     1
102
RTVSPropertyOp34
 70
     1
102
RTVSPropertyOp35
 70
     1
102
RTVSPropertyOp36
 70
     1
102
RTVSPropertyOp37
 70
     1
102
RTVSPropertyOp38
 70
     1
102
RTVSPropertyOp39
 70
     1
102
RTVSPropertyOp40
 70
     1
102
RTVSPropertyOp41
 70
     1
102
RTVSPropertyOp42
 70
     1
102
RTVSPropertyOp43
 70
     1
102
RTVSPropertyOp44
 70
     1
102
RTVSPropertyOp45
 70
     1
102
RTVSPropertyOp46
 70
     1
102
RTVSPropertyOp47
 70
     1
102
RTVSPropertyOp48
 70
     1
102
RTVSPropertyOp49
 70
     1
102
RTVSPropertyOp50
 70
     1
102
RTVSPropertyOp51
 70
     0
102
RTVSPropertyOp52
 70
     0
102
RTVSPropertyOp53
 70
     1
102
RTVSPropertyOp54
 70
     1
102
RTVSPropertyOp55
 70
     1
102
RTVSPropertyOp56
 70
     1
102
RTVSPropertyOp57
 70
     1
102
RTVSPropertyOp58
 70
     1
102
RTVSPropertyOp59
 70
     1
102
RTVSPropertyOp60
 70
     1
102
RTVSPropertyOp61
 70
     1
102
RTVSPropertyOp62
 70
     1
  0
XRECORD
  5
CE39
102
{ACAD_REACTORS
330
CE38
102
}
330
CE38
100
AcDbXrecord
280
     1
102
RTVSPost2010Prop28
280
     0
102
RTVSPost2010PropOp28
 70
     1
102
RTVSPost2010Prop29
280
     1
102
RTVSPost2010PropOp29
 70
     1
102
RTVSPost2010Prop30
280
     1
102
RTVSPost2010PropOp30
 70
     1
102
RTVSPost2010Prop31
280
     0
102
RTVSPost2010PropOp31
 70
     1
102
RTVSPost2010Prop32
280
     0
102
RTVSPost2010PropOp32
 70
     1
102
RTVSPost2010Prop33
280
     0
102
RTVSPost2010PropOp33
 70
     1
102
RTVSPost2010Prop34
280
     0
102
RTVSPost2010PropOp34
 70
     1
102
RTVSPost2010Prop35
280
     0
102
RTVSPost2010PropOp35
 70
     1
102
RTVSPost2010Prop36
280
     0
102
RTVSPost2010PropOp36
 70
     1
102
RTVSPost2010Prop37
 90
       50
102
RTVSPost2010PropOp37
 70
     1
102
RTVSPost2010Prop38
140
0.0
102
RTVSPost2010PropOp38
 70
     1
102
RTVSPost2010Prop39
140
1.0
102
RTVSPost2010PropOp39
 70
     1
102
RTVSPost2010Prop40
 90
        0
102
RTVSPost2010PropOp40
 70
     1
102
RTVSPost2010Prop41ColorIndex
 90
       18
102
RTVSPost2010Prop41ColorRGB
 90
        0
102
RTVSPost2010PropOp41
 70
     1
102
RTVSPost2010Prop42
 90
       50
102
RTVSPost2010PropOp42
 70
     1
102
RTVSPost2010Prop43
 90
        3
102
RTVSPost2010PropOp43
 70
     1
102
RTVSPost2010Prop44ColorIndex
 90
        5
102
RTVSPost2010Prop44ColorRGB
 90
      255
102
RTVSPost2010PropOp44
 70
     1
102
RTVSPost2010Prop45
280
     0
102
RTVSPost2010PropOp45
 70
     1
102
RTVSPost2010Prop46
 90
       50
102
RTVSPost2010PropOp46
 70
     1
102
RTVSPost2010Prop47
 90
       50
102
RTVSPost2010PropOp47
 70
     1
102
RTVSPost2010Prop48
 90
       50
102
RTVSPost2010PropOp48
 70
     1
102
RTVSPost2010Prop49
280
     0
102
RTVSPost2010PropOp49
 70
     1
102
RTVSPost2010Prop50
 90
       50
102
RTVSPost2010PropOp50
 70
     1
102
RTVSPost2010Prop51ColorIndex
 90
      256
102
RTVSPost2010Prop51ColorRGB
 90
-16777216
102
RTVSPost2010PropOp51
 70
     0
102
RTVSPost2010Prop52
140
1.0
102
RTVSPost2010PropOp52
 70
     0
102
RTVSPost2010Prop53
 90
        2
102
RTVSPost2010PropOp53
 70
     1
102
RTVSPost2010Prop54
  1
strokes_ogs.tif
102
RTVSPost2010PropOp54
 70
     1
102
RTVSPost2010Prop55
280
     0
102
RTVSPost2010PropOp55
 70
     1
102
RTVSPost2010Prop56
140
1.0
102
RTVSPost2010PropOp56
 70
     1
102
RTVSPost2010Prop57
140
1.0
102
RTVSPost2010PropOp57
 70
     1
102
RTVSPropertyOp0
 70
     1
102
RTVSPropertyOp1
 70
     1
102
RTVSPropertyOp2
 70
     1
102
RTVSPropertyOp3
 70
     1
102
RTVSPropertyOp4
 70
     1
102
RTVSPropertyOp5
 70
     1
102
RTVSPropertyOp6
 70
     1
102
RTVSPropertyOp7
 70
     1
102
RTVSPropertyOp8
 70
     1
102
RTVSPropertyOp9
 70
     1
102
RTVSPropertyOp10
 70
     1
102
RTVSPropertyOp11
 70
     1
102
RTVSPropertyOp12
 70
     1
102
RTVSPropertyOp13
 70
     1
102
RTVSPropertyOp14
 70
     1
102
RTVSPropertyOp15
 70
     1
102
RTVSPropertyOp16
 70
     1
102
RTVSPropertyOp17
 70
     1
102
RTVSPropertyOp18
 70
     1
102
RTVSPropertyOp19
 70
     1
102
RTVSPropertyOp20
 70
     1
102
RTVSPropertyOp21
 70
     1
102
RTVSPropertyOp22
 70
     1
102
RTVSPropertyOp23
 70
     1
102
RTVSPropertyOp24
 70
     1
102
RTVSPropertyOp25
 70
     1
102
RTVSPropertyOp26
 70
     1
102
RTVSPropertyOp27
 70
     1
102
RTVSPropertyOp28
 70
     1
102
RTVSPropertyOp29
 70
     1
102
RTVSPropertyOp30
 70
     1
102
RTVSPropertyOp31
 70
     1
102
RTVSPropertyOp32
 70
     1
102
RTVSPropertyOp33
 70
     1
102
RTVSPropertyOp34
 70
     1
102
RTVSPropertyOp35
 70
     1
102
RTVSPropertyOp36
 70
     1
102
RTVSPropertyOp37
 70
     1
102
RTVSPropertyOp38
 70
     1
102
RTVSPropertyOp39
 70
     1
102
RTVSPropertyOp40
 70
     1
102
RTVSPropertyOp41
 70
     1
102
RTVSPropertyOp42
 70
     1
102
RTVSPropertyOp43
 70
     1
102
RTVSPropertyOp44
 70
     1
102
RTVSPropertyOp45
 70
     1
102
RTVSPropertyOp46
 70
     1
102
RTVSPropertyOp47
 70
     1
102
RTVSPropertyOp48
 70
     1
102
RTVSPropertyOp49
 70
     1
102
RTVSPropertyOp50
 70
     1
102
RTVSPropertyOp51
 70
     0
102
RTVSPropertyOp52
 70
     0
102
RTVSPropertyOp53
 70
     1
102
RTVSPropertyOp54
 70
     1
102
RTVSPropertyOp55
 70
     1
102
RTVSPropertyOp56
 70
     1
102
RTVSPropertyOp57
 70
     1
102
RTVSPropertyOp58
 70
     1
102
RTVSPropertyOp59
 70
     1
102
RTVSPropertyOp60
 70
     1
102
RTVSPropertyOp61
 70
     1
102
RTVSPropertyOp62
 70
     1
  0
XRECORD
  5
CE3B
102
{ACAD_REACTORS
330
CE3A
102
}
330
CE3A
100
AcDbXrecord
280
     1
102
RTVSPost2010Prop28
280
     0
102
RTVSPost2010PropOp28
 70
     1
102
RTVSPost2010Prop29
280
     1
102
RTVSPost2010PropOp29
 70
     1
102
RTVSPost2010Prop30
280
     1
102
RTVSPost2010PropOp30
 70
     1
102
RTVSPost2010Prop31
280
     0
102
RTVSPost2010PropOp31
 70
     1
102
RTVSPost2010Prop32
280
     0
102
RTVSPost2010PropOp32
 70
     1
102
RTVSPost2010Prop33
280
     0
102
RTVSPost2010PropOp33
 70
     1
102
RTVSPost2010Prop34
280
     0
102
RTVSPost2010PropOp34
 70
     1
102
RTVSPost2010Prop35
280
     0
102
RTVSPost2010PropOp35
 70
     1
102
RTVSPost2010Prop36
280
     0
102
RTVSPost2010PropOp36
 70
     1
102
RTVSPost2010Prop37
 90
       50
102
RTVSPost2010PropOp37
 70
     1
102
RTVSPost2010Prop38
140
0.0
102
RTVSPost2010PropOp38
 70
     1
102
RTVSPost2010Prop39
140
1.0
102
RTVSPost2010PropOp39
 70
     1
102
RTVSPost2010Prop40
 90
        0
102
RTVSPost2010PropOp40
 70
     1
102
RTVSPost2010Prop41ColorIndex
 90
       18
102
RTVSPost2010Prop41ColorRGB
 90
        0
102
RTVSPost2010PropOp41
 70
     1
102
RTVSPost2010Prop42
 90
       50
102
RTVSPost2010PropOp42
 70
     1
102
RTVSPost2010Prop43
 90
        3
102
RTVSPost2010PropOp43
 70
     1
102
RTVSPost2010Prop44ColorIndex
 90
        5
102
RTVSPost2010Prop44ColorRGB
 90
      255
102
RTVSPost2010PropOp44
 70
     1
102
RTVSPost2010Prop45
280
     0
102
RTVSPost2010PropOp45
 70
     1
102
RTVSPost2010Prop46
 90
       50
102
RTVSPost2010PropOp46
 70
     1
102
RTVSPost2010Prop47
 90
       50
102
RTVSPost2010PropOp47
 70
     1
102
RTVSPost2010Prop48
 90
       50
102
RTVSPost2010PropOp48
 70
     1
102
RTVSPost2010Prop49
280
     0
102
RTVSPost2010PropOp49
 70
     1
102
RTVSPost2010Prop50
 90
       50
102
RTVSPost2010PropOp50
 70
     1
102
RTVSPost2010Prop51ColorIndex
 90
      256
102
RTVSPost2010Prop51ColorRGB
 90
-16777216
102
RTVSPost2010PropOp51
 70
     0
102
RTVSPost2010Prop52
140
1.0
102
RTVSPost2010PropOp52
 70
     0
102
RTVSPost2010Prop53
 90
        2
102
RTVSPost2010PropOp53
 70
     1
102
RTVSPost2010Prop54
  1
strokes_ogs.tif
102
RTVSPost2010PropOp54
 70
     1
102
RTVSPost2010Prop55
280
     0
102
RTVSPost2010PropOp55
 70
     1
102
RTVSPost2010Prop56
140
1.0
102
RTVSPost2010PropOp56
 70
     1
102
RTVSPost2010Prop57
140
1.0
102
RTVSPost2010PropOp57
 70
     1
102
RTVSPropertyOp0
 70
     1
102
RTVSPropertyOp1
 70
     1
102
RTVSPropertyOp2
 70
     1
102
RTVSPropertyOp3
 70
     1
102
RTVSPropertyOp4
 70
     1
102
RTVSPropertyOp5
 70
     1
102
RTVSPropertyOp6
 70
     1
102
RTVSPropertyOp7
 70
     1
102
RTVSPropertyOp8
 70
     1
102
RTVSPropertyOp9
 70
     1
102
RTVSPropertyOp10
 70
     1
102
RTVSPropertyOp11
 70
     1
102
RTVSPropertyOp12
 70
     1
102
RTVSPropertyOp13
 70
     1
102
RTVSPropertyOp14
 70
     1
102
RTVSPropertyOp15
 70
     1
102
RTVSPropertyOp16
 70
     1
102
RTVSPropertyOp17
 70
     1
102
RTVSPropertyOp18
 70
     1
102
RTVSPropertyOp19
 70
     1
102
RTVSPropertyOp20
 70
     1
102
RTVSPropertyOp21
 70
     1
102
RTVSPropertyOp22
 70
     1
102
RTVSPropertyOp23
 70
     1
102
RTVSPropertyOp24
 70
     1
102
RTVSPropertyOp25
 70
     1
102
RTVSPropertyOp26
 70
     1
102
RTVSPropertyOp27
 70
     1
102
RTVSPropertyOp28
 70
     1
102
RTVSPropertyOp29
 70
     1
102
RTVSPropertyOp30
 70
     1
102
RTVSPropertyOp31
 70
     1
102
RTVSPropertyOp32
 70
     1
102
RTVSPropertyOp33
 70
     1
102
RTVSPropertyOp34
 70
     1
102
RTVSPropertyOp35
 70
     1
102
RTVSPropertyOp36
 70
     1
102
RTVSPropertyOp37
 70
     1
102
RTVSPropertyOp38
 70
     1
102
RTVSPropertyOp39
 70
     1
102
RTVSPropertyOp40
 70
     1
102
RTVSPropertyOp41
 70
     1
102
RTVSPropertyOp42
 70
     1
102
RTVSPropertyOp43
 70
     1
102
RTVSPropertyOp44
 70
     1
102
RTVSPropertyOp45
 70
     1
102
RTVSPropertyOp46
 70
     1
102
RTVSPropertyOp47
 70
     1
102
RTVSPropertyOp48
 70
     1
102
RTVSPropertyOp49
 70
     1
102
RTVSPropertyOp50
 70
     1
102
RTVSPropertyOp51
 70
     0
102
RTVSPropertyOp52
 70
     0
102
RTVSPropertyOp53
 70
     1
102
RTVSPropertyOp54
 70
     1
102
RTVSPropertyOp55
 70
     1
102
RTVSPropertyOp56
 70
     1
102
RTVSPropertyOp57
 70
     1
102
RTVSPropertyOp58
 70
     1
102
RTVSPropertyOp59
 70
     1
102
RTVSPropertyOp60
 70
     1
102
RTVSPropertyOp61
 70
     1
102
RTVSPropertyOp62
 70
     1
  0
XRECORD
  5
CE29
102
{ACAD_REACTORS
330
CE28
102
}
330
CE28
100
AcDbXrecord
280
     1
102
RTVSPost2010Prop28
280
     0
102
RTVSPost2010PropOp28
 70
     1
102
RTVSPost2010Prop29
280
     1
102
RTVSPost2010PropOp29
 70
     1
102
RTVSPost2010Prop30
280
     1
102
RTVSPost2010PropOp30
 70
     1
102
RTVSPost2010Prop31
280
     0
102
RTVSPost2010PropOp31
 70
     1
102
RTVSPost2010Prop32
280
     0
102
RTVSPost2010PropOp32
 70
     1
102
RTVSPost2010Prop33
280
     0
102
RTVSPost2010PropOp33
 70
     1
102
RTVSPost2010Prop34
280
     0
102
RTVSPost2010PropOp34
 70
     1
102
RTVSPost2010Prop35
280
     0
102
RTVSPost2010PropOp35
 70
     1
102
RTVSPost2010Prop36
280
     0
102
RTVSPost2010PropOp36
 70
     1
102
RTVSPost2010Prop37
 90
       50
102
RTVSPost2010PropOp37
 70
     1
102
RTVSPost2010Prop38
140
0.0
102
RTVSPost2010PropOp38
 70
     1
102
RTVSPost2010Prop39
140
1.0
102
RTVSPost2010PropOp39
 70
     1
102
RTVSPost2010Prop40
 90
        0
102
RTVSPost2010PropOp40
 70
     1
102
RTVSPost2010Prop41ColorIndex
 90
       18
102
RTVSPost2010Prop41ColorRGB
 90
        0
102
RTVSPost2010PropOp41
 70
     1
102
RTVSPost2010Prop42
 90
       50
102
RTVSPost2010PropOp42
 70
     1
102
RTVSPost2010Prop43
 90
        3
102
RTVSPost2010PropOp43
 70
     1
102
RTVSPost2010Prop44ColorIndex
 90
        5
102
RTVSPost2010Prop44ColorRGB
 90
      255
102
RTVSPost2010PropOp44
 70
     1
102
RTVSPost2010Prop45
280
     0
102
RTVSPost2010PropOp45
 70
     1
102
RTVSPost2010Prop46
 90
       50
102
RTVSPost2010PropOp46
 70
     1
102
RTVSPost2010Prop47
 90
       50
102
RTVSPost2010PropOp47
 70
     1
102
RTVSPost2010Prop48
 90
       50
102
RTVSPost2010PropOp48
 70
     1
102
RTVSPost2010Prop49
280
     0
102
RTVSPost2010PropOp49
 70
     1
102
RTVSPost2010Prop50
 90
       50
102
RTVSPost2010PropOp50
 70
     1
102
RTVSPost2010Prop51ColorIndex
 90
      256
102
RTVSPost2010Prop51ColorRGB
 90
-16777216
102
RTVSPost2010PropOp51
 70
     0
102
RTVSPost2010Prop52
140
1.0
102
RTVSPost2010PropOp52
 70
     0
102
RTVSPost2010Prop53
 90
        2
102
RTVSPost2010PropOp53
 70
     1
102
RTVSPost2010Prop54
  1
strokes_ogs.tif
102
RTVSPost2010PropOp54
 70
     1
102
RTVSPost2010Prop55
280
     0
102
RTVSPost2010PropOp55
 70
     1
102
RTVSPost2010Prop56
140
1.0
102
RTVSPost2010PropOp56
 70
     1
102
RTVSPost2010Prop57
140
1.0
102
RTVSPost2010PropOp57
 70
     1
102
RTVSPropertyOp0
 70
     1
102
RTVSPropertyOp1
 70
     1
102
RTVSPropertyOp2
 70
     1
102
RTVSPropertyOp3
 70
     1
102
RTVSPropertyOp4
 70
     1
102
RTVSPropertyOp5
 70
     1
102
RTVSPropertyOp6
 70
     1
102
RTVSPropertyOp7
 70
     1
102
RTVSPropertyOp8
 70
     1
102
RTVSPropertyOp9
 70
     1
102
RTVSPropertyOp10
 70
     1
102
RTVSPropertyOp11
 70
     1
102
RTVSPropertyOp12
 70
     1
102
RTVSPropertyOp13
 70
     1
102
RTVSPropertyOp14
 70
     1
102
RTVSPropertyOp15
 70
     1
102
RTVSPropertyOp16
 70
     1
102
RTVSPropertyOp17
 70
     1
102
RTVSPropertyOp18
 70
     1
102
RTVSPropertyOp19
 70
     1
102
RTVSPropertyOp20
 70
     1
102
RTVSPropertyOp21
 70
     1
102
RTVSPropertyOp22
 70
     1
102
RTVSPropertyOp23
 70
     1
102
RTVSPropertyOp24
 70
     1
102
RTVSPropertyOp25
 70
     1
102
RTVSPropertyOp26
 70
     1
102
RTVSPropertyOp27
 70
     1
102
RTVSPropertyOp28
 70
     1
102
RTVSPropertyOp29
 70
     1
102
RTVSPropertyOp30
 70
     1
102
RTVSPropertyOp31
 70
     1
102
RTVSPropertyOp32
 70
     1
102
RTVSPropertyOp33
 70
     1
102
RTVSPropertyOp34
 70
     1
102
RTVSPropertyOp35
 70
     1
102
RTVSPropertyOp36
 70
     1
102
RTVSPropertyOp37
 70
     1
102
RTVSPropertyOp38
 70
     1
102
RTVSPropertyOp39
 70
     1
102
RTVSPropertyOp40
 70
     1
102
RTVSPropertyOp41
 70
     1
102
RTVSPropertyOp42
 70
     1
102
RTVSPropertyOp43
 70
     1
102
RTVSPropertyOp44
 70
     1
102
RTVSPropertyOp45
 70
     1
102
RTVSPropertyOp46
 70
     1
102
RTVSPropertyOp47
 70
     1
102
RTVSPropertyOp48
 70
     1
102
RTVSPropertyOp49
 70
     1
102
RTVSPropertyOp50
 70
     1
102
RTVSPropertyOp51
 70
     0
102
RTVSPropertyOp52
 70
     0
102
RTVSPropertyOp53
 70
     1
102
RTVSPropertyOp54
 70
     1
102
RTVSPropertyOp55
 70
     1
102
RTVSPropertyOp56
 70
     1
102
RTVSPropertyOp57
 70
     1
102
RTVSPropertyOp58
 70
     1
102
RTVSPropertyOp59
 70
     1
102
RTVSPropertyOp60
 70
     1
102
RTVSPropertyOp61
 70
     1
102
RTVSPropertyOp62
 70
     1
  0
XRECORD
  5
CE1D
102
{ACAD_REACTORS
330
CE1C
102
}
330
CE1C
100
AcDbXrecord
280
     1
102
RTVSPost2010Prop28
280
     0
102
RTVSPost2010PropOp28
 70
     1
102
RTVSPost2010Prop29
280
     1
102
RTVSPost2010PropOp29
 70
     1
102
RTVSPost2010Prop30
280
     1
102
RTVSPost2010PropOp30
 70
     1
102
RTVSPost2010Prop31
280
     0
102
RTVSPost2010PropOp31
 70
     1
102
RTVSPost2010Prop32
280
     0
102
RTVSPost2010PropOp32
 70
     1
102
RTVSPost2010Prop33
280
     0
102
RTVSPost2010PropOp33
 70
     1
102
RTVSPost2010Prop34
280
     0
102
RTVSPost2010PropOp34
 70
     1
102
RTVSPost2010Prop35
280
     0
102
RTVSPost2010PropOp35
 70
     1
102
RTVSPost2010Prop36
280
     0
102
RTVSPost2010PropOp36
 70
     1
102
RTVSPost2010Prop37
 90
       50
102
RTVSPost2010PropOp37
 70
     1
102
RTVSPost2010Prop38
140
0.0
102
RTVSPost2010PropOp38
 70
     1
102
RTVSPost2010Prop39
140
1.0
102
RTVSPost2010PropOp39
 70
     1
102
RTVSPost2010Prop40
 90
        0
102
RTVSPost2010PropOp40
 70
     1
102
RTVSPost2010Prop41ColorIndex
 90
       18
102
RTVSPost2010Prop41ColorRGB
 90
        0
102
RTVSPost2010PropOp41
 70
     1
102
RTVSPost2010Prop42
 90
       50
102
RTVSPost2010PropOp42
 70
     1
102
RTVSPost2010Prop43
 90
        3
102
RTVSPost2010PropOp43
 70
     1
102
RTVSPost2010Prop44ColorIndex
 90
        5
102
RTVSPost2010Prop44ColorRGB
 90
      255
102
RTVSPost2010PropOp44
 70
     1
102
RTVSPost2010Prop45
280
     0
102
RTVSPost2010PropOp45
 70
     1
102
RTVSPost2010Prop46
 90
       50
102
RTVSPost2010PropOp46
 70
     1
102
RTVSPost2010Prop47
 90
       50
102
RTVSPost2010PropOp47
 70
     1
102
RTVSPost2010Prop48
 90
       50
102
RTVSPost2010PropOp48
 70
     1
102
RTVSPost2010Prop49
280
     0
102
RTVSPost2010PropOp49
 70
     1
102
RTVSPost2010Prop50
 90
       50
102
RTVSPost2010PropOp50
 70
     1
102
RTVSPost2010Prop51ColorIndex
 90
      256
102
RTVSPost2010Prop51ColorRGB
 90
-16777216
102
RTVSPost2010PropOp51
 70
     0
102
RTVSPost2010Prop52
140
1.0
102
RTVSPost2010PropOp52
 70
     0
102
RTVSPost2010Prop53
 90
        2
102
RTVSPost2010PropOp53
 70
     1
102
RTVSPost2010Prop54
  1
strokes_ogs.tif
102
RTVSPost2010PropOp54
 70
     1
102
RTVSPost2010Prop55
280
     0
102
RTVSPost2010PropOp55
 70
     1
102
RTVSPost2010Prop56
140
1.0
102
RTVSPost2010PropOp56
 70
     1
102
RTVSPost2010Prop57
140
1.0
102
RTVSPost2010PropOp57
 70
     1
102
RTVSPropertyOp0
 70
     1
102
RTVSPropertyOp1
 70
     1
102
RTVSPropertyOp2
 70
     1
102
RTVSPropertyOp3
 70
     1
102
RTVSPropertyOp4
 70
     1
102
RTVSPropertyOp5
 70
     1
102
RTVSPropertyOp6
 70
     1
102
RTVSPropertyOp7
 70
     1
102
RTVSPropertyOp8
 70
     1
102
RTVSPropertyOp9
 70
     1
102
RTVSPropertyOp10
 70
     1
102
RTVSPropertyOp11
 70
     1
102
RTVSPropertyOp12
 70
     1
102
RTVSPropertyOp13
 70
     1
102
RTVSPropertyOp14
 70
     1
102
RTVSPropertyOp15
 70
     1
102
RTVSPropertyOp16
 70
     1
102
RTVSPropertyOp17
 70
     1
102
RTVSPropertyOp18
 70
     1
102
RTVSPropertyOp19
 70
     1
102
RTVSPropertyOp20
 70
     1
102
RTVSPropertyOp21
 70
     1
102
RTVSPropertyOp22
 70
     1
102
RTVSPropertyOp23
 70
     1
102
RTVSPropertyOp24
 70
     1
102
RTVSPropertyOp25
 70
     1
102
RTVSPropertyOp26
 70
     1
102
RTVSPropertyOp27
 70
     1
102
RTVSPropertyOp28
 70
     1
102
RTVSPropertyOp29
 70
     1
102
RTVSPropertyOp30
 70
     1
102
RTVSPropertyOp31
 70
     1
102
RTVSPropertyOp32
 70
     1
102
RTVSPropertyOp33
 70
     1
102
RTVSPropertyOp34
 70
     1
102
RTVSPropertyOp35
 70
     1
102
RTVSPropertyOp36
 70
     1
102
RTVSPropertyOp37
 70
     1
102
RTVSPropertyOp38
 70
     1
102
RTVSPropertyOp39
 70
     1
102
RTVSPropertyOp40
 70
     1
102
RTVSPropertyOp41
 70
     1
102
RTVSPropertyOp42
 70
     1
102
RTVSPropertyOp43
 70
     1
102
RTVSPropertyOp44
 70
     1
102
RTVSPropertyOp45
 70
     1
102
RTVSPropertyOp46
 70
     1
102
RTVSPropertyOp47
 70
     1
102
RTVSPropertyOp48
 70
     1
102
RTVSPropertyOp49
 70
     1
102
RTVSPropertyOp50
 70
     1
102
RTVSPropertyOp51
 70
     0
102
RTVSPropertyOp52
 70
     0
102
RTVSPropertyOp53
 70
     1
102
RTVSPropertyOp54
 70
     1
102
RTVSPropertyOp55
 70
     1
102
RTVSPropertyOp56
 70
     1
102
RTVSPropertyOp57
 70
     1
102
RTVSPropertyOp58
 70
     1
102
RTVSPropertyOp59
 70
     1
102
RTVSPropertyOp60
 70
     1
102
RTVSPropertyOp61
 70
     1
102
RTVSPropertyOp62
 70
     1
  0
XRECORD
  5
CE3D
102
{ACAD_REACTORS
330
CE3C
102
}
330
CE3C
100
AcDbXrecord
280
     1
102
RTVSPost2010Prop28
280
     0
102
RTVSPost2010PropOp28
 70
     1
102
RTVSPost2010Prop29
280
     1
102
RTVSPost2010PropOp29
 70
     1
102
RTVSPost2010Prop30
280
     1
102
RTVSPost2010PropOp30
 70
     1
102
RTVSPost2010Prop31
280
     0
102
RTVSPost2010PropOp31
 70
     1
102
RTVSPost2010Prop32
280
     0
102
RTVSPost2010PropOp32
 70
     1
102
RTVSPost2010Prop33
280
     0
102
RTVSPost2010PropOp33
 70
     1
102
RTVSPost2010Prop34
280
     0
102
RTVSPost2010PropOp34
 70
     1
102
RTVSPost2010Prop35
280
     0
102
RTVSPost2010PropOp35
 70
     1
102
RTVSPost2010Prop36
280
     0
102
RTVSPost2010PropOp36
 70
     1
102
RTVSPost2010Prop37
 90
       50
102
RTVSPost2010PropOp37
 70
     1
102
RTVSPost2010Prop38
140
0.0
102
RTVSPost2010PropOp38
 70
     1
102
RTVSPost2010Prop39
140
1.0
102
RTVSPost2010PropOp39
 70
     1
102
RTVSPost2010Prop40
 90
        0
102
RTVSPost2010PropOp40
 70
     1
102
RTVSPost2010Prop41ColorIndex
 90
       18
102
RTVSPost2010Prop41ColorRGB
 90
        0
102
RTVSPost2010PropOp41
 70
     1
102
RTVSPost2010Prop42
 90
       50
102
RTVSPost2010PropOp42
 70
     1
102
RTVSPost2010Prop43
 90
        3
102
RTVSPost2010PropOp43
 70
     1
102
RTVSPost2010Prop44ColorIndex
 90
        5
102
RTVSPost2010Prop44ColorRGB
 90
      255
102
RTVSPost2010PropOp44
 70
     1
102
RTVSPost2010Prop45
280
     0
102
RTVSPost2010PropOp45
 70
     1
102
RTVSPost2010Prop46
 90
       50
102
RTVSPost2010PropOp46
 70
     1
102
RTVSPost2010Prop47
 90
       50
102
RTVSPost2010PropOp47
 70
     1
102
RTVSPost2010Prop48
 90
       50
102
RTVSPost2010PropOp48
 70
     1
102
RTVSPost2010Prop49
280
     0
102
RTVSPost2010PropOp49
 70
     1
102
RTVSPost2010Prop50
 90
       50
102
RTVSPost2010PropOp50
 70
     1
102
RTVSPost2010Prop51ColorIndex
 90
      256
102
RTVSPost2010Prop51ColorRGB
 90
-16777216
102
RTVSPost2010PropOp51
 70
     0
102
RTVSPost2010Prop52
140
1.0
102
RTVSPost2010PropOp52
 70
     0
102
RTVSPost2010Prop53
 90
        2
102
RTVSPost2010PropOp53
 70
     1
102
RTVSPost2010Prop54
  1
strokes_ogs.tif
102
RTVSPost2010PropOp54
 70
     1
102
RTVSPost2010Prop55
280
     0
102
RTVSPost2010PropOp55
 70
     1
102
RTVSPost2010Prop56
140
1.0
102
RTVSPost2010PropOp56
 70
     1
102
RTVSPost2010Prop57
140
1.0
102
RTVSPost2010PropOp57
 70
     1
102
RTVSPropertyOp0
 70
     1
102
RTVSPropertyOp1
 70
     1
102
RTVSPropertyOp2
 70
     1
102
RTVSPropertyOp3
 70
     1
102
RTVSPropertyOp4
 70
     1
102
RTVSPropertyOp5
 70
     1
102
RTVSPropertyOp6
 70
     1
102
RTVSPropertyOp7
 70
     1
102
RTVSPropertyOp8
 70
     1
102
RTVSPropertyOp9
 70
     1
102
RTVSPropertyOp10
 70
     1
102
RTVSPropertyOp11
 70
     1
102
RTVSPropertyOp12
 70
     1
102
RTVSPropertyOp13
 70
     1
102
RTVSPropertyOp14
 70
     1
102
RTVSPropertyOp15
 70
     1
102
RTVSPropertyOp16
 70
     1
102
RTVSPropertyOp17
 70
     1
102
RTVSPropertyOp18
 70
     1
102
RTVSPropertyOp19
 70
     1
102
RTVSPropertyOp20
 70
     1
102
RTVSPropertyOp21
 70
     1
102
RTVSPropertyOp22
 70
     1
102
RTVSPropertyOp23
 70
     1
102
RTVSPropertyOp24
 70
     1
102
RTVSPropertyOp25
 70
     1
102
RTVSPropertyOp26
 70
     1
102
RTVSPropertyOp27
 70
     1
102
RTVSPropertyOp28
 70
     1
102
RTVSPropertyOp29
 70
     1
102
RTVSPropertyOp30
 70
     1
102
RTVSPropertyOp31
 70
     1
102
RTVSPropertyOp32
 70
     1
102
RTVSPropertyOp33
 70
     1
102
RTVSPropertyOp34
 70
     1
102
RTVSPropertyOp35
 70
     1
102
RTVSPropertyOp36
 70
     1
102
RTVSPropertyOp37
 70
     1
102
RTVSPropertyOp38
 70
     1
102
RTVSPropertyOp39
 70
     1
102
RTVSPropertyOp40
 70
     1
102
RTVSPropertyOp41
 70
     1
102
RTVSPropertyOp42
 70
     1
102
RTVSPropertyOp43
 70
     1
102
RTVSPropertyOp44
 70
     1
102
RTVSPropertyOp45
 70
     1
102
RTVSPropertyOp46
 70
     1
102
RTVSPropertyOp47
 70
     1
102
RTVSPropertyOp48
 70
     1
102
RTVSPropertyOp49
 70
     1
102
RTVSPropertyOp50
 70
     1
102
RTVSPropertyOp51
 70
     0
102
RTVSPropertyOp52
 70
     0
102
RTVSPropertyOp53
 70
     1
102
RTVSPropertyOp54
 70
     1
102
RTVSPropertyOp55
 70
     1
102
RTVSPropertyOp56
 70
     1
102
RTVSPropertyOp57
 70
     1
102
RTVSPropertyOp58
 70
     1
102
RTVSPropertyOp59
 70
     1
102
RTVSPropertyOp60
 70
     1
102
RTVSPropertyOp61
 70
     1
102
RTVSPropertyOp62
 70
     1
  0
ENDSEC
  0
EOF
