  0
SECTION
  2
HEADER
  9
$ACADVER
  1
AC1015
  9
$ACADMAINTVER
 70
    18
  9
$DWGCODEPAGE
  3
ANSI_1252
  9
$INSBASE
 10
0.0
 20
0.0
 30
0.0
  9
$EXTMIN
 10
-138.1521598274728
 20
-157.8990778614523
 30
-0.0015258207003583
  9
$EXTMAX
 10
157.5448615121945
 20
192.164475056767
 30
0.0000000349246037
  9
$LIMMIN
 10
0.0
 20
0.0
  9
$LIMMAX
 10
420.0
 20
297.0
  9
$ORTHOMODE
 70
     0
  9
$REGENMODE
 70
     1
  9
$FILLMODE
 70
     1
  9
$QTEXTMODE
 70
     0
  9
$MIRRTEXT
 70
     0
  9
$LTSCALE
 40
1.0
  9
$ATTMODE
 70
     1
  9
$TEXTSIZE
 40
2.5
  9
$TRACEWID
 40
1.0
  9
$TEXTSTYLE
  7
Standard
  9
$CLAYER
  8
0
  9
$CELTYPE
  6
ByLayer
  9
$CECOLOR
 62
   256
  9
$CELTSCALE
 40
1.0
  9
$DISPSILH
 70
     0
  9
$DIMSCALE
 40
1.0
  9
$DIMASZ
 40
2.5
  9
$DIMEXO
 40
0.625
  9
$DIMDLI
 40
3.75
  9
$DIMRND
 40
0.0
  9
$DIMDLE
 40
0.0
  9
$DIMEXE
 40
1.25
  9
$DIMTP
 40
0.0
  9
$DIMTM
 40
0.0
  9
$DIMTXT
 40
2.5
  9
$DIMCEN
 40
2.5
  9
$DIMTSZ
 40
0.0
  9
$DIMTOL
 70
     0
  9
$DIMLIM
 70
     0
  9
$DIMTIH
 70
     0
  9
$DIMTOH
 70
     0
  9
$DIMSE1
 70
     0
  9
$DIMSE2
 70
     0
  9
$DIMTAD
 70
     1
  9
$DIMZIN
 70
     8
  9
$DIMBLK
  1

  9
$DIMASO
 70
     1
  9
$DIMSHO
 70
     1
  9
$DIMPOST
  1

  9
$DIMAPOST
  1

  9
$DIMALT
 70
     0
  9
$DIMALTD
 70
     3
  9
$DIMALTF
 40
0.03937007874016
  9
$DIMLFAC
 40
1.0
  9
$DIMTOFL
 70
     1
  9
$DIMTVP
 40
0.0
  9
$DIMTIX
 70
     0
  9
$DIMSOXD
 70
     0
  9
$DIMSAH
 70
     0
  9
$DIMBLK1
  1

  9
$DIMBLK2
  1

  9
$DIMSTYLE
  2
ISO-25
  9
$DIMCLRD
 70
     0
  9
$DIMCLRE
 70
     0
  9
$DIMCLRT
 70
     0
  9
$DIMTFAC
 40
1.0
  9
$DIMGAP
 40
0.625
  9
$DIMJUST
 70
     0
  9
$DIMSD1
 70
     0
  9
$DIMSD2
 70
     0
  9
$DIMTOLJ
 70
     0
  9
$DIMTZIN
 70
     8
  9
$DIMALTZ
 70
     0
  9
$DIMALTTZ
 70
     0
  9
$DIMUPT
 70
     0
  9
$DIMDEC
 70
     2
  9
$DIMTDEC
 70
     2
  9
$DIMALTU
 70
     2
  9
$DIMALTTD
 70
     3
  9
$DIMTXSTY
  7
Standard
  9
$DIMAUNIT
 70
     0
  9
$DIMADEC
 70
     0
  9
$DIMALTRND
 40
0.0
  9
$DIMAZIN
 70
     0
  9
$DIMDSEP
 70
    44
  9
$DIMATFIT
 70
     3
  9
$DIMFRAC
 70
     0
  9
$DIMLDRBLK
  1

  9
$DIMLUNIT
 70
     2
  9
$DIMLWD
 70
    -2
  9
$DIMLWE
 70
    -2
  9
$DIMTMOVE
 70
     0
  9
$LUNITS
 70
     2
  9
$LUPREC
 70
     4
  9
$SKETCHINC
 40
1.0
  9
$FILLETRAD
 40
0.0
  9
$AUNITS
 70
     0
  9
$AUPREC
 70
     0
  9
$MENU
  1
.
  9
$ELEVATION
 40
0.0
  9
$PELEVATION
 40
0.0
  9
$THICKNESS
 40
0.0
  9
$LIMCHECK
 70
     0
  9
$CHAMFERA
 40
0.0
  9
$CHAMFERB
 40
0.0
  9
$CHAMFERC
 40
0.0
  9
$CHAMFERD
 40
0.0
  9
$SKPOLY
 70
     0
  9
$TDCREATE
 40
2460286.622500000
  9
$TDUCREATE
 40
2460286.330833334
  9
$TDUPDATE
 40
2460286.638587963
  9
$TDUUPDATE
 40
2460286.346921296
  9
$TDINDWG
 40
0.0048842593
  9
$TDUSRTIMER
 40
0.0048842593
  9
$USRTIMER
 70
     1
  9
$ANGBASE
 50
0.0
  9
$ANGDIR
 70
     0
  9
$PDMODE
 70
     0
  9
$PDSIZE
 40
0.0
  9
$PLINEWID
 40
0.0
  9
$SPLFRAME
 70
     0
  9
$SPLINETYPE
 70
     6
  9
$SPLINESEGS
 70
     8
  9
$HANDSEED
  5
D13C
  9
$SURFTAB1
 70
     6
  9
$SURFTAB2
 70
     6
  9
$SURFTYPE
 70
     6
  9
$SURFU
 70
     6
  9
$SURFV
 70
     6
  9
$UCSBASE
  2

  9
$UCSNAME
  2

  9
$UCSORG
 10
0.0
 20
0.0
 30
0.0
  9
$UCSXDIR
 10
1.0
 20
0.0
 30
0.0
  9
$UCSYDIR
 10
0.0
 20
1.0
 30
0.0
  9
$UCSORTHOREF
  2

  9
$UCSORTHOVIEW
 70
     0
  9
$UCSORGTOP
 10
0.0
 20
0.0
 30
0.0
  9
$UCSORGBOTTOM
 10
0.0
 20
0.0
 30
0.0
  9
$UCSORGLEFT
 10
0.0
 20
0.0
 30
0.0
  9
$UCSORGRIGHT
 10
0.0
 20
0.0
 30
0.0
  9
$UCSORGFRONT
 10
0.0
 20
0.0
 30
0.0
  9
$UCSORGBACK
 10
0.0
 20
0.0
 30
0.0
  9
$PUCSBASE
  2

  9
$PUCSNAME
  2

  9
$PUCSORG
 10
0.0
 20
0.0
 30
0.0
  9
$PUCSXDIR
 10
1.0
 20
0.0
 30
0.0
  9
$PUCSYDIR
 10
0.0
 20
1.0
 30
0.0
  9
$PUCSORTHOREF
  2

  9
$PUCSORTHOVIEW
 70
     0
  9
$PUCSORGTOP
 10
0.0
 20
0.0
 30
0.0
  9
$PUCSORGBOTTOM
 10
0.0
 20
0.0
 30
0.0
  9
$PUCSORGLEFT
 10
0.0
 20
0.0
 30
0.0
  9
$PUCSORGRIGHT
 10
0.0
 20
0.0
 30
0.0
  9
$PUCSORGFRONT
 10
0.0
 20
0.0
 30
0.0
  9
$PUCSORGBACK
 10
0.0
 20
0.0
 30
0.0
  9
$USERI1
 70
     0
  9
$USERI2
 70
     0
  9
$USERI3
 70
     0
  9
$USERI4
 70
     0
  9
$USERI5
 70
     0
  9
$USERR1
 40
0.0
  9
$USERR2
 40
0.0
  9
$USERR3
 40
0.0
  9
$USERR4
 40
0.0
  9
$USERR5
 40
0.0
  9
$WORLDVIEW
 70
     1
  9
$SHADEDGE
 70
     3
  9
$SHADEDIF
 70
    70
  9
$TILEMODE
 70
     1
  9
$MAXACTVP
 70
    48
  9
$PINSBASE
 10
0.0
 20
0.0
 30
0.0
  9
$PLIMCHECK
 70
     0
  9
$PEXTMIN
 10
0.0
 20
0.0
 30
0.0
  9
$PEXTMAX
 10
0.0
 20
0.0
 30
0.0
  9
$PLIMMIN
 10
0.0
 20
0.0
  9
$PLIMMAX
 10
12.0
 20
9.0
  9
$UNITMODE
 70
     0
  9
$VISRETAIN
 70
     1
  9
$PLINEGEN
 70
     0
  9
$PSLTSCALE
 70
     1
  9
$TREEDEPTH
 70
  3020
  9
$CMLSTYLE
  2
Standard
  9
$CMLJUST
 70
     0
  9
$CMLSCALE
 40
20.0
  9
$PROXYGRAPHICS
 70
     1
  9
$MEASUREMENT
 70
     1
  9
$CELWEIGHT
370
    -1
  9
$ENDCAPS
280
     0
  9
$JOINSTYLE
280
     0
  9
$LWDISPLAY
290
     0
  9
$INSUNITS
 70
     4
  9
$HYPERLINKBASE
  1

  9
$STYLESHEET
  1

  9
$XEDIT
290
     1
  9
$CEPSNTYPE
380
     0
  9
$PSTYLEMODE
290
     1
  9
$FINGERPRINTGUID
  2
{F076C30E-3F10-754B-AD36-B589FE558AAC}
  9
$VERSIONGUID
  2
{A1DDC232-AD13-DA4C-8E82-BEAC8F6792B5}
  9
$EXTNAMES
290
     1
  9
$PSVPSCALE
 40
0.0
  9
$OLESTARTUP
290
     0
  0
ENDSEC
  0
SECTION
  2
CLASSES
  0
CLASS
  1
ACDBDICTIONARYWDFLT
  2
AcDbDictionaryWithDefault
  3
ObjectDBX Classes
 90
        0
280
     0
281
     0
  0
CLASS
  1
ACDBPLACEHOLDER
  2
AcDbPlaceHolder
  3
ObjectDBX Classes
 90
        0
280
     0
281
     0
  0
CLASS
  1
LAYOUT
  2
AcDbLayout
  3
ObjectDBX Classes
 90
        0
280
     0
281
     0
  0
CLASS
  1
DICTIONARYVAR
  2
AcDbDictionaryVar
  3
ObjectDBX Classes
 90
        0
280
     0
281
     0
  0
CLASS
  1
TABLESTYLE
  2
AcDbTableStyle
  3
ObjectDBX Classes
 90
     4095
280
     0
281
     0
  0
CLASS
  1
MATERIAL
  2
AcDbMaterial
  3
ObjectDBX Classes
 90
     1153
280
     0
281
     0
  0
CLASS
  1
VISUALSTYLE
  2
AcDbVisualStyle
  3
ObjectDBX Classes
 90
     4095
280
     0
281
     0
  0
CLASS
  1
SCALE
  2
AcDbScale
  3
ObjectDBX Classes
 90
     1153
280
     0
281
     0
  0
CLASS
  1
MLEADERSTYLE
  2
AcDbMLeaderStyle
  3
ACDB_MLEADERSTYLE_CLASS
 90
     4095
280
     0
281
     0
  0
CLASS
  1
CELLSTYLEMAP
  2
AcDbCellStyleMap
  3
ObjectDBX Classes
 90
     1152
280
     0
281
     0
  0
CLASS
  1
EXACXREFPANELOBJECT
  2
ExAcXREFPanelObject
  3
EXAC_ESW
 90
    33793
280
     0
281
     0
  0
CLASS
  1
NPOCOLLECTION
  2
AcDbImpNonPersistentObjectsCollection
  3
ObjectDBX Classes
 90
    33921
280
     0
281
     0
  0
CLASS
  1
LAYER_INDEX
  2
AcDbLayerIndex
  3
ObjectDBX Classes
 90
    32768
280
     0
281
     0
  0
CLASS
  1
SPATIAL_INDEX
  2
AcDbSpatialIndex
  3
ObjectDBX Classes
 90
    32768
280
     0
281
     0
  0
CLASS
  1
IDBUFFER
  2
AcDbIdBuffer
  3
ObjectDBX Classes
 90
    32768
280
     0
281
     0
  0
CLASS
  1
ACDBSECTIONVIEWSTYLE
  2
AcDbSectionViewStyle
  3
ObjectDBX Classes
 90
     1025
280
     0
281
     0
  0
CLASS
  1
ACDBDETAILVIEWSTYLE
  2
AcDbDetailViewStyle
  3
ObjectDBX Classes
 90
     1025
280
     0
281
     0
  0
CLASS
  1
XRECORD
  2
AcDbXrecord
  3
ObjectDBX Classes
 90
        0
280
     0
281
     0
  0
ENDSEC
  0
SECTION
  2
TABLES
  0
TABLE
  2
VPORT
  5
8
102
{ACAD_XDICTIONARY
360
D04A
102
}
330
0
100
AcDbSymbolTable
 70
     1
  0
VPORT
  5
EA
330
8
100
AcDbSymbolTableRecord
100
AcDbViewportTableRecord
  2
*Active
 70
     0
 10
0.0
 20
0.0
 11
1.0
 21
1.0
 12
9.696350842360864
 22
17.13269859765737
 13
0.0
 23
0.0
 14
10.0
 24
10.0
 15
10.0
 25
10.0
 16
0.0
 26
0.0
 36
1.0
 17
0.0
 27
0.0
 37
0.0
 40
372.260864608561
 41
0.9846153846153846
 42
50.0
 43
0.0
 44
0.0
 50
0.0
 51
0.0
 71
     0
 72
  1000
 73
     1
 74
     3
 75
     0
 76
     1
 77
     0
 78
     0
281
     0
 65
     1
110
0.0
120
0.0
130
0.0
111
1.0
121
0.0
131
0.0
112
0.0
122
1.0
132
0.0
 79
     0
146
0.0
1001
ACAD_NAV_VCDISPLAY
1070
     3
  0
ENDTAB
  0
TABLE
  2
LTYPE
  5
5
330
0
100
AcDbSymbolTable
 70
     1
  0
LTYPE
  5
14
330
5
100
AcDbSymbolTableRecord
100
AcDbLinetypeTableRecord
  2
ByBlock
 70
     0
  3

 72
    65
 73
     0
 40
0.0
  0
LTYPE
  5
15
330
5
100
AcDbSymbolTableRecord
100
AcDbLinetypeTableRecord
  2
ByLayer
 70
     0
  3

 72
    65
 73
     0
 40
0.0
  0
LTYPE
  5
16
330
5
100
AcDbSymbolTableRecord
100
AcDbLinetypeTableRecord
  2
Continuous
 70
     0
  3
Solid line
 72
    65
 73
     0
 40
0.0
  0
ENDTAB
  0
TABLE
  2
LAYER
  5
2
102
{ACAD_XDICTIONARY
360
1FF
102
}
330
0
100
AcDbSymbolTable
 70
     1
  0
LAYER
  5
10
102
{ACAD_XDICTIONARY
360
13C
102
}
330
2
100
AcDbSymbolTableRecord
100
AcDbLayerTableRecord
  2
0
 70
     0
 62
     7
  6
Continuous
370
    -3
390
F
  0
ENDTAB
  0
TABLE
  2
STYLE
  5
3
330
0
100
AcDbSymbolTable
 70
     1
  0
STYLE
  5
11
330
3
100
AcDbSymbolTableRecord
100
AcDbTextStyleTableRecord
  2
Standard
 70
     0
 40
0.0
 41
1.0
 50
0.0
 71
     0
 42
2.5
  3
arial.ttf
  4

1001
ACAD
1000
Arial
1071
       34
  0
ENDTAB
  0
TABLE
  2
VIEW
  5
6
330
0
100
AcDbSymbolTable
 70
     0
  0
ENDTAB
  0
TABLE
  2
UCS
  5
7
330
0
100
AcDbSymbolTable
 70
     0
  0
ENDTAB
  0
TABLE
  2
APPID
  5
9
330
0
100
AcDbSymbolTable
 70
     8
  0
APPID
  5
12
330
9
100
AcDbSymbolTableRecord
100
AcDbRegAppTableRecord
  2
ACAD
 70
     0
  0
APPID
  5
9E
330
9
100
AcDbSymbolTableRecord
100
AcDbRegAppTableRecord
  2
ACAD_PSEXT
 70
     0
  0
APPID
  5
133
330
9
100
AcDbSymbolTableRecord
100
AcDbRegAppTableRecord
  2
AcadAnnoPO
 70
     0
  0
APPID
  5
134
330
9
100
AcDbSymbolTableRecord
100
AcDbRegAppTableRecord
  2
AcadAnnotative
 70
     0
  0
APPID
  5
135
330
9
100
AcDbSymbolTableRecord
100
AcDbRegAppTableRecord
  2
ACAD_DSTYLE_DIMJAG
 70
     0
  0
APPID
  5
136
330
9
100
AcDbSymbolTableRecord
100
AcDbRegAppTableRecord
  2
ACAD_DSTYLE_DIMTALN
 70
     0
  0
APPID
  5
165
330
9
100
AcDbSymbolTableRecord
100
AcDbRegAppTableRecord
  2
ACAD_MLEADERVER
 70
     0
  0
APPID
  5
217
330
9
100
AcDbSymbolTableRecord
100
AcDbRegAppTableRecord
  2
ACAD_NAV_VCDISPLAY
 70
     0
  0
ENDTAB
  0
TABLE
  2
DIMSTYLE
  5
A
330
0
100
AcDbSymbolTable
 70
     1
100
AcDbDimStyleTable
 71
     0
  0
DIMSTYLE
105
27
330
A
100
AcDbSymbolTableRecord
100
AcDbDimStyleTableRecord
  2
ISO-25
 70
     0
 41
2.5
 42
0.625
 43
3.75
 44
1.25
 73
     0
 74
     0
 77
     1
 78
     8
140
2.5
141
2.5
143
0.03937007874016
147
0.625
171
     3
172
     1
271
     2
272
     2
274
     3
278
    44
283
     0
284
     8
340
11
  0
ENDTAB
  0
TABLE
  2
BLOCK_RECORD
  5
1
330
0
100
AcDbSymbolTable
 70
     7
  0
BLOCK_RECORD
  5
1F
102
{ACAD_XDICTIONARY
360
1CE
102
}
330
1
100
AcDbSymbolTableRecord
100
AcDbBlockTableRecord
  2
*Model_Space
340
22
  0
BLOCK_RECORD
  5
D2
102
{ACAD_XDICTIONARY
360
CFFD
102
}
330
1
100
AcDbSymbolTableRecord
100
AcDbBlockTableRecord
  2
*Paper_Space
340
D3
  0
BLOCK_RECORD
  5
D6
102
{ACAD_XDICTIONARY
360
CFFF
102
}
330
1
100
AcDbSymbolTableRecord
100
AcDbBlockTableRecord
  2
*Paper_Space0
340
D7
  0
BLOCK_RECORD
  5
CDB5
330
1
100
AcDbSymbolTableRecord
100
AcDbBlockTableRecord
  2
SBE32_99-Front
340
0
102
{BLKREFS
331
CFF3
102
}
  0
BLOCK_RECORD
  5
CE1D
330
1
100
AcDbSymbolTableRecord
100
AcDbBlockTableRecord
  2
SBE32_99-Left
340
0
102
{BLKREFS
331
CFF4
102
}
  0
BLOCK_RECORD
  5
CE50
330
1
100
AcDbSymbolTableRecord
100
AcDbBlockTableRecord
  2
SBE32_99-Right
340
0
102
{BLKREFS
331
CFF5
102
}
  0
BLOCK_RECORD
  5
CE83
330
1
100
AcDbSymbolTableRecord
100
AcDbBlockTableRecord
  2
SBE32_99-Top
340
0
102
{BLKREFS
331
CFF6
102
}
  0
BLOCK_RECORD
  5
CED7
330
1
100
AcDbSymbolTableRecord
100
AcDbBlockTableRecord
  2
SBE32_99-Bottom
340
0
102
{BLKREFS
331
CFF7
102
}
  0
BLOCK_RECORD
  5
CF0C
330
1
100
AcDbSymbolTableRecord
100
AcDbBlockTableRecord
  2
SBE32_99-ISO
340
0
102
{BLKREFS
331
CFF8
102
}
  0
ENDTAB
  0
ENDSEC
  0
SECTION
  2
BLOCKS
  0
BLOCK
  5
20
330
1F
100
AcDbEntity
  8
0
100
AcDbBlockBegin
  2
*Model_Space
 70
     0
 10
0.0
 20
0.0
 30
0.0
  3
*Model_Space
  1

  0
ENDBLK
  5
21
330
1F
100
AcDbEntity
  8
0
100
AcDbBlockEnd
  0
BLOCK
  5
D4
330
D2
100
AcDbEntity
 67
     1
  8
0
100
AcDbBlockBegin
  2
*Paper_Space
 70
     0
 10
0.0
 20
0.0
 30
0.0
  3
*Paper_Space
  1

  0
ENDBLK
  5
D5
330
D2
100
AcDbEntity
 67
     1
  8
0
100
AcDbBlockEnd
  0
BLOCK
  5
D8
330
D6
100
AcDbEntity
 67
     1
  8
0
100
AcDbBlockBegin
  2
*Paper_Space0
 70
     0
 10
0.0
 20
0.0
 30
0.0
  3
*Paper_Space0
  1

  0
ENDBLK
  5
D9
330
D6
100
AcDbEntity
 67
     1
  8
0
100
AcDbBlockEnd
  0
BLOCK
  5
CDB6
330
CDB5
100
AcDbEntity
  8
0
100
AcDbBlockBegin
  2
SBE32_99-Front
 70
     0
 10
0.0
 20
0.0
 30
0.0
  3
SBE32_99-Front
  1

  0
LINE
  5
CDB8
330
CDB5
100
AcDbEntity
  8
0
100
AcDbLine
 10
-17.50000000000002
 20
99.0
 30
0.0
 11
-19.00000000000002
 21
99.0
 31
0.0
  0
LINE
  5
CDB9
330
CDB5
100
AcDbEntity
  8
0
100
AcDbLine
 10
17.50000000000016
 20
99.00000000000003
 30
0.0
 11
19.00000000000016
 21
99.00000000000003
 31
0.0
  0
LINE
  5
CDBA
330
CDB5
100
AcDbEntity
  8
0
100
AcDbLine
 10
-17.50000000000001
 20
29.00610095525754
 30
0.0
 11
-17.5
 21
1.500000000000003
 31
0.0
  0
LINE
  5
CDBB
330
CDB5
100
AcDbEntity
  8
0
100
AcDbLine
 10
-16.0
 20
29.00610095525754
 30
0.0
 11
-16.0
 21
1.500000000000003
 31
0.0
  0
LINE
  5
CDBC
330
CDB5
100
AcDbEntity
  8
0
100
AcDbLine
 10
16.0
 20
1.500000000000003
 30
0.0
 11
16.00000000000004
 21
29.00610095525754
 31
0.0
  0
LINE
  5
CDBD
330
CDB5
100
AcDbEntity
  8
0
100
AcDbLine
 10
17.5
 20
1.500000000000003
 30
0.0
 11
17.50000000000005
 21
29.00610095525754
 31
0.0
  0
LINE
  5
CDBE
330
CDB5
100
AcDbEntity
  8
0
100
AcDbLine
 10
-14.50000000000001
 20
-1.499999999999996
 30
0.0
 11
14.5
 21
-1.499999999999992
 31
0.0
  0
LINE
  5
CDBF
330
CDB5
100
AcDbEntity
  8
0
100
AcDbLine
 10
-14.5
 20
0.0
 30
0.0
 11
14.49999999999999
 21
0.0
 31
0.0
  0
LINE
  5
CDC0
330
CDB5
100
AcDbEntity
  8
0
100
AcDbLine
 10
-17.50000000000001
 20
29.00610095525754
 30
0.0
 11
-17.50000000000001
 21
37.24206230927726
 31
0.0
  0
LINE
  5
CDC1
330
CDB5
100
AcDbEntity
  8
0
100
AcDbLine
 10
-17.50000000000001
 20
47.19051317993775
 30
0.0
 11
-17.50000000000002
 21
93.0
 31
0.0
  0
LINE
  5
CDC2
330
CDB5
100
AcDbEntity
  8
0
100
AcDbLine
 10
-16.00000000000002
 20
93.0
 30
0.0
 11
-16.00000000000001
 21
47.19051317993775
 31
0.0
  0
LINE
  5
CDC3
330
CDB5
100
AcDbEntity
  8
0
100
AcDbLine
 10
-16.00000000000001
 20
37.24206230927726
 30
0.0
 11
-16.0
 21
29.00610095525754
 31
0.0
  0
LINE
  5
CDC4
330
CDB5
100
AcDbEntity
  8
0
100
AcDbLine
 10
16.00000000000004
 20
29.00610095525754
 30
0.0
 11
16.00000000000006
 21
37.24206230927726
 31
0.0
  0
LINE
  5
CDC5
330
CDB5
100
AcDbEntity
  8
0
100
AcDbLine
 10
16.00000000000008
 20
47.19051317993775
 30
0.0
 11
16.00000000000015
 21
92.99999999999998
 31
0.0
  0
LINE
  5
CDC6
330
CDB5
100
AcDbEntity
  8
0
100
AcDbLine
 10
17.50000000000015
 20
92.99999999999998
 30
0.0
 11
17.50000000000008
 21
47.19051317993775
 31
0.0
  0
LINE
  5
CDC7
330
CDB5
100
AcDbEntity
  8
0
100
AcDbLine
 10
17.50000000000006
 20
37.24206230927726
 30
0.0
 11
17.50000000000005
 21
29.00610095525754
 31
0.0
  0
LINE
  5
CDC8
330
CDB5
100
AcDbEntity
  8
0
100
AcDbLine
 10
17.50000000000005
 20
29.00610095525754
 30
0.0
 11
16.00000000000004
 21
29.00610095525754
 31
0.0
  0
LINE
  5
CDC9
330
CDB5
100
AcDbEntity
  8
0
100
AcDbLine
 10
-16.0
 20
29.00610095525754
 30
0.0
 11
-17.50000000000001
 21
29.00610095525754
 31
0.0
  0
LINE
  5
CDCA
330
CDB5
100
AcDbEntity
  8
0
100
AcDbLine
 10
-17.5
 20
47.19051317993775
 30
0.0
 11
-17.5
 21
37.24206230927726
 31
0.0
  0
LINE
  5
CDCB
330
CDB5
100
AcDbEntity
  8
0
100
AcDbLine
 10
-16.0
 20
37.24206230927726
 30
0.0
 11
-16.0
 21
47.19051317993775
 31
0.0
  0
LINE
  5
CDCC
330
CDB5
100
AcDbEntity
  8
0
100
AcDbLine
 10
15.99999999999998
 20
47.19051317993775
 30
0.0
 11
15.99999999999996
 21
37.24206230927725
 31
0.0
  0
LINE
  5
CDCD
330
CDB5
100
AcDbEntity
  8
0
100
AcDbLine
 10
17.49999999999996
 20
37.24206230927725
 30
0.0
 11
17.49999999999998
 21
47.19051317993775
 31
0.0
  0
ARC
  5
CDCE
330
CDB5
100
AcDbEntity
  8
0
100
AcDbCircle
 10
-32.99999999999999
 20
47.19051317993766
 30
0.0
 40
12.0
100
AcDbArc
 50
180.0
 51
236.0000000000001
  0
ARC
  5
CDCF
330
CDB5
100
AcDbEntity
  8
0
100
AcDbCircle
 10
33.00000000000007
 20
47.19051317993772
 30
0.0
 40
12.0
100
AcDbArc
 50
304.0
 51
0.0
  0
LINE
  5
CDD0
330
CDB5
100
AcDbEntity
  8
0
100
AcDbLine
 10
-17.50000000000002
 20
99.0
 30
0.0
 11
-17.50000000000002
 21
93.0
 31
0.0
  0
LINE
  5
CDD1
330
CDB5
100
AcDbEntity
  8
0
100
AcDbLine
 10
-16.00000000000002
 20
93.0
 30
0.0
 11
-16.00000000000002
 21
99.0
 31
0.0
  0
LINE
  5
CDD2
330
CDB5
100
AcDbEntity
  8
0
100
AcDbLine
 10
16.00000000000016
 20
99.0
 30
0.0
 11
16.00000000000015
 21
92.99999999999998
 31
0.0
  0
LINE
  5
CDD3
330
CDB5
100
AcDbEntity
  8
0
100
AcDbLine
 10
17.50000000000015
 20
92.99999999999998
 30
0.0
 11
17.50000000000016
 21
99.0
 31
0.0
  0
LINE
  5
CDD4
330
CDB5
100
AcDbEntity
  8
0
100
AcDbLine
 10
-45.0
 20
92.99999999999998
 30
0.0
 11
-39.0
 21
98.99999999999986
 31
0.0
  0
LINE
  5
CDD5
330
CDB5
100
AcDbEntity
  8
0
100
AcDbLine
 10
-16.00000000000002
 20
99.0
 30
0.0
 11
-17.50000000000002
 21
99.0
 31
0.0
  0
LINE
  5
CDD6
330
CDB5
100
AcDbEntity
  8
0
100
AcDbLine
 10
-17.50000000000002
 20
93.0
 30
0.0
 11
-16.00000000000002
 21
93.0
 31
0.0
  0
LINE
  5
CDD7
330
CDB5
100
AcDbEntity
  8
0
100
AcDbLine
 10
17.50000000000016
 20
99.0
 30
0.0
 11
16.00000000000016
 21
99.0
 31
0.0
  0
LINE
  5
CDD8
330
CDB5
100
AcDbEntity
  8
0
100
AcDbLine
 10
16.00000000000015
 20
92.99999999999998
 30
0.0
 11
17.50000000000015
 21
92.99999999999998
 31
0.0
  0
LINE
  5
CDD9
330
CDB5
100
AcDbEntity
  8
0
100
AcDbLine
 10
39.00000000000016
 20
98.99999999999984
 30
0.0
 11
45.00000000000014
 21
92.99999999999995
 31
0.0
  0
SPLINE
  5
CDDA
330
CDB5
100
AcDbEntity
  8
0
100
AcDbSpline
210
0.0
220
0.0
230
1.0
 70
     8
 71
     3
 72
    11
 73
     7
 74
     0
 42
0.000000001
 43
0.0000000001
 40
-1.0
 40
-1.0
 40
-1.0
 40
-1.0
 40
-0.8649350770692315
 40
-0.8649350770692315
 40
-0.8649350770692315
 40
0.0
 40
0.0
 40
0.0
 40
0.0
 10
17.5000000000001
 20
63.49999999999997
 30
0.0
 10
17.5000000000001
 20
63.58691438702452
 30
0.0
 10
17.50838271405298
 20
63.66373009289971
 30
0.0
 10
17.52783688767219
 20
63.72929168059382
 30
0.0
 10
17.65241843551996
 20
64.14913804539766
 30
0.0
 10
18.41714410067348
 20
64.05658642087335
 30
0.0
 10
19.0000000000001
 20
63.49999999999998
 30
0.0
  0
ARC
  5
CDDB
330
CDB5
100
AcDbEntity
  8
0
100
AcDbCircle
 10
17.5000000000001
 20
61.49999999999998
 30
0.0
 40
2.5
100
AcDbArc
 50
306.8698976458439
 51
53.13010235415607
  0
ARC
  5
CDDC
330
CDB5
100
AcDbEntity
  8
0
100
AcDbCircle
 10
32.50000000000011
 20
61.49999999999997
 30
0.0
 40
5.5
100
AcDbArc
 50
291.4355588797962
 51
248.5644411202037
  0
LINE
  5
CDDD
330
CDB5
100
AcDbEntity
  8
0
100
AcDbLine
 10
34.51000000000011
 20
56.38043947198586
 30
0.0
 11
34.51000000000009
 21
52.99999999999997
 31
0.0
  0
LINE
  5
CDDE
330
CDB5
100
AcDbEntity
  8
0
100
AcDbLine
 10
34.51000000000009
 20
52.99999999999997
 30
0.0
 11
34.50508000000009
 21
52.99999999999994
 31
0.0
  0
LINE
  5
CDDF
330
CDB5
100
AcDbEntity
  8
0
100
AcDbLine
 10
30.4949200000001
 20
52.99999999999997
 30
0.0
 11
30.4900000000001
 21
52.99999999999997
 31
0.0
  0
LINE
  5
CDE0
330
CDB5
100
AcDbEntity
  8
0
100
AcDbLine
 10
30.4900000000001
 20
52.99999999999997
 30
0.0
 11
30.4900000000001
 21
56.38043947198586
 31
0.0
  0
SPLINE
  5
CDE1
330
CDB5
100
AcDbEntity
  8
0
100
AcDbSpline
210
0.0
220
0.0
230
1.0
 70
     8
 71
     3
 72
     8
 73
     4
 74
     0
 42
0.000000001
 43
0.0000000001
 40
0.0
 40
0.0
 40
0.0
 40
0.0
 40
0.3070366784835734
 40
0.3070366784835734
 40
0.3070366784835734
 40
0.3070366784835734
 10
19.00000000000009
 20
63.49999999999998
 30
0.0
 10
18.58619289676597
 20
63.69757835065848
 30
0.0
 10
18.12655007946425
 20
63.83668253397484
 30
0.0
 10
17.69461252515096
 20
63.91514915798076
 30
0.0
  0
SPLINE
  5
CDE2
330
CDB5
100
AcDbEntity
  8
0
100
AcDbSpline
210
0.0
220
0.0
230
1.0
 70
     8
 71
     3
 72
    11
 73
     7
 74
     0
 42
0.000000001
 43
0.0000000001
 40
-1.0
 40
-1.0
 40
-1.0
 40
-1.0
 40
-0.864935077069793
 40
-0.864935077069793
 40
-0.864935077069793
 40
0.0
 40
0.0
 40
0.0
 40
0.0
 10
19.00000000000009
 20
59.49999999999999
 30
0.0
 10
18.90898347262241
 20
59.41308561297574
 30
0.0
 10
18.81193025838761
 20
59.33626990710085
 30
0.0
 10
18.71236173637666
 20
59.27070831940695
 30
0.0
 10
18.07474017342083
 20
58.85086195460242
 30
0.0
 10
17.50000000000009
 20
58.94341357912658
 30
0.0
 10
17.50000000000009
 20
59.49999999999997
 30
0.0
  0
SPLINE
  5
CDE3
330
CDB5
100
AcDbEntity
  8
0
100
AcDbSpline
210
0.0
220
0.0
230
1.0
 70
     8
 71
     3
 72
    11
 73
     7
 74
     0
 42
0.000000001
 43
0.0000000001
 40
0.6929633215164471
 40
0.6929633215164471
 40
0.6929633215164471
 40
0.6929633215164471
 40
0.864935077069793
 40
0.864935077069793
 40
0.864935077069793
 40
1.0
 40
1.0
 40
1.0
 40
1.0
 10
17.68702953183067
 20
59.08066694697045
 30
0.0
 10
17.92259161675367
 20
59.12401144857973
 30
0.0
 10
18.17117172657671
 20
59.18723186165623
 30
0.0
 10
18.42472347275323
 20
59.27070831940695
 30
0.0
 10
18.62386051677513
 20
59.33626990710085
 30
0.0
 10
18.81796694524473
 20
59.41308561297574
 30
0.0
 10
19.00000000000009
 20
59.49999999999999
 30
0.0
  0
LINE
  5
CDE4
330
CDB5
100
AcDbEntity
  8
0
100
AcDbLine
 10
-19.00000000000002
 20
98.99999999999998
 30
0.0
 11
-39.0
 21
98.99999999999986
 31
0.0
  0
LINE
  5
CDE5
330
CDB5
100
AcDbEntity
  8
0
100
AcDbLine
 10
-45.0
 20
92.99999999999998
 30
0.0
 11
-45.0
 21
47.19051317993766
 31
0.0
  0
LINE
  5
CDE6
330
CDB5
100
AcDbEntity
  8
0
100
AcDbLine
 10
45.00000000000007
 20
47.1905131799377
 30
0.0
 11
45.00000000000014
 21
92.99999999999995
 31
0.0
  0
LINE
  5
CDE7
330
CDB5
100
AcDbEntity
  8
0
100
AcDbLine
 10
19.00000000000016
 20
98.99999999999998
 30
0.0
 11
39.00000000000016
 21
98.99999999999984
 31
0.0
  0
LINE
  5
CDE8
330
CDB5
100
AcDbEntity
  8
0
100
AcDbLine
 10
-39.71031484164895
 20
37.24206230927716
 30
0.0
 11
-19.00000000000003
 21
23.27277856209688
 31
0.0
  0
ARC
  5
CDE9
330
CDB5
100
AcDbEntity
  8
0
100
AcDbCircle
 10
-17.5000000000001
 20
61.49999999999998
 30
0.0
 40
2.5
100
AcDbArc
 50
126.8698976458441
 51
233.1301023541561
  0
CIRCLE
  5
CDEA
330
CDB5
100
AcDbEntity
  8
0
100
AcDbCircle
 10
-36.00000000000009
 20
44.49999999999995
 30
0.0
 40
2.5
  0
CIRCLE
  5
CDEB
330
CDB5
100
AcDbEntity
  8
0
100
AcDbCircle
 10
-26.00000000000013
 20
71.49999999999997
 30
0.0
 40
2.5
  0
CIRCLE
  5
CDEC
330
CDB5
100
AcDbEntity
  8
0
100
AcDbCircle
 10
-26.00000000000016
 20
91.49999999999996
 30
0.0
 40
2.5
  0
CIRCLE
  5
CDED
330
CDB5
100
AcDbEntity
  8
0
100
AcDbCircle
 10
-36.00000000000014
 20
81.49999999999996
 30
0.0
 40
2.5
  0
CIRCLE
  5
CDEE
330
CDB5
100
AcDbEntity
  8
0
100
AcDbCircle
 10
-26.0000000000001
 20
51.49999999999998
 30
0.0
 40
2.5
  0
CIRCLE
  5
CDEF
330
CDB5
100
AcDbEntity
  8
0
100
AcDbCircle
 10
-26.00000000000008
 20
37.49999999999997
 30
0.0
 40
2.5
  0
LINE
  5
CDF0
330
CDB5
100
AcDbEntity
  8
0
100
AcDbLine
 10
-30.5000000000001
 20
52.99491999999998
 30
0.0
 11
-30.5000000000001
 21
52.99999999999997
 31
0.0
  0
LINE
  5
CDF1
330
CDB5
100
AcDbEntity
  8
0
100
AcDbLine
 10
-34.50000000000009
 20
52.99999999999996
 30
0.0
 11
-34.50000000000009
 21
52.99491999999997
 31
0.0
  0
LINE
  5
CDF2
330
CDB5
100
AcDbEntity
  8
0
100
AcDbLine
 10
-34.50000000000009
 20
52.99491999999997
 30
0.0
 11
-34.50508000000009
 21
52.99491999999997
 31
0.0
  0
LINE
  5
CDF3
330
CDB5
100
AcDbEntity
  8
0
100
AcDbLine
 10
-34.50508000000009
 20
52.99491999999997
 30
0.0
 11
-34.50508000000009
 21
52.99999999999996
 31
0.0
  0
LINE
  5
CDF4
330
CDB5
100
AcDbEntity
  8
0
100
AcDbLine
 10
-34.50508000000009
 20
52.99999999999996
 30
0.0
 11
-34.51000000000009
 21
52.99999999999997
 31
0.0
  0
LINE
  5
CDF5
330
CDB5
100
AcDbEntity
  8
0
100
AcDbLine
 10
-34.51000000000009
 20
52.99999999999997
 30
0.0
 11
-34.51000000000011
 21
56.38043947198586
 31
0.0
  0
ARC
  5
CDF6
330
CDB5
100
AcDbEntity
  8
0
100
AcDbCircle
 10
-32.50000000000011
 20
61.49999999999997
 30
0.0
 40
5.5
100
AcDbArc
 50
291.4355588797964
 51
248.5644411202037
  0
LINE
  5
CDF7
330
CDB5
100
AcDbEntity
  8
0
100
AcDbLine
 10
-30.4900000000001
 20
56.38043947198586
 30
0.0
 11
-30.4900000000001
 21
52.99999999999997
 31
0.0
  0
LINE
  5
CDF8
330
CDB5
100
AcDbEntity
  8
0
100
AcDbLine
 10
-30.4900000000001
 20
52.99999999999997
 30
0.0
 11
-30.4949200000001
 21
52.99999999999997
 31
0.0
  0
LINE
  5
CDF9
330
CDB5
100
AcDbEntity
  8
0
100
AcDbLine
 10
-30.4949200000001
 20
52.99999999999997
 30
0.0
 11
-30.4949200000001
 21
52.99491999999998
 31
0.0
  0
LINE
  5
CDFA
330
CDB5
100
AcDbEntity
  8
0
100
AcDbLine
 10
-30.4949200000001
 20
52.99491999999998
 30
0.0
 11
-30.5000000000001
 21
52.99491999999998
 31
0.0
  0
LINE
  5
CDFB
330
CDB5
100
AcDbEntity
  8
0
100
AcDbLine
 10
-34.50000000000009
 20
52.99999999999982
 30
0.0
 11
-34.50000000000019
 21
55.99999999999997
 31
0.0
  0
LINE
  5
CDFC
330
CDB5
100
AcDbEntity
  8
0
100
AcDbLine
 10
-30.50000000000011
 20
55.99999999999997
 30
0.0
 11
-30.5000000000001
 21
52.99999999999998
 31
0.0
  0
LINE
  5
CDFD
330
CDB5
100
AcDbEntity
  8
0
100
AcDbLine
 10
-34.5000000000001
 20
55.99999999999997
 30
0.0
 11
-30.5000000000001
 21
55.99999999999997
 31
0.0
  0
SPLINE
  5
CDFE
330
CDB5
100
AcDbEntity
  8
0
100
AcDbSpline
210
0.0
220
0.0
230
1.0
 70
     8
 71
     3
 72
     8
 73
     4
 74
     0
 42
0.000000001
 43
0.0000000001
 40
-0.3070366784835494
 40
-0.3070366784835494
 40
-0.3070366784835494
 40
-0.3070366784835494
 40
0.0
 40
0.0
 40
0.0
 40
0.0
 10
-17.69461252515106
 20
63.91514915798075
 30
0.0
 10
-18.12655007946432
 20
63.83668253397482
 30
0.0
 10
-18.58619289676601
 20
63.69757835065847
 30
0.0
 10
-19.00000000000009
 20
63.49999999999998
 30
0.0
  0
SPLINE
  5
CDFF
330
CDB5
100
AcDbEntity
  8
0
100
AcDbSpline
210
0.0
220
0.0
230
1.0
 70
     8
 71
     3
 72
    11
 73
     7
 74
     0
 42
0.000000001
 43
0.0000000001
 40
0.0
 40
0.0
 40
0.0
 40
0.0
 40
0.8649350770692315
 40
0.8649350770692315
 40
0.8649350770692315
 40
1.0
 40
1.0
 40
1.0
 40
1.0
 10
-19.0000000000001
 20
63.49999999999998
 30
0.0
 10
-18.41714410067348
 20
64.05658642087335
 30
0.0
 10
-17.65241843551996
 20
64.14913804539766
 30
0.0
 10
-17.52783688767219
 20
63.72929168059382
 30
0.0
 10
-17.50838271405298
 20
63.66373009289971
 30
0.0
 10
-17.5000000000001
 20
63.58691438702452
 30
0.0
 10
-17.5000000000001
 20
63.49999999999997
 30
0.0
  0
SPLINE
  5
CE00
330
CDB5
100
AcDbEntity
  8
0
100
AcDbSpline
210
0.0
220
0.0
230
1.0
 70
     8
 71
     3
 72
    11
 73
     7
 74
     0
 42
0.000000001
 43
0.0000000001
 40
-1.0
 40
-1.0
 40
-1.0
 40
-1.0
 40
-0.864935077069793
 40
-0.864935077069793
 40
-0.864935077069793
 40
-0.6929633215164245
 40
-0.6929633215164245
 40
-0.6929633215164245
 40
-0.6929633215164245
 10
-19.00000000000009
 20
59.49999999999999
 30
0.0
 10
-18.81796694524473
 20
59.41308561297574
 30
0.0
 10
-18.62386051677513
 20
59.33626990710085
 30
0.0
 10
-18.42472347275323
 20
59.27070831940695
 30
0.0
 10
-18.17117172657668
 20
59.18723186165622
 30
0.0
 10
-17.92259161675361
 20
59.1240114485797
 30
0.0
 10
-17.68702953183058
 20
59.08066694697044
 30
0.0
  0
SPLINE
  5
CE01
330
CDB5
100
AcDbEntity
  8
0
100
AcDbSpline
210
0.0
220
0.0
230
1.0
 70
     8
 71
     3
 72
    11
 73
     7
 74
     0
 42
0.000000001
 43
0.0000000001
 40
0.0
 40
0.0
 40
0.0
 40
0.0
 40
0.864935077069793
 40
0.864935077069793
 40
0.864935077069793
 40
1.0
 40
1.0
 40
1.0
 40
1.0
 10
-17.50000000000009
 20
59.49999999999997
 30
0.0
 10
-17.50000000000009
 20
58.94341357912658
 30
0.0
 10
-18.07474017342083
 20
58.85086195460242
 30
0.0
 10
-18.71236173637666
 20
59.27070831940695
 30
0.0
 10
-18.81193025838761
 20
59.33626990710085
 30
0.0
 10
-18.90898347262241
 20
59.41308561297574
 30
0.0
 10
-19.00000000000009
 20
59.49999999999999
 30
0.0
  0
SPLINE
  5
CE02
330
CDB5
100
AcDbEntity
  8
0
100
AcDbSpline
210
0.0
220
0.0
230
1.0
 70
     8
 71
     3
 72
     8
 73
     4
 74
     0
 42
0.000000001
 43
0.0000000001
 40
0.0
 40
0.0
 40
0.0
 40
0.0
 40
1.0
 40
1.0
 40
1.0
 40
1.0
 10
-19.00000000000003
 20
23.27277856209688
 30
0.0
 10
-18.21460183660257
 20
22.5982700452545
 30
0.0
 10
-17.50000000000003
 20
21.92376152841224
 30
0.0
 10
-17.50000000000003
 20
21.24925301156961
 30
0.0
  0
LINE
  5
CE03
330
CDB5
100
AcDbEntity
  8
0
100
AcDbLine
 10
19.00000000000003
 20
23.27277856209688
 30
0.0
 11
39.71031484164902
 21
37.24206230927721
 31
0.0
  0
SPLINE
  5
CE04
330
CDB5
100
AcDbEntity
  8
0
100
AcDbSpline
210
0.0
220
0.0
230
1.0
 70
     8
 71
     3
 72
     8
 73
     4
 74
     0
 42
0.000000001
 43
0.0000000001
 40
-1.0
 40
-1.0
 40
-1.0
 40
-1.0
 40
0.0
 40
0.0
 40
0.0
 40
0.0
 10
17.50000000000003
 20
21.24925301156961
 30
0.0
 10
17.50000000000003
 20
21.92376152841224
 30
0.0
 10
18.21460183660257
 20
22.5982700452545
 30
0.0
 10
19.00000000000003
 20
23.27277856209688
 30
0.0
  0
CIRCLE
  5
CE05
330
CDB5
100
AcDbEntity
  8
0
100
AcDbCircle
 10
36.00000000000014
 20
81.49999999999996
 30
0.0
 40
2.5
  0
CIRCLE
  5
CE06
330
CDB5
100
AcDbEntity
  8
0
100
AcDbCircle
 10
26.00000000000016
 20
91.49999999999996
 30
0.0
 40
2.5
  0
CIRCLE
  5
CE07
330
CDB5
100
AcDbEntity
  8
0
100
AcDbCircle
 10
26.00000000000013
 20
71.49999999999997
 30
0.0
 40
2.5
  0
CIRCLE
  5
CE08
330
CDB5
100
AcDbEntity
  8
0
100
AcDbCircle
 10
26.00000000000008
 20
37.49999999999997
 30
0.0
 40
2.5
  0
CIRCLE
  5
CE09
330
CDB5
100
AcDbEntity
  8
0
100
AcDbCircle
 10
26.0000000000001
 20
51.49999999999998
 30
0.0
 40
2.5
  0
CIRCLE
  5
CE0A
330
CDB5
100
AcDbEntity
  8
0
100
AcDbCircle
 10
36.00000000000009
 20
44.49999999999995
 30
0.0
 40
2.5
  0
LINE
  5
CE0B
330
CDB5
100
AcDbEntity
  8
0
100
AcDbLine
 10
34.50508000000009
 20
52.99999999999994
 30
0.0
 11
34.50508000000009
 21
52.99491999999997
 31
0.0
  0
LINE
  5
CE0C
330
CDB5
100
AcDbEntity
  8
0
100
AcDbLine
 10
34.50508000000009
 20
52.99491999999997
 30
0.0
 11
34.50000000000009
 21
52.99491999999997
 31
0.0
  0
LINE
  5
CE0D
330
CDB5
100
AcDbEntity
  8
0
100
AcDbLine
 10
34.50000000000009
 20
52.99491999999997
 30
0.0
 11
34.50000000000009
 21
52.99999999999994
 31
0.0
  0
LINE
  5
CE0E
330
CDB5
100
AcDbEntity
  8
0
100
AcDbLine
 10
30.5000000000001
 20
52.99999999999997
 30
0.0
 11
30.5000000000001
 21
52.99491999999998
 31
0.0
  0
LINE
  5
CE0F
330
CDB5
100
AcDbEntity
  8
0
100
AcDbLine
 10
30.5000000000001
 20
52.99491999999998
 30
0.0
 11
30.4949200000001
 21
52.99491999999998
 31
0.0
  0
LINE
  5
CE10
330
CDB5
100
AcDbEntity
  8
0
100
AcDbLine
 10
30.4949200000001
 20
52.99491999999998
 30
0.0
 11
30.4949200000001
 21
52.99999999999997
 31
0.0
  0
LINE
  5
CE11
330
CDB5
100
AcDbEntity
  8
0
100
AcDbLine
 10
30.50000000000011
 20
55.99999999999997
 30
0.0
 11
34.5000000000001
 21
55.99999999999997
 31
0.0
  0
LINE
  5
CE12
330
CDB5
100
AcDbEntity
  8
0
100
AcDbLine
 10
30.50000000000009
 20
52.99999999999984
 30
0.0
 11
30.50000000000011
 21
55.99999999999997
 31
0.0
  0
LINE
  5
CE13
330
CDB5
100
AcDbEntity
  8
0
100
AcDbLine
 10
34.50000000000009
 20
55.99999999999997
 30
0.0
 11
34.50000000000009
 21
52.99999999999997
 31
0.0
  0
SPLINE
  5
CE14
330
CDB5
100
AcDbEntity
  8
0
100
AcDbSpline
210
0.0
220
0.0
230
1.0
 70
     8
 71
     3
 72
     8
 73
     4
 74
     0
 42
0.000000001
 43
0.0000000001
 40
0.0
 40
0.0
 40
0.0
 40
0.0
 40
1.0
 40
1.0
 40
1.0
 40
1.0
 10
-12.02499999999999
 20
1.500000000000005
 30
0.0
 10
-12.85000000000015
 20
0.7146018366025584
 30
0.0
 10
-13.67499999999995
 20
0.0000000000000041
 30
0.0
 10
-14.50000000000001
 20
0.000000000000005
 30
0.0
  0
LINE
  5
CE15
330
CDB5
100
AcDbEntity
  8
0
100
AcDbLine
 10
-6.25
 20
8.500000000000007
 30
0.0
 11
-12.025
 21
1.500000000000005
 31
0.0
  0
SPLINE
  5
CE16
330
CDB5
100
AcDbEntity
  8
0
100
AcDbSpline
210
0.0
220
0.0
230
1.0
 70
     8
 71
     3
 72
     8
 73
     4
 74
     0
 42
0.000000001
 43
0.0000000001
 40
0.0
 40
0.0
 40
0.0
 40
0.0
 40
1.0
 40
1.0
 40
1.0
 40
1.0
 10
14.50000000000001
 20
0.0000000000000094
 30
0.0
 10
13.67500000000006
 20
0.0000000000000073
 30
0.0
 10
12.8500000000002
 20
0.7146018366025651
 30
0.0
 10
12.02499999999999
 20
1.500000000000011
 30
0.0
  0
LINE
  5
CE17
330
CDB5
100
AcDbEntity
  8
0
100
AcDbLine
 10
12.02499999999999
 20
1.500000000000011
 30
0.0
 11
6.250000000000001
 21
8.500000000000008
 31
0.0
  0
LINE
  5
CE18
330
CDB5
100
AcDbEntity
  8
0
100
AcDbLine
 10
6.250000000000001
 20
8.500000000000008
 30
0.0
 11
-6.25
 21
8.500000000000007
 31
0.0
  0
ARC
  5
CE19
330
CDB5
100
AcDbEntity
  8
0
100
AcDbCircle
 10
-14.5
 20
1.500000000000003
 30
0.0
 40
1.499999999999999
100
AcDbArc
 50
180.0
 51
270.0000000000002
  0
ARC
  5
CE1A
330
CDB5
100
AcDbEntity
  8
0
100
AcDbCircle
 10
14.5
 20
1.500000000000007
 30
0.0
 40
3.0
100
AcDbArc
 50
270.0
 51
0.0
  0
ARC
  5
CE1B
330
CDB5
100
AcDbEntity
  8
0
100
AcDbCircle
 10
14.5
 20
1.500000000000007
 30
0.0
 40
1.499999999999999
100
AcDbArc
 50
269.9999999999997
 51
0.0
  0
ARC
  5
CE1C
330
CDB5
100
AcDbEntity
  8
0
100
AcDbCircle
 10
-14.5
 20
1.500000000000003
 30
0.0
 40
3.000000000000002
100
AcDbArc
 50
180.0
 51
269.9999999999999
  0
ENDBLK
  5
CDB7
330
CDB5
100
AcDbEntity
  8
0
100
AcDbBlockEnd
  0
BLOCK
  5
CE1E
330
CE1D
100
AcDbEntity
  8
0
100
AcDbBlockBegin
  2
SBE32_99-Left
 70
     0
 10
0.0
 20
0.0
 30
0.0
  3
SBE32_99-Left
  1

  0
LINE
  5
CE20
330
CE1D
100
AcDbEntity
  8
0
100
AcDbLine
 10
3.0
 20
99.0
 30
0.0
 11
1.5
 21
99.0
 31
0.0
  0
LINE
  5
CE21
330
CE1D
100
AcDbEntity
  8
0
100
AcDbLine
 10
2.999999999999996
 20
21.24925301156961
 30
0.0
 11
3.0
 21
1.500000000000003
 31
0.0
  0
LINE
  5
CE22
330
CE1D
100
AcDbEntity
  8
0
100
AcDbLine
 10
2.999999999999998
 20
-1.499999999999998
 30
0.0
 11
2.999999999999998
 21
1.500000000000003
 31
0.0
  0
CIRCLE
  5
CE23
330
CE1D
100
AcDbEntity
  8
0
100
AcDbCircle
 10
29.00000000000001
 20
51.5
 30
0.0
 40
2.5
  0
CIRCLE
  5
CE24
330
CE1D
100
AcDbEntity
  8
0
100
AcDbCircle
 10
29.00000000000001
 20
91.5
 30
0.0
 40
2.5
  0
CIRCLE
  5
CE25
330
CE1D
100
AcDbEntity
  8
0
100
AcDbCircle
 10
29.00000000000001
 20
71.5
 30
0.0
 40
2.5
  0
ARC
  5
CE26
330
CE1D
100
AcDbEntity
  8
0
100
AcDbCircle
 10
1.500000000000003
 20
61.49999999999998
 30
0.0
 40
2.5
100
AcDbArc
 50
306.8698976458439
 51
53.13010235415607
  0
LINE
  5
CE27
330
CE1D
100
AcDbEntity
  8
0
100
AcDbLine
 10
1.499999999999996
 20
37.24206230927716
 30
0.0
 11
1.499999999999996
 21
23.27277856209688
 31
0.0
  0
ARC
  5
CE28
330
CE1D
100
AcDbEntity
  8
0
100
AcDbCircle
 10
-1.500000000000006
 20
52.99999999999997
 30
0.0
 40
3.0
100
AcDbArc
 50
60.0000000000001
 51
90.00000000000019
  0
ARC
  5
CE29
330
CE1D
100
AcDbEntity
  8
0
100
AcDbCircle
 10
-1.500000000000006
 20
52.99999999999997
 30
0.0
 40
1.5
100
AcDbArc
 50
0.0
 51
90.00000000000024
  0
LINE
  5
CE2A
330
CE1D
100
AcDbEntity
  8
0
100
AcDbLine
 10
0.0
 20
23.27277856209688
 30
0.0
 11
0.0
 21
37.24206230927716
 31
0.0
  0
SPLINE
  5
CE2B
330
CE1D
100
AcDbEntity
  8
0
100
AcDbSpline
210
0.0
220
0.0
230
1.0
 70
     8
 71
     3
 72
    11
 73
     7
 74
     0
 42
0.000000001
 43
0.0000000001
 40
-1.0
 40
-1.0
 40
-1.0
 40
-1.0
 40
-0.8649350770692315
 40
-0.8649350770692315
 40
-0.8649350770692315
 40
-0.6929633215164225
 40
-0.6929633215164225
 40
-0.6929633215164225
 40
-0.6929633215164225
 10
3.0
 20
63.49999999999997
 30
0.0
 10
2.817966945243876
 20
63.58691438702452
 30
0.0
 10
2.623860516773428
 20
63.66373009289971
 30
0.0
 10
2.424723472750648
 20
63.72929168059382
 30
0.0
 10
2.17117172657486
 20
63.81276813834419
 30
0.0
 10
1.922591616752587
 20
63.87598855142046
 30
0.0
 10
1.687029531830297
 20
63.91933305302963
 30
0.0
  0
SPLINE
  5
CE2C
330
CE1D
100
AcDbEntity
  8
0
100
AcDbSpline
210
0.0
220
0.0
230
1.0
 70
     8
 71
     3
 72
    11
 73
     7
 74
     0
 42
0.000000001
 43
0.0000000001
 40
0.0
 40
0.0
 40
0.0
 40
0.0
 40
0.8649350770692315
 40
0.8649350770692315
 40
0.8649350770692315
 40
1.0
 40
1.0
 40
1.0
 40
1.0
 10
1.499999999999992
 20
63.49999999999998
 30
0.0
 10
1.499999999999993
 20
64.05658642087335
 30
0.0
 10
2.074740173419743
 20
64.14913804539766
 30
0.0
 10
2.712361736375321
 20
63.72929168059382
 30
0.0
 10
2.811930258386711
 20
63.66373009289971
 30
0.0
 10
2.908983472621935
 20
63.58691438702452
 30
0.0
 10
2.999999999999998
 20
63.49999999999997
 30
0.0
  0
SPLINE
  5
CE2D
330
CE1D
100
AcDbEntity
  8
0
100
AcDbSpline
210
0.0
220
0.0
230
1.0
 70
     8
 71
     3
 72
     8
 73
     4
 74
     0
 42
0.000000001
 43
0.0000000001
 40
-0.3070366784835521
 40
-0.3070366784835521
 40
-0.3070366784835521
 40
-0.3070366784835521
 40
0.0
 40
0.0
 40
0.0
 40
0.0
 10
1.694612525151018
 20
59.08485084201942
 30
0.0
 10
2.126550079464222
 20
59.16331746602531
 30
0.0
 10
2.586192896765862
 20
59.30242164934161
 30
0.0
 10
2.999999999999993
 20
59.49999999999997
 30
0.0
  0
SPLINE
  5
CE2E
330
CE1D
100
AcDbEntity
  8
0
100
AcDbSpline
210
0.0
220
0.0
230
1.0
 70
     8
 71
     3
 72
    11
 73
     7
 74
     0
 42
0.000000001
 43
0.0000000001
 40
0.0
 40
0.0
 40
0.0
 40
0.0
 40
0.864935077069793
 40
0.864935077069793
 40
0.864935077069793
 40
1.0
 40
1.0
 40
1.0
 40
1.0
 10
2.999999999999994
 20
59.49999999999997
 30
0.0
 10
2.417144100672945
 20
58.94341357912658
 30
0.0
 10
1.652418435519102
 20
58.85086195460242
 30
0.0
 10
1.527836887671845
 20
59.27070831940695
 30
0.0
 10
1.508382714052802
 20
59.33626990710085
 30
0.0
 10
1.499999999999992
 20
59.41308561297574
 30
0.0
 10
1.499999999999992
 20
59.49999999999999
 30
0.0
  0
SPLINE
  5
CE2F
330
CE1D
100
AcDbEntity
  8
0
100
AcDbSpline
210
0.0
220
0.0
230
1.0
 70
     8
 71
     3
 72
     8
 73
     4
 74
     0
 42
0.000000001
 43
0.0000000001
 40
-1.0
 40
-1.0
 40
-1.0
 40
-1.0
 40
0.0
 40
0.0
 40
0.0
 40
0.0
 10
2.999999999999996
 20
21.24925301156962
 30
0.0
 10
1.429203673205051
 20
21.92376152841224
 30
0.0
 10
-0.0000000000000089
 20
22.5982700452545
 30
0.0
 10
-0.0000000000000078
 20
23.27277856209688
 30
0.0
  0
SPLINE
  5
CE30
330
CE1D
100
AcDbEntity
  8
0
100
AcDbSpline
210
0.0
220
0.0
230
1.0
 70
     8
 71
     3
 72
     8
 73
     4
 74
     0
 42
0.000000001
 43
0.0000000001
 40
0.0
 40
0.0
 40
0.0
 40
0.0
 40
1.0
 40
1.0
 40
1.0
 40
1.0
 10
1.499999999999992
 20
23.27277856209688
 30
0.0
 10
1.499999999999992
 20
22.5982700452545
 30
0.0
 10
2.214601836602522
 20
21.92376152841224
 30
0.0
 10
2.999999999999996
 20
21.24925301156961
 30
0.0
  0
LINE
  5
CE31
330
CE1D
100
AcDbEntity
  8
0
100
AcDbLine
 10
1.499999999999996
 20
23.27277856209688
 30
0.0
 11
1.090140682897373
 21
23.27277856209688
 31
0.0
  0
LINE
  5
CE32
330
CE1D
100
AcDbEntity
  8
0
100
AcDbLine
 10
1.090140682897373
 20
23.27277856209688
 30
0.0
 11
0.0
 21
23.27277856209688
 31
0.0
  0
LINE
  5
CE33
330
CE1D
100
AcDbEntity
  8
0
100
AcDbLine
 10
-8.999999999999985
 20
55.99999999999997
 30
0.0
 11
-6.999999999999992
 21
55.99999999999996
 31
0.0
  0
LINE
  5
CE34
330
CE1D
100
AcDbEntity
  8
0
100
AcDbLine
 10
-6.999999999999992
 20
55.99999999999996
 30
0.0
 11
-1.500000000000003
 21
55.99999999999997
 31
0.0
  0
LINE
  5
CE35
330
CE1D
100
AcDbEntity
  8
0
100
AcDbLine
 10
-8.999999999999985
 20
55.99999999999997
 30
0.0
 11
-8.999999999999985
 21
54.49999999999996
 31
0.0
  0
LINE
  5
CE36
330
CE1D
100
AcDbEntity
  8
0
100
AcDbLine
 10
-6.999999999999992
 20
55.99999999999996
 30
0.0
 11
-6.999999999999992
 21
54.49999999999996
 31
0.0
  0
LINE
  5
CE37
330
CE1D
100
AcDbEntity
  8
0
100
AcDbLine
 10
-1.500000000000003
 20
54.49999999999997
 30
0.0
 11
-6.999999999999992
 21
54.49999999999996
 31
0.0
  0
LINE
  5
CE38
330
CE1D
100
AcDbEntity
  8
0
100
AcDbLine
 10
-6.999999999999992
 20
54.49999999999996
 30
0.0
 11
-8.999999999999985
 21
54.49999999999996
 31
0.0
  0
LINE
  5
CE39
330
CE1D
100
AcDbEntity
  8
0
100
AcDbLine
 10
53.99999999999999
 20
29.00610095525754
 30
0.0
 11
54.0
 21
1.500000000000003
 31
0.0
  0
LINE
  5
CE3A
330
CE1D
100
AcDbEntity
  8
0
100
AcDbLine
 10
3.0
 20
99.0
 30
0.0
 11
30.50000000000001
 21
99.0
 31
0.0
  0
LINE
  5
CE3B
330
CE1D
100
AcDbEntity
  8
0
100
AcDbLine
 10
53.99999999999999
 20
29.00610095525754
 30
0.0
 11
41.78968515835103
 21
37.24206230927726
 31
0.0
  0
LINE
  5
CE3C
330
CE1D
100
AcDbEntity
  8
0
100
AcDbLine
 10
36.5
 20
47.19051317993775
 30
0.0
 11
36.50000000000001
 21
93.0
 31
0.0
  0
ARC
  5
CE3D
330
CE1D
100
AcDbEntity
  8
0
100
AcDbCircle
 10
48.5
 20
47.19051317993775
 30
0.0
 40
12.0
100
AcDbArc
 50
180.0
 51
236.0
  0
LINE
  5
CE3E
330
CE1D
100
AcDbEntity
  8
0
100
AcDbLine
 10
1.499999999999996
 20
47.19051317993766
 30
0.0
 11
1.499999999999998
 21
37.24206230927716
 31
0.0
  0
LINE
  5
CE3F
330
CE1D
100
AcDbEntity
  8
0
100
AcDbLine
 10
0.0
 20
37.24206230927716
 30
0.0
 11
0.0
 21
47.19051317993766
 31
0.0
  0
LINE
  5
CE40
330
CE1D
100
AcDbEntity
  8
0
100
AcDbLine
 10
30.50000000000001
 20
99.0
 30
0.0
 11
36.50000000000001
 21
93.0
 31
0.0
  0
LINE
  5
CE41
330
CE1D
100
AcDbEntity
  8
0
100
AcDbLine
 10
0.0
 20
98.99999999999998
 30
0.0
 11
0.0
 21
92.99999999999998
 31
0.0
  0
LINE
  5
CE42
330
CE1D
100
AcDbEntity
  8
0
100
AcDbLine
 10
0.0
 20
92.99999999999998
 30
0.0
 11
1.499999999999994
 21
92.99999999999998
 31
0.0
  0
LINE
  5
CE43
330
CE1D
100
AcDbEntity
  8
0
100
AcDbLine
 10
1.499999999999994
 20
92.99999999999998
 30
0.0
 11
1.499999999999994
 21
98.99999999999986
 31
0.0
  0
LINE
  5
CE44
330
CE1D
100
AcDbEntity
  8
0
100
AcDbLine
 10
1.499999999999994
 20
98.99999999999986
 30
0.0
 11
0.0
 21
98.99999999999998
 31
0.0
  0
LINE
  5
CE45
330
CE1D
100
AcDbEntity
  8
0
100
AcDbLine
 10
1.499999999999994
 20
92.99999999999998
 30
0.0
 11
1.499999999999994
 21
47.19051317993766
 31
0.0
  0
LINE
  5
CE46
330
CE1D
100
AcDbEntity
  8
0
100
AcDbLine
 10
0.0
 20
92.99999999999998
 30
0.0
 11
0.0
 21
47.19051317993766
 31
0.0
  0
LINE
  5
CE47
330
CE1D
100
AcDbEntity
  8
0
100
AcDbLine
 10
0.0
 20
1.500000000000005
 30
0.0
 11
1.090140682896902
 21
1.500000000000005
 31
0.0
  0
SPLINE
  5
CE48
330
CE1D
100
AcDbEntity
  8
0
100
AcDbSpline
210
0.0
220
0.0
230
1.0
 70
     8
 71
     3
 72
     8
 73
     4
 74
     0
 42
0.000000001
 43
0.0000000001
 40
-1.0
 40
-1.0
 40
-1.0
 40
-1.0
 40
0.0
 40
0.0
 40
0.0
 40
0.0
 10
3.000000000000004
 20
-1.499999999999995
 30
0.0
 10
1.429203673205096
 20
-1.499999999999997
 30
0.0
 10
0.0
 20
-0.0707963267948894
 30
0.0
 10
-0.0000000000000011
 20
1.500000000000004
 30
0.0
  0
SPLINE
  5
CE49
330
CE1D
100
AcDbEntity
  8
0
100
AcDbSpline
210
0.0
220
0.0
230
1.0
 70
     8
 71
     3
 72
     8
 73
     4
 74
     0
 42
0.000000001
 43
0.0000000001
 40
0.0
 40
0.0
 40
0.0
 40
0.0
 40
1.0
 40
1.0
 40
1.0
 40
1.0
 10
1.499999999999999
 20
1.500000000000005
 30
0.0
 10
1.499999999999999
 20
0.7146018366025584
 30
0.0
 10
2.214601836602548
 20
0.0000000000000041
 30
0.0
 10
3.000000000000002
 20
0.000000000000005
 30
0.0
  0
LINE
  5
CE4A
330
CE1D
100
AcDbEntity
  8
0
100
AcDbLine
 10
1.090140682896902
 20
1.500000000000005
 30
0.0
 11
1.499999999999999
 21
1.500000000000005
 31
0.0
  0
LINE
  5
CE4B
330
CE1D
100
AcDbEntity
  8
0
100
AcDbLine
 10
1.499999999999999
 20
8.500000000000007
 30
0.0
 11
1.499999999999999
 21
1.500000000000005
 31
0.0
  0
LINE
  5
CE4C
330
CE1D
100
AcDbEntity
  8
0
100
AcDbLine
 10
0.0
 20
8.500000000000007
 30
0.0
 11
1.499999999999999
 21
8.500000000000007
 31
0.0
  0
LINE
  5
CE4D
330
CE1D
100
AcDbEntity
  8
0
100
AcDbLine
 10
0.0
 20
1.500000000000005
 30
0.0
 11
0.0
 21
8.500000000000007
 31
0.0
  0
LINE
  5
CE4E
330
CE1D
100
AcDbEntity
  8
0
100
AcDbLine
 10
54.0
 20
-1.499999999999996
 30
0.0
 11
2.999999999999998
 21
-1.499999999999996
 31
0.0
  0
LINE
  5
CE4F
330
CE1D
100
AcDbEntity
  8
0
100
AcDbLine
 10
54.0
 20
-1.499999999999998
 30
0.0
 11
54.0
 21
1.500000000000003
 31
0.0
  0
ENDBLK
  5
CE1F
330
CE1D
100
AcDbEntity
  8
0
100
AcDbBlockEnd
  0
BLOCK
  5
CE51
330
CE50
100
AcDbEntity
  8
0
100
AcDbBlockBegin
  2
SBE32_99-Right
 70
     0
 10
0.0
 20
0.0
 30
0.0
  3
SBE32_99-Right
  1

  0
SPLINE
  5
CE53
330
CE50
100
AcDbEntity
  8
0
100
AcDbSpline
210
0.0
220
0.0
230
1.0
 70
     8
 71
     3
 72
    11
 73
     7
 74
     0
 42
0.000000001
 43
0.0000000001
 40
-1.0
 40
-1.0
 40
-1.0
 40
-1.0
 40
-0.8649350770692315
 40
-0.8649350770692315
 40
-0.8649350770692315
 40
0.0
 40
0.0
 40
0.0
 40
0.0
 10
-2.999999999999998
 20
63.49999999999997
 30
0.0
 10
-2.908983472621935
 20
63.58691438702452
 30
0.0
 10
-2.811930258386711
 20
63.66373009289971
 30
0.0
 10
-2.712361736375321
 20
63.72929168059382
 30
0.0
 10
-2.074740173419743
 20
64.14913804539766
 30
0.0
 10
-1.499999999999993
 20
64.05658642087335
 30
0.0
 10
-1.499999999999992
 20
63.49999999999998
 30
0.0
  0
ARC
  5
CE54
330
CE50
100
AcDbEntity
  8
0
100
AcDbCircle
 10
-1.500000000000003
 20
61.49999999999998
 30
0.0
 40
2.5
100
AcDbArc
 50
126.8698976458439
 51
233.1301023541561
  0
LINE
  5
CE55
330
CE50
100
AcDbEntity
  8
0
100
AcDbLine
 10
6.999999999999992
 20
55.99999999999996
 30
0.0
 11
8.999999999999985
 21
55.99999999999997
 31
0.0
  0
LINE
  5
CE56
330
CE50
100
AcDbEntity
  8
0
100
AcDbLine
 10
1.500000000000003
 20
55.99999999999997
 30
0.0
 11
6.999999999999992
 21
55.99999999999996
 31
0.0
  0
LINE
  5
CE57
330
CE50
100
AcDbEntity
  8
0
100
AcDbLine
 10
6.999999999999992
 20
55.99999999999996
 30
0.0
 11
6.999999999999992
 21
54.49999999999996
 31
0.0
  0
LINE
  5
CE58
330
CE50
100
AcDbEntity
  8
0
100
AcDbLine
 10
8.999999999999985
 20
54.49999999999996
 30
0.0
 11
6.999999999999992
 21
54.49999999999996
 31
0.0
  0
LINE
  5
CE59
330
CE50
100
AcDbEntity
  8
0
100
AcDbLine
 10
8.999999999999985
 20
55.99999999999997
 30
0.0
 11
8.999999999999985
 21
54.49999999999996
 31
0.0
  0
SPLINE
  5
CE5A
330
CE50
100
AcDbEntity
  8
0
100
AcDbSpline
210
0.0
220
0.0
230
1.0
 70
     8
 71
     3
 72
    11
 73
     7
 74
     0
 42
0.000000001
 43
0.0000000001
 40
0.6929633215164448
 40
0.6929633215164448
 40
0.6929633215164448
 40
0.6929633215164448
 40
0.8649350770692315
 40
0.8649350770692315
 40
0.8649350770692315
 40
1.0
 40
1.0
 40
1.0
 40
1.0
 10
-1.687029531830389
 20
63.91933305302963
 30
0.0
 10
-1.922591616752652
 20
63.87598855142045
 30
0.0
 10
-2.171171726574892
 20
63.81276813834418
 30
0.0
 10
-2.424723472750648
 20
63.72929168059382
 30
0.0
 10
-2.623860516773428
 20
63.66373009289971
 30
0.0
 10
-2.817966945243876
 20
63.58691438702452
 30
0.0
 10
-3.0
 20
63.49999999999997
 30
0.0
  0
SPLINE
  5
CE5B
330
CE50
100
AcDbEntity
  8
0
100
AcDbSpline
210
0.0
220
0.0
230
1.0
 70
     8
 71
     3
 72
    11
 73
     7
 74
     0
 42
0.000000001
 43
0.0000000001
 40
-1.0
 40
-1.0
 40
-1.0
 40
-1.0
 40
-0.864935077069793
 40
-0.864935077069793
 40
-0.864935077069793
 40
0.0
 40
0.0
 40
0.0
 40
0.0
 10
-1.499999999999992
 20
59.49999999999999
 30
0.0
 10
-1.499999999999992
 20
59.41308561297574
 30
0.0
 10
-1.508382714052802
 20
59.33626990710085
 30
0.0
 10
-1.527836887671845
 20
59.27070831940695
 30
0.0
 10
-1.652418435519102
 20
58.85086195460242
 30
0.0
 10
-2.417144100672945
 20
58.94341357912658
 30
0.0
 10
-2.999999999999994
 20
59.49999999999997
 30
0.0
  0
SPLINE
  5
CE5C
330
CE50
100
AcDbEntity
  8
0
100
AcDbSpline
210
0.0
220
0.0
230
1.0
 70
     8
 71
     3
 72
     8
 73
     4
 74
     0
 42
0.000000001
 43
0.0000000001
 40
0.0
 40
0.0
 40
0.0
 40
0.0
 40
0.3070366784835726
 40
0.3070366784835726
 40
0.3070366784835726
 40
0.3070366784835726
 10
-2.999999999999993
 20
59.49999999999997
 30
0.0
 10
-2.586192896765834
 20
59.3024216493416
 30
0.0
 10
-2.126550079464161
 20
59.16331746602529
 30
0.0
 10
-1.694612525150931
 20
59.08485084201939
 30
0.0
  0
LINE
  5
CE5D
330
CE50
100
AcDbEntity
  8
0
100
AcDbLine
 10
6.999999999999992
 20
54.49999999999996
 30
0.0
 11
1.500000000000003
 21
54.49999999999997
 31
0.0
  0
CIRCLE
  5
CE5E
330
CE50
100
AcDbEntity
  8
0
100
AcDbCircle
 10
-29.0
 20
61.5
 30
0.0
 40
2.5
  0
CIRCLE
  5
CE5F
330
CE50
100
AcDbEntity
  8
0
100
AcDbCircle
 10
-29.0
 20
81.5
 30
0.0
 40
2.5
  0
CIRCLE
  5
CE60
330
CE50
100
AcDbEntity
  8
0
100
AcDbCircle
 10
-29.0
 20
41.5
 30
0.0
 40
2.5
  0
LINE
  5
CE61
330
CE50
100
AcDbEntity
  8
0
100
AcDbLine
 10
-30.50000000000001
 20
99.0
 30
0.0
 11
-2.999999999999998
 21
99.0
 31
0.0
  0
LINE
  5
CE62
330
CE50
100
AcDbEntity
  8
0
100
AcDbLine
 10
-54.0
 20
1.500000000000003
 30
0.0
 11
-53.99999999999999
 21
29.00610095525754
 31
0.0
  0
LINE
  5
CE63
330
CE50
100
AcDbEntity
  8
0
100
AcDbLine
 10
-36.50000000000001
 20
92.99999999999998
 30
0.0
 11
-30.50000000000001
 21
99.0
 31
0.0
  0
LINE
  5
CE64
330
CE50
100
AcDbEntity
  8
0
100
AcDbLine
 10
0.0
 20
92.99999999999995
 30
0.0
 11
0.0
 21
98.99999999999984
 31
0.0
  0
LINE
  5
CE65
330
CE50
100
AcDbEntity
  8
0
100
AcDbLine
 10
0.0
 20
98.99999999999984
 30
0.0
 11
-1.499999999999971
 21
98.99999999999984
 31
0.0
  0
LINE
  5
CE66
330
CE50
100
AcDbEntity
  8
0
100
AcDbLine
 10
-1.499999999999971
 20
98.99999999999984
 30
0.0
 11
-1.499999999999984
 21
92.99999999999995
 31
0.0
  0
LINE
  5
CE67
330
CE50
100
AcDbEntity
  8
0
100
AcDbLine
 10
-1.499999999999984
 20
92.99999999999995
 30
0.0
 11
0.0
 21
92.99999999999995
 31
0.0
  0
LINE
  5
CE68
330
CE50
100
AcDbEntity
  8
0
100
AcDbLine
 10
-36.50000000000001
 20
92.99999999999998
 30
0.0
 11
-36.5
 21
47.19051317993775
 31
0.0
  0
LINE
  5
CE69
330
CE50
100
AcDbEntity
  8
0
100
AcDbLine
 10
-41.78968515835104
 20
37.24206230927726
 30
0.0
 11
-53.99999999999999
 21
29.00610095525754
 31
0.0
  0
ARC
  5
CE6A
330
CE50
100
AcDbEntity
  8
0
100
AcDbCircle
 10
-48.5
 20
47.19051317993775
 30
0.0
 40
12.0
100
AcDbArc
 50
304.0
 51
0.0
  0
LINE
  5
CE6B
330
CE50
100
AcDbEntity
  8
0
100
AcDbLine
 10
-1.499999999999989
 20
37.24206230927721
 30
0.0
 11
-1.499999999999987
 21
47.1905131799377
 31
0.0
  0
LINE
  5
CE6C
330
CE50
100
AcDbEntity
  8
0
100
AcDbLine
 10
0.0
 20
47.1905131799377
 30
0.0
 11
0.0
 21
37.24206230927721
 31
0.0
  0
LINE
  5
CE6D
330
CE50
100
AcDbEntity
  8
0
100
AcDbLine
 10
-3.0
 20
1.500000000000003
 30
0.0
 11
-2.999999999999996
 21
21.24925301156961
 31
0.0
  0
LINE
  5
CE6E
330
CE50
100
AcDbEntity
  8
0
100
AcDbLine
 10
-3.0
 20
99.00000000000003
 30
0.0
 11
-1.499999999999994
 21
99.00000000000003
 31
0.0
  0
LINE
  5
CE6F
330
CE50
100
AcDbEntity
  8
0
100
AcDbLine
 10
-2.999999999999998
 20
1.500000000000003
 30
0.0
 11
-2.999999999999998
 21
-1.499999999999994
 31
0.0
  0
LINE
  5
CE70
330
CE50
100
AcDbEntity
  8
0
100
AcDbLine
 10
-1.499999999999988
 20
47.1905131799377
 30
0.0
 11
-1.499999999999984
 21
92.99999999999995
 31
0.0
  0
LINE
  5
CE71
330
CE50
100
AcDbEntity
  8
0
100
AcDbLine
 10
0.0
 20
47.1905131799377
 30
0.0
 11
0.0
 21
92.99999999999995
 31
0.0
  0
LINE
  5
CE72
330
CE50
100
AcDbEntity
  8
0
100
AcDbLine
 10
-1.499999999999996
 20
23.27277856209688
 30
0.0
 11
-1.499999999999988
 21
37.24206230927721
 31
0.0
  0
LINE
  5
CE73
330
CE50
100
AcDbEntity
  8
0
100
AcDbLine
 10
0.0
 20
37.24206230927721
 30
0.0
 11
0.0
 21
23.27277856209688
 31
0.0
  0
SPLINE
  5
CE74
330
CE50
100
AcDbEntity
  8
0
100
AcDbSpline
210
0.0
220
0.0
230
1.0
 70
     8
 71
     3
 72
     8
 73
     4
 74
     0
 42
0.000000001
 43
0.0000000001
 40
0.0
 40
0.0
 40
0.0
 40
0.0
 40
1.0
 40
1.0
 40
1.0
 40
1.0
 10
0.0000000000000078
 20
23.27277856209688
 30
0.0
 10
0.0000000000000089
 20
22.5982700452545
 30
0.0
 10
-1.429203673205051
 20
21.92376152841224
 30
0.0
 10
-2.999999999999996
 20
21.24925301156962
 30
0.0
  0
SPLINE
  5
CE75
330
CE50
100
AcDbEntity
  8
0
100
AcDbSpline
210
0.0
220
0.0
230
1.0
 70
     8
 71
     3
 72
     8
 73
     4
 74
     0
 42
0.000000001
 43
0.0000000001
 40
-1.0
 40
-1.0
 40
-1.0
 40
-1.0
 40
0.0
 40
0.0
 40
0.0
 40
0.0
 10
-2.999999999999996
 20
21.24925301156961
 30
0.0
 10
-2.214601836602522
 20
21.92376152841224
 30
0.0
 10
-1.499999999999992
 20
22.5982700452545
 30
0.0
 10
-1.499999999999992
 20
23.27277856209688
 30
0.0
  0
LINE
  5
CE76
330
CE50
100
AcDbEntity
  8
0
100
AcDbLine
 10
-1.499999999999996
 20
23.27277856209688
 30
0.0
 11
-1.090140682897373
 21
23.27277856209688
 31
0.0
  0
LINE
  5
CE77
330
CE50
100
AcDbEntity
  8
0
100
AcDbLine
 10
-1.090140682897373
 20
23.27277856209688
 30
0.0
 11
0.0
 21
23.27277856209688
 31
0.0
  0
SPLINE
  5
CE78
330
CE50
100
AcDbEntity
  8
0
100
AcDbSpline
210
0.0
220
0.0
230
1.0
 70
     8
 71
     3
 72
     8
 73
     4
 74
     0
 42
0.000000001
 43
0.0000000001
 40
-1.0
 40
-1.0
 40
-1.0
 40
-1.0
 40
0.0
 40
0.0
 40
0.0
 40
0.0
 10
0.0000000000000011
 20
1.500000000000012
 30
0.0
 10
0.000000000000002
 20
-0.0707963267948802
 30
0.0
 10
-1.429203673205005
 20
-1.499999999999994
 30
0.0
 10
-3.000000000000007
 20
-1.49999999999999
 30
0.0
  0
LINE
  5
CE79
330
CE50
100
AcDbEntity
  8
0
100
AcDbLine
 10
0.0
 20
1.500000000000011
 30
0.0
 11
-1.090140682896761
 21
1.500000000000011
 31
0.0
  0
LINE
  5
CE7A
330
CE50
100
AcDbEntity
  8
0
100
AcDbLine
 10
-1.090140682896761
 20
1.500000000000011
 30
0.0
 11
-1.499999999999999
 21
1.500000000000011
 31
0.0
  0
SPLINE
  5
CE7B
330
CE50
100
AcDbEntity
  8
0
100
AcDbSpline
210
0.0
220
0.0
230
1.0
 70
     8
 71
     3
 72
     8
 73
     4
 74
     0
 42
0.000000001
 43
0.0000000001
 40
0.0
 40
0.0
 40
0.0
 40
0.0
 40
1.0
 40
1.0
 40
1.0
 40
1.0
 10
-3.000000000000004
 20
0.0000000000000094
 30
0.0
 10
-2.214601836602502
 20
0.0000000000000073
 30
0.0
 10
-1.499999999999998
 20
0.7146018366025651
 30
0.0
 10
-1.499999999999999
 20
1.500000000000011
 30
0.0
  0
LINE
  5
CE7C
330
CE50
100
AcDbEntity
  8
0
100
AcDbLine
 10
-1.499999999999999
 20
1.500000000000011
 30
0.0
 11
-1.499999999999999
 21
8.500000000000008
 31
0.0
  0
LINE
  5
CE7D
330
CE50
100
AcDbEntity
  8
0
100
AcDbLine
 10
0.0
 20
8.500000000000008
 30
0.0
 11
0.0
 21
1.500000000000011
 31
0.0
  0
LINE
  5
CE7E
330
CE50
100
AcDbEntity
  8
0
100
AcDbLine
 10
-1.499999999999999
 20
8.500000000000008
 30
0.0
 11
0.0
 21
8.500000000000008
 31
0.0
  0
LINE
  5
CE7F
330
CE50
100
AcDbEntity
  8
0
100
AcDbLine
 10
-54.0
 20
-1.499999999999992
 30
0.0
 11
-2.999999999999998
 21
-1.499999999999994
 31
0.0
  0
LINE
  5
CE80
330
CE50
100
AcDbEntity
  8
0
100
AcDbLine
 10
-54.0
 20
1.500000000000003
 30
0.0
 11
-54.0
 21
-1.499999999999992
 31
0.0
  0
ARC
  5
CE81
330
CE50
100
AcDbEntity
  8
0
100
AcDbCircle
 10
1.500000000000006
 20
52.99999999999997
 30
0.0
 40
3.0
100
AcDbArc
 50
90.00000000000184
 51
119.9999999999999
  0
ARC
  5
CE82
330
CE50
100
AcDbEntity
  8
0
100
AcDbCircle
 10
1.500000000000006
 20
52.99999999999997
 30
0.0
 40
1.5
100
AcDbArc
 50
90.00000000000389
 51
180.0
  0
ENDBLK
  5
CE52
330
CE50
100
AcDbEntity
  8
0
100
AcDbBlockEnd
  0
BLOCK
  5
CE84
330
CE83
100
AcDbEntity
  8
0
100
AcDbBlockBegin
  2
SBE32_99-Top
 70
     0
 10
0.0
 20
0.0
 30
0.0
  3
SBE32_99-Top
  1

  0
ARC
  5
CE86
330
CE83
100
AcDbEntity
  8
0
100
AcDbCircle
 10
-19.00000000000002
 20
-2.999999999999999
 30
0.0
 40
1.499999999999999
100
AcDbArc
 50
0.0
 51
90.0
  0
ARC
  5
CE87
330
CE83
100
AcDbEntity
  8
0
100
AcDbCircle
 10
-19.00000000000002
 20
-2.999999999999999
 30
0.0
 40
3.0
100
AcDbArc
 50
0.0
 51
90.0
  0
ARC
  5
CE88
330
CE83
100
AcDbEntity
  8
0
100
AcDbCircle
 10
19.00000000000016
 20
-2.999999999999996
 30
0.0
 40
3.000000000000002
100
AcDbArc
 50
90.0
 51
180.0
  0
LINE
  5
CE89
330
CE83
100
AcDbEntity
  8
0
100
AcDbLine
 10
-14.5
 20
-2.999999999999998
 30
0.0
 11
-16.0
 21
-2.999999999999998
 31
0.0
  0
ARC
  5
CE8A
330
CE83
100
AcDbEntity
  8
0
100
AcDbCircle
 10
19.00000000000016
 20
-2.999999999999996
 30
0.0
 40
1.500000000000001
100
AcDbArc
 50
90.0
 51
180.0
  0
LINE
  5
CE8B
330
CE83
100
AcDbEntity
  8
0
100
AcDbLine
 10
16.0
 20
-2.999999999999998
 30
0.0
 11
14.5
 21
-2.999999999999998
 31
0.0
  0
LINE
  5
CE8C
330
CE83
100
AcDbEntity
  8
0
100
AcDbLine
 10
-17.50000000000001
 20
-53.99999999999999
 30
0.0
 11
-17.50000000000001
 21
-41.78968515835103
 31
0.0
  0
LINE
  5
CE8D
330
CE83
100
AcDbEntity
  8
0
100
AcDbLine
 10
-16.00000000000001
 20
-41.78968515835103
 30
0.0
 11
-16.0
 21
-54.0
 31
0.0
  0
LINE
  5
CE8E
330
CE83
100
AcDbEntity
  8
0
100
AcDbLine
 10
16.00000000000004
 20
-53.99999999999999
 30
0.0
 11
16.00000000000006
 21
-41.78968515835104
 31
0.0
  0
LINE
  5
CE8F
330
CE83
100
AcDbEntity
  8
0
100
AcDbLine
 10
17.50000000000006
 20
-41.78968515835104
 30
0.0
 11
17.50000000000005
 21
-53.99999999999999
 31
0.0
  0
LINE
  5
CE90
330
CE83
100
AcDbEntity
  8
0
100
AcDbLine
 10
17.50000000000005
 20
-53.99999999999999
 30
0.0
 11
16.00000000000004
 21
-53.99999999999999
 31
0.0
  0
LINE
  5
CE91
330
CE83
100
AcDbEntity
  8
0
100
AcDbLine
 10
-16.0
 20
-54.0
 30
0.0
 11
-17.50000000000001
 21
-53.99999999999999
 31
0.0
  0
LINE
  5
CE92
330
CE83
100
AcDbEntity
  8
0
100
AcDbLine
 10
-17.5
 20
-36.49999999999999
 30
0.0
 11
-17.5
 21
-41.78968515835103
 31
0.0
  0
LINE
  5
CE93
330
CE83
100
AcDbEntity
  8
0
100
AcDbLine
 10
-16.0
 20
-41.78968515835103
 30
0.0
 11
-16.0
 21
-36.49999999999999
 31
0.0
  0
LINE
  5
CE94
330
CE83
100
AcDbEntity
  8
0
100
AcDbLine
 10
15.99999999999998
 20
-36.49999999999999
 30
0.0
 11
15.99999999999996
 21
-41.78968515835103
 31
0.0
  0
LINE
  5
CE95
330
CE83
100
AcDbEntity
  8
0
100
AcDbLine
 10
17.49999999999996
 20
-41.78968515835103
 30
0.0
 11
17.49999999999998
 21
-36.49999999999999
 31
0.0
  0
LINE
  5
CE96
330
CE83
100
AcDbEntity
  8
0
100
AcDbLine
 10
-17.50000000000002
 20
-30.50000000000001
 30
0.0
 11
-17.50000000000002
 21
-36.50000000000001
 31
0.0
  0
LINE
  5
CE97
330
CE83
100
AcDbEntity
  8
0
100
AcDbLine
 10
-16.00000000000002
 20
-36.50000000000001
 30
0.0
 11
-16.00000000000002
 21
-30.50000000000001
 31
0.0
  0
LINE
  5
CE98
330
CE83
100
AcDbEntity
  8
0
100
AcDbLine
 10
16.00000000000016
 20
-30.50000000000001
 30
0.0
 11
16.00000000000015
 21
-36.50000000000001
 31
0.0
  0
LINE
  5
CE99
330
CE83
100
AcDbEntity
  8
0
100
AcDbLine
 10
17.50000000000015
 20
-36.50000000000001
 30
0.0
 11
17.50000000000016
 21
-30.50000000000001
 31
0.0
  0
LINE
  5
CE9A
330
CE83
100
AcDbEntity
  8
0
100
AcDbLine
 10
-39.0
 20
0.0
 30
0.0
 11
-45.0
 21
0.0
 31
0.0
  0
LINE
  5
CE9B
330
CE83
100
AcDbEntity
  8
0
100
AcDbLine
 10
-45.0
 20
0.0
 30
0.0
 11
-45.0
 21
-1.499999999999994
 31
0.0
  0
LINE
  5
CE9C
330
CE83
100
AcDbEntity
  8
0
100
AcDbLine
 10
-45.0
 20
-1.499999999999994
 30
0.0
 11
-39.0
 21
-1.499999999999994
 31
0.0
  0
LINE
  5
CE9D
330
CE83
100
AcDbEntity
  8
0
100
AcDbLine
 10
-39.0
 20
-1.499999999999994
 30
0.0
 11
-39.0
 21
0.0
 31
0.0
  0
LINE
  5
CE9E
330
CE83
100
AcDbEntity
  8
0
100
AcDbLine
 10
-16.00000000000002
 20
-30.50000000000001
 30
0.0
 11
-17.50000000000002
 21
-30.50000000000001
 31
0.0
  0
LINE
  5
CE9F
330
CE83
100
AcDbEntity
  8
0
100
AcDbLine
 10
-17.50000000000002
 20
-36.50000000000001
 30
0.0
 11
-16.00000000000002
 21
-36.50000000000001
 31
0.0
  0
LINE
  5
CEA0
330
CE83
100
AcDbEntity
  8
0
100
AcDbLine
 10
17.50000000000016
 20
-30.50000000000001
 30
0.0
 11
16.00000000000016
 21
-30.50000000000001
 31
0.0
  0
LINE
  5
CEA1
330
CE83
100
AcDbEntity
  8
0
100
AcDbLine
 10
16.00000000000015
 20
-36.50000000000001
 30
0.0
 11
17.50000000000015
 21
-36.50000000000001
 31
0.0
  0
LINE
  5
CEA2
330
CE83
100
AcDbEntity
  8
0
100
AcDbLine
 10
45.00000000000014
 20
0.0
 30
0.0
 11
39.00000000000016
 21
0.0
 31
0.0
  0
LINE
  5
CEA3
330
CE83
100
AcDbEntity
  8
0
100
AcDbLine
 10
39.00000000000016
 20
0.0
 30
0.0
 11
39.00000000000016
 21
-1.499999999999971
 31
0.0
  0
LINE
  5
CEA4
330
CE83
100
AcDbEntity
  8
0
100
AcDbLine
 10
39.00000000000016
 20
-1.499999999999971
 30
0.0
 11
45.00000000000014
 21
-1.499999999999984
 31
0.0
  0
LINE
  5
CEA5
330
CE83
100
AcDbEntity
  8
0
100
AcDbLine
 10
45.00000000000014
 20
-1.499999999999984
 30
0.0
 11
45.00000000000014
 21
0.0
 31
0.0
  0
LINE
  5
CEA6
330
CE83
100
AcDbEntity
  8
0
100
AcDbLine
 10
-17.50000000000002
 20
-3.0
 30
0.0
 11
-17.50000000000002
 21
-30.50000000000001
 31
0.0
  0
LINE
  5
CEA7
330
CE83
100
AcDbEntity
  8
0
100
AcDbLine
 10
-16.00000000000002
 20
-3.0
 30
0.0
 11
-16.00000000000002
 21
-30.50000000000001
 31
0.0
  0
LINE
  5
CEA8
330
CE83
100
AcDbEntity
  8
0
100
AcDbLine
 10
16.00000000000016
 20
-3.0
 30
0.0
 11
16.00000000000016
 21
-30.50000000000001
 31
0.0
  0
LINE
  5
CEA9
330
CE83
100
AcDbEntity
  8
0
100
AcDbLine
 10
17.50000000000016
 20
-30.50000000000001
 30
0.0
 11
17.50000000000017
 21
-2.999999999999998
 31
0.0
  0
LINE
  5
CEAA
330
CE83
100
AcDbEntity
  8
0
100
AcDbLine
 10
-14.5
 20
-54.0
 30
0.0
 11
14.49999999999999
 21
-54.0
 31
0.0
  0
LINE
  5
CEAB
330
CE83
100
AcDbEntity
  8
0
100
AcDbLine
 10
-19.00000000000002
 20
-1.500000000000001
 30
0.0
 11
-39.0
 21
-1.499999999999994
 31
0.0
  0
LINE
  5
CEAC
330
CE83
100
AcDbEntity
  8
0
100
AcDbLine
 10
19.00000000000016
 20
-1.499999999999992
 30
0.0
 11
39.00000000000016
 21
-1.499999999999971
 31
0.0
  0
LINE
  5
CEAD
330
CE83
100
AcDbEntity
  8
0
100
AcDbLine
 10
-19.00000000000002
 20
0.0
 30
0.0
 11
-39.0
 21
0.0
 31
0.0
  0
LINE
  5
CEAE
330
CE83
100
AcDbEntity
  8
0
100
AcDbLine
 10
39.00000000000016
 20
0.0
 30
0.0
 11
19.00000000000016
 21
0.0
 31
0.0
  0
LINE
  5
CEAF
330
CE83
100
AcDbEntity
  8
0
100
AcDbLine
 10
-34.50000000000018
 20
0.0
 30
0.0
 11
-34.50000000000019
 21
1.500000000000015
 31
0.0
  0
LINE
  5
CEB0
330
CE83
100
AcDbEntity
  8
0
100
AcDbLine
 10
-30.50000000000014
 20
1.499999999999915
 30
0.0
 11
-30.5000000000001
 21
0.0
 31
0.0
  0
LINE
  5
CEB1
330
CE83
100
AcDbEntity
  8
0
100
AcDbLine
 10
-30.5000000000001
 20
1.500000000000003
 30
0.0
 11
-30.5000000000001
 21
6.999999999999984
 31
0.0
  0
LINE
  5
CEB2
330
CE83
100
AcDbEntity
  8
0
100
AcDbLine
 10
-30.5000000000001
 20
6.999999999999984
 30
0.0
 11
-32.50000000000009
 21
8.999999999999985
 31
0.0
  0
LINE
  5
CEB3
330
CE83
100
AcDbEntity
  8
0
100
AcDbLine
 10
-32.50000000000009
 20
8.999999999999985
 30
0.0
 11
-34.50000000000009
 21
6.999999999999992
 31
0.0
  0
LINE
  5
CEB4
330
CE83
100
AcDbEntity
  8
0
100
AcDbLine
 10
-34.50000000000009
 20
6.999999999999992
 30
0.0
 11
-34.5000000000001
 21
1.500000000000003
 31
0.0
  0
ARC
  5
CEB5
330
CE83
100
AcDbEntity
  8
0
100
AcDbCircle
 10
-25.32677949145489
 20
-7.495925238298273
 30
0.0
 40
5.00000000000001
100
AcDbArc
 50
8.999999999999984
 51
71.99999999999994
  0
LINE
  5
CEB6
330
CE83
100
AcDbEntity
  8
0
100
AcDbLine
 10
-20.3883377884792
 20
-6.713752913097117
 30
0.0
 11
-17.51846748910731
 21
-24.83340086267728
 31
0.0
  0
LINE
  5
CEB7
330
CE83
100
AcDbEntity
  8
0
100
AcDbLine
 10
-27.3740511689245
 20
-1.57341522555727
 30
0.0
 11
-23.78169451958015
 21
-2.740642656822495
 31
0.0
  0
LINE
  5
CEB8
330
CE83
100
AcDbEntity
  8
0
100
AcDbLine
 10
34.50000000000009
 20
6.999999999999992
 30
0.0
 11
32.50000000000009
 21
8.999999999999985
 31
0.0
  0
LINE
  5
CEB9
330
CE83
100
AcDbEntity
  8
0
100
AcDbLine
 10
32.50000000000009
 20
8.999999999999985
 30
0.0
 11
30.5000000000001
 21
6.999999999999984
 31
0.0
  0
LINE
  5
CEBA
330
CE83
100
AcDbEntity
  8
0
100
AcDbLine
 10
30.5000000000001
 20
6.999999999999984
 30
0.0
 11
30.50000000000011
 21
1.500000000000003
 31
0.0
  0
LINE
  5
CEBB
330
CE83
100
AcDbEntity
  8
0
100
AcDbLine
 10
34.5000000000001
 20
1.500000000000003
 30
0.0
 11
34.50000000000009
 21
6.999999999999992
 31
0.0
  0
LINE
  5
CEBC
330
CE83
100
AcDbEntity
  8
0
100
AcDbLine
 10
-12.025
 20
0.0
 30
0.0
 11
-12.025
 21
-1.090140682896902
 31
0.0
  0
SPLINE
  5
CEBD
330
CE83
100
AcDbEntity
  8
0
100
AcDbSpline
210
0.0
220
0.0
230
1.0
 70
     8
 71
     3
 72
     8
 73
     4
 74
     0
 42
0.000000001
 43
0.0000000001
 40
-1.0
 40
-1.0
 40
-1.0
 40
-1.0
 40
0.0
 40
0.0
 40
0.0
 40
0.0
 10
-14.50000000000001
 20
-3.000000000000004
 30
0.0
 10
-13.67499999999995
 20
-1.429203673205096
 30
0.0
 10
-12.85000000000015
 20
0.0
 30
0.0
 10
-12.02499999999999
 20
0.0000000000000011
 30
0.0
  0
SPLINE
  5
CEBE
330
CE83
100
AcDbEntity
  8
0
100
AcDbSpline
210
0.0
220
0.0
230
1.0
 70
     8
 71
     3
 72
     8
 73
     4
 74
     0
 42
0.000000001
 43
0.0000000001
 40
0.0
 40
0.0
 40
0.0
 40
0.0
 40
1.0
 40
1.0
 40
1.0
 40
1.0
 10
-12.02499999999999
 20
-1.499999999999999
 30
0.0
 10
-12.85000000000015
 20
-1.499999999999999
 30
0.0
 10
-13.67499999999995
 20
-2.214601836602548
 30
0.0
 10
-14.50000000000001
 20
-3.000000000000002
 30
0.0
  0
LINE
  5
CEBF
330
CE83
100
AcDbEntity
  8
0
100
AcDbLine
 10
-12.025
 20
-1.090140682896902
 30
0.0
 11
-12.025
 21
-1.499999999999999
 31
0.0
  0
LINE
  5
CEC0
330
CE83
100
AcDbEntity
  8
0
100
AcDbLine
 10
-6.25
 20
-1.499999999999999
 30
0.0
 11
-12.025
 21
-1.499999999999999
 31
0.0
  0
LINE
  5
CEC1
330
CE83
100
AcDbEntity
  8
0
100
AcDbLine
 10
-6.25
 20
0.0
 30
0.0
 11
-6.25
 21
-1.499999999999999
 31
0.0
  0
LINE
  5
CEC2
330
CE83
100
AcDbEntity
  8
0
100
AcDbLine
 10
-12.025
 20
0.0
 30
0.0
 11
-6.25
 21
0.0
 31
0.0
  0
SPLINE
  5
CEC3
330
CE83
100
AcDbEntity
  8
0
100
AcDbSpline
210
0.0
220
0.0
230
1.0
 70
     8
 71
     3
 72
     8
 73
     4
 74
     0
 42
0.000000001
 43
0.0000000001
 40
-1.0
 40
-1.0
 40
-1.0
 40
-1.0
 40
0.0
 40
0.0
 40
0.0
 40
0.0
 10
12.02499999999999
 20
0.0000000000000011
 30
0.0
 10
12.8500000000002
 20
0.000000000000002
 30
0.0
 10
13.67500000000006
 20
-1.429203673205005
 30
0.0
 10
14.50000000000001
 20
-3.000000000000007
 30
0.0
  0
LINE
  5
CEC4
330
CE83
100
AcDbEntity
  8
0
100
AcDbLine
 10
12.02499999999999
 20
0.0
 30
0.0
 11
12.02499999999999
 21
-1.090140682896761
 31
0.0
  0
LINE
  5
CEC5
330
CE83
100
AcDbEntity
  8
0
100
AcDbLine
 10
12.02499999999999
 20
-1.090140682896761
 30
0.0
 11
12.02499999999999
 21
-1.499999999999999
 31
0.0
  0
SPLINE
  5
CEC6
330
CE83
100
AcDbEntity
  8
0
100
AcDbSpline
210
0.0
220
0.0
230
1.0
 70
     8
 71
     3
 72
     8
 73
     4
 74
     0
 42
0.000000001
 43
0.0000000001
 40
0.0
 40
0.0
 40
0.0
 40
0.0
 40
1.0
 40
1.0
 40
1.0
 40
1.0
 10
14.50000000000001
 20
-3.000000000000004
 30
0.0
 10
13.67500000000006
 20
-2.214601836602502
 30
0.0
 10
12.8500000000002
 20
-1.499999999999998
 30
0.0
 10
12.02499999999999
 20
-1.499999999999999
 30
0.0
  0
LINE
  5
CEC7
330
CE83
100
AcDbEntity
  8
0
100
AcDbLine
 10
12.02499999999999
 20
-1.499999999999999
 30
0.0
 11
6.250000000000001
 21
-1.499999999999999
 31
0.0
  0
LINE
  5
CEC8
330
CE83
100
AcDbEntity
  8
0
100
AcDbLine
 10
6.250000000000001
 20
0.0
 30
0.0
 11
12.02499999999999
 21
0.0
 31
0.0
  0
LINE
  5
CEC9
330
CE83
100
AcDbEntity
  8
0
100
AcDbLine
 10
6.250000000000001
 20
-1.499999999999999
 30
0.0
 11
6.250000000000001
 21
0.0
 31
0.0
  0
LINE
  5
CECA
330
CE83
100
AcDbEntity
  8
0
100
AcDbLine
 10
6.250000000000001
 20
-1.499999999999999
 30
0.0
 11
-6.25
 21
-1.499999999999999
 31
0.0
  0
LINE
  5
CECB
330
CE83
100
AcDbEntity
  8
0
100
AcDbLine
 10
6.250000000000001
 20
0.0
 30
0.0
 11
-6.25
 21
0.0
 31
0.0
  0
LINE
  5
CECC
330
CE83
100
AcDbEntity
  8
0
100
AcDbLine
 10
30.50000000000011
 20
0.0
 30
0.0
 11
30.50000000000011
 21
1.500000000000016
 31
0.0
  0
LINE
  5
CECD
330
CE83
100
AcDbEntity
  8
0
100
AcDbLine
 10
34.50000000000008
 20
1.499999999999911
 30
0.0
 11
34.50000000000009
 21
0.0
 31
0.0
  0
LINE
  5
CECE
330
CE83
100
AcDbEntity
  8
0
100
AcDbLine
 10
-16.0
 20
-54.0
 30
0.0
 11
-14.5
 21
-54.0
 31
0.0
  0
LINE
  5
CECF
330
CE83
100
AcDbEntity
  8
0
100
AcDbLine
 10
14.49999999999999
 20
-54.0
 30
0.0
 11
16.0
 21
-54.0
 31
0.0
  0
ARC
  5
CED0
330
CE83
100
AcDbEntity
  8
0
100
AcDbCircle
 10
-27.83757666048691
 20
-3.0
 30
0.0
 40
1.5
100
AcDbArc
 50
72.00000000000006
 51
90.0
  0
ARC
  5
CED1
330
CE83
100
AcDbEntity
  8
0
100
AcDbCircle
 10
-19.00000000000002
 20
-25.06805256023763
 30
0.0
 40
1.5
100
AcDbArc
 50
0.0
 51
9.000000000000065
  0
ARC
  5
CED2
330
CE83
100
AcDbEntity
  8
0
100
AcDbCircle
 10
19.00000000000013
 20
-25.06805256023691
 30
0.0
 40
1.5
100
AcDbArc
 50
171.0000000000001
 51
180.0
  0
ARC
  5
CED3
330
CE83
100
AcDbEntity
  8
0
100
AcDbCircle
 10
27.83757666048695
 20
-2.999999999999988
 30
0.0
 40
1.5
100
AcDbArc
 50
90.0
 51
107.9999999999999
  0
LINE
  5
CED4
330
CE83
100
AcDbEntity
  8
0
100
AcDbLine
 10
23.78169451958015
 20
-2.740642656822495
 30
0.0
 11
27.37405116892454
 21
-1.573415225557256
 31
0.0
  0
LINE
  5
CED5
330
CE83
100
AcDbEntity
  8
0
100
AcDbLine
 10
17.51846748910743
 20
-24.83340086267656
 30
0.0
 11
20.3883377884792
 21
-6.713752913097117
 31
0.0
  0
ARC
  5
CED6
330
CE83
100
AcDbEntity
  8
0
100
AcDbCircle
 10
25.32677949145489
 20
-7.495925238298273
 30
0.0
 40
5.00000000000001
100
AcDbArc
 50
108.0
 51
170.9999999999999
  0
ENDBLK
  5
CE85
330
CE83
100
AcDbEntity
  8
0
100
AcDbBlockEnd
  0
BLOCK
  5
CED8
330
CED7
100
AcDbEntity
  8
0
100
AcDbBlockBegin
  2
SBE32_99-Bottom
 70
     0
 10
0.0
 20
0.0
 30
0.0
  3
SBE32_99-Bottom
  1

  0
LINE
  5
CEDA
330
CED7
100
AcDbEntity
  8
0
100
AcDbLine
 10
-17.5
 20
54.0
 30
0.0
 11
-17.5
 21
2.999999999999998
 31
0.0
  0
LINE
  5
CEDB
330
CED7
100
AcDbEntity
  8
0
100
AcDbLine
 10
17.5
 20
54.0
 30
0.0
 11
17.5
 21
2.999999999999998
 31
0.0
  0
LINE
  5
CEDC
330
CED7
100
AcDbEntity
  8
0
100
AcDbLine
 10
17.5
 20
54.0
 30
0.0
 11
14.5
 21
54.0
 31
0.0
  0
LINE
  5
CEDD
330
CED7
100
AcDbEntity
  8
0
100
AcDbLine
 10
-14.50000000000001
 20
54.0
 30
0.0
 11
-17.5
 21
54.0
 31
0.0
  0
LINE
  5
CEDE
330
CED7
100
AcDbEntity
  8
0
100
AcDbLine
 10
-45.0
 20
1.499999999999996
 30
0.0
 11
-39.71031484164895
 21
1.499999999999998
 31
0.0
  0
LINE
  5
CEDF
330
CED7
100
AcDbEntity
  8
0
100
AcDbLine
 10
-45.0
 20
1.499999999999994
 30
0.0
 11
-45.0
 21
0.0
 31
0.0
  0
LINE
  5
CEE0
330
CED7
100
AcDbEntity
  8
0
100
AcDbLine
 10
45.00000000000007
 20
0.0
 30
0.0
 11
45.00000000000007
 21
1.499999999999988
 31
0.0
  0
LINE
  5
CEE1
330
CED7
100
AcDbEntity
  8
0
100
AcDbLine
 10
39.71031484164902
 20
1.499999999999989
 30
0.0
 11
45.00000000000007
 21
1.499999999999987
 31
0.0
  0
LINE
  5
CEE2
330
CED7
100
AcDbEntity
  8
0
100
AcDbLine
 10
-39.71031484164895
 20
0.0
 30
0.0
 11
-45.0
 21
0.0
 31
0.0
  0
LINE
  5
CEE3
330
CED7
100
AcDbEntity
  8
0
100
AcDbLine
 10
45.00000000000007
 20
0.0
 30
0.0
 11
39.71031484164902
 21
0.0
 31
0.0
  0
LINE
  5
CEE4
330
CED7
100
AcDbEntity
  8
0
100
AcDbLine
 10
-39.71031484164895
 20
1.499999999999996
 30
0.0
 11
-19.00000000000003
 21
1.499999999999996
 31
0.0
  0
LINE
  5
CEE5
330
CED7
100
AcDbEntity
  8
0
100
AcDbLine
 10
-34.50000000000011
 20
0.0
 30
0.0
 11
-34.50000000000015
 21
-1.500000000000011
 31
0.0
  0
LINE
  5
CEE6
330
CED7
100
AcDbEntity
  8
0
100
AcDbLine
 10
-30.5000000000001
 20
-1.499999999999909
 30
0.0
 11
-30.50000000000005
 21
0.0
 31
0.0
  0
LINE
  5
CEE7
330
CED7
100
AcDbEntity
  8
0
100
AcDbLine
 10
-19.00000000000003
 20
0.0
 30
0.0
 11
-39.71031484164895
 21
0.0
 31
0.0
  0
SPLINE
  5
CEE8
330
CED7
100
AcDbEntity
  8
0
100
AcDbSpline
210
0.0
220
0.0
230
1.0
 70
     8
 71
     3
 72
     8
 73
     4
 74
     0
 42
0.000000001
 43
0.0000000001
 40
-1.0
 40
-1.0
 40
-1.0
 40
-1.0
 40
0.0
 40
0.0
 40
0.0
 40
0.0
 10
-16.00000000000003
 20
2.999999999999996
 30
0.0
 10
-16.00000000000003
 20
1.429203673205051
 30
0.0
 10
-17.42920367320512
 20
-0.0000000000000089
 30
0.0
 10
-19.00000000000003
 20
-0.0000000000000078
 30
0.0
  0
SPLINE
  5
CEE9
330
CED7
100
AcDbEntity
  8
0
100
AcDbSpline
210
0.0
220
0.0
230
1.0
 70
     8
 71
     3
 72
     8
 73
     4
 74
     0
 42
0.000000001
 43
0.0000000001
 40
0.0
 40
0.0
 40
0.0
 40
0.0
 40
1.0
 40
1.0
 40
1.0
 40
1.0
 10
-19.00000000000003
 20
1.499999999999992
 30
0.0
 10
-18.21460183660257
 20
1.499999999999992
 30
0.0
 10
-17.50000000000003
 20
2.214601836602522
 30
0.0
 10
-17.50000000000003
 20
2.999999999999996
 30
0.0
  0
LINE
  5
CEEA
330
CED7
100
AcDbEntity
  8
0
100
AcDbLine
 10
-19.00000000000003
 20
1.499999999999996
 30
0.0
 11
-19.00000000000003
 21
1.090140682897373
 31
0.0
  0
LINE
  5
CEEB
330
CED7
100
AcDbEntity
  8
0
100
AcDbLine
 10
-19.00000000000003
 20
1.090140682897373
 30
0.0
 11
-19.00000000000003
 21
0.0
 31
0.0
  0
LINE
  5
CEEC
330
CED7
100
AcDbEntity
  8
0
100
AcDbLine
 10
-32.50000000000009
 20
-8.999999999999985
 30
0.0
 11
-30.50000000000009
 21
-6.999999999999984
 31
0.0
  0
LINE
  5
CEED
330
CED7
100
AcDbEntity
  8
0
100
AcDbLine
 10
-30.50000000000009
 20
-6.999999999999984
 30
0.0
 11
-30.5000000000001
 21
-1.500000000000003
 31
0.0
  0
LINE
  5
CEEE
330
CED7
100
AcDbEntity
  8
0
100
AcDbLine
 10
-34.50000000000009
 20
-1.500000000000003
 30
0.0
 11
-34.50000000000009
 21
-6.999999999999992
 31
0.0
  0
LINE
  5
CEEF
330
CED7
100
AcDbEntity
  8
0
100
AcDbLine
 10
-34.50000000000009
 20
-6.999999999999992
 30
0.0
 11
-32.50000000000009
 21
-8.999999999999985
 31
0.0
  0
ARC
  5
CEF0
330
CED7
100
AcDbEntity
  8
0
100
AcDbCircle
 10
-25.32677949145489
 20
7.495925238298273
 30
0.0
 40
5.00000000000001
100
AcDbArc
 50
288.0
 51
351.0
  0
LINE
  5
CEF1
330
CED7
100
AcDbEntity
  8
0
100
AcDbLine
 10
-20.3883377884792
 20
6.713752913097117
 30
0.0
 11
-17.51846748910731
 21
24.83340086267728
 31
0.0
  0
LINE
  5
CEF2
330
CED7
100
AcDbEntity
  8
0
100
AcDbLine
 10
-27.3740511689245
 20
1.57341522555727
 30
0.0
 11
-23.78169451958015
 21
2.740642656822495
 31
0.0
  0
LINE
  5
CEF3
330
CED7
100
AcDbEntity
  8
0
100
AcDbLine
 10
19.00000000000003
 20
1.499999999999996
 30
0.0
 11
39.71031484164902
 21
1.499999999999988
 31
0.0
  0
LINE
  5
CEF4
330
CED7
100
AcDbEntity
  8
0
100
AcDbLine
 10
39.71031484164902
 20
0.0
 30
0.0
 11
19.00000000000003
 21
0.0
 31
0.0
  0
SPLINE
  5
CEF5
330
CED7
100
AcDbEntity
  8
0
100
AcDbSpline
210
0.0
220
0.0
230
1.0
 70
     8
 71
     3
 72
     8
 73
     4
 74
     0
 42
0.000000001
 43
0.0000000001
 40
0.0
 40
0.0
 40
0.0
 40
0.0
 40
1.0
 40
1.0
 40
1.0
 40
1.0
 10
19.00000000000003
 20
-0.0000000000000078
 30
0.0
 10
17.42920367320512
 20
-0.0000000000000089
 30
0.0
 10
16.00000000000003
 20
1.429203673205051
 30
0.0
 10
16.00000000000003
 20
2.999999999999996
 30
0.0
  0
SPLINE
  5
CEF6
330
CED7
100
AcDbEntity
  8
0
100
AcDbSpline
210
0.0
220
0.0
230
1.0
 70
     8
 71
     3
 72
     8
 73
     4
 74
     0
 42
0.000000001
 43
0.0000000001
 40
-1.0
 40
-1.0
 40
-1.0
 40
-1.0
 40
0.0
 40
0.0
 40
0.0
 40
0.0
 10
17.50000000000003
 20
2.999999999999996
 30
0.0
 10
17.50000000000003
 20
2.214601836602522
 30
0.0
 10
18.21460183660257
 20
1.499999999999992
 30
0.0
 10
19.00000000000003
 20
1.499999999999992
 30
0.0
  0
LINE
  5
CEF7
330
CED7
100
AcDbEntity
  8
0
100
AcDbLine
 10
19.00000000000003
 20
1.499999999999996
 30
0.0
 11
19.00000000000003
 21
1.090140682897373
 31
0.0
  0
LINE
  5
CEF8
330
CED7
100
AcDbEntity
  8
0
100
AcDbLine
 10
19.00000000000003
 20
1.090140682897373
 30
0.0
 11
19.00000000000003
 21
0.0
 31
0.0
  0
LINE
  5
CEF9
330
CED7
100
AcDbEntity
  8
0
100
AcDbLine
 10
32.50000000000009
 20
-8.999999999999985
 30
0.0
 11
34.50000000000009
 21
-6.999999999999992
 31
0.0
  0
LINE
  5
CEFA
330
CED7
100
AcDbEntity
  8
0
100
AcDbLine
 10
30.50000000000009
 20
-6.999999999999984
 30
0.0
 11
32.50000000000009
 21
-8.999999999999985
 31
0.0
  0
LINE
  5
CEFB
330
CED7
100
AcDbEntity
  8
0
100
AcDbLine
 10
30.5000000000001
 20
-1.500000000000003
 30
0.0
 11
30.50000000000009
 21
-6.999999999999984
 31
0.0
  0
LINE
  5
CEFC
330
CED7
100
AcDbEntity
  8
0
100
AcDbLine
 10
34.50000000000009
 20
-6.999999999999992
 30
0.0
 11
34.50000000000009
 21
-1.500000000000003
 31
0.0
  0
SPLINE
  5
CEFD
330
CED7
100
AcDbEntity
  8
0
100
AcDbSpline
210
0.0
220
0.0
230
1.0
 70
     8
 71
     3
 72
     8
 73
     4
 74
     0
 42
0.000000001
 43
0.0000000001
 40
-1.0
 40
-1.0
 40
-1.0
 40
-1.0
 40
0.0
 40
0.0
 40
0.0
 40
0.0
 10
-14.50000000000001
 20
3.000000000000004
 30
0.0
 10
-13.67499999999995
 20
1.429203673205096
 30
0.0
 10
-12.85000000000015
 20
0.0
 30
0.0
 10
-12.02499999999999
 20
-0.0000000000000011
 30
0.0
  0
SPLINE
  5
CEFE
330
CED7
100
AcDbEntity
  8
0
100
AcDbSpline
210
0.0
220
0.0
230
1.0
 70
     8
 71
     3
 72
     8
 73
     4
 74
     0
 42
0.000000001
 43
0.0000000001
 40
-1.0
 40
-1.0
 40
-1.0
 40
-1.0
 40
0.0
 40
0.0
 40
0.0
 40
0.0
 10
12.02499999999999
 20
-0.0000000000000011
 30
0.0
 10
12.8500000000002
 20
-0.000000000000002
 30
0.0
 10
13.67500000000006
 20
1.429203673205005
 30
0.0
 10
14.50000000000001
 20
3.000000000000007
 30
0.0
  0
LINE
  5
CEFF
330
CED7
100
AcDbEntity
  8
0
100
AcDbLine
 10
12.02499999999999
 20
0.0
 30
0.0
 11
-12.02499999999999
 21
0.0
 31
0.0
  0
LINE
  5
CF00
330
CED7
100
AcDbEntity
  8
0
100
AcDbLine
 10
-14.5
 20
2.999999999999998
 30
0.0
 11
-17.5
 21
2.999999999999998
 31
0.0
  0
LINE
  5
CF01
330
CED7
100
AcDbEntity
  8
0
100
AcDbLine
 10
17.5
 20
2.999999999999998
 30
0.0
 11
14.5
 21
2.999999999999998
 31
0.0
  0
LINE
  5
CF02
330
CED7
100
AcDbEntity
  8
0
100
AcDbLine
 10
-14.50000000000001
 20
54.0
 30
0.0
 11
14.5
 21
54.0
 31
0.0
  0
LINE
  5
CF03
330
CED7
100
AcDbEntity
  8
0
100
AcDbLine
 10
30.50000000000008
 20
0.0
 30
0.0
 11
30.5000000000001
 21
-1.50000000000001
 31
0.0
  0
LINE
  5
CF04
330
CED7
100
AcDbEntity
  8
0
100
AcDbLine
 10
34.50000000000009
 20
-1.499999999999904
 30
0.0
 11
34.50000000000012
 21
0.0
 31
0.0
  0
ARC
  5
CF05
330
CED7
100
AcDbEntity
  8
0
100
AcDbCircle
 10
-27.83757666048691
 20
3.0
 30
0.0
 40
1.5
100
AcDbArc
 50
270.0
 51
287.9999999999999
  0
ARC
  5
CF06
330
CED7
100
AcDbEntity
  8
0
100
AcDbCircle
 10
-19.00000000000002
 20
25.06805256023763
 30
0.0
 40
1.5
100
AcDbArc
 50
350.9999999999999
 51
0.0
  0
ARC
  5
CF07
330
CED7
100
AcDbEntity
  8
0
100
AcDbCircle
 10
19.00000000000013
 20
25.06805256023691
 30
0.0
 40
1.5
100
AcDbArc
 50
180.0
 51
188.9999999999998
  0
ARC
  5
CF08
330
CED7
100
AcDbEntity
  8
0
100
AcDbCircle
 10
27.83757666048695
 20
2.999999999999988
 30
0.0
 40
1.5
100
AcDbArc
 50
252.0
 51
270.0
  0
LINE
  5
CF09
330
CED7
100
AcDbEntity
  8
0
100
AcDbLine
 10
23.78169451958015
 20
2.740642656822495
 30
0.0
 11
27.37405116892454
 21
1.573415225557256
 31
0.0
  0
LINE
  5
CF0A
330
CED7
100
AcDbEntity
  8
0
100
AcDbLine
 10
17.51846748910743
 20
24.83340086267656
 30
0.0
 11
20.3883377884792
 21
6.713752913097117
 31
0.0
  0
ARC
  5
CF0B
330
CED7
100
AcDbEntity
  8
0
100
AcDbCircle
 10
25.32677949145489
 20
7.495925238298273
 30
0.0
 40
5.00000000000001
100
AcDbArc
 50
188.9999999999999
 51
252.0
  0
ENDBLK
  5
CED9
330
CED7
100
AcDbEntity
  8
0
100
AcDbBlockEnd
  0
BLOCK
  5
CF0D
330
CF0C
100
AcDbEntity
  8
0
100
AcDbBlockBegin
  2
SBE32_99-ISO
 70
     0
 10
0.0
 20
0.0
 30
0.0
  3
SBE32_99-ISO
  1

  0
ELLIPSE
  5
CF0F
330
CF0C
100
AcDbEntity
  8
0
100
AcDbEllipse
 10
0.3535533905932042
 20
56.76514446129022
 30
0.0
 11
1.499999999999998
 21
-0.0000000000000001
 31
0.0
210
0.0
220
0.0
230
1.0
 40
0.5773502691896257
 41
5.497787143782133
 42
7.068583470577029
  0
LINE
  5
CF10
330
CF0C
100
AcDbEntity
  8
0
100
AcDbLine
 10
1.414213562373023
 20
56.15277202559441
 30
0.0
 11
1.414213562373025
 21
57.37751689698598
 31
0.0
  0
LINE
  5
CF11
330
CF0C
100
AcDbEntity
  8
0
100
AcDbLine
 10
2.474873734170892
 20
44.90475288437433
 30
0.0
 11
2.474873734152847
 21
55.54039958989862
 31
0.0
  0
LINE
  5
CF12
330
CF0C
100
AcDbEntity
  8
0
100
AcDbLine
 10
2.474873734152795
 20
26.55477096696438
 30
0.0
 11
2.47487373416378
 21
37.59866596292756
 31
0.0
  0
ELLIPSE
  5
CF13
330
CF0C
100
AcDbEntity
  8
0
100
AcDbEllipse
 10
0.3535533905932042
 20
56.7651444612902
 30
0.0
 11
3.0
 21
0.0000000000000003
 31
0.0
210
0.0
220
0.0
230
1.0
 40
0.5773502691896257
 41
5.497787143782137
 42
7.068583470577033
  0
ELLIPSE
  5
CF14
330
CF0C
100
AcDbEntity
  8
0
100
AcDbEllipse
 10
27.22361107568215
 20
41.25170942366332
 30
0.0
 11
-3.000000000000002
 21
-0.0000000000001744
 31
0.0
210
0.0
220
0.0
230
1.0
 40
0.5773502691896266
 41
3.926990816987
 42
5.497787143781899
  0
LINE
  5
CF15
330
CF0C
100
AcDbEntity
  8
0
100
AcDbLine
 10
26.16295090390228
 20
12.87845323642488
 30
0.0
 11
26.1629509039023
 21
23.02439868318959
 31
0.0
  0
LINE
  5
CF16
330
CF0C
100
AcDbEntity
  8
0
100
AcDbLine
 10
28.28427124746193
 20
23.02439868318959
 30
0.0
 11
28.28427124746192
 21
12.87845323642488
 31
0.0
  0
LINE
  5
CF17
330
CF0C
100
AcDbEntity
  8
0
100
AcDbLine
 10
26.16295090390231
 20
32.12638470305835
 30
0.0
 11
26.16295090390232
 21
41.86408185935913
 31
0.0
  0
LINE
  5
CF18
330
CF0C
100
AcDbEntity
  8
0
100
AcDbLine
 10
26.16295090390221
 20
-37.74433478109405
 30
0.0
 11
26.16295090390222
 21
-21.61913722127089
 31
0.0
  0
LINE
  5
CF19
330
CF0C
100
AcDbEntity
  8
0
100
AcDbLine
 10
26.16295090390222
 20
-21.61913722127089
 30
0.0
 11
26.16295090390227
 21
9.612466912713975
 31
0.0
  0
LINE
  5
CF1A
330
CF0C
100
AcDbEntity
  8
0
100
AcDbLine
 10
28.28427124746191
 20
9.612466912713983
 30
0.0
 11
28.28427124746188
 21
-19.96693552784548
 31
0.0
  0
LINE
  5
CF1B
330
CF0C
100
AcDbEntity
  8
0
100
AcDbLine
 10
28.28427124746197
 20
41.86408185935912
 30
0.0
 11
28.28427124746195
 21
32.12638470305835
 31
0.0
  0
LINE
  5
CF1C
330
CF0C
100
AcDbEntity
  8
0
100
AcDbLine
 10
26.16295090390232
 20
41.86408185935913
 30
0.0
 11
25.1022907321225
 21
42.47645429505492
 31
0.0
  0
ELLIPSE
  5
CF1D
330
CF0C
100
AcDbEntity
  8
0
100
AcDbEllipse
 10
27.22361107568215
 20
41.25170942366335
 30
0.0
 11
1.500000000000001
 21
-0.0000000000000892
 31
0.0
210
0.0
220
0.0
230
1.0
 40
0.5773502691896258
 41
0.7853981633976943
 42
2.356194490192594
  0
LINE
  5
CF1E
330
CF0C
100
AcDbEntity
  8
0
100
AcDbLine
 10
1.414213562373025
 20
57.37751689698598
 30
0.0
 11
2.474873734152847
 21
57.98988933268177
 31
0.0
  0
LINE
  5
CF1F
330
CF0C
100
AcDbEntity
  8
0
100
AcDbLine
 10
2.474873734152847
 20
55.54039958989862
 30
0.0
 11
1.414213562373025
 21
56.15277202559441
 31
0.0
  0
LINE
  5
CF20
330
CF0C
100
AcDbEntity
  8
0
100
AcDbLine
 10
29.34493141924179
 20
42.47645429505491
 30
0.0
 11
28.28427124746197
 21
41.86408185935912
 31
0.0
  0
ELLIPSE
  5
CF21
330
CF0C
100
AcDbEntity
  8
0
100
AcDbEllipse
 10
24.04163056034257
 20
-36.51958990970246
 30
0.0
 11
1.500000000000001
 21
-2.598076211353318
 31
0.0
210
0.0
220
0.0
230
1.0
 40
0.5773502691896259
 41
0.0
 42
0.785398163397448
  0
LINE
  5
CF22
330
CF0C
100
AcDbEntity
  8
0
100
AcDbLine
 10
3.353553390593206
 20
46.20313748394709
 30
0.0
 11
3.353553390593206
 21
56.7651444612902
 31
0.0
  0
LINE
  5
CF23
330
CF0C
100
AcDbEntity
  8
0
100
AcDbLine
 10
3.353553390593211
 20
28.18776412881471
 30
0.0
 11
3.353553390593209
 21
38.74977110612012
 31
0.0
  0
ELLIPSE
  5
CF24
330
CF0C
100
AcDbEntity
  8
0
100
AcDbEllipse
 10
-16.97056274847721
 20
6.754728879467002
 30
0.0
 11
1.24999999999987
 21
2.16506350946117
 31
0.0
210
0.0
220
0.0
230
1.0
 40
0.5773502691896259
 41
3.579741684173544
 42
5.845036276594997
  0
ELLIPSE
  5
CF25
330
CF0C
100
AcDbEntity
  8
0
100
AcDbEllipse
 10
-16.97056274847721
 20
39.41459211657603
 30
0.0
 11
1.24999999999987
 21
2.16506350946117
 31
0.0
210
0.0
220
0.0
230
1.0
 40
0.5773502691896258
 41
3.579741684173544
 42
5.845036276594997
  0
ELLIPSE
  5
CF26
330
CF0C
100
AcDbEntity
  8
0
100
AcDbEllipse
 10
-16.97056274847721
 20
23.08466049802152
 30
0.0
 11
1.24999999999987
 21
2.16506350946117
 31
0.0
210
0.0
220
0.0
230
1.0
 40
0.5773502691896259
 41
3.579741684173546
 42
5.845036276594998
  0
ELLIPSE
  5
CF27
330
CF0C
100
AcDbEntity
  8
0
100
AcDbEllipse
 10
-15.90990257669739
 20
22.47228806232573
 30
0.0
 11
1.249999999999999
 21
2.165063509461096
 31
0.0
210
0.0
220
0.0
230
1.0
 40
0.577350269189626
 41
0.0
 42
6.283185307179586
  0
ELLIPSE
  5
CF28
330
CF0C
100
AcDbEntity
  8
0
100
AcDbEllipse
 10
-15.90990257669739
 20
38.80221968088024
 30
0.0
 11
1.249999999999999
 21
2.165063509461096
 31
0.0
210
0.0
220
0.0
230
1.0
 40
0.577350269189626
 41
0.0
 42
6.283185307179586
  0
ELLIPSE
  5
CF29
330
CF0C
100
AcDbEntity
  8
0
100
AcDbEllipse
 10
-15.90990257669738
 20
6.142356443771208
 30
0.0
 11
1.249999999999999
 21
2.165063509461096
 31
0.0
210
0.0
220
0.0
230
1.0
 40
0.577350269189626
 41
0.0
 42
6.283185307179586
  0
LINE
  5
CF2A
330
CF0C
100
AcDbEntity
  8
0
100
AcDbLine
 10
-34.64823227814088
 20
-21.81767004389523
 30
0.0
 11
-34.64823227814089
 21
-44.27630742851586
 31
0.0
  0
LINE
  5
CF2B
330
CF0C
100
AcDbEntity
  8
0
100
AcDbLine
 10
1.414213562373025
 20
56.15277202559441
 30
0.0
 11
-18.03122292025703
 21
44.92594403783818
 31
0.0
  0
LINE
  5
CF2C
330
CF0C
100
AcDbEntity
  8
0
100
AcDbLine
 10
2.474873734152847
 20
55.54039958989862
 30
0.0
 11
-16.97056274847721
 21
44.31357160214239
 31
0.0
  0
LINE
  5
CF2D
330
CF0C
100
AcDbEntity
  8
0
100
AcDbLine
 10
-33.58757210636107
 20
-22.43004247959103
 30
0.0
 11
-33.58757210636106
 21
-44.88867986421166
 31
0.0
  0
LINE
  5
CF2E
330
CF0C
100
AcDbEntity
  8
0
100
AcDbLine
 10
-10.96015510839154
 20
-57.95262515905527
 30
0.0
 11
-10.9601551083915
 21
-35.49398777443466
 31
0.0
  0
LINE
  5
CF2F
330
CF0C
100
AcDbEntity
  8
0
100
AcDbLine
 10
25.1022907321225
 20
42.47645429505492
 30
0.0
 11
5.65685424949244
 21
31.2496263072987
 31
0.0
  0
LINE
  5
CF30
330
CF0C
100
AcDbEntity
  8
0
100
AcDbLine
 10
6.717514421272261
 20
30.6372538716029
 30
0.0
 11
26.16295090390232
 21
41.86408185935913
 31
0.0
  0
LINE
  5
CF31
330
CF0C
100
AcDbEntity
  8
0
100
AcDbLine
 10
-9.89949493661172
 20
-58.56499759475106
 30
0.0
 11
-9.899494936611677
 21
-36.10636021013045
 31
0.0
  0
LINE
  5
CF32
330
CF0C
100
AcDbEntity
  8
0
100
AcDbLine
 10
-32.52691193458125
 20
-47.95054204269063
 30
0.0
 11
-12.02081528017136
 21
-59.78974246614265
 31
0.0
  0
LINE
  5
CF33
330
CF0C
100
AcDbEntity
  8
0
100
AcDbLine
 10
-32.52691193458124
 20
-46.72579717129905
 30
0.0
 11
-12.02081528017137
 21
-58.56499759475106
 31
0.0
  0
LINE
  5
CF34
330
CF0C
100
AcDbEntity
  8
0
100
AcDbLine
 10
-34.64823227814088
 20
-21.81767004389523
 30
0.0
 11
-26.01423585318817
 21
-10.10819559755652
 31
0.0
  0
LINE
  5
CF35
330
CF0C
100
AcDbEntity
  8
0
100
AcDbLine
 10
-22.2738636073763
 20
0.1741854468541115
 30
0.0
 11
-22.27386360737632
 21
37.57747480948866
 31
0.0
  0
LINE
  5
CF36
330
CF0C
100
AcDbEntity
  8
0
100
AcDbLine
 10
-21.21320343559649
 20
36.96510237379286
 30
0.0
 11
-21.21320343559649
 21
-0.4381869888416823
 31
0.0
  0
LINE
  5
CF37
330
CF0C
100
AcDbEntity
  8
0
100
AcDbLine
 10
-24.95357568140834
 20
-10.72056803325232
 30
0.0
 11
-33.58757210636107
 21
-22.43004247959103
 31
0.0
  0
LINE
  5
CF38
330
CF0C
100
AcDbEntity
  8
0
100
AcDbLine
 10
-10.9601551083915
 20
-35.49398777443466
 30
0.0
 11
-2.326158683438774
 21
-23.78451332809596
 31
0.0
  0
LINE
  5
CF39
330
CF0C
100
AcDbEntity
  8
0
100
AcDbLine
 10
1.414213562373096
 20
-13.50213228368533
 30
0.0
 11
1.414213562373147
 21
23.90115707894917
 31
0.0
  0
LINE
  5
CF3A
330
CF0C
100
AcDbEntity
  8
0
100
AcDbLine
 10
2.474873734152971
 20
23.28878464325337
 30
0.0
 11
2.47487373415292
 21
-14.11450471938113
 31
0.0
  0
LINE
  5
CF3B
330
CF0C
100
AcDbEntity
  8
0
100
AcDbLine
 10
-1.265498511658953
 20
-24.39688576379176
 30
0.0
 11
-9.899494936611677
 21
-36.10636021013045
 31
0.0
  0
LINE
  5
CF3C
330
CF0C
100
AcDbEntity
  8
0
100
AcDbLine
 10
-9.899494936611677
 20
-36.10636021013045
 30
0.0
 11
-10.9601551083915
 21
-35.49398777443466
 31
0.0
  0
LINE
  5
CF3D
330
CF0C
100
AcDbEntity
  8
0
100
AcDbLine
 10
-33.58757210636107
 20
-22.43004247959103
 30
0.0
 11
-34.64823227814088
 21
-21.81767004389523
 31
0.0
  0
ELLIPSE
  5
CF3E
330
CF0C
100
AcDbEntity
  8
0
100
AcDbEllipse
 10
-30.75914498161487
 20
-4.724794038712247
 30
0.0
 11
-6.000000000000619
 21
-10.3923048454129
 31
0.0
210
0.0
220
0.0
230
0.9999999999999998
 40
0.5773502691896259
 41
1.378810109075633
 42
2.356194490192587
  0
ELLIPSE
  5
CF3F
330
CF0C
100
AcDbEntity
  8
0
100
AcDbEllipse
 10
-29.69848480983504
 20
-5.337166474408041
 30
0.0
 11
6.0
 21
10.39230484541326
 31
0.0
210
0.0
220
0.0
230
0.9999999999999998
 40
0.5773502691896259
 41
4.520402762665312
 42
5.497787143782137
  0
ELLIPSE
  5
CF40
330
CF0C
100
AcDbEntity
  8
0
100
AcDbEllipse
 10
-7.071067811865545
 20
-18.40111176925164
 30
0.0
 11
-6.000000000000642
 21
-10.39230484541289
 31
0.0
210
0.0
220
0.0
230
1.0
 40
0.5773502691896253
 41
1.378810109075633
 42
2.356194490192587
  0
ELLIPSE
  5
CF41
330
CF0C
100
AcDbEntity
  8
0
100
AcDbEllipse
 10
-6.010407640085722
 20
-19.01348420494744
 30
0.0
 11
6.000000000000011
 21
10.39230484541325
 31
0.0
210
0.0
220
0.0
230
1.0
 40
0.5773502691896258
 41
4.520402762665313
 42
5.497787143782138
  0
ELLIPSE
  5
CF42
330
CF0C
100
AcDbEntity
  8
0
100
AcDbEllipse
 10
-8.485281374238615
 20
20.7907241152791
 30
0.0
 11
-6.000000000000002
 21
10.39230484541326
 31
0.0
210
0.0
220
0.0
230
0.9999999999999998
 40
0.5773502691896259
 41
0.9794938541811708
 42
1.178784220247857
  0
LINE
  5
CF43
330
CF0C
100
AcDbEntity
  8
0
100
AcDbLine
 10
-21.21320343559649
 20
-0.4381869888416823
 30
0.0
 11
-22.2738636073763
 21
0.1741854468541115
 31
0.0
  0
LINE
  5
CF44
330
CF0C
100
AcDbEntity
  8
0
100
AcDbLine
 10
2.47487373415292
 20
-14.11450471938113
 30
0.0
 11
1.414213562373096
 21
-13.50213228368533
 31
0.0
  0
LINE
  5
CF45
330
CF0C
100
AcDbEntity
  8
0
100
AcDbLine
 10
47.72970773009196
 20
-10.4402701052064
 30
0.0
 11
46.66904755831213
 21
-11.05264254090219
 31
0.0
  0
ELLIPSE
  5
CF46
330
CF0C
100
AcDbEntity
  8
0
100
AcDbEllipse
 10
38.18376618407357
 20
-6.153663055335822
 30
0.0
 11
6.000000000000007
 21
-10.39230484541326
 31
0.0
210
0.0
220
0.0
230
1.0
 40
0.5773502691896259
 41
6.091199089460207
 42
7.068583470577032
  0
LINE
  5
CF47
330
CF0C
100
AcDbEntity
  8
0
100
AcDbLine
 10
-26.01423585318817
 20
-10.10819559755652
 30
0.0
 11
-24.95357568140834
 21
-10.72056803325232
 31
0.0
  0
LINE
  5
CF48
330
CF0C
100
AcDbEntity
  8
0
100
AcDbLine
 10
-2.326158683438774
 20
-23.78451332809596
 30
0.0
 11
-1.265498511658953
 21
-24.39688576379176
 31
0.0
  0
ELLIPSE
  5
CF49
330
CF0C
100
AcDbEntity
  8
0
100
AcDbEllipse
 10
39.24442635585339
 20
-5.541290619640033
 30
0.0
 11
6.000000000000002
 21
-10.39230484541326
 31
0.0
210
0.0
220
0.0
230
0.9999999999999998
 40
0.5773502691896262
 41
0.0000000000000005
 42
0.7853981633974473
  0
LINE
  5
CF4A
330
CF0C
100
AcDbEntity
  8
0
100
AcDbLine
 10
44.18376618407357
 20
-16.54596790074908
 30
0.0
 11
45.24442635585338
 21
-15.93359546505329
 31
0.0
  0
LINE
  5
CF4B
330
CF0C
100
AcDbEntity
  8
0
100
AcDbLine
 10
-18.03122292025703
 20
44.92594403783818
 30
0.0
 11
-22.27386360737632
 21
37.57747480948866
 31
0.0
  0
LINE
  5
CF4C
330
CF0C
100
AcDbEntity
  8
0
100
AcDbLine
 10
-21.21320343559649
 20
36.96510237379286
 30
0.0
 11
-16.97056274847721
 21
44.31357160214239
 31
0.0
  0
LINE
  5
CF4D
330
CF0C
100
AcDbEntity
  8
0
100
AcDbLine
 10
5.65685424949244
 20
31.2496263072987
 30
0.0
 11
1.414213562373147
 21
23.90115707894917
 31
0.0
  0
LINE
  5
CF4E
330
CF0C
100
AcDbEntity
  8
0
100
AcDbLine
 10
2.474873734152971
 20
23.28878464325337
 30
0.0
 11
6.717514421272261
 21
30.6372538716029
 31
0.0
  0
LINE
  5
CF4F
330
CF0C
100
AcDbEntity
  8
0
100
AcDbLine
 10
-16.97056274847719
 20
63.09299296348008
 30
0.0
 11
-12.7279220613579
 21
65.54248270626314
 31
0.0
  0
LINE
  5
CF50
330
CF0C
100
AcDbEntity
  8
0
100
AcDbLine
 10
-12.7279220613579
 20
65.54248270626314
 30
0.0
 11
-11.66726188957808
 21
66.15485514195902
 31
0.0
  0
LINE
  5
CF51
330
CF0C
100
AcDbEntity
  8
0
100
AcDbLine
 10
-16.97056274847721
 20
44.31357160214239
 30
0.0
 11
-18.03122292025703
 21
44.92594403783818
 31
0.0
  0
LINE
  5
CF52
330
CF0C
100
AcDbEntity
  8
0
100
AcDbLine
 10
-22.27386360737632
 20
37.57747480948866
 30
0.0
 11
-21.21320343559649
 21
36.96510237379286
 31
0.0
  0
LINE
  5
CF53
330
CF0C
100
AcDbEntity
  8
0
100
AcDbLine
 10
6.717514421272261
 20
30.6372538716029
 30
0.0
 11
5.65685424949244
 21
31.2496263072987
 31
0.0
  0
LINE
  5
CF54
330
CF0C
100
AcDbEntity
  8
0
100
AcDbLine
 10
1.414213562373147
 20
23.90115707894917
 30
0.0
 11
2.474873734152971
 21
23.28878464325337
 31
0.0
  0
LINE
  5
CF55
330
CF0C
100
AcDbEntity
  8
0
100
AcDbLine
 10
47.729707730092
 20
26.96301925742812
 30
0.0
 11
43.48706704297274
 21
34.31148848577757
 31
0.0
  0
LINE
  5
CF56
330
CF0C
100
AcDbEntity
  8
0
100
AcDbLine
 10
43.48706704297274
 20
34.31148848577757
 30
0.0
 11
42.42640687119292
 21
33.69911605008177
 31
0.0
  0
LINE
  5
CF57
330
CF0C
100
AcDbEntity
  8
0
100
AcDbLine
 10
42.42640687119292
 20
33.69911605008177
 30
0.0
 11
46.66904755831218
 21
26.35064682173233
 31
0.0
  0
LINE
  5
CF58
330
CF0C
100
AcDbEntity
  8
0
100
AcDbLine
 10
46.66904755831218
 20
26.35064682173233
 30
0.0
 11
47.729707730092
 21
26.96301925742812
 31
0.0
  0
ELLIPSE
  5
CF59
330
CF0C
100
AcDbEntity
  8
0
100
AcDbEllipse
 10
0.2343190133569206
 20
40.60179235229552
 30
0.0
 11
0.9850528317504792
 21
1.131225405767197
 31
0.0
210
0.0
220
0.0
230
0.9999999999999998
 40
0.4173680013367555
 41
0.0
 42
0.5753553954488205
  0
SPLINE
  5
CF5A
330
CF0C
100
AcDbEntity
  8
0
100
AcDbSpline
210
0.0
220
0.0
230
1.0
 70
     8
 71
     3
 72
    10
 73
     6
 74
     0
 42
0.000000001
 43
0.0000000001
 40
0.1396843436543138
 40
0.1396843436543138
 40
0.1396843436543138
 40
0.1396843436543138
 40
0.1418729186708977
 40
0.1418729186708977
 40
0.2837458373417941
 40
0.2837458373417941
 40
0.2837458373417941
 40
0.2837458373417941
 10
0.0693419984345889
 20
42.64960718899529
 30
0.0
 10
0.0733158987165683
 20
42.64497641566321
 30
0.0
 10
0.077285129774769
 20
42.64034802582992
 30
0.0
 10
0.3382527865601692
 20
42.33584800678966
 30
0.0
 10
0.5760098970501871
 20
42.04575123669338
 30
0.0
 10
0.8038718486761741
 20
41.7745984520029
 30
0.0
  0
ELLIPSE
  5
CF5B
330
CF0C
100
AcDbEntity
  8
0
100
AcDbEllipse
 10
1.414213562373025
 20
39.54047972742825
 30
0.0
 11
1.018271863351766
 21
1.101418363886359
 31
0.0
210
0.0
220
0.0
230
1.0
 40
0.3866729749328051
 41
0.0
 42
0.6279471263398886
  0
SPLINE
  5
CF5C
330
CF0C
100
AcDbEntity
  8
0
100
AcDbSpline
210
0.0
220
0.0
230
1.0
 70
     8
 71
     3
 72
    10
 73
     6
 74
     0
 42
0.000000001
 43
0.0000000001
 40
0.0
 40
0.0
 40
0.0
 40
0.0
 40
0.0866240026525021
 40
0.0866240026525021
 40
0.1732480053050043
 40
0.1732480053050043
 40
0.1732480053050043
 40
0.1732480053050043
 10
0.8038718487438467
 20
41.77459845195539
 30
0.0
 10
1.003838624677075
 20
41.59271208819602
 30
0.0
 10
1.20226469757148
 20
41.40879513430924
 30
0.0
 10
1.596764954776956
 20
41.03799035706866
 30
0.0
 10
1.792839142852284
 20
40.85109927377491
 30
0.0
 10
1.988031921823483
 20
40.66310147658458
 30
0.0
  0
ELLIPSE
  5
CF5D
330
CF0C
100
AcDbEntity
  8
0
100
AcDbEllipse
 10
1.414213562383956
 20
38.21103839862336
 30
0.0
 11
0.481724945311913
 21
-1.420542529129009
 31
0.0
210
0.0
220
0.0
230
1.0
 40
0.6821022831553125
 41
0.9100452509960046
 42
2.142595991522583
  0
SPLINE
  5
CF5E
330
CF0C
100
AcDbEntity
  8
0
100
AcDbSpline
210
0.0
220
0.0
230
1.0
 70
     8
 71
     3
 72
    10
 73
     6
 74
     0
 42
0.000000001
 43
0.0000000001
 40
-0.2385842614456966
 40
-0.2385842614456966
 40
-0.2385842614456966
 40
-0.2385842614456966
 40
-0.14214162048105
 40
-0.14214162048105
 40
-0.1200897735668738
 40
-0.1200897735668738
 40
-0.1200897735668738
 40
-0.1200897735668738
 10
2.474873734174711
 20
37.59866596293387
 30
0.0
 10
2.920130698835403
 20
37.80269686907043
 30
0.0
 10
3.22709710106052
 20
38.12121370507155
 30
0.0
 10
3.342754698021204
 20
38.57473171873403
 30
0.0
 10
3.353357811301691
 20
38.66155850122371
 30
0.0
 10
3.353271850902206
 20
38.74976894128646
 30
0.0
  0
SPLINE
  5
CF5F
330
CF0C
100
AcDbEntity
  8
0
100
AcDbSpline
210
0.0
220
0.0
230
1.0
 70
     8
 71
     3
 72
    14
 73
    10
 74
     0
 42
0.000000001
 43
0.0000000001
 40
0.0
 40
0.0
 40
0.0
 40
0.0
 40
0.0303721411284295
 40
0.0303721411284295
 40
0.0789675669339167
 40
0.0789675669339167
 40
0.14214162048105
 40
0.14214162048105
 40
0.2385842614456966
 40
0.2385842614456966
 40
0.2385842614456966
 40
0.2385842614456966
 10
1.988031921823485
 20
40.66310147658458
 30
0.0
 10
2.056470489063857
 20
40.59718561662364
 30
0.0
 10
2.118642754124666
 20
40.52871466055859
 30
0.0
 10
2.26016426749461
 20
40.34680680514006
 30
0.0
 10
2.327241364780705
 20
40.23105600714796
 30
0.0
 10
2.424344900498758
 20
39.96868692302342
 30
0.0
 10
2.436657525361769
 20
39.82339131680575
 30
0.0
 10
2.353368504549027
 20
39.49759867068334
 30
0.0
 10
2.195510880464179
 20
39.34124983496408
 30
0.0
 10
1.968351970071828
 20
39.25607680411559
 30
0.0
  0
ELLIPSE
  5
CF60
330
CF0C
100
AcDbEntity
  8
0
100
AcDbEllipse
 10
-0.8883277479623652
 20
37.25430981146511
 30
0.0
 11
0.6735304878558967
 21
-1.340282314263904
 31
0.0
210
0.0
220
0.0
230
0.9999999999999998
 40
0.6134744499317055
 41
0.8199141697227272
 42
2.003105718372863
  0
SPLINE
  5
CF61
330
CF0C
100
AcDbEntity
  8
0
100
AcDbSpline
210
0.0
220
0.0
230
1.0
 70
     8
 71
     3
 72
    10
 73
     6
 74
     0
 42
0.000000001
 43
0.0000000001
 40
-0.3290771859225734
 40
-0.3290771859225734
 40
-0.3290771859225734
 40
-0.3290771859225734
 40
-0.1645385929612867
 40
-0.1645385929612867
 40
0.0
 40
0.0
 40
0.0
 40
0.0
 10
0.1723324238174584
 20
36.6419373757693
 30
0.0
 10
0.5593419916449616
 20
36.83642083664147
 30
0.0
 10
0.9452602926930374
 20
37.01149846325828
 30
0.0
 10
1.71310864764556
 20
37.32815890220336
 30
0.0
 10
2.095052351529511
 20
37.46986345893635
 30
0.0
 10
2.47487373416378
 20
37.59866596292756
 30
0.0
  0
SPLINE
  5
CF62
330
CF0C
100
AcDbEntity
  8
0
100
AcDbSpline
210
0.0
220
0.0
230
1.0
 70
     8
 71
     3
 72
    10
 73
     6
 74
     0
 42
0.000000001
 43
0.0000000001
 40
0.0
 40
0.0
 40
0.0
 40
0.0
 40
0.1645385929612867
 40
0.1645385929612867
 40
0.3290771859225734
 40
0.3290771859225734
 40
0.3290771859225734
 40
0.3290771859225734
 10
1.968351970071828
 20
39.25607680411559
 30
0.0
 10
1.580801327315961
 20
39.11076503627633
 30
0.0
 10
1.188157284938236
 20
38.95128401392326
 30
0.0
 10
0.3908476249952941
 20
38.59785534094049
 30
0.0
 10
-0.0139053796154487
 20
38.40380030409573
 30
0.0
 10
-0.4239316476199817
 20
38.19102651949049
 30
0.0
  0
ELLIPSE
  5
CF63
330
CF0C
100
AcDbEntity
  8
0
100
AcDbEllipse
 10
-2.3872613770504
 20
36.50105246581556
 30
0.0
 11
0.6735304878559005
 21
-1.340282314263911
 31
0.0
210
0.0
220
0.0
230
1.0
 40
0.6134744499317049
 41
0.8199141697227299
 42
2.003105718372864
  0
LINE
  5
CF64
330
CF0C
100
AcDbEntity
  8
0
100
AcDbLine
 10
-1.326601205270576
 20
35.88868003011976
 30
0.0
 11
0.1723324238174539
 21
36.64193737576931
 31
0.0
  0
LINE
  5
CF65
330
CF0C
100
AcDbEntity
  8
0
100
AcDbLine
 10
-0.423931647619984
 20
38.19102651949049
 30
0.0
 11
-1.922865276708018
 21
37.43776917384096
 31
0.0
  0
ELLIPSE
  5
CF66
330
CF0C
100
AcDbEntity
  8
0
100
AcDbEllipse
 10
-2.387261378779617
 20
42.83754609255241
 30
0.0
 11
0.8193997375741167
 21
-1.256417156128779
 31
0.0
210
0.0
220
0.0
230
1.0
 40
0.5388095822648845
 41
0.0000000001435048
 42
0.7550720329637607
  0
ELLIPSE
  5
CF67
330
CF0C
100
AcDbEntity
  8
0
100
AcDbEllipse
 10
5.938497376736515
 20
43.25143346608064
 30
0.0
 11
-18.92465153915225
 21
-11.19850234446446
 31
0.0
210
0.0
220
0.0
230
1.0
 40
0.1346372153812724
 41
5.025585556707157
 42
7.381780046922154
  0
ELLIPSE
  5
CF68
330
CF0C
100
AcDbEntity
  8
0
100
AcDbEllipse
 10
4.877837204956694
 20
43.86380590177643
 30
0.0
 11
-17.74233703997129
 21
-11.57661130405069
 31
0.0
210
0.0
220
0.0
230
1.0
 40
0.0872913523692787
 41
5.53278066677142
 42
7.404387711445663
  0
ELLIPSE
  5
CF69
330
CF0C
100
AcDbEntity
  8
0
100
AcDbEllipse
 10
-0.8883277479623629
 20
43.81510821649621
 30
0.0
 11
0.8193997375596572
 21
-1.256417156077981
 31
0.0
210
0.0
220
0.0
230
1.0
 40
0.5388095822689449
 41
0.000000000000045
 42
0.7550720328373362
  0
LINE
  5
CF6A
330
CF0C
100
AcDbEntity
  8
0
100
AcDbLine
 10
0.1723324238174606
 20
43.20273578080041
 30
0.0
 11
-1.326601206999793
 21
42.22517365685662
 31
0.0
  0
ELLIPSE
  5
CF6B
330
CF0C
100
AcDbEntity
  8
0
100
AcDbEllipse
 10
1.414213562409116
 20
45.51712532008054
 30
0.0
 11
0.9480488983984136
 21
-1.162412700483582
 31
0.0
210
0.0
220
0.0
230
1.0
 40
0.4487796140200818
 41
0.0000000000000282
 42
0.702416502782635
  0
SPLINE
  5
CF6C
330
CF0C
100
AcDbEntity
  8
0
100
AcDbSpline
210
0.0
220
0.0
230
1.0
 70
     8
 71
     3
 72
    10
 73
     6
 74
     0
 42
0.000000001
 43
0.0000000001
 40
-0.3290771859266594
 40
-0.3290771859266594
 40
-0.3290771859266594
 40
-0.3290771859266594
 40
-0.1645385929633298
 40
-0.1645385929633298
 40
-0.0000000000000002
 40
-0.0000000000000002
 40
-0.0000000000000002
 40
-0.0000000000000002
 10
2.474873734188933
 20
44.90475288438475
 30
0.0
 10
2.095052351551069
 20
44.59497543335076
 30
0.0
 10
1.713108647663192
 20
44.29564938956956
 30
0.0
 10
0.9452602927022567
 20
43.72567491964196
 30
0.0
 10
0.5593419916496556
 20
43.45513247626159
 30
0.0
 10
0.1723324238174539
 20
43.20273578080044
 30
0.0
  0
SPLINE
  5
CF6D
330
CF0C
100
AcDbEntity
  8
0
100
AcDbSpline
210
0.0
220
0.0
230
1.0
 70
     8
 71
     3
 72
    12
 73
     8
 74
     0
 42
0.000000001
 43
0.0000000001
 40
-0.1184914436323641
 40
-0.1184914436323641
 40
-0.1184914436323641
 40
-0.1184914436323641
 40
-0.0753627829472236
 40
-0.0753627829472236
 40
-0.0289856857501221
 40
-0.0289856857501221
 40
-0.0000000000019336
 40
-0.0000000000019336
 40
-0.0000000000019336
 40
-0.0000000000019336
 10
3.353357059493908
 20
46.20311190869735
 30
0.0
 10
3.353157573815606
 20
46.04415941599515
 30
0.0
 10
3.311934720665101
 20
45.87899699092059
 30
0.0
 10
3.142917988001534
 20
45.53877062456858
 30
0.0
 10
3.009337913627883
 20
45.36408854839684
 30
0.0
 10
2.730584124968267
 20
45.09678339168419
 30
0.0
 10
2.608695022433531
 20
44.99795522644791
 30
0.0
 10
2.474873734198521
 20
44.90475288438713
 30
0.0
  0
ELLIPSE
  5
CF6E
330
CF0C
100
AcDbEntity
  8
0
100
AcDbEllipse
 10
24.75307769766483
 20
21.48025607803095
 30
0.0
 11
-0.6444133738665761
 21
1.354522574039241
 31
0.0
210
0.0
220
0.0
230
1.0
 40
0.6257331206090918
 41
0.3725120245364
 42
0.8333043077522699
  0
ELLIPSE
  5
CF6F
330
CF0C
100
AcDbEntity
  8
0
100
AcDbEllipse
 10
37.38397948439665
 20
32.82911069326524
 30
0.0
 11
-26.60789148696049
 21
-14.33873511477724
 31
0.0
210
0.0
220
0.0
230
1.0
 40
0.1000225409266445
 41
5.170902668615097
 42
7.08185104812699
  0
ELLIPSE
  5
CF70
330
CF0C
100
AcDbEntity
  8
0
100
AcDbEllipse
 10
24.75307769766485
 20
29.59305621514488
 30
0.0
 11
-0.8425747043855494
 21
1.240994708904729
 31
0.0
210
0.0
220
0.0
230
1.0
 40
0.5245233345042672
 41
0.7452041137883532
 42
1.810549179579972
  0
ELLIPSE
  5
CF71
330
CF0C
100
AcDbEntity
  8
0
100
AcDbEllipse
 10
36.32331931261683
 20
33.44148312896103
 30
0.0
 11
-25.68345566027805
 21
-15.19796746748748
 31
0.0
210
0.0
220
0.0
230
1.0
 40
0.1346372153812722
 41
5.145249232568373
 42
7.262116370962239
  0
ELLIPSE
  5
CF72
330
CF0C
100
AcDbEntity
  8
0
100
AcDbEllipse
 10
26.19324092047922
 20
22.06837123789477
 30
0.0
 11
0.5208505218990874
 21
-1.406667954365003
 31
0.0
210
0.0
220
0.0
230
0.9999999999999998
 40
0.6701973449423539
 41
3.592562058822007
 42
4.032922845143485
  0
SPLINE
  5
CF73
330
CF0C
100
AcDbEntity
  8
0
100
AcDbSpline
210
0.0
220
0.0
230
1.0
 70
     8
 71
     3
 72
    10
 73
     6
 74
     0
 42
0.000000001
 43
0.0000000001
 40
-0.1489505020863155
 40
-0.1489505020863155
 40
-0.1489505020863155
 40
-0.1489505020863155
 40
-0.0744752510431578
 40
-0.0744752510431578
 40
0.0
 40
0.0
 40
0.0
 40
0.0
 10
25.1325807486994
 20
22.68074367359056
 30
0.0
 10
25.30536415204429
 20
22.74472062389244
 30
0.0
 10
25.47761734508471
 20
22.80499673535018
 30
0.0
 10
25.82106269131846
 20
22.91920511688127
 30
0.0
 10
25.9922557071906
 20
22.97313960838155
 30
0.0
 10
26.1629509039023
 20
23.02439868318958
 30
0.0
  0
ELLIPSE
  5
CF74
330
CF0C
100
AcDbEntity
  8
0
100
AcDbEllipse
 10
27.22361107568212
 20
22.41202624749379
 30
0.0
 11
-0.4314118640183592
 21
1.436622359419555
 31
0.0
210
0.0
220
0.0
230
0.9999999999999998
 40
0.6961202208620343
 41
0.5876585946227113
 42
0.9343160604977995
  0
ELLIPSE
  5
CF75
330
CF0C
100
AcDbEntity
  8
0
100
AcDbEllipse
 10
27.88622619987361
 20
30.88022177016917
 30
0.0
 11
1.030044369542929
 21
1.090416707856642
 31
0.0
210
0.0
220
0.0
230
1.0
 40
0.3751864151476529
 41
4.287665715117306
 42
5.610805162114786
  0
SPLINE
  5
CF76
330
CF0C
100
AcDbEntity
  8
0
100
AcDbSpline
210
0.0
220
0.0
230
1.0
 70
     8
 71
     3
 72
    10
 73
     6
 74
     0
 42
0.000000001
 43
0.0000000001
 40
-0.098631505759576
 40
-0.098631505759576
 40
-0.098631505759576
 40
-0.098631505759576
 40
-0.049315752879788
 40
-0.049315752879788
 40
0.0
 40
0.0
 40
0.0
 40
0.0
 10
28.94688637165343
 20
31.49259420586497
 30
0.0
 10
28.83611649560473
 20
31.59723116375165
 30
0.0
 10
28.72552841925185
 20
31.70242243926568
 30
0.0
 10
28.5046708461363
 20
31.91373862224057
 30
0.0
 10
28.39440137134185
 20
32.01986375114052
 30
0.0
 10
28.28427124746195
 20
32.12638470305835
 30
0.0
  0
ELLIPSE
  5
CF77
330
CF0C
100
AcDbEntity
  8
0
100
AcDbEllipse
 10
27.22361107568212
 20
31.51401226736256
 30
0.0
 11
-1.04284602861909
 21
-1.078180022349417
 31
0.0
210
0.0
220
0.0
230
1.0
 40
0.3623159750592247
 41
1.126298842996772
 42
2.473566334048445
  0
SPLINE
  5
CF78
330
CF0C
100
AcDbEntity
  8
0
100
AcDbSpline
210
0.0
220
0.0
230
1.0
 70
     8
 71
     3
 72
    10
 73
     6
 74
     0
 42
0.000000001
 43
0.0000000001
 40
0.0
 40
0.0
 40
0.0
 40
0.0
 40
0.049315752879788
 40
0.049315752879788
 40
0.098631505759576
 40
0.098631505759576
 40
0.098631505759576
 40
0.098631505759576
 10
27.12786480446244
 20
30.70926637645052
 30
0.0
 10
27.24457375527805
 20
30.60338797286065
 30
0.0
 10
27.36177223196901
 20
30.49787198598359
 30
0.0
 10
27.59728292221416
 20
30.28766937750788
 30
0.0
 10
27.71559518916936
 20
30.18298265506415
 30
0.0
 10
27.83453850671781
 20
30.07877234384956
 30
0.0
  0
ELLIPSE
  5
CF79
330
CF0C
100
AcDbEntity
  8
0
100
AcDbEllipse
 10
30.66436780310014
 20
27.86150637887793
 30
0.0
 11
1.075724519468969
 21
1.045378763039134
 31
0.0
210
0.0
220
0.0
230
0.9999999999999996
 40
0.3273577323099358
 41
4.897499714566539
 42
5.625840623118905
  0
SPLINE
  5
CF7A
330
CF0C
100
AcDbEntity
  8
0
100
AcDbSpline
210
0.0
220
0.0
230
1.0
 70
     8
 71
     3
 72
    10
 73
     6
 74
     0
 42
0.000000001
 43
0.0000000001
 40
-0.4298105547536767
 40
-0.4298105547536767
 40
-0.4298105547536767
 40
-0.4298105547536767
 40
-0.2527935054382429
 40
-0.2527935054382429
 40
-0.0000000000000008
 40
-0.0000000000000008
 40
-0.0000000000000008
 40
-0.0000000000000008
 10
31.72502797487997
 20
28.47387881457375
 30
0.0
 10
31.33646418561681
 20
28.87372201999049
 30
0.0
 10
30.96612836198942
 20
29.31157591781257
 30
0.0
 10
30.0578866396115
 20
30.3541698960428
 30
0.0
 10
29.51469490398118
 20
30.956223130946
 30
0.0
 10
28.94688637165342
 20
31.49259420586497
 30
0.0
  0
SPLINE
  5
CF7B
330
CF0C
100
AcDbEntity
  8
0
100
AcDbSpline
210
0.0
220
0.0
230
1.0
 70
     8
 71
     3
 72
    10
 73
     6
 74
     0
 42
0.000000001
 43
0.0000000001
 40
0.0000000000000008
 40
0.0000000000000008
 40
0.0000000000000008
 40
0.0000000000000008
 40
0.2527935054382429
 40
0.2527935054382429
 40
0.4298105547536767
 40
0.4298105547536767
 40
0.4298105547536767
 40
0.4298105547536767
 10
27.83453850671781
 20
30.07877234384957
 30
0.0
 10
28.42963267799616
 20
29.6927756075307
 30
0.0
 10
29.04909030321375
 20
29.25103129402966
 30
0.0
 10
30.1824576482077
 20
28.43200841285798
 30
0.0
 10
30.67393471790552
 20
28.07256007532958
 30
0.0
 10
31.19872709993091
 20
27.70778334073587
 30
0.0
  0
ELLIPSE
  5
CF7C
330
CF0C
100
AcDbEntity
  8
0
100
AcDbEllipse
 10
30.66436780310013
 20
22.09148849039678
 30
0.0
 11
0.1870368933166081
 21
1.488293385236421
 31
0.0
210
0.0
220
0.0
230
0.9999999999999998
 40
0.7479997204301311
 41
5.228190434604798
 42
5.95653134315717
  0
ELLIPSE
  5
CF7D
330
CF0C
100
AcDbEntity
  8
0
100
AcDbEllipse
 10
21.49038164910491
 20
31.49784568158003
 30
0.0
 11
12.86670137892408
 21
-8.191212071365351
 31
0.0
210
0.0
220
0.0
230
1.0
 40
0.2609200613534019
 41
5.77918104688587
 42
7.116398104046118
  0
ELLIPSE
  5
CF7E
330
CF0C
100
AcDbEntity
  8
0
100
AcDbEllipse
 10
20.42972147732509
 20
30.88547324588423
 30
0.0
 11
13.65152717823382
 21
-7.074985500025728
 31
0.0
210
0.0
220
0.0
230
1.0
 40
0.1990675239603148
 41
5.717381004953946
 42
7.054598062114194
  0
ELLIPSE
  5
CF7F
330
CF0C
100
AcDbEntity
  8
0
100
AcDbEllipse
 10
27.88622619987361
 20
22.28069470404506
 30
0.0
 11
0.3083698224032601
 21
1.467960507858081
 31
0.0
210
0.0
220
0.0
230
0.9999999999999998
 40
0.725190885598625
 41
5.288653074036311
 42
6.047746408756572
  0
SPLINE
  5
CF80
330
CF0C
100
AcDbEntity
  8
0
100
AcDbSpline
210
0.0
220
0.0
230
1.0
 70
     8
 71
     3
 72
    10
 73
     6
 74
     0
 42
0.000000001
 43
0.0000000001
 40
-0.4298560553329314
 40
-0.4298560553329314
 40
-0.4298560553329314
 40
-0.4298560553329314
 40
-0.2504545042259934
 40
-0.2504545042259934
 40
0.0
 40
0.0
 40
0.0
 40
0.0
 10
28.94688637165343
 20
22.89306713974085
 30
0.0
 10
29.34984661089993
 20
22.80841855638534
 30
0.0
 10
29.74135014934367
 20
22.76965467932272
 30
0.0
 10
30.65973652983823
 20
22.73352398829886
 30
0.0
 10
31.17526425677244
 20
22.77295086421432
 30
0.0
 10
31.72502797487995
 20
22.70386092609255
 30
0.0
  0
SPLINE
  5
CF81
330
CF0C
100
AcDbEntity
  8
0
100
AcDbSpline
210
0.0
220
0.0
230
1.0
 70
     8
 71
     3
 72
    10
 73
     6
 74
     0
 42
0.000000001
 43
0.0000000001
 40
0.0
 40
0.0
 40
0.0
 40
0.0
 40
0.2504545042259934
 40
0.2504545042259934
 40
0.2614164267501709
 40
0.2614164267501709
 40
0.2614164267501709
 40
0.2614164267501709
 10
31.19872709993093
 20
23.45619121238133
 30
0.0
 10
30.45621887052566
 20
23.60635975707209
 30
0.0
 10
29.78159214303245
 20
23.61123331293686
 30
0.0
 10
29.11890116048996
 20
23.6410389533826
 30
0.0
 10
29.09118637048612
 20
23.64231026928234
 30
0.0
 10
29.06354367693113
 20
23.64360851131279
 30
0.0
  0
ELLIPSE
  5
CF82
330
CF0C
100
AcDbEntity
  8
0
100
AcDbEllipse
 10
27.22361107568211
 20
22.41202624749379
 30
0.0
 11
-0.2763935293054438
 21
-1.474315643598101
 31
0.0
210
0.0
220
0.0
230
0.9999999999999998
 40
0.7317060891393174
 41
2.131227017211998
 42
2.680687794904654
  0
SPLINE
  5
CF83
330
CF0C
100
AcDbEntity
  8
0
100
AcDbSpline
210
0.0
220
0.0
230
1.0
 70
     8
 71
     3
 72
    10
 73
     6
 74
     0
 42
0.000000001
 43
0.0000000001
 40
-0.098631505759579
 40
-0.098631505759579
 40
-0.098631505759579
 40
-0.098631505759579
 40
-0.0493157528797897
 40
-0.0493157528797897
 40
-0.0000000000000003
 40
-0.0000000000000003
 40
-0.0000000000000003
 40
-0.0000000000000003
 10
28.28427124746193
 20
23.02439868318958
 30
0.0
 10
28.39440137134184
 20
23.00375232177155
 30
0.0
 10
28.50467084613627
 20
22.98254922875955
 30
0.0
 10
28.72552841925187
 20
22.93884105315275
 30
0.0
 10
28.83611649560471
 20
22.91633621736379
 30
0.0
 10
28.94688637165342
 20
22.89306713974085
 30
0.0
  0
ELLIPSE
  5
CF84
330
CF0C
100
AcDbEntity
  8
0
100
AcDbEllipse
 10
27.22361107568213
 20
31.51401226736255
 30
0.0
 11
-0.9743856472127143
 21
1.140426503772104
 31
0.0
210
0.0
220
0.0
230
1.0
 40
0.4267122036849465
 41
0.6924023912953814
 42
1.945961861863239
  0
SPLINE
  5
CF85
330
CF0C
100
AcDbEntity
  8
0
100
AcDbSpline
210
0.0
220
0.0
230
1.0
 70
     8
 71
     3
 72
    10
 73
     6
 74
     0
 42
0.000000001
 43
0.0000000001
 40
-0.1489505020863126
 40
-0.1489505020863126
 40
-0.1489505020863126
 40
-0.1489505020863126
 40
-0.0744752510431563
 40
-0.0744752510431563
 40
0.0
 40
0.0
 40
0.0
 40
0.0
 10
26.16295090390231
 20
32.12638470305835
 30
0.0
 10
25.99225570719062
 20
31.98054194232464
 30
0.0
 10
25.82106269131848
 20
31.83679976623059
 30
0.0
 10
25.47761734508475
 20
31.55443162156173
 30
0.0
 10
25.30536415204431
 20
31.41580687827815
 30
0.0
 10
25.13258074869944
 20
31.2802707397147
 30
0.0
  0
ELLIPSE
  5
CF86
330
CF0C
100
AcDbEntity
  8
0
100
AcDbEllipse
 10
26.19324092047925
 20
30.66789830401889
 30
0.0
 11
0.925793398636212
 21
-1.180214634310899
 31
0.0
210
0.0
220
0.0
230
0.9999999999999998
 40
0.4663712957493043
 41
3.852704097088722
 42
5.071307076913491
  0
SPLINE
  5
CF87
330
CF0C
100
AcDbEntity
  8
0
100
AcDbSpline
210
0.0
220
0.0
230
1.0
 70
     8
 71
     3
 72
    10
 73
     6
 74
     0
 42
0.000000001
 43
0.0000000001
 40
0.0
 40
0.0
 40
0.0
 40
0.0
 40
0.0744752510431563
 40
0.0744752510431563
 40
0.1489505020863126
 40
0.1489505020863126
 40
0.1489505020863126
 40
0.1489505020863126
 10
26.00309232824708
 20
29.84908399072951
 30
0.0
 10
26.19287294243751
 20
29.98806535991562
 30
0.0
 10
26.38157499562062
 20
30.12950621568884
 30
0.0
 10
26.75654733717176
 20
30.41648460464737
 30
0.0
 10
26.94282042218766
 20
30.56202214319268
 30
0.0
 10
27.12786480446244
 20
30.70926637645052
 30
0.0
  0
ELLIPSE
  5
CF88
330
CF0C
100
AcDbEntity
  8
0
100
AcDbEllipse
 10
27.22361107568213
 20
31.51401226736255
 30
0.0
 11
-1.500000000000003
 21
-0.0000000000000873
 31
0.0
210
0.0
220
0.0
230
1.0
 40
0.5773502691896267
 41
3.926990816987
 42
5.497787143781894
  0
ELLIPSE
  5
CF89
330
CF0C
100
AcDbEntity
  8
0
100
AcDbEllipse
 10
27.22361107568211
 20
22.41202624749377
 30
0.0
 11
1.500000000000003
 21
-0.0000000000000971
 31
0.0
210
0.0
220
0.0
230
1.0
 40
0.5773502691896291
 41
0.7853981633976979
 42
2.356194490192592
  0
SPLINE
  5
CF8A
330
CF0C
100
AcDbEntity
  8
0
100
AcDbSpline
210
0.0
220
0.0
230
1.0
 70
     8
 71
     3
 72
     8
 73
     4
 74
     0
 42
0.000000001
 43
0.0000000001
 40
-1.158510647660075
 40
-1.158510647660075
 40
-1.158510647660075
 40
-1.158510647660075
 40
-0.9525469336706901
 40
-0.9525469336706901
 40
-0.9525469336706901
 40
-0.9525469336706901
 10
23.69241752588501
 20
22.09262851372677
 30
0.0
 10
24.17601026644132
 20
22.32269749558948
 30
0.0
 10
24.65471894652295
 20
22.50380456846142
 30
0.0
 10
25.1325807486994
 20
22.68074367359056
 30
0.0
  0
SPLINE
  5
CF8B
330
CF0C
100
AcDbEntity
  8
0
100
AcDbSpline
210
0.0
220
0.0
230
1.0
 70
     8
 71
     3
 72
     8
 73
     4
 74
     0
 42
0.000000001
 43
0.0000000001
 40
-0.2059637139893901
 40
-0.2059637139893901
 40
-0.2059637139893901
 40
-0.2059637139893901
 40
0.0
 40
0.0
 40
0.0
 40
0.0
 10
25.13258074869944
 20
31.28027073971467
 30
0.0
 10
24.65471792956425
 20
30.9054217668689
 30
0.0
 10
24.17601026644133
 20
30.53376446685463
 30
0.0
 10
23.69241752588502
 20
30.20542865084067
 30
0.0
  0
SPLINE
  5
CF8C
330
CF0C
100
AcDbEntity
  8
0
100
AcDbSpline
210
0.0
220
0.0
230
1.0
 70
     8
 71
     3
 72
     8
 73
     4
 74
     0
 42
0.000000001
 43
0.0000000001
 40
0.0
 40
0.0
 40
0.0
 40
0.0
 40
0.20596371398939
 40
0.20596371398939
 40
0.20596371398939
 40
0.20596371398939
 10
24.32084572784845
 20
28.86905758077514
 30
0.0
 10
24.88372180038387
 20
29.19762839115037
 30
0.0
 10
25.45223887105594
 20
29.53241805805582
 30
0.0
 10
26.00309232824708
 20
29.8490839907295
 30
0.0
  0
SPLINE
  5
CF8D
330
CF0C
100
AcDbEntity
  8
0
100
AcDbSpline
210
0.0
220
0.0
230
1.0
 70
     8
 71
     3
 72
    12
 73
     8
 74
     0
 42
0.000000001
 43
0.0000000001
 40
0.1197625046292708
 40
0.1197625046292708
 40
0.1197625046292708
 40
0.1197625046292708
 40
0.170247502405077
 40
0.170247502405077
 40
0.2269966698734355
 40
0.2269966698734355
 40
0.2837458373417941
 40
0.2837458373417941
 40
0.2837458373417941
 40
0.2837458373417941
 10
0.1623122079919903
 20
42.7115632804693
 30
0.0
 10
0.2743564518823027
 20
42.60418801512416
 30
0.0
 10
0.3849338315150264
 20
42.49850825834038
 30
0.0
 10
0.6175643911963991
 20
42.27852335737503
 30
0.0
 10
0.7393365146690934
 20
42.16477093003407
 30
0.0
 10
0.9808434894001383
 20
41.94374132378429
 30
0.0
 10
1.100577689260024
 20
41.83646179231115
 30
0.0
 10
1.219371845111036
 20
41.73301775806272
 30
0.0
  0
SPLINE
  5
CF8E
330
CF0C
100
AcDbEntity
  8
0
100
AcDbSpline
210
0.0
220
0.0
230
1.0
 70
     8
 71
     3
 72
    16
 73
    12
 74
     0
 42
0.000000001
 43
0.0000000001
 40
0.0
 40
0.0
 40
0.0
 40
0.0
 40
0.0346496010610009
 40
0.0346496010610009
 40
0.0692992021220017
 40
0.0692992021220017
 40
0.1039488031830026
 40
0.1039488031830026
 40
0.1385984042440034
 40
0.1385984042440034
 40
0.1732480053050043
 40
0.1732480053050043
 40
0.1732480053050043
 40
0.1732480053050043
 10
1.219371845131489
 20
41.73301775800971
 30
0.0
 10
1.301355146496332
 20
41.66162802192481
 30
0.0
 10
1.383083910811613
 20
41.58991955902358
 30
0.0
 10
1.546073450168119
 20
41.44592898235742
 30
0.0
 10
1.627334234588864
 20
41.37364684264451
 30
0.0
 10
1.789426715757145
 20
41.22856522479008
 30
0.0
 10
1.870258416743983
 20
41.15576572164741
 30
0.0
 10
2.031529219689314
 20
41.00969901831063
 30
0.0
 10
2.111968322439028
 20
40.93643179451059
 30
0.0
 10
2.272487935454632
 20
40.78947335070441
 30
0.0
 10
2.35256844440864
 20
40.71578210863851
 30
0.0
 10
2.432485425724792
 20
40.64189809131462
 30
0.0
  0
SPLINE
  5
CF8F
330
CF0C
100
AcDbEntity
  8
0
100
AcDbSpline
210
0.0
220
0.0
230
1.0
 70
     8
 71
     3
 72
    16
 73
    12
 74
     0
 42
0.000000001
 43
0.0000000001
 40
0.0
 40
0.0
 40
0.0
 40
0.0
 40
0.0240179547133752
 40
0.0240179547133752
 40
0.0480359094267504
 40
0.0480359094267504
 40
0.0720538641401256
 40
0.0720538641401256
 40
0.0960718188535008
 40
0.0960718188535008
 40
0.120089773566876
 40
0.120089773566876
 40
0.120089773566876
 40
0.120089773566876
 10
2.432485425724799
 20
40.6418980913146
 30
0.0
 10
2.523481340448909
 20
40.55777149357333
 30
0.0
 10
2.611608568038903
 20
40.46792699015592
 30
0.0
 10
2.780326293174861
 20
40.27407469433909
 30
0.0
 10
2.860947990291913
 20
40.17007343311734
 30
0.0
 10
3.011244182499615
 20
39.94414285845675
 30
0.0
 10
3.080989473842976
 20
39.82217233932342
 30
0.0
 10
3.203039760352444
 20
39.55573469882548
 30
0.0
 10
3.255395778161782
 20
39.41108207762302
 30
0.0
 10
3.330746988913919
 20
39.09718352712275
 30
0.0
 10
3.353553390593209
 20
38.92764098221537
 30
0.0
 10
3.353553390593209
 20
38.74977110612012
 30
0.0
  0
SPLINE
  5
CF90
330
CF0C
100
AcDbEntity
  8
0
100
AcDbSpline
210
0.0
220
0.0
230
1.0
 70
     8
 71
     3
 72
    16
 73
    12
 74
     0
 42
0.000000001
 43
0.0000000001
 40
0.6935097995171935
 40
0.6935097995171935
 40
0.6935097995171935
 40
0.6935097995171935
 40
0.7904272886253857
 40
0.7904272886253857
 40
0.8873447777335778
 40
0.8873447777335778
 40
0.98426226684177
 40
0.98426226684177
 40
1.081179755949962
 40
1.081179755949962
 40
1.178097245058154
 40
1.178097245058154
 40
1.178097245058154
 40
1.178097245058154
 10
-8.78825962835657
 20
36.4526702614068
 30
0.0
 10
-8.406484364339622
 20
36.75604968236304
 30
0.0
 10
-8.000968530110426
 20
37.07010448137256
 30
0.0
 10
-7.146851724329335
 20
37.71596833667453
 30
0.0
 10
-6.698249501423703
 20
38.04778046012673
 30
0.0
 10
-5.762589064832037
 20
38.72562607637632
 30
0.0
 10
-5.275530755114403
 20
39.07166068169246
 30
0.0
 10
-4.267844231936579
 20
39.77441197489168
 30
0.0
 10
-3.747216600036291
 20
40.13112880464514
 30
0.0
 10
-2.677525558205997
 20
40.85168324705239
 30
0.0
 10
-2.128463144090195
 20
41.21552049017803
 30
0.0
 10
-1.567861641212013
 20
41.58112893647959
 30
0.0
  0
LINE
  5
CF91
330
CF0C
100
AcDbEntity
  8
0
100
AcDbLine
 10
-1.56786164121264
 20
41.58112893643461
 30
0.0
 11
-0.0689280104026802
 21
42.55869106041822
 31
0.0
  0
SPLINE
  5
CF92
330
CF0C
100
AcDbEntity
  8
0
100
AcDbSpline
210
0.0
220
0.0
230
1.0
 70
     8
 71
     3
 72
    16
 73
    12
 74
     0
 42
0.000000001
 43
0.0000000001
 40
0.0000000000000002
 40
0.0000000000000002
 40
0.0000000000000002
 40
0.0000000000000002
 40
0.065815437185332
 40
0.065815437185332
 40
0.1316308743706639
 40
0.1316308743706639
 40
0.1974463115559957
 40
0.1974463115559957
 40
0.2632617487413276
 40
0.2632617487413276
 40
0.3290771859266594
 40
0.3290771859266594
 40
0.3290771859266594
 40
0.3290771859266594
 10
-0.0689280104026846
 20
42.55869106041823
 30
0.0
 10
0.0972386363556854
 20
42.66706024822048
 30
0.0
 10
0.2627023297851183
 20
42.77818918670393
 30
0.0
 10
0.5919953187866023
 20
43.00538016944914
 30
0.0
 10
0.7558253602233167
 20
43.12144079162925
 30
0.0
 10
1.081748214205273
 20
43.35789551699559
 30
0.0
 10
1.243841938703282
 20
43.47828860939194
 30
0.0
 10
1.566288412210519
 20
43.72283564230971
 30
0.0
 10
1.726641990964257
 20
43.84698894796927
 30
0.0
 10
2.045676498496078
 20
44.09853520686795
 30
0.0
 10
2.204358030550379
 20
44.22592779033769
 30
0.0
 10
2.362262460819157
 20
44.35471261960644
 30
0.0
  0
SPLINE
  5
CF93
330
CF0C
100
AcDbEntity
  8
0
100
AcDbSpline
210
0.0
220
0.0
230
1.0
 70
     8
 71
     3
 72
    16
 73
    12
 74
     0
 42
0.000000001
 43
0.0000000001
 40
0.000000000003847
 40
0.000000000003847
 40
0.000000000003847
 40
0.000000000003847
 40
0.0236982887295504
 40
0.0236982887295504
 40
0.0473965774552538
 40
0.0473965774552538
 40
0.0710948661809572
 40
0.0710948661809572
 40
0.0947931549066606
 40
0.0947931549066606
 40
0.118491443632364
 40
0.118491443632364
 40
0.118491443632364
 40
0.118491443632364
 10
2.362262460842385
 20
44.35471261962539
 30
0.0
 10
2.454338536397551
 20
44.42980868659708
 30
0.0
 10
2.54425478109328
 20
44.51043707270664
 30
0.0
 10
2.718440697878377
 20
44.68630081656868
 30
0.0
 10
2.802761504992576
 20
44.78150896666953
 30
0.0
 10
2.962889928479876
 20
44.99217792679731
 30
0.0
 10
3.038833525807351
 20
45.10767790786661
 30
0.0
 10
3.175179023124874
 20
45.3669784462266
 30
0.0
 10
3.235735058682309
 20
45.51108975123073
 30
0.0
 10
3.325094232668099
 20
45.83354614303009
 30
0.0
 10
3.353553390593209
 20
46.01254090722279
 30
0.0
 10
3.353553390593209
 20
46.2031374839471
 30
0.0
  0
LINE
  5
CF94
330
CF0C
100
AcDbEntity
  8
0
100
AcDbLine
 10
-6.249070801582772
 20
-29.10478877665698
 30
0.0
 11
-33.58757210636106
 21
-44.88867986421166
 31
0.0
  0
LINE
  5
CF95
330
CF0C
100
AcDbEntity
  8
0
100
AcDbLine
 10
-9.89949493661172
 20
-58.56499759475106
 30
0.0
 11
26.16295090390221
 21
-37.74433478109405
 31
0.0
  0
LINE
  5
CF96
330
CF0C
100
AcDbEntity
  8
0
100
AcDbLine
 10
-33.58757210636106
 20
-44.88867986421166
 30
0.0
 11
-34.64823227814089
 21
-44.27630742851586
 31
0.0
  0
ELLIPSE
  5
CF97
330
CF0C
100
AcDbEntity
  8
0
100
AcDbEllipse
 10
-32.52691193458125
 20
-45.50105229990744
 30
0.0
 11
0.7500000000000772
 21
-1.299038105676612
 31
0.0
210
0.0
220
0.0
230
1.0
 40
0.5773502691896259
 41
3.926990816987
 42
5.497787143781903
  0
LINE
  5
CF98
330
CF0C
100
AcDbEntity
  8
0
100
AcDbLine
 10
-9.394057544656334
 20
-33.37003746215149
 30
0.0
 11
-32.52691193458124
 21
-46.72579717129905
 31
0.0
  0
ELLIPSE
  5
CF99
330
CF0C
100
AcDbEntity
  8
0
100
AcDbEllipse
 10
-12.02081528017136
 20
-57.34025272335948
 30
0.0
 11
1.5
 21
-2.598076211353316
 31
0.0
210
0.0
220
0.0
230
0.9999999999999998
 40
0.5773502691896259
 41
5.497787143782137
 42
7.068583470577035
  0
LINE
  5
CF9A
330
CF0C
100
AcDbEntity
  8
0
100
AcDbLine
 10
-10.96015510839154
 20
-57.95262515905527
 30
0.0
 11
-9.89949493661172
 21
-58.56499759475106
 31
0.0
  0
LINE
  5
CF9B
330
CF0C
100
AcDbEntity
  8
0
100
AcDbLine
 10
-10.96015510839154
 20
-57.95262515905527
 30
0.0
 11
-12.02081528017137
 21
-58.56499759475106
 31
0.0
  0
ELLIPSE
  5
CF9C
330
CF0C
100
AcDbEntity
  8
0
100
AcDbEllipse
 10
-12.02081528017136
 20
-57.34025272335948
 30
0.0
 11
0.7499999999999996
 21
-1.299038105676657
 31
0.0
210
0.0
220
0.0
230
0.9999999999999998
 40
0.5773502691896259
 41
5.497787143782131
 42
7.06858347057703
  0
LINE
  5
CF9D
330
CF0C
100
AcDbEntity
  8
0
100
AcDbLine
 10
-12.02081528017137
 20
-58.56499759475106
 30
0.0
 11
-12.02081528017136
 21
-59.78974246614265
 31
0.0
  0
LINE
  5
CF9E
330
CF0C
100
AcDbEntity
  8
0
100
AcDbLine
 10
-32.52691193458124
 20
-46.72579717129905
 30
0.0
 11
-32.52691193458125
 21
-47.95054204269063
 31
0.0
  0
ELLIPSE
  5
CF9F
330
CF0C
100
AcDbEntity
  8
0
100
AcDbEllipse
 10
-32.52691193458125
 20
-45.50105229990744
 30
0.0
 11
1.500000000000155
 21
-2.598076211353227
 31
0.0
210
0.0
220
0.0
230
0.9999999999999998
 40
0.577350269189626
 41
3.926990816987
 42
5.497787143781897
  0
LINE
  5
CFA0
330
CF0C
100
AcDbEntity
  8
0
100
AcDbLine
 10
25.54163056034256
 20
-39.11766612105579
 30
0.0
 11
-10.52081528017136
 21
-59.93832893471279
 31
0.0
  0
ELLIPSE
  5
CFA1
330
CF0C
100
AcDbEntity
  8
0
100
AcDbEllipse
 10
3.535533905932684
 20
25.53415024080468
 30
0.0
 11
1.250000000000128
 21
2.165063509461021
 31
0.0
210
0.0
220
0.0
230
1.0
 40
0.577350269189626
 41
1.42889927219084
 42
2.356194490192706
  0
ELLIPSE
  5
CFA2
330
CF0C
100
AcDbEntity
  8
0
100
AcDbEllipse
 10
-7.299254514594943
 20
41.18716731928469
 30
0.0
 11
8.166754732810648
 21
0.0000000000000008
 31
0.0
210
0.0
220
0.0
230
1.0
 40
0.5773502691896257
 41
5.654866776461627
 42
6.408095538707123
  0
LINE
  5
CFA3
330
CF0C
100
AcDbEntity
  8
0
100
AcDbLine
 10
-0.6922111468591008
 20
38.41571398196972
 30
0.0
 11
-0.423931647619984
 21
38.19102651949049
 31
0.0
  0
ELLIPSE
  5
CFA4
330
CF0C
100
AcDbEntity
  8
0
100
AcDbEllipse
 10
0.1437018336545681
 20
40.10180405653658
 30
0.0
 11
1.679777606426226
 21
-2.113846539592924
 31
0.0
210
0.0
220
0.0
230
1.0
 40
0.6605596098195701
 41
3.711761074681973
 42
5.013199698257079
  0
ELLIPSE
  5
CFA5
330
CF0C
100
AcDbEntity
  8
0
100
AcDbEllipse
 10
-3.535533905932897
 20
54.11153057327513
 30
0.0
 11
-1.249999999999999
 21
2.165063509461096
 31
0.0
210
0.0
220
0.0
230
1.0
 40
0.5773502691896257
 41
4.425632428173118
 42
8.140738186186059
  0
ELLIPSE
  5
CFA6
330
CF0C
100
AcDbEntity
  8
0
100
AcDbEllipse
 10
-10.60660171779836
 20
50.0290476686365
 30
0.0
 11
-1.249999999999999
 21
2.165063509461095
 31
0.0
210
0.0
220
0.0
230
1.0
 40
0.5773502691896257
 41
4.425632428173118
 42
8.140738186186055
  0
ELLIPSE
  5
CFA7
330
CF0C
100
AcDbEntity
  8
0
100
AcDbEllipse
 10
-2.474873734153075
 20
54.72390300897093
 30
0.0
 11
1.250000000000128
 21
-2.165063509461022
 31
0.0
210
0.0
220
0.0
230
1.0
 40
0.5773502691896257
 41
3.579741684173546
 42
4.999145532596052
  0
ELLIPSE
  5
CFA8
330
CF0C
100
AcDbEntity
  8
0
100
AcDbEllipse
 10
-9.545941546018536
 20
50.64142010433229
 30
0.0
 11
1.250000000000128
 21
-2.165063509461022
 31
0.0
210
0.0
220
0.0
230
1.0
 40
0.5773502691896257
 41
3.579741684173546
 42
4.999145532596049
  0
ELLIPSE
  5
CFA9
330
CF0C
100
AcDbEntity
  8
0
100
AcDbEllipse
 10
3.535533905932617
 20
26.75889511219631
 30
0.0
 11
1.249999999999999
 21
-2.165063509461096
 31
0.0
210
0.0
220
0.0
230
1.0
 40
0.5773502691896258
 41
4.662295549665641
 42
4.854286034988853
  0
SPLINE
  5
CFAA
330
CF0C
100
AcDbEntity
  8
0
100
AcDbSpline
210
0.0
220
0.0
230
1.0
 70
     8
 71
     3
 72
    11
 73
     7
 74
     0
 42
0.000000001
 43
0.0000000001
 40
-1.0
 40
-1.0
 40
-1.0
 40
-1.0
 40
-0.8649350770692315
 40
-0.8649350770692315
 40
-0.8649350770692315
 40
-0.5000000000000124
 40
-0.5000000000000124
 40
-0.5000000000000124
 40
-0.5000000000000124
 10
2.474873734152793
 20
26.55477096696437
 30
0.0
 10
2.60359054157095
 20
26.70005095021544
 30
0.0
 10
2.728989565511228
 20
26.84885878637826
 30
0.0
 10
2.842288363548124
 20
26.99957122260589
 30
0.0
 10
3.148413038232449
 20
27.40678468215239
 30
0.0
 10
3.277547081679743
 20
27.82342630811935
 30
0.0
 10
3.262635547671965
 20
28.17065985207347
 30
0.0
  0
LINE
  5
CFAB
330
CF0C
100
AcDbEntity
  8
0
100
AcDbLine
 10
1.915348731330746
 20
25.41523247503901
 30
0.0
 11
2.474873734152802
 21
25.73827438603665
 31
0.0
  0
LINE
  5
CFAC
330
CF0C
100
AcDbEntity
  8
0
100
AcDbLine
 10
-1.922865276708018
 20
37.43776917384096
 30
0.0
 11
-0.6922111468591008
 21
38.41571398196972
 31
0.0
  0
ELLIPSE
  5
CFAD
330
CF0C
100
AcDbEntity
  8
0
100
AcDbEllipse
 10
6.717514421272195
 20
-15.08655466034969
 30
0.0
 11
1.249999999999874
 21
2.165063509461168
 31
0.0
210
0.0
220
0.0
230
0.9999999999999998
 40
0.5773502691896249
 41
3.579741684173548
 42
5.845036276594999
  0
ELLIPSE
  5
CFAE
330
CF0C
100
AcDbEntity
  8
0
100
AcDbEllipse
 10
6.717514421272243
 20
17.57330857675931
 30
0.0
 11
1.249999999999874
 21
2.165063509461169
 31
0.0
210
0.0
220
0.0
230
1.0
 40
0.5773502691896249
 41
3.57974168417355
 42
5.84503627659499
  0
ELLIPSE
  5
CFAF
330
CF0C
100
AcDbEntity
  8
0
100
AcDbEllipse
 10
6.717514421272219
 20
1.2433769582048
 30
0.0
 11
1.249999999999874
 21
2.165063509461168
 31
0.0
210
0.0
220
0.0
230
0.9999999999999998
 40
0.5773502691896248
 41
3.579741684173548
 42
5.845036276594998
  0
ELLIPSE
  5
CFB0
330
CF0C
100
AcDbEntity
  8
0
100
AcDbEllipse
 10
7.778174593052042
 20
0.6310045225090067
 30
0.0
 11
-1.250000000000003
 21
-2.165063509461094
 31
0.0
210
0.0
220
0.0
230
1.0
 40
0.5773502691896249
 41
0.0
 42
6.283185307179586
  0
ELLIPSE
  5
CFB1
330
CF0C
100
AcDbEntity
  8
0
100
AcDbEllipse
 10
7.778174593052065
 20
16.96093614106351
 30
0.0
 11
-1.250000000000003
 21
-2.165063509461094
 31
0.0
210
0.0
220
0.0
230
1.0
 40
0.5773502691896249
 41
0.0
 42
6.283185307179586
  0
ELLIPSE
  5
CFB2
330
CF0C
100
AcDbEntity
  8
0
100
AcDbEllipse
 10
7.778174593052016
 20
-15.69892709604548
 30
0.0
 11
-1.250000000000003
 21
-2.165063509461094
 31
0.0
210
0.0
220
0.0
230
1.0
 40
0.5773502691896249
 41
0.0
 42
6.283185307179586
  0
ELLIPSE
  5
CFB3
330
CF0C
100
AcDbEntity
  8
0
100
AcDbEllipse
 10
32.69493313105714
 20
27.27735883393813
 30
0.0
 11
-1.185309973000764
 21
-4.029272920503761
 31
0.0
210
0.0
220
0.0
230
1.0
 40
0.3706816908110079
 41
4.714609510599325
 42
6.051826567759563
  0
ELLIPSE
  5
CFB4
330
CF0C
100
AcDbEntity
  8
0
100
AcDbEllipse
 10
28.5182205334533
 20
25.71291536714653
 30
0.0
 11
7.592729584066619
 21
0.0000000000000008
 31
0.0
210
0.0
220
0.0
230
1.0
 40
0.5773502691896258
 41
1.660962753237628
 42
1.908429487387541
  0
ELLIPSE
  5
CFB5
330
CF0C
100
AcDbEntity
  8
0
100
AcDbEllipse
 10
23.11059621236254
 20
26.84186140453983
 30
0.0
 11
1.624629784830868
 21
-3.873057973002779
 31
0.0
210
0.0
220
0.0
230
1.0
 40
0.4799246488165456
 41
0.0
 42
1.910948379511893
  0
LINE
  5
CFB6
330
CF0C
100
AcDbEntity
  8
0
100
AcDbLine
 10
19.84812765172958
 20
20.91881461422983
 30
0.0
 11
24.73522599719342
 21
22.96880343153703
 31
0.0
  0
SPLINE
  5
CFB7
330
CF0C
100
AcDbEntity
  8
0
100
AcDbSpline
210
0.0
220
0.0
230
1.0
 70
     8
 71
     3
 72
    16
 73
    12
 74
     0
 42
0.000000001
 43
0.0000000001
 40
3.298672286269282
 40
3.298672286269282
 40
3.298672286269282
 40
3.298672286269282
 40
3.440463867569783
 40
3.440463867569783
 40
3.582255448870284
 40
3.582255448870284
 40
3.724047030170785
 40
3.724047030170785
 40
3.865838611471287
 40
3.865838611471287
 40
4.007630192771788
 40
4.007630192771788
 40
4.007630192771788
 40
4.007630192771788
 10
24.73522599719341
 20
22.96880343153706
 30
0.0
 10
24.94969425649473
 20
23.05876633020537
 30
0.0
 10
25.18729782653828
 20
23.14487302581857
 30
0.0
 10
25.69941606904242
 20
23.30126415550989
 30
0.0
 10
25.97390852098028
 20
23.37156765876719
 30
0.0
 10
26.54945472717253
 20
23.49088490982573
 30
0.0
 10
26.85049748110615
 20
23.53991172481304
 30
0.0
 10
27.46835216665933
 20
23.61331606813747
 30
0.0
 10
27.78515788456248
 20
23.63770074627842
 30
0.0
 10
28.42354108148022
 20
23.66026779565589
 30
0.0
 10
28.74511402576216
 20
23.65845222211664
 30
0.0
 10
29.06354692526427
 20
23.64359467022399
 30
0.0
  0
SPLINE
  5
CFB8
330
CF0C
100
AcDbEntity
  8
0
100
AcDbSpline
210
0.0
220
0.0
230
1.0
 70
     8
 71
     3
 72
    11
 73
     7
 74
     0
 42
0.000000001
 43
0.0000000001
 40
-1.0
 40
-1.0
 40
-1.0
 40
-1.0
 40
-0.8649350770692315
 40
-0.8649350770692315
 40
-0.8649350770692315
 40
0.0
 40
0.0
 40
0.0
 40
0.0
 10
26.16295090390228
 20
12.87845323642488
 30
0.0
 10
26.22730930761136
 20
12.9865758779699
 30
0.0
 10
26.30186376748457
 20
13.08549521929256
 30
0.0
 10
26.38602552268008
 20
13.17173257725773
 30
0.0
 10
26.9249845109706
 20
13.72398340774231
 30
0.0
 10
27.87212988859348
 20
13.57085407054565
 30
0.0
 10
28.28427124746192
 20
12.87845323642488
 30
0.0
  0
ELLIPSE
  5
CFB9
330
CF0C
100
AcDbEntity
  8
0
100
AcDbEllipse
 10
27.22361107568201
 20
11.85783251026528
 30
0.0
 11
-1.250000000000004
 21
-2.165063509461094
 31
0.0
210
0.0
220
0.0
230
1.0
 40
0.5773502691896249
 41
4.570491925780526
 42
6.425082361783755
  0
ELLIPSE
  5
CFBA
330
CF0C
100
AcDbEntity
  8
0
100
AcDbEllipse
 10
27.2236110756821
 20
11.85783251026524
 30
0.0
 11
1.25
 21
-2.165063509461095
 31
0.0
210
0.0
220
0.0
230
1.0
 40
0.577350269189626
 41
6.141288252575423
 42
7.995878688578646
  0
ELLIPSE
  5
CFBB
330
CF0C
100
AcDbEntity
  8
0
100
AcDbEllipse
 10
37.83021279348032
 20
5.734108153307273
 30
0.0
 11
-2.749999999999717
 21
4.763139720814578
 31
0.0
210
0.0
220
0.0
230
1.0
 40
0.577350269189626
 41
2.730315569650139
 42
8.265258717914431
  0
LINE
  5
CFBC
330
CF0C
100
AcDbEntity
  8
0
100
AcDbLine
 10
39.25149742366528
 20
0.7334254224988568
 30
0.0
 11
39.25149742366527
 21
-2.026691848410759
 31
0.0
  0
LINE
  5
CFBD
330
CF0C
100
AcDbEntity
  8
0
100
AcDbLine
 10
39.25149742366527
 20
-2.026691848410759
 30
0.0
 11
39.24801845830183
 21
-2.024683266821689
 31
0.0
  0
LINE
  5
CFBE
330
CF0C
100
AcDbEntity
  8
0
100
AcDbLine
 10
36.41240712865879
 20
-0.3875423023351088
 30
0.0
 11
36.40892816329535
 21
-0.3855337207460341
 31
0.0
  0
LINE
  5
CFBF
330
CF0C
100
AcDbEntity
  8
0
100
AcDbLine
 10
36.40892816329535
 20
-0.3855337207460341
 30
0.0
 11
36.40892816329536
 21
2.374583550163587
 31
0.0
  0
LINE
  5
CFC0
330
CF0C
100
AcDbEntity
  8
0
100
AcDbLine
 10
41.52350999860533
 20
5.00869625563646
 30
0.0
 11
38.53731957466686
 21
3.284618410524102
 31
0.0
  0
LINE
  5
CFC1
330
CF0C
100
AcDbEntity
  8
0
100
AcDbLine
 10
26.16295090390227
 20
9.612466912713975
 30
0.0
 11
25.87313651423275
 21
9.779791328604696
 31
0.0
  0
LINE
  5
CFC2
330
CF0C
100
AcDbEntity
  8
0
100
AcDbLine
 10
25.87313651423275
 20
9.779791328604696
 30
0.0
 11
25.80939751330892
 21
9.816591057945949
 31
0.0
  0
LINE
  5
CFC3
330
CF0C
100
AcDbEntity
  8
0
100
AcDbLine
 10
36.40892816329536
 20
2.374583550163587
 30
0.0
 11
37.46958833507518
 21
2.986955985859376
 31
0.0
  0
ELLIPSE
  5
CFC4
330
CF0C
100
AcDbEntity
  8
0
100
AcDbEllipse
 10
38.89087296526014
 20
6.346480589003062
 30
0.0
 11
2.75
 21
-4.763139720814412
 31
0.0
210
0.0
220
0.0
230
1.0
 40
0.5773502691896262
 41
5.871908223239685
 42
6.089122209761019
  0
ELLIPSE
  5
CFC5
330
CF0C
100
AcDbEntity
  8
0
100
AcDbEllipse
 10
38.89087296526014
 20
6.346480589003062
 30
0.0
 11
-2.750000000000001
 21
4.763139720814411
 31
0.0
210
0.0
220
0.0
230
0.9999999999999998
 40
0.577350269189626
 41
0.1940630974185649
 42
1.98207341073479
  0
LINE
  5
CFC6
330
CF0C
100
AcDbEntity
  8
0
100
AcDbLine
 10
39.25149742366528
 20
0.7334254224988568
 30
0.0
 11
40.3121575954451
 21
1.34579785819465
 31
0.0
  0
LINE
  5
CFC7
330
CF0C
100
AcDbEntity
  8
0
100
AcDbLine
 10
37.46958833507518
 20
2.986955985859376
 30
0.0
 11
37.46958833507518
 21
2.335259049413851
 31
0.0
  0
LINE
  5
CFC8
330
CF0C
100
AcDbEntity
  8
0
100
AcDbLine
 10
36.40892816329535
 20
-0.3855337207460341
 30
0.0
 11
36.41601101625297
 21
-0.3814444336843259
 31
0.0
  0
SPLINE
  5
CFC9
330
CF0C
100
AcDbEntity
  8
0
100
AcDbSpline
210
0.0
220
0.0
230
1.0
 70
     8
 71
     3
 72
    11
 73
     7
 74
     0
 42
0.000000001
 43
0.0000000001
 40
-1.0
 40
-1.0
 40
-1.0
 40
-1.0
 40
-0.864935077069793
 40
-0.864935077069793
 40
-0.864935077069793
 40
0.0
 40
0.0
 40
0.0
 40
0.0
 10
28.28427124746192
 20
9.612466912713983
 30
0.0
 10
28.21991284375311
 20
9.578658954581165
 30
0.0
 10
28.14535838388025
 20
9.552138773486635
 30
0.0
 10
28.06119662868518
 20
9.531314507066985
 30
0.0
 10
27.52223764039482
 20
9.397959094796796
 30
0.0
 10
26.57509226277101
 20
9.395965927567102
 30
0.0
 10
26.16295090390227
 20
9.612466912713975
 30
0.0
  0
LINE
  5
CFCA
330
CF0C
100
AcDbEntity
  8
0
100
AcDbLine
 10
28.28427124746191
 20
9.612466912713983
 30
0.0
 11
28.57408563713148
 21
9.779791328604732
 31
0.0
  0
LINE
  5
CFCB
330
CF0C
100
AcDbEntity
  8
0
100
AcDbLine
 10
28.57408563713148
 20
9.779791328604732
 30
0.0
 11
28.6378246380552
 21
9.816591057945922
 31
0.0
  0
SPLINE
  5
CFCC
330
CF0C
100
AcDbEntity
  8
0
100
AcDbSpline
210
0.0
220
0.0
230
1.0
 70
     8
 71
     3
 72
    11
 73
     7
 74
     0
 42
0.000000001
 43
0.0000000001
 40
0.1340645268891913
 40
0.1340645268891913
 40
0.1340645268891913
 40
0.1340645268891913
 40
0.864935077069793
 40
0.864935077069793
 40
0.864935077069793
 40
0.8659354731107903
 40
0.8659354731107903
 40
0.8659354731107903
 40
0.8659354731107903
 10
25.55567679914894
 20
10.23820502239992
 30
0.0
 10
26.49418855183283
 20
10.26721069286172
 30
0.0
 10
27.98794098044798
 20
10.31404843725736
 30
0.0
 10
28.89878218168825
 20
10.24975041035517
 30
0.0
 10
28.90002891673793
 20
10.24966240093745
 30
0.0
 10
28.90127459766797
 20
10.24957451237056
 30
0.0
 10
28.90251922399985
 20
10.24948674633154
 30
0.0
  0
LINE
  5
CFCD
330
CF0C
100
AcDbEntity
  8
0
100
AcDbLine
 10
1.414213562373025
 20
57.37751689698598
 30
0.0
 11
-12.7279220613579
 21
65.54248270626314
 31
0.0
  0
LINE
  5
CFCE
330
CF0C
100
AcDbEntity
  8
0
100
AcDbLine
 10
-16.97056274847719
 20
63.09299296348008
 30
0.0
 11
-16.97056274847719
 21
45.53831647353399
 31
0.0
  0
LINE
  5
CFCF
330
CF0C
100
AcDbEntity
  8
0
100
AcDbLine
 10
-16.97056274847719
 20
39.82284040703995
 30
0.0
 11
-16.97056274847719
 21
37.37335066425675
 31
0.0
  0
LINE
  5
CFD0
330
CF0C
100
AcDbEntity
  8
0
100
AcDbLine
 10
46.66904755831213
 20
-11.05264254090219
 30
0.0
 11
46.66904755831218
 21
26.35064682173233
 31
0.0
  0
LINE
  5
CFD1
330
CF0C
100
AcDbEntity
  8
0
100
AcDbLine
 10
47.72970773009196
 20
-10.4402701052064
 30
0.0
 11
47.729707730092
 21
26.96301925742812
 31
0.0
  0
LINE
  5
CFD2
330
CF0C
100
AcDbEntity
  8
0
100
AcDbLine
 10
28.28427124746197
 20
41.86408185935912
 30
0.0
 11
42.42640687119292
 21
33.69911605008177
 31
0.0
  0
LINE
  5
CFD3
330
CF0C
100
AcDbEntity
  8
0
100
AcDbLine
 10
2.474873734152847
 20
57.98988933268177
 30
0.0
 11
-11.66726188957808
 21
66.15485514195902
 31
0.0
  0
LINE
  5
CFD4
330
CF0C
100
AcDbEntity
  8
0
100
AcDbLine
 10
43.48706704297274
 20
34.31148848577757
 30
0.0
 11
29.34493141924179
 21
42.47645429505491
 31
0.0
  0
LINE
  5
CFD5
330
CF0C
100
AcDbEntity
  8
0
100
AcDbLine
 10
28.28427124746188
 20
-19.96693552784548
 30
0.0
 11
42.92867531250028
 21
-17.01601373933506
 31
0.0
  0
SPLINE
  5
CFD6
330
CF0C
100
AcDbEntity
  8
0
100
AcDbSpline
210
0.0
220
0.0
230
1.0
 70
     8
 71
     3
 72
     8
 73
     4
 74
     0
 42
0.000000001
 43
0.0000000001
 40
-1.0
 40
-1.0
 40
-1.0
 40
-1.0
 40
0.0
 40
0.0
 40
0.0
 40
0.0
 10
26.16295090390222
 20
-21.61913722127089
 30
0.0
 10
26.71831127117204
 20
-20.74776586592177
 30
0.0
 10
27.72891088019207
 20
-20.19703196811345
 30
0.0
 10
28.28427124746188
 20
-19.96693552784548
 30
0.0
  0
ELLIPSE
  5
CFD7
330
CF0C
100
AcDbEntity
  8
0
100
AcDbEllipse
 10
40.30508652763326
 20
20.63517075523826
 30
0.0
 11
1.25
 21
-2.165063509461095
 31
0.0
210
0.0
220
0.0
230
0.9999999999999998
 40
0.5773502691896261
 41
0.0
 42
6.283185307179586
  0
ELLIPSE
  5
CFD8
330
CF0C
100
AcDbEntity
  8
0
100
AcDbEllipse
 10
33.2340187157678
 20
32.88261946915414
 30
0.0
 11
1.25
 21
-2.165063509461095
 31
0.0
210
0.0
220
0.0
230
0.9999999999999998
 40
0.5773502691896261
 41
0.0
 42
6.283185307179586
  0
ELLIPSE
  5
CFD9
330
CF0C
100
AcDbEntity
  8
0
100
AcDbEllipse
 10
33.23401871576777
 20
16.55268785059964
 30
0.0
 11
1.25
 21
-2.165063509461095
 31
0.0
210
0.0
220
0.0
230
0.9999999999999998
 40
0.5773502691896261
 41
0.0
 42
6.283185307179586
  0
ELLIPSE
  5
CFDA
330
CF0C
100
AcDbEntity
  8
0
100
AcDbEllipse
 10
33.23401871576774
 20
-11.20819590094302
 30
0.0
 11
1.25
 21
-2.165063509461095
 31
0.0
210
0.0
220
0.0
230
0.9999999999999998
 40
0.5773502691896261
 41
0.0
 42
6.283185307179586
  0
ELLIPSE
  5
CFDB
330
CF0C
100
AcDbEntity
  8
0
100
AcDbEllipse
 10
33.23401871576776
 20
0.2227562320451337
 30
0.0
 11
1.25
 21
-2.165063509461095
 31
0.0
210
0.0
220
0.0
230
0.9999999999999998
 40
0.5773502691896261
 41
0.0
 42
6.283185307179586
  0
ELLIPSE
  5
CFDC
330
CF0C
100
AcDbEntity
  8
0
100
AcDbEllipse
 10
40.30508652763322
 20
-9.575202739087584
 30
0.0
 11
1.25
 21
-2.165063509461095
 31
0.0
210
0.0
220
0.0
230
0.9999999999999998
 40
0.5773502691896261
 41
0.0
 42
6.283185307179586
  0
ELLIPSE
  5
CFDD
330
CF0C
100
AcDbEntity
  8
0
100
AcDbEllipse
 10
41.36574669941303
 20
-8.962830303391795
 30
0.0
 11
1.250000000000129
 21
-2.16506350946102
 31
0.0
210
0.0
220
0.0
230
1.0
 40
0.5773502691896261
 41
3.579741684173541
 42
5.845036276594997
  0
ELLIPSE
  5
CFDE
330
CF0C
100
AcDbEntity
  8
0
100
AcDbEllipse
 10
34.29467888754759
 20
17.16506028629543
 30
0.0
 11
1.25000000000013
 21
-2.165063509461021
 31
0.0
210
0.0
220
0.0
230
1.0
 40
0.5773502691896261
 41
3.579741684173541
 42
5.845036276595
  0
ELLIPSE
  5
CFDF
330
CF0C
100
AcDbEntity
  8
0
100
AcDbEllipse
 10
34.29467888754761
 20
33.49499190484993
 30
0.0
 11
1.250000000000129
 21
-2.165063509461021
 31
0.0
210
0.0
220
0.0
230
1.0
 40
0.5773502691896261
 41
3.579741684173544
 42
5.845036276595001
  0
ELLIPSE
  5
CFE0
330
CF0C
100
AcDbEntity
  8
0
100
AcDbEllipse
 10
41.36574669941307
 20
21.24754319093405
 30
0.0
 11
1.250000000000129
 21
-2.165063509461021
 31
0.0
210
0.0
220
0.0
230
1.0
 40
0.5773502691896261
 41
3.579741684173542
 42
5.845036276594998
  0
ELLIPSE
  5
CFE1
330
CF0C
100
AcDbEntity
  8
0
100
AcDbEllipse
 10
34.29467888754758
 20
0.8351286677409319
 30
0.0
 11
1.25000000000013
 21
-2.165063509461021
 31
0.0
210
0.0
220
0.0
230
1.0
 40
0.5773502691896261
 41
3.579741684173541
 42
5.845036276595
  0
ELLIPSE
  5
CFE2
330
CF0C
100
AcDbEntity
  8
0
100
AcDbEllipse
 10
34.29467888754756
 20
-10.59582346524723
 30
0.0
 11
1.250000000000129
 21
-2.16506350946102
 31
0.0
210
0.0
220
0.0
230
1.0
 40
0.5773502691896262
 41
3.579741684173542
 42
5.845036276594997
  0
LINE
  5
CFE3
330
CF0C
100
AcDbEntity
  8
0
100
AcDbLine
 10
39.24801845830183
 20
-2.024683266821689
 30
0.0
 11
39.24801845830183
 21
-2.028831069452783
 31
0.0
  0
LINE
  5
CFE4
330
CF0C
100
AcDbEntity
  8
0
100
AcDbLine
 10
39.24801845830183
 20
-2.028831069452783
 30
0.0
 11
39.24442635585341
 21
-2.026757168137223
 31
0.0
  0
LINE
  5
CFE5
330
CF0C
100
AcDbEntity
  8
0
100
AcDbLine
 10
39.24442635585341
 20
-2.026757168137223
 30
0.0
 11
39.24442635585341
 21
-2.022609365506129
 31
0.0
  0
LINE
  5
CFE6
330
CF0C
100
AcDbEntity
  8
0
100
AcDbLine
 10
39.24442635585341
 20
-2.022609365506129
 30
0.0
 11
36.41599923110721
 21
-0.3896162036506645
 31
0.0
  0
LINE
  5
CFE7
330
CF0C
100
AcDbEntity
  8
0
100
AcDbLine
 10
36.41599923110721
 20
-0.3896162036506645
 30
0.0
 11
36.41599923110721
 21
-0.3937640062817671
 31
0.0
  0
LINE
  5
CFE8
330
CF0C
100
AcDbEntity
  8
0
100
AcDbLine
 10
36.41599923110721
 20
-0.3937640062817671
 30
0.0
 11
36.41240712865879
 21
-0.3916901049662114
 31
0.0
  0
LINE
  5
CFE9
330
CF0C
100
AcDbEntity
  8
0
100
AcDbLine
 10
36.41240712865879
 20
-0.3916901049662114
 30
0.0
 11
36.41240712865879
 21
-0.3875423023351088
 31
0.0
  0
LINE
  5
CFEA
330
CF0C
100
AcDbEntity
  8
0
100
AcDbLine
 10
38.53731957466686
 20
3.284618410524102
 30
0.0
 11
41.29431440861806
 21
1.692866700987956
 31
0.0
  0
ELLIPSE
  5
CFEB
330
CF0C
100
AcDbEntity
  8
0
100
AcDbEllipse
 10
38.53731957466685
 20
0.8351286677409364
 30
0.0
 11
-1.499999999999861
 21
-2.598076211353395
 31
0.0
210
0.0
220
0.0
230
0.9999999999999998
 40
0.5773502691896198
 41
3.926990816986997
 42
5.497787143781943
  0
ELLIPSE
  5
CFEC
330
CF0C
100
AcDbEntity
  8
0
100
AcDbEllipse
 10
41.36574669941303
 20
-0.7978644941145241
 30
0.0
 11
1.500000000000161
 21
2.598076211353222
 31
0.0
210
0.0
220
0.0
230
0.9999999999999998
 40
0.5773502691896243
 41
2.274522134612119
 42
2.35619449019259
  0
ELLIPSE
  5
CFED
330
CF0C
100
AcDbEntity
  8
0
100
AcDbEllipse
 10
41.36574669941303
 20
-0.7978644941145241
 30
0.0
 11
1.499999999999963
 21
2.598076211353336
 31
0.0
210
0.0
220
0.0
230
0.9999999999999998
 40
0.577350269189617
 41
0.8625158344705816
 42
0.9940868618318727
  0
LINE
  5
CFEE
330
CF0C
100
AcDbEntity
  8
0
100
AcDbLine
 10
39.24442635585341
 20
-2.022609365506129
 30
0.0
 11
39.25149742366527
 21
-2.01852688260149
 31
0.0
  0
LINE
  5
CFEF
330
CF0C
100
AcDbEntity
  8
0
100
AcDbLine
 10
36.41599923110721
 20
-0.3896162036506645
 30
0.0
 11
36.41240712865879
 21
-0.3916901049662114
 31
0.0
  0
LINE
  5
CFF0
330
CF0C
100
AcDbEntity
  8
0
100
AcDbLine
 10
36.41240712865879
 20
-0.3875423023351088
 30
0.0
 11
36.4160022724228
 21
-0.3854666451151889
 31
0.0
  0
LINE
  5
CFF1
330
CF0C
100
AcDbEntity
  8
0
100
AcDbLine
 10
39.24801845830182
 20
-2.024683266821671
 30
0.0
 11
39.24442635585341
 21
-2.026757168137223
 31
0.0
  0
LINE
  5
CFF2
330
CF0C
100
AcDbEntity
  8
0
100
AcDbLine
 10
39.25149742366527
 20
-2.022674685232592
 30
0.0
 11
39.24801845830183
 21
-2.024683266821689
 31
0.0
  0
ENDBLK
  5
CF0E
330
CF0C
100
AcDbEntity
  8
0
100
AcDbBlockEnd
  0
ENDSEC
  0
SECTION
  2
ENTITIES
  0
INSERT
  5
CFF3
330
1F
100
AcDbEntity
  8
0
100
AcDbBlockReference
  2
SBE32_99-Front
 10
0.0
 20
0.0
 30
0.0
  0
INSERT
  5
CFF4
330
1F
100
AcDbEntity
  8
0
100
AcDbBlockReference
  2
SBE32_99-Left
 10
84.15000000000013
 20
0.0
 30
0.0
  0
INSERT
  5
CFF5
330
1F
100
AcDbEntity
  8
0
100
AcDbBlockReference
  2
SBE32_99-Right
 10
-84.14999999999999
 20
0.0
 30
0.0
  0
INSERT
  5
CFF6
330
1F
100
AcDbEntity
  8
0
100
AcDbBlockReference
  2
SBE32_99-Top
 10
0.0
 20
-40.64999999999999
 30
0.0
  0
INSERT
  5
CFF7
330
1F
100
AcDbEntity
  8
0
100
AcDbBlockReference
  2
SBE32_99-Bottom
 10
0.0
 20
138.15
 30
0.0
  0
INSERT
  5
CFF8
330
1F
100
AcDbEntity
  8
0
100
AcDbBlockReference
  2
SBE32_99-ISO
 10
109.7982322781411
 20
-97.80485514195902
 30
0.0
  0
MTEXT
  5
CFF9
330
1F
100
AcDbEntity
  8
0
100
AcDbMText
 10
0.0
 20
-124.8
 30
0.0
 40
10.05
 41
0.0
 71
     5
 72
     5
  1
SBE32/99
 73
     1
 44
1.0
1001
ACAD
1000
MTEXTBEGIN
1070
    73
1070
     1
1070
    44
1040
1.0
1070
    74
1070
     0
1000
MTEXTEND
  0
ENDSEC
  0
SECTION
  2
OBJECTS
  0
DICTIONARY
  5
C
330
0
100
AcDbDictionary
281
     1
  3
ACAD_CIP_PREVIOUS_PRODUCT_INFO
350
216
  3
ACAD_COLOR
350
6B
  3
ACAD_DETAILVIEWSTYLE
350
21B
  3
ACAD_GROUP
350
D
  3
ACAD_LAYOUT
350
1A
  3
ACAD_MATERIAL
350
6A
  3
ACAD_MLEADERSTYLE
350
12D
  3
ACAD_MLINESTYLE
350
17
  3
ACAD_PLOTSETTINGS
350
19
  3
ACAD_PLOTSTYLENAME
350
E
  3
ACAD_SCALELIST
350
10C
  3
ACAD_SECTIONVIEWSTYLE
350
219
  3
ACAD_TABLESTYLE
350
7E
  3
ACAD_VISUALSTYLE
350
EF
  3
ACDB_RECOMPOSE_DATA
350
D0FA
  3
AcDbVariableDictionary
350
5E
  3
DWGPROPS
350
D0FB
  0
DICTIONARY
  5
D04A
330
8
100
AcDbDictionary
280
     1
281
     1
  0
DICTIONARY
  5
1FF
330
2
100
AcDbDictionary
280
     1
281
     1
  3
ACAD_LAYERSTATES
360
200
  0
DICTIONARY
  5
13C
330
10
100
AcDbDictionary
280
     1
281
     1
  0
DICTIONARY
  5
1CE
330
1F
100
AcDbDictionary
280
     1
281
     1
  3
ACAD_LAYOUTSELFREF
360
D052
  0
DICTIONARY
  5
CFFD
330
D2
100
AcDbDictionary
280
     1
281
     1
  3
ACAD_LAYOUTSELFREF
360
D05B
  0
DICTIONARY
  5
CFFF
330
D6
100
AcDbDictionary
280
     1
281
     1
  3
ACAD_LAYOUTSELFREF
360
D05E
  0
XRECORD
  5
216
102
{ACAD_REACTORS
330
C
102
}
330
C
100
AcDbXrecord
280
     1
300
ACD
300
2021
300

  0
DICTIONARY
  5
6B
102
{ACAD_REACTORS
330
C
102
}
330
C
100
AcDbDictionary
281
     1
  0
DICTIONARY
  5
21B
102
{ACAD_REACTORS
330
C
102
}
330
C
100
AcDbDictionary
281
     1
  3
Metric50
350
21C
  0
DICTIONARY
  5
D
102
{ACAD_REACTORS
330
C
102
}
330
C
100
AcDbDictionary
281
     1
  0
DICTIONARY
  5
1A
102
{ACAD_REACTORS
330
C
102
}
330
C
100
AcDbDictionary
281
     1
  3
Layout1
350
D3
  3
Layout2
350
D7
  3
Model
350
22
  0
DICTIONARY
  5
6A
102
{ACAD_REACTORS
330
C
102
}
330
C
100
AcDbDictionary
281
     1
  3
ByBlock
350
ED
  3
ByLayer
350
EC
  3
Global
350
EE
  0
DICTIONARY
  5
12D
102
{ACAD_REACTORS
330
C
102
}
330
C
100
AcDbDictionary
281
     1
  3
Standard
350
12E
  0
DICTIONARY
  5
17
102
{ACAD_REACTORS
330
C
102
}
330
C
100
AcDbDictionary
281
     1
  3
Standard
350
18
  0
DICTIONARY
  5
19
102
{ACAD_REACTORS
330
C
102
}
330
C
100
AcDbDictionary
281
     1
  0
ACDBDICTIONARYWDFLT
  5
E
102
{ACAD_REACTORS
330
C
102
}
330
C
100
AcDbDictionary
281
     1
  3
Normal
350
F
100
AcDbDictionaryWithDefault
340
F
  0
DICTIONARY
  5
10C
102
{ACAD_REACTORS
330
C
102
}
330
C
100
AcDbDictionary
281
     1
  3
A0
350
10D
  3
A1
350
1BE
  3
A2
350
1BF
  3
A3
350
1C0
  3
A4
350
1C1
  3
A5
350
1C2
  3
A6
350
1C3
  3
A7
350
1C4
  3
A8
350
1C5
  3
A9
350
1C6
  3
B0
350
1C7
  3
B1
350
1C8
  3
B2
350
1C9
  3
B3
350
1CA
  3
B4
350
1CB
  3
B5
350
1CC
  3
B6
350
1CD
  0
DICTIONARY
  5
219
102
{ACAD_REACTORS
330
C
102
}
330
C
100
AcDbDictionary
281
     1
  3
Metric50
350
21A
  0
DICTIONARY
  5
7E
102
{ACAD_REACTORS
330
C
102
}
330
C
100
AcDbDictionary
281
     1
  3
Standard
350
7F
  0
DICTIONARY
  5
EF
102
{ACAD_REACTORS
330
C
102
}
330
C
100
AcDbDictionary
281
     1
  3
2dWireframe
350
F5
  3
Basic
350
F4
  3
Brighten
350
FB
  3
ColorChange
350
FF
  3
Conceptual
350
F8
  3
Dim
350
FA
  3
EdgeColorOff
350
1E6
  3
Facepattern
350
FE
  3
Flat
350
F0
  3
FlatWithEdges
350
F1
  3
Gouraud
350
F2
  3
GouraudWithEdges
350
F3
  3
Hidden
350
F7
  3
JitterOff
350
1E4
  3
Linepattern
350
FD
  3
OverhangOff
350
1E5
  3
Realistic
350
F9
  3
Shaded
350
1F3
  3
Shaded with edges
350
1F2
  3
Shades of Gray
350
1EF
  3
Sketchy
350
1F0
  3
Thicken
350
FC
  3
Wireframe
350
F6
  3
X-Ray
350
1F1
  0
XRECORD
  5
D0FA
102
{ACAD_REACTORS
330
C
102
}
330
C
100
AcDbXrecord
280
     1
 90
        1
330
7F
  0
DICTIONARY
  5
5E
102
{ACAD_REACTORS
330
C
102
}
330
C
100
AcDbDictionary
281
     1
  3
CANNOSCALE
350
146
  3
CENTEREXE
350
259
  3
CENTERLTYPEFILE
350
25A
  3
CMLEADERSTYLE
350
145
  3
CTABLESTYLE
350
84
  3
CVIEWDETAILSTYLE
350
227
  3
CVIEWSECTIONSTYLE
350
228
  3
DIMASSOC
350
5F
  3
HIDETEXT
350
63
  3
INDEXCTL
350
D0A7
  3
LAYEREVAL
350
1AE
  3
LAYERNOTIFY
350
1AF
  3
LIGHTINGUNITS
350
D0A5
  3
MSLTSCALE
350
D0A4
  3
PSOLHEIGHT
350
D0F7
  3
PSOLWIDTH
350
D0F6
  3
SORTENTS
350
D0A6
  3
XCLIPFRAME
350
D0F8
  0
XRECORD
  5
D0FB
102
{ACAD_REACTORS
330
C
102
}
330
C
100
AcDbXrecord
280
     1
  1
DWGPROPS COOKIE
  2

  3

  4

  6

  7

  8
tronnguyen
  9

300
=
301
=
302
=
303
=
304
=
305
=
306
=
307
=
308
=
309
=
 40
0.0048842592592593
 41
2460286.6225
 42
2460286.638587963
  1

 90
        0
  0
DICTIONARY
  5
200
102
{ACAD_REACTORS
330
1FF
102
}
330
1FF
100
AcDbDictionary
281
     1
  0
XRECORD
  5
D052
102
{ACAD_REACTORS
330
1CE
102
}
330
1CE
100
AcDbXrecord
280
     1
340
1F
  0
XRECORD
  5
D05B
102
{ACAD_REACTORS
330
CFFD
102
}
330
CFFD
100
AcDbXrecord
280
     1
340
D2
  0
XRECORD
  5
D05E
102
{ACAD_REACTORS
330
CFFF
102
}
330
CFFF
100
AcDbXrecord
280
     1
340
D6
  0
ACDBDETAILVIEWSTYLE
  5
21C
102
{ACAD_XDICTIONARY
360
D13A
102
}
102
{ACAD_REACTORS
330
21B
102
}
330
21B
100
AcDbModelDocViewStyle
 70
     0
  3
Metric50
290
     0
100
AcDbDetailViewStyle
 70
     0
 71
     0
 90
        3
 71
     1
340
11
 40
5.0
340
0
 40
5.0
300

 40
0.0
280
     1
 71
     2
340
16
 90
       25
 71
     3
340
11
 40
5.0
 90
        0
 40
15.0
 90
        1
300
%<\AcVar ViewDetailId>% (%<\AcVar ViewScale \f "%sn">%)
 71
     4
340
16
 90
       25
340
16
 90
       25
280
     0
  0
LAYOUT
  5
D3
102
{ACAD_XDICTIONARY
360
D0FF
102
}
102
{ACAD_REACTORS
330
1A
102
}
330
1A
100
AcDbPlotSettings
  1

  2
C:\Documents and Settings\basas\Application Data\Autodesk\AutoCAD 2005\R16.1\enu\plotters\Default Windows System Printer.pc3
  4

  6

 40
0.0
 41
0.0
 42
0.0
 43
0.0
 44
0.0
 45
0.0
 46
0.0
 47
0.0
 48
0.0
 49
0.0
140
0.0
141
0.0
142
1.0
143
1.0
 70
   688
 72
     0
 73
     0
 74
     5
  7

 75
    16
147
1.0
148
0.0
149
0.0
100
AcDbLayout
  1
Layout1
 70
     1
 71
     1
 10
0.0
 20
0.0
 11
12.0
 21
9.0
 12
0.0
 22
0.0
 32
0.0
 14
0.0
 24
0.0
 34
0.0
 15
0.0
 25
0.0
 35
0.0
146
0.0
 13
0.0
 23
0.0
 33
0.0
 16
1.0
 26
0.0
 36
0.0
 17
0.0
 27
1.0
 37
0.0
 76
     0
330
D2
  0
LAYOUT
  5
D7
102
{ACAD_XDICTIONARY
360
D101
102
}
102
{ACAD_REACTORS
330
1A
102
}
330
1A
100
AcDbPlotSettings
  1

  2
C:\Documents and Settings\basas\Application Data\Autodesk\AutoCAD 2005\R16.1\enu\plotters\Default Windows System Printer.pc3
  4

  6

 40
0.0
 41
0.0
 42
0.0
 43
0.0
 44
0.0
 45
0.0
 46
0.0
 47
0.0
 48
0.0
 49
0.0
140
0.0
141
0.0
142
1.0
143
1.0
 70
   688
 72
     0
 73
     0
 74
     5
  7

 75
    16
147
1.0
148
0.0
149
0.0
100
AcDbLayout
  1
Layout2
 70
     1
 71
     2
 10
0.0
 20
0.0
 11
12.0
 21
9.0
 12
0.0
 22
0.0
 32
0.0
 14
0.0
 24
0.0
 34
0.0
 15
0.0
 25
0.0
 35
0.0
146
0.0
 13
0.0
 23
0.0
 33
0.0
 16
1.0
 26
0.0
 36
0.0
 17
0.0
 27
1.0
 37
0.0
 76
     0
330
D6
  0
LAYOUT
  5
22
102
{ACAD_XDICTIONARY
360
D0FC
102
}
102
{ACAD_REACTORS
330
1A
102
}
330
1A
100
AcDbPlotSettings
  1

  2
none_device
  4
ISO_A4_(210.00_x_297.00_MM)
  6

 40
7.5
 41
20.0
 42
7.5
 43
20.0
 44
210.0
 45
297.0
 46
11.54999923706054
 47
-13.65000009536743
 48
0.0
 49
0.0
140
0.0
141
0.0
142
1.0
143
8.704084754739808
 70
 11952
 72
     1
 73
     0
 74
     0
  7

 75
     0
147
0.1148885871608098
148
0.0
149
0.0
100
AcDbLayout
  1
Model
 70
     1
 71
     0
 10
0.0
 20
0.0
 11
12.0
 21
9.0
 12
0.0
 22
0.0
 32
0.0
 14
0.0
 24
0.0
 34
0.0
 15
0.0
 25
0.0
 35
0.0
146
0.0
 13
0.0
 23
0.0
 33
0.0
 16
1.0
 26
0.0
 36
0.0
 17
0.0
 27
1.0
 37
0.0
 76
     0
330
1F
331
EA
1001
ACAD_PSEXT
1000
None
1000
None
1000
Not applicable
1000
The layout will not be plotted unless a new plotter configuration name is selected.
1070
     0
  0
MATERIAL
  5
ED
102
{ACAD_XDICTIONARY
360
1F9
102
}
102
{ACAD_REACTORS
330
6A
102
}
330
6A
100
AcDbMaterial
  1
ByBlock
  0
MATERIAL
  5
EC
102
{ACAD_XDICTIONARY
360
1F7
102
}
102
{ACAD_REACTORS
330
6A
102
}
330
6A
100
AcDbMaterial
  1
ByLayer
  0
MATERIAL
  5
EE
102
{ACAD_XDICTIONARY
360
173
102
}
102
{ACAD_REACTORS
330
6A
102
}
330
6A
100
AcDbMaterial
  1
Global
 43
0.0007999999797903
 43
0.0
 43
0.0
 43
0.0
 43
0.0
 43
0.0007999999797903
 43
0.0
 43
0.0
 43
0.0
 43
0.0
 43
1.0
 43
0.0
 43
0.0
 43
0.0
 43
0.0
 43
1.0
 49
0.0007999999797903
 49
0.0
 49
0.0
 49
0.0
 49
0.0
 49
0.0007999999797903
 49
0.0
 49
0.0
 49
0.0
 49
0.0
 49
1.0
 49
0.0
 49
0.0
 49
0.0
 49
0.0
 49
1.0
142
0.0007999999797903
142
0.0
142
0.0
142
0.0
142
0.0
142
0.0007999999797903
142
0.0
142
0.0
142
0.0
142
0.0
142
1.0
142
0.0
142
0.0
142
0.0
142
0.0
142
1.0
144
0.0007999999797903
144
0.0
144
0.0
144
0.0
144
0.0
144
0.0007999999797903
144
0.0
144
0.0
144
0.0
144
0.0
144
1.0
144
0.0
144
0.0
144
0.0
144
0.0
144
1.0
1001
ACAD
1070
    -1
1070
     3
1070
     0
1000

1071
        0
1070
     0
  0
MLEADERSTYLE
  5
12E
102
{ACAD_XDICTIONARY
360
D126
102
}
102
{ACAD_REACTORS
330
12D
102
}
330
12D
100
AcDbMLeaderStyle
170
     2
171
     1
172
     0
 90
        2
 40
0.0
 41
0.0
173
     1
 91
-1056964608
340
14
 92
       -2
290
     1
 42
2.0
291
     1
 43
8.0
  3
Standard
 44
4.0
300

342
11
174
     1
178
     1
175
     1
176
     0
 93
-1056964608
 45
4.0
292
     0
297
     0
 46
4.0
 94
-1056964608
 47
1.0
 49
1.0
140
1.0
293
     1
141
0.0
294
     1
177
     0
142
1.0
295
     0
296
     0
143
3.75
1001
ACAD_MLEADERVER
1070
     2
  0
MLINESTYLE
  5
18
102
{ACAD_REACTORS
330
17
102
}
330
17
100
AcDbMlineStyle
  2
STANDARD
 70
     0
  3

 62
   256
 51
90.0
 52
90.0
 71
     2
 49
0.5
 62
   256
  6
BYLAYER
 49
-0.5
 62
   256
  6
BYLAYER
  0
ACDBPLACEHOLDER
  5
F
102
{ACAD_REACTORS
330
E
102
}
330
E
  0
SCALE
  5
10D
102
{ACAD_REACTORS
330
10C
102
}
330
10C
100
AcDbScale
 70
     0
300
1:1
140
1.0
141
1.0
290
     1
  0
SCALE
  5
1BE
102
{ACAD_REACTORS
330
10C
102
}
330
10C
100
AcDbScale
 70
     0
300
1:2
140
1.0
141
2.0
290
     0
  0
SCALE
  5
1BF
102
{ACAD_REACTORS
330
10C
102
}
330
10C
100
AcDbScale
 70
     0
300
1:4
140
1.0
141
4.0
290
     0
  0
SCALE
  5
1C0
102
{ACAD_REACTORS
330
10C
102
}
330
10C
100
AcDbScale
 70
     0
300
1:5
140
1.0
141
5.0
290
     0
  0
SCALE
  5
1C1
102
{ACAD_REACTORS
330
10C
102
}
330
10C
100
AcDbScale
 70
     0
300
1:8
140
1.0
141
8.0
290
     0
  0
SCALE
  5
1C2
102
{ACAD_REACTORS
330
10C
102
}
330
10C
100
AcDbScale
 70
     0
300
1:10
140
1.0
141
10.0
290
     0
  0
SCALE
  5
1C3
102
{ACAD_REACTORS
330
10C
102
}
330
10C
100
AcDbScale
 70
     0
300
1:16
140
1.0
141
16.0
290
     0
  0
SCALE
  5
1C4
102
{ACAD_REACTORS
330
10C
102
}
330
10C
100
AcDbScale
 70
     0
300
1:20
140
1.0
141
20.0
290
     0
  0
SCALE
  5
1C5
102
{ACAD_REACTORS
330
10C
102
}
330
10C
100
AcDbScale
 70
     0
300
1:30
140
1.0
141
30.0
290
     0
  0
SCALE
  5
1C6
102
{ACAD_REACTORS
330
10C
102
}
330
10C
100
AcDbScale
 70
     0
300
1:40
140
1.0
141
40.0
290
     0
  0
SCALE
  5
1C7
102
{ACAD_REACTORS
330
10C
102
}
330
10C
100
AcDbScale
 70
     0
300
1:50
140
1.0
141
50.0
290
     0
  0
SCALE
  5
1C8
102
{ACAD_REACTORS
330
10C
102
}
330
10C
100
AcDbScale
 70
     0
300
1:100
140
1.0
141
100.0
290
     0
  0
SCALE
  5
1C9
102
{ACAD_REACTORS
330
10C
102
}
330
10C
100
AcDbScale
 70
     0
300
2:1
140
2.0
141
1.0
290
     0
  0
SCALE
  5
1CA
102
{ACAD_REACTORS
330
10C
102
}
330
10C
100
AcDbScale
 70
     0
300
4:1
140
4.0
141
1.0
290
     0
  0
SCALE
  5
1CB
102
{ACAD_REACTORS
330
10C
102
}
330
10C
100
AcDbScale
 70
     0
300
8:1
140
8.0
141
1.0
290
     0
  0
SCALE
  5
1CC
102
{ACAD_REACTORS
330
10C
102
}
330
10C
100
AcDbScale
 70
     0
300
10:1
140
10.0
141
1.0
290
     0
  0
SCALE
  5
1CD
102
{ACAD_REACTORS
330
10C
102
}
330
10C
100
AcDbScale
 70
     0
300
100:1
140
100.0
141
1.0
290
     0
  0
ACDBSECTIONVIEWSTYLE
  5
21A
102
{ACAD_XDICTIONARY
360
D138
102
}
102
{ACAD_REACTORS
330
219
102
}
330
219
100
AcDbModelDocViewStyle
 70
     0
  3
Metric50
290
     0
100
AcDbSectionViewStyle
 70
     0
 71
     0
 90
      102
 71
     1
340
11
 40
5.0
340
0
340
0
 40
5.0
300
I, O, Q, S, X, Z
 40
10.0
 90
        0
 40
2.5
 90
        0
 71
     2
340
16
 90
       25
340
16
 90
       50
 40
5.0
 40
2.5
 40
5.0
 71
     3
340
11
 40
5.0
 90
        0
 40
15.0
 90
        1
300
%<\AcVar ViewSectionStartId>%-%<\AcVar ViewSectionEndId>% (%<\AcVar ViewScale \f "%sn">%)
 71
     4
300
ANSI31
 40
1.0
 90
        0
290
     0
290
     0
 90
        6
 40
0.0
 40
1.570796326794896
 40
0.2617993877991494
 40
1.308996938995747
 40
-0.2617993877991494
 40
1.832595714594046
  0
TABLESTYLE
  5
7F
102
{ACAD_XDICTIONARY
360
162
102
}
102
{ACAD_REACTORS
330
7E
102
}
330
7E
100
AcDbTableStyle
  3
Standard
 70
     0
 71
     0
 40
1.5
 41
1.5
280
     0
281
     0
  7
Standard
140
4.5
170
     2
 62
     0
 63
     7
283
     0
274
    -2
284
     1
 64
     0
275
    -2
285
     1
 65
     0
276
    -2
286
     1
 66
     0
277
    -2
287
     1
 67
     0
278
    -2
288
     1
 68
     0
279
    -2
289
     1
 69
     0
  7
Standard
140
6.0
170
     5
 62
     0
 63
     7
283
     0
274
    -2
284
     1
 64
     0
275
    -2
285
     1
 65
     0
276
    -2
286
     1
 66
     0
277
    -2
287
     1
 67
     0
278
    -2
288
     1
 68
     0
279
    -2
289
     1
 69
     0
  7
Standard
140
4.5
170
     5
 62
     0
 63
     7
283
     0
274
    -2
284
     1
 64
     0
275
    -2
285
     1
 65
     0
276
    -2
286
     1
 66
     0
277
    -2
287
     1
 67
     0
278
    -2
288
     1
 68
     0
279
    -2
289
     1
 69
     0
  0
VISUALSTYLE
  5
F5
102
{ACAD_XDICTIONARY
360
D110
102
}
102
{ACAD_REACTORS
330
EF
102
}
330
EF
100
AcDbVisualStyle
  2
2dWireframe
 70
     4
 71
     0
 72
     2
 73
     1
 90
        0
 40
-0.6
 41
-30.0
 62
     5
 63
     7
 74
     1
 91
        4
 64
     7
 65
   257
 75
     1
175
     1
 42
1.0
 92
        0
 66
   257
 43
1.0
 76
     1
 77
     6
 78
     2
 67
     7
 79
     5
170
     0
171
     0
290
     0
174
     0
 93
        1
 44
0.0
173
     0
291
     0
 45
0.0
1001
ACAD
1000
AcDbSavedByObjectVersion
1070
     0
  0
VISUALSTYLE
  5
F4
102
{ACAD_XDICTIONARY
360
D10E
102
}
102
{ACAD_REACTORS
330
EF
102
}
330
EF
100
AcDbVisualStyle
  2
Basic
 70
     7
 71
     1
 72
     0
 73
     1
 90
        0
 40
-0.6
 41
-30.0
 62
     5
 63
     7
 74
     0
 91
        4
 64
     7
 65
   257
 75
     1
175
     1
 42
1.0
 92
        8
 66
     7
 43
1.0
 76
     1
 77
     6
 78
     2
 67
     7
 79
     5
170
     0
171
     0
290
     0
174
     0
 93
        1
 44
0.0
173
     0
291
     1
 45
0.0
1001
ACAD
1000
AcDbSavedByObjectVersion
1070
     0
  0
VISUALSTYLE
  5
FB
102
{ACAD_XDICTIONARY
360
D11C
102
}
102
{ACAD_REACTORS
330
EF
102
}
330
EF
100
AcDbVisualStyle
  2
Brighten
 70
    12
 71
     2
 72
     2
 73
     1
 90
        0
 40
-0.6
 41
-30.0
 62
     5
 63
     7
 74
     1
 91
        4
 64
     7
 65
   257
 75
     1
175
     1
 42
1.0
 92
        8
 66
     7
 43
1.0
 76
     1
 77
     6
 78
     2
 67
     7
 79
     5
170
     0
171
     0
290
     0
174
     0
 93
        1
 44
50.0
173
     0
291
     1
 45
0.0
1001
ACAD
1000
AcDbSavedByObjectVersion
1070
     0
  0
VISUALSTYLE
  5
FF
102
{ACAD_XDICTIONARY
360
D124
102
}
102
{ACAD_REACTORS
330
EF
102
}
330
EF
100
AcDbVisualStyle
  2
ColorChange
 70
    16
 71
     2
 72
     2
 73
     3
 90
        0
 40
-0.6
 41
-30.0
 62
     5
 63
     8
 74
     1
 91
        4
 64
     7
 65
   257
 75
     1
175
     1
 42
1.0
 92
        8
 66
     8
 43
1.0
 76
     1
 77
     6
 78
     2
 67
     7
 79
     5
170
     0
171
     0
290
     0
174
     0
 93
        1
 44
0.0
173
     0
291
     1
 45
0.0
1001
ACAD
1000
AcDbSavedByObjectVersion
1070
     0
  0
VISUALSTYLE
  5
F8
102
{ACAD_XDICTIONARY
360
D116
102
}
102
{ACAD_REACTORS
330
EF
102
}
330
EF
100
AcDbVisualStyle
  2
Conceptual
 70
     9
 71
     3
 72
     2
 73
     1
 90
        0
 40
-0.6
 41
-30.0
 62
     5
 63
     7
 74
     2
 91
        2
 64
     7
 65
   257
 75
     1
175
     1
 42
40.0
 92
        8
 66
     7
 43
1.0
 76
     1
 77
     6
 78
     2
 67
     7
 79
     3
170
     0
171
     0
290
     0
174
     0
 93
        1
 44
0.0
173
     0
291
     0
 45
0.0
1001
ACAD
1000
AcDbSavedByObjectVersion
1070
     0
  0
VISUALSTYLE
  5
FA
102
{ACAD_XDICTIONARY
360
D11A
102
}
102
{ACAD_REACTORS
330
EF
102
}
330
EF
100
AcDbVisualStyle
  2
Dim
 70
    11
 71
     2
 72
     2
 73
     1
 90
        0
 40
-0.6
 41
-30.0
 62
     5
 63
     7
 74
     1
 91
        4
 64
     7
 65
   257
 75
     1
175
     1
 42
1.0
 92
        8
 66
     7
 43
1.0
 76
     1
 77
     6
 78
     2
 67
     7
 79
     5
170
     0
171
     0
290
     0
174
     0
 93
        1
 44
-50.0
173
     0
291
     1
 45
0.0
1001
ACAD
1000
AcDbSavedByObjectVersion
1070
     0
  0
VISUALSTYLE
  5
1E6
102
{ACAD_XDICTIONARY
360
D12C
102
}
102
{ACAD_REACTORS
330
EF
102
}
330
EF
100
AcDbVisualStyle
  2
EdgeColorOff
 70
    22
 71
     2
 72
     2
 73
     0
 90
        0
 40
-0.6
 41
-30.0
 62
     5
 63
     7
 74
     1
 91
        4
 64
     7
 65
   257
 75
     1
175
     1
 42
1.0
 92
        8
 66
     7
 43
1.0
 76
     1
 77
     6
 78
     2
 67
     7
 79
     5
170
     0
171
     0
290
     0
174
     0
 93
        1
 44
0.0
173
     0
291
     1
 45
0.0
1001
ACAD
1000
AcDbSavedByObjectVersion
1070
     0
  0
VISUALSTYLE
  5
FE
102
{ACAD_XDICTIONARY
360
D122
102
}
102
{ACAD_REACTORS
330
EF
102
}
330
EF
100
AcDbVisualStyle
  2
Facepattern
 70
    15
 71
     2
 72
     2
 73
     1
 90
        0
 40
-0.6
 41
-30.0
 62
     5
 63
     7
 74
     1
 91
        4
 64
     7
 65
   257
 75
     1
175
     1
 42
1.0
 92
        8
 66
     7
 43
1.0
 76
     1
 77
     6
 78
     2
 67
     7
 79
     5
170
     0
171
     0
290
     0
174
     0
 93
        1
 44
0.0
173
     0
291
     1
 45
0.0
1001
ACAD
1000
AcDbSavedByObjectVersion
1070
     0
  0
VISUALSTYLE
  5
F0
102
{ACAD_XDICTIONARY
360
D106
102
}
102
{ACAD_REACTORS
330
EF
102
}
330
EF
100
AcDbVisualStyle
  2
Flat
 70
     0
 71
     2
 72
     1
 73
     1
 90
        2
 40
-0.6
 41
30.0
 62
     5
 63
     7
 74
     0
 91
        0
 64
     7
 65
   257
 75
     1
175
     1
 42
1.0
 92
        8
 66
     7
 43
1.0
 76
     1
 77
     6
 78
     2
 67
     7
 79
     5
170
     0
171
     0
290
     0
174
     0
 93
       13
 44
0.0
173
     0
291
     1
 45
0.0
1001
ACAD
1000
AcDbSavedByObjectVersion
1070
     0
  0
VISUALSTYLE
  5
F1
102
{ACAD_XDICTIONARY
360
D108
102
}
102
{ACAD_REACTORS
330
EF
102
}
330
EF
100
AcDbVisualStyle
  2
FlatWithEdges
 70
     1
 71
     2
 72
     1
 73
     1
 90
        2
 40
-0.6
 41
30.0
 62
     5
 63
     7
 74
     1
 91
        0
 64
     7
 65
   257
 75
     1
175
     1
 42
1.0
 92
        0
 66
   257
 43
1.0
 76
     1
 77
     6
 78
     2
 67
     7
 79
     5
170
     0
171
     0
290
     0
174
     0
 93
       13
 44
0.0
173
     0
291
     1
 45
0.0
1001
ACAD
1000
AcDbSavedByObjectVersion
1070
     0
  0
VISUALSTYLE
  5
F2
102
{ACAD_XDICTIONARY
360
D10A
102
}
102
{ACAD_REACTORS
330
EF
102
}
330
EF
100
AcDbVisualStyle
  2
Gouraud
 70
     2
 71
     2
 72
     2
 73
     1
 90
        2
 40
-0.6
 41
30.0
 62
     5
 63
     7
 74
     0
 91
        0
 64
     7
 65
   257
 75
     1
175
     1
 42
1.0
 92
        0
 66
     7
 43
1.0
 76
     1
 77
     6
 78
     2
 67
     7
 79
     5
170
     0
171
     0
290
     0
174
     0
 93
       13
 44
0.0
173
     0
291
     1
 45
0.0
1001
ACAD
1000
AcDbSavedByObjectVersion
1070
     0
  0
VISUALSTYLE
  5
F3
102
{ACAD_XDICTIONARY
360
D10C
102
}
102
{ACAD_REACTORS
330
EF
102
}
330
EF
100
AcDbVisualStyle
  2
GouraudWithEdges
 70
     3
 71
     2
 72
     2
 73
     1
 90
        2
 40
-0.6
 41
30.0
 62
     5
 63
     7
 74
     1
 91
        0
 64
     7
 65
   257
 75
     1
175
     1
 42
1.0
 92
        0
 66
   257
 43
1.0
 76
     1
 77
     6
 78
     2
 67
     7
 79
     5
170
     0
171
     0
290
     0
174
     0
 93
       13
 44
0.0
173
     0
291
     1
 45
0.0
1001
ACAD
1000
AcDbSavedByObjectVersion
1070
     0
  0
VISUALSTYLE
  5
F7
102
{ACAD_XDICTIONARY
360
D114
102
}
102
{ACAD_REACTORS
330
EF
102
}
330
EF
100
AcDbVisualStyle
  2
Hidden
 70
     6
 71
     1
 72
     2
 73
     2
 90
        0
 40
-0.6
 41
-30.0
 62
     5
 63
     7
 74
     2
 91
        2
 64
     7
 65
   257
 75
     2
175
     1
 42
40.0
 92
        0
 66
   257
 43
1.0
 76
     1
 77
     6
 78
     2
 67
     7
 79
     3
170
     0
171
     0
290
     0
174
     0
 93
        1
 44
0.0
173
     0
291
     0
 45
0.0
1001
ACAD
1000
AcDbSavedByObjectVersion
1070
     0
  0
VISUALSTYLE
  5
1E4
102
{ACAD_XDICTIONARY
360
D128
102
}
102
{ACAD_REACTORS
330
EF
102
}
330
EF
100
AcDbVisualStyle
  2
JitterOff
 70
    20
 71
     2
 72
     2
 73
     0
 90
        0
 40
-0.6
 41
-30.0
 62
     5
 63
     7
 74
     1
 91
        4
 64
     7
 65
   257
 75
     1
175
     1
 42
1.0
 92
       10
 66
     7
 43
1.0
 76
     1
 77
     6
 78
     2
 67
     7
 79
     5
170
     0
171
     0
290
     0
174
     0
 93
        1
 44
0.0
173
     0
291
     1
 45
0.0
1001
ACAD
1000
AcDbSavedByObjectVersion
1070
     0
  0
VISUALSTYLE
  5
FD
102
{ACAD_XDICTIONARY
360
D120
102
}
102
{ACAD_REACTORS
330
EF
102
}
330
EF
100
AcDbVisualStyle
  2
Linepattern
 70
    14
 71
     2
 72
     2
 73
     1
 90
        0
 40
-0.6
 41
-30.0
 62
     5
 63
     7
 74
     1
 91
        4
 64
     7
 65
   257
 75
     7
175
     7
 42
1.0
 92
        8
 66
     7
 43
1.0
 76
     1
 77
     6
 78
     2
 67
     7
 79
     5
170
     0
171
     0
290
     0
174
     0
 93
        1
 44
0.0
173
     0
291
     1
 45
0.0
1001
ACAD
1000
AcDbSavedByObjectVersion
1070
     0
  0
VISUALSTYLE
  5
1E5
102
{ACAD_XDICTIONARY
360
D12A
102
}
102
{ACAD_REACTORS
330
EF
102
}
330
EF
100
AcDbVisualStyle
  2
OverhangOff
 70
    21
 71
     2
 72
     2
 73
     0
 90
        0
 40
-0.6
 41
-30.0
 62
     5
 63
     7
 74
     1
 91
        4
 64
     7
 65
   257
 75
     1
175
     1
 42
1.0
 92
        9
 66
     7
 43
1.0
 76
     1
 77
     6
 78
     2
 67
     7
 79
     5
170
     0
171
     0
290
     0
174
     0
 93
        1
 44
0.0
173
     0
291
     1
 45
0.0
1001
ACAD
1000
AcDbSavedByObjectVersion
1070
     0
  0
VISUALSTYLE
  5
F9
102
{ACAD_XDICTIONARY
360
D118
102
}
102
{ACAD_REACTORS
330
EF
102
}
330
EF
100
AcDbVisualStyle
  2
Realistic
 70
     8
 71
     2
 72
     2
 73
     0
 90
        2
 40
-0.6
 41
30.0
 62
     5
 63
     7
 74
     0
 91
        0
 64
     7
 65
   257
 75
     1
175
     1
 42
1.0
 92
        8
 66
   257
 43
1.0
 76
     1
 77
     6
 78
     2
 67
     7
 79
     3
170
     0
171
     0
290
     0
174
     0
 93
       13
 44
0.0
173
     0
291
     0
 45
0.0
1001
ACAD
1000
AcDbSavedByObjectVersion
1070
     0
  0
VISUALSTYLE
  5
1F3
102
{ACAD_XDICTIONARY
360
D136
102
}
102
{ACAD_REACTORS
330
EF
102
}
330
EF
100
AcDbVisualStyle
  2
Shaded
 70
    27
 71
     2
 72
     2
 73
     1
 90
        2
 40
-0.6
 41
30.0
 62
     5
 63
     7
 74
     0
 91
        4
 64
     7
 65
   257
 75
     1
175
     1
 42
1.0
 92
        8
 66
   257
 43
1.0
 76
     1
 77
     6
 78
     2
 67
     8
 79
     3
170
     0
171
     0
290
     0
174
     0
 93
        5
 44
0.0
173
     0
291
     0
 45
0.0
1001
ACAD
1000
AcDbSavedByObjectVersion
1070
     0
  0
VISUALSTYLE
  5
1F2
102
{ACAD_XDICTIONARY
360
D134
102
}
102
{ACAD_REACTORS
330
EF
102
}
330
EF
100
AcDbVisualStyle
  2
Shaded with edges
 70
    26
 71
     2
 72
     2
 73
     1
 90
        2
 40
-0.6
 41
30.0
 62
     5
 63
     7
 74
     1
 91
        2
 64
     7
 65
   257
 75
     2
175
     1
 42
1.0
 92
        8
 66
   257
 43
1.0
 76
     1
 77
     6
 78
     2
 67
     7
 79
     3
170
     0
171
     0
290
     0
174
     0
 93
        5
 44
0.0
173
     0
291
     0
 45
0.0
1001
ACAD
1000
AcDbSavedByObjectVersion
1070
     0
  0
VISUALSTYLE
  5
1EF
102
{ACAD_XDICTIONARY
360
D12E
102
}
102
{ACAD_REACTORS
330
EF
102
}
330
EF
100
AcDbVisualStyle
  2
Shades of Gray
 70
    23
 71
     2
 72
     2
 73
     3
 90
        0
 40
-0.6
 41
-30.0
 62
     5
 63
     7
 74
     2
 91
        2
 64
     7
 65
     7
 75
     1
175
     1
 42
40.0
 92
        8
 66
     7
 43
1.0
 76
     1
 77
     6
 78
     2
 67
     7
 79
     3
170
     0
171
     0
290
     0
174
     0
 93
        1
 44
0.0
173
     0
291
     0
 45
0.0
1001
ACAD
1000
AcDbSavedByObjectVersion
1070
     0
  0
VISUALSTYLE
  5
1F0
102
{ACAD_XDICTIONARY
360
D130
102
}
102
{ACAD_REACTORS
330
EF
102
}
330
EF
100
AcDbVisualStyle
  2
Sketchy
 70
    24
 71
     1
 72
     2
 73
     2
 90
        0
 40
-0.6
 41
-30.0
 62
     5
 63
     7
 74
     2
 91
        2
 64
     7
 65
     7
 75
     1
175
     1
 42
40.0
 92
       11
 66
     7
 43
1.0
 76
     1
 77
     6
 78
     2
 67
     7
 79
     6
170
     0
171
     0
290
     0
174
     0
 93
        1
 44
0.0
173
     0
291
     0
 45
0.0
1001
ACAD
1000
AcDbSavedByObjectVersion
1070
     0
  0
VISUALSTYLE
  5
FC
102
{ACAD_XDICTIONARY
360
D11E
102
}
102
{ACAD_REACTORS
330
EF
102
}
330
EF
100
AcDbVisualStyle
  2
Thicken
 70
    13
 71
     2
 72
     2
 73
     1
 90
        0
 40
-0.6
 41
-30.0
 62
     5
 63
     7
 74
     1
 91
        4
 64
     7
 65
   257
 75
     1
175
     1
 42
1.0
 92
       12
 66
     7
 43
1.0
 76
     1
 77
     6
 78
     2
 67
     7
 79
     5
170
     0
171
     0
290
     0
174
     0
 93
        1
 44
0.0
173
     0
291
     1
 45
0.0
1001
ACAD
1000
AcDbSavedByObjectVersion
1070
     0
  0
VISUALSTYLE
  5
F6
102
{ACAD_XDICTIONARY
360
D112
102
}
102
{ACAD_REACTORS
330
EF
102
}
330
EF
100
AcDbVisualStyle
  2
Wireframe
 70
     5
 71
     0
 72
     2
 73
     0
 90
        0
 40
-0.6
 41
-30.0
 62
     5
 63
     7
 74
     1
 91
        4
 64
     7
 65
   257
 75
     1
175
     1
 42
1.0
 92
        0
 66
   257
 43
1.0
 76
     1
 77
     6
 78
     2
 67
     7
 79
     3
170
     0
171
     0
290
     0
174
     0
 93
        1
 44
0.0
173
     0
291
     0
 45
0.0
1001
ACAD
1000
AcDbSavedByObjectVersion
1070
     0
  0
VISUALSTYLE
  5
1F1
102
{ACAD_XDICTIONARY
360
D132
102
}
102
{ACAD_REACTORS
330
EF
102
}
330
EF
100
AcDbVisualStyle
  2
X-Ray
 70
    25
 71
     2
 72
     2
 73
     1
 90
        1
 40
0.5
 41
-30.0
 62
     5
 63
     7
 74
     1
 91
        0
 64
     7
 65
   257
 75
     1
175
     1
 42
1.0
 92
        8
 66
     7
 43
1.0
 76
     1
 77
     6
 78
     2
 67
     7
 79
     3
170
     0
171
     0
290
     0
174
     0
 93
       13
 44
0.0
173
     0
291
     0
 45
0.0
1001
ACAD
1000
AcDbSavedByObjectVersion
1070
     0
  0
DICTIONARYVAR
  5
146
102
{ACAD_REACTORS
330
5E
102
}
330
5E
100
DictionaryVariables
280
     0
  1
1:1
  0
DICTIONARYVAR
  5
259
102
{ACAD_REACTORS
330
5E
102
}
330
5E
100
DictionaryVariables
280
     0
  1
3.500000
  0
DICTIONARYVAR
  5
25A
102
{ACAD_REACTORS
330
5E
102
}
330
5E
100
DictionaryVariables
280
     0
  1
acadiso.lin
  0
DICTIONARYVAR
  5
145
102
{ACAD_REACTORS
330
5E
102
}
330
5E
100
DictionaryVariables
280
     0
  1
STANDARD
  0
DICTIONARYVAR
  5
84
102
{ACAD_REACTORS
330
5E
102
}
330
5E
100
DictionaryVariables
280
     0
  1
STANDARD
  0
DICTIONARYVAR
  5
227
102
{ACAD_REACTORS
330
5E
102
}
330
5E
100
DictionaryVariables
280
     0
  1
Metric50
  0
DICTIONARYVAR
  5
228
102
{ACAD_REACTORS
330
5E
102
}
330
5E
100
DictionaryVariables
280
     0
  1
Metric50
  0
DICTIONARYVAR
  5
5F
102
{ACAD_REACTORS
330
5E
102
}
330
5E
100
DictionaryVariables
280
     0
  1
2
  0
DICTIONARYVAR
  5
63
102
{ACAD_REACTORS
330
5E
102
}
330
5E
100
DictionaryVariables
280
     0
  1
1
  0
DICTIONARYVAR
  5
D0A7
102
{ACAD_REACTORS
330
5E
102
}
330
5E
100
DictionaryVariables
280
     0
  1
0
  0
DICTIONARYVAR
  5
1AE
102
{ACAD_REACTORS
330
5E
102
}
330
5E
100
DictionaryVariables
280
     0
  1
0
  0
DICTIONARYVAR
  5
1AF
102
{ACAD_REACTORS
330
5E
102
}
330
5E
100
DictionaryVariables
280
     0
  1
0
  0
DICTIONARYVAR
  5
D0A5
102
{ACAD_REACTORS
330
5E
102
}
330
5E
100
DictionaryVariables
280
     0
  1
2
  0
DICTIONARYVAR
  5
D0A4
102
{ACAD_REACTORS
330
5E
102
}
330
5E
100
DictionaryVariables
280
     0
  1
1
  0
DICTIONARYVAR
  5
D0F7
102
{ACAD_REACTORS
330
5E
102
}
330
5E
100
DictionaryVariables
280
     0
  1
80.000000
  0
DICTIONARYVAR
  5
D0F6
102
{ACAD_REACTORS
330
5E
102
}
330
5E
100
DictionaryVariables
280
     0
  1
5.000000
  0
DICTIONARYVAR
  5
D0A6
102
{ACAD_REACTORS
330
5E
102
}
330
5E
100
DictionaryVariables
280
     0
  1
127
  0
DICTIONARYVAR
  5
D0F8
102
{ACAD_REACTORS
330
5E
102
}
330
5E
100
DictionaryVariables
280
     0
  1
2
  0
DICTIONARY
  5
D13A
330
21C
100
AcDbDictionary
280
     1
281
     1
  3
ACAD_XREC_ROUNDTRIP
360
D13B
  0
DICTIONARY
  5
D0FF
330
D3
100
AcDbDictionary
280
     1
281
     1
  3
ACAD_XREC_ROUNDTRIP
360
D100
  0
DICTIONARY
  5
D101
330
D7
100
AcDbDictionary
280
     1
281
     1
  3
ACAD_XREC_ROUNDTRIP
360
D102
  0
DICTIONARY
  5
D0FC
330
22
100
AcDbDictionary
280
     1
281
     1
  3
ACAD_XREC_ROUNDTRIP
360
D0FD
  0
DICTIONARY
  5
1F9
330
ED
100
AcDbDictionary
280
     1
281
     1
  3
ACAD_XREC_ROUNDTRIP
360
D104
  3
FBXASSET
360
1FA
  0
DICTIONARY
  5
1F7
330
EC
100
AcDbDictionary
280
     1
281
     1
  3
ACAD_XREC_ROUNDTRIP
360
D103
  3
FBXASSET
360
1F8
  0
DICTIONARY
  5
173
330
EE
100
AcDbDictionary
280
     1
281
     1
  3
ACAD_XREC_ROUNDTRIP
360
D105
  3
BUMPTILE
360
175
  3
DIFFUSETILE
360
174
  3
FBXASSET
360
1FB
  3
OPACITYTILE
360
176
  3
REFLECTIONTILE
360
177
  0
DICTIONARY
  5
D126
330
12E
100
AcDbDictionary
280
     1
281
     1
  3
ACAD_XREC_ROUNDTRIP
360
D127
  0
DICTIONARY
  5
D138
330
21A
100
AcDbDictionary
280
     1
281
     1
  3
ACAD_XREC_ROUNDTRIP
360
D139
  0
DICTIONARY
  5
162
330
7F
100
AcDbDictionary
280
     1
281
     1
  3
ACAD_ROUNDTRIP_2008_TABLESTYLE_CELLSTYLEMAP
360
D0F9
  3
ACAD_XREC_ROUNDTRIP
360
D0FE
  0
DICTIONARY
  5
D110
330
F5
100
AcDbDictionary
280
     1
281
     1
  3
ACAD_XREC_ROUNDTRIP
360
D111
  0
DICTIONARY
  5
D10E
330
F4
100
AcDbDictionary
280
     1
281
     1
  3
ACAD_XREC_ROUNDTRIP
360
D10F
  0
DICTIONARY
  5
D11C
330
FB
100
AcDbDictionary
280
     1
281
     1
  3
ACAD_XREC_ROUNDTRIP
360
D11D
  0
DICTIONARY
  5
D124
330
FF
100
AcDbDictionary
280
     1
281
     1
  3
ACAD_XREC_ROUNDTRIP
360
D125
  0
DICTIONARY
  5
D116
330
F8
100
AcDbDictionary
280
     1
281
     1
  3
ACAD_XREC_ROUNDTRIP
360
D117
  0
DICTIONARY
  5
D11A
330
FA
100
AcDbDictionary
280
     1
281
     1
  3
ACAD_XREC_ROUNDTRIP
360
D11B
  0
DICTIONARY
  5
D12C
330
1E6
100
AcDbDictionary
280
     1
281
     1
  3
ACAD_XREC_ROUNDTRIP
360
D12D
  0
DICTIONARY
  5
D122
330
FE
100
AcDbDictionary
280
     1
281
     1
  3
ACAD_XREC_ROUNDTRIP
360
D123
  0
DICTIONARY
  5
D106
330
F0
100
AcDbDictionary
280
     1
281
     1
  3
ACAD_XREC_ROUNDTRIP
360
D107
  0
DICTIONARY
  5
D108
330
F1
100
AcDbDictionary
280
     1
281
     1
  3
ACAD_XREC_ROUNDTRIP
360
D109
  0
DICTIONARY
  5
D10A
330
F2
100
AcDbDictionary
280
     1
281
     1
  3
ACAD_XREC_ROUNDTRIP
360
D10B
  0
DICTIONARY
  5
D10C
330
F3
100
AcDbDictionary
280
     1
281
     1
  3
ACAD_XREC_ROUNDTRIP
360
D10D
  0
DICTIONARY
  5
D114
330
F7
100
AcDbDictionary
280
     1
281
     1
  3
ACAD_XREC_ROUNDTRIP
360
D115
  0
DICTIONARY
  5
D128
330
1E4
100
AcDbDictionary
280
     1
281
     1
  3
ACAD_XREC_ROUNDTRIP
360
D129
  0
DICTIONARY
  5
D120
330
FD
100
AcDbDictionary
280
     1
281
     1
  3
ACAD_XREC_ROUNDTRIP
360
D121
  0
DICTIONARY
  5
D12A
330
1E5
100
AcDbDictionary
280
     1
281
     1
  3
ACAD_XREC_ROUNDTRIP
360
D12B
  0
DICTIONARY
  5
D118
330
F9
100
AcDbDictionary
280
     1
281
     1
  3
ACAD_XREC_ROUNDTRIP
360
D119
  0
DICTIONARY
  5
D136
330
1F3
100
AcDbDictionary
280
     1
281
     1
  3
ACAD_XREC_ROUNDTRIP
360
D137
  0
DICTIONARY
  5
D134
330
1F2
100
AcDbDictionary
280
     1
281
     1
  3
ACAD_XREC_ROUNDTRIP
360
D135
  0
DICTIONARY
  5
D12E
330
1EF
100
AcDbDictionary
280
     1
281
     1
  3
ACAD_XREC_ROUNDTRIP
360
D12F
  0
DICTIONARY
  5
D130
330
1F0
100
AcDbDictionary
280
     1
281
     1
  3
ACAD_XREC_ROUNDTRIP
360
D131
  0
DICTIONARY
  5
D11E
330
FC
100
AcDbDictionary
280
     1
281
     1
  3
ACAD_XREC_ROUNDTRIP
360
D11F
  0
DICTIONARY
  5
D112
330
F6
100
AcDbDictionary
280
     1
281
     1
  3
ACAD_XREC_ROUNDTRIP
360
D113
  0
DICTIONARY
  5
D132
330
1F1
100
AcDbDictionary
280
     1
281
     1
  3
ACAD_XREC_ROUNDTRIP
360
D133
  0
XRECORD
  5
D13B
102
{ACAD_REACTORS
330
D13A
102
}
330
D13A
100
AcDbXrecord
280
     1
102
DISPLAYNAME
  1
Metric50
102
FLAGS
 90
        0
  0
XRECORD
  5
D100
102
{ACAD_REACTORS
330
D0FF
102
}
330
D0FF
100
AcDbXrecord
280
     1
102
SHADEPLOT
 70
     0
102
SHADEPLOTRESLEVEL
 70
     2
102
SHADEPLOTCUSTOMDPI
 70
   300
  0
XRECORD
  5
D102
102
{ACAD_REACTORS
330
D101
102
}
330
D101
100
AcDbXrecord
280
     1
102
SHADEPLOT
 70
     0
102
SHADEPLOTRESLEVEL
 70
     2
102
SHADEPLOTCUSTOMDPI
 70
   300
  0
XRECORD
  5
D0FD
102
{ACAD_REACTORS
330
D0FC
102
}
330
D0FC
100
AcDbXrecord
280
     1
102
SHADEPLOT
 70
     0
102
SHADEPLOTRESLEVEL
 70
     2
102
SHADEPLOTCUSTOMDPI
 70
   300
  0
XRECORD
  5
D104
102
{ACAD_REACTORS
330
1F9
102
}
330
1F9
100
AcDbXrecord
280
     1
102
MATERIAL
148
0.0
149
0.0
149
0.0
 93
        0
 94
       63
282
     0
 72
     1
 77
     1
171
     1
175
     1
179
     1
273
     0
  0
XRECORD
  5
1FA
102
{ACAD_REACTORS
330
1F9
102
}
330
1F9
100
AcDbXrecord
280
     1
 70
     1
 90
429727718
  1
D62C5603-E3A1-4AEA-B7FB-FE5D8D0755AF
310
504B03040A0000080000CC70623B3DEE336E79000000790000001B0000006175746F6465736B2D64657369676E2D7061636B6167652E786D6C3C3F786D6C2076657273696F6E3D22312E302220656E636F64696E673D227574662D3822203F3E3C666F726D6174733E3C666F726D61743E687474703A2F2F736368656D612E
310
6175746F6465736B2E636F6D2F64657369676E2D7061636B6167652F323030393C2F666F726D61743E3C2F666F726D6174733E504B0304140006080800CC70623BD486FD9CA0000000F4000000130000005B436F6E74656E745F54797065735D2E786D6C7D8EC10E82300C865F65E91D8A1E8C310C0EEA1BF002731658846E
310
D98AC1B77784ABF1D8FE5FBFBF75BBCE937A534CCEB38643598122B6FEE978D0B0485F9C41B54DDD7D022595594E1A469170414C76A4D9A4D207E29CF43ECE46F218070CC6BECC4078ACAA135ACF422C856C0E68EA1BF5669944DDD7BCDE7B1F8E415D77AECB980613C2E4AC91FC167A2B244592486606FC29C8FD7F045B9A
310
EF7053A7E60B504B0304140006080800CC70623B853B8169EB0000007C01000008000000636F72652E786D6C8D90416EC3201045AF62CDB6C206821CC7C244919D9CA01740401C94182C03558F5F9C3852BBEB6A467FFE9B197D7EFC9E1EC5975982F5AE035262288C535E5B377690E21535501C055FBC8FBF6C503839990E
310
5619041F179FE64D52DE45E362569DD7661365082642A11EB9E920A89B99642953CC8E702F67A9EE7234257977194EC9EAE275C4EABCCF5EAD5940D4AC6F0E35A568B8F43562CD7046CD199FD07E60174276A7BE677B5EADB0E0D14EEFFB6A31321A0D82627C4084204C3F096B71DD52F6819B16635EADF63F509AF53FA164
310
5DDCD1EDDD17164090FCC8732078B56691CB33A85CD7DCC40F504B0304140006080800CC70623B55019EA25F0000007C00000007000000636E782E786D6C4DCB3B0E80201045D1AD90E915ED2CF8AC45050C11660C8261F98AB1B07AC9C97D42D718D865D3E909258CFD00CCE24AC6E326A164D74DC0B4128928FF32603847
310
2BA13128B1252AC747C6BAB984FC68F0B87FE8960A5C09FE86CFB69FBA01504B0304140006080800CC70623BDBABAAF470010000D40300000C0000006662782F636F72652E786D6CC553D16E823014FD95A6AF4B694182CC941A83FA05FB810A9511A125A5257EFE2E82712ECEB8A7F100CD39F7F69E734AF9FADC366850B6
310
AF8DCE7018308C942E4C59EB2AC3DE1D498AD15A706B8CFB56869196ADCAF00863C12B6B7C374385D14E6907A836A59A41D9F7CA615434B0C8705F7CAA5606D23BA8E84F41278B93AC54100640439DE0BDB320004D43C63716C7C399D30917DCFBBA9CD9BA8469F5B156168B24CED3F7248AC8769F27244EB73B92EED8862C
310
B7F13E0C179B3C8F979C8ECD82BBBABDAA2BAC924E9558448CBD9330242CFA08E3154B5651FCC6D215639C8EE5774DBE2B5F6CF2B5768B68963BB5F5588420E442FC700B1139D4CB01F450C1E918227C2E09DF070D8140C84E1E9AAB8F1340832A9CB13130A5F1376A908D57309505ECF2A0DF179C4E9D30F5B239B87E3823
310
7A79C6F31DE1A8A5AEC08474B03C7837EAE4938639B44E5932B833D2C6B6B279CDC613877FA26EE21F4A2A4C63EC7F29A2F301D1F9F7A0E37D145F504B0304140006080800CC70623B9C113CC27E0000009D0000000B0000006662782F636E782E786D6C4DCCDF0A83201C86E15B91DFB94BFB330DD428C8FB886521330DA7
310
6397BF1A1DECE883878F57749FCDA1B7892F1BBC047A23808C7F84D9FA55424E0BE6803A256208E9EF06C84F9B91703228B1C690F78B66B34CD9A5439DF5CF0BFBF65E35BCA1B8D6A5C6F540381E886698B5741C695F9503EBA150A2F8958E3DC3EA0B504B0304140006080800CC70623B7DF2F77C2A010000120200003100
310
00006662782F41393633353835312D344632462D344230382D423046372D3739314545314133324237412F636F72652E786D6C8D51DB8EC22014FC15C2939B0D2DB4B45643319AE817EC0F6041255A68B86CFCFC856D4D76DF7CE190393373060EDB3DC707F856CE6B6B7A480A0C81328395DA5C7B18C3057510EC3873D686
310
3F34088C18550F330C39BB3A1BA7051AAC09CA84841A2BD5020AEF55806078A44B0FFD7053A328440C89E1EFC52486BBB8AA8214A99D789CF9E05200300FC927E4FB4D5B375D43103D5527440FB843077C5AA3F5861C8F645F5787F59E95B390B318B55CE45AA638FAA2957BD7248B390B7A7CC51F9C124149C82B8C378810
310
84AB2F42B7B8DD56F413775B8C5999E9FF4471926F8AA236A1AE96B8B3CC434E5839373893369E1FAF30EA395917409EB7F26AF8801C171837A4A6AC9C89E9F9C9B1A58BA30FD6A5EF5DDDCF894B9AD9B6A59C957943A9FCAE2FD5BC4DFE03504B0304140006080800CC70623BAD7543B64E01000033030000300000006662
310
782F41393633353835312D344632462D344230382D423046372D3739314545314133324237412F636E782E786D6CD593CD6EC32010845F0571AD6CE3D48AD20813A9873E410FBD12D82434182C7EAAE6EDBB2424CD25871E7B41D6EC30B3FA84F9E67BB2E40B4234DE8DB46F1925E094D7C6ED479AD3AE5951B2113C789FEE
310
6C943839C1488B4C05DF079FE72A69D8C96C13AAD6B8631503449F83828872B949AC57D26200B826A308D316B4064D6E46FCDA41C05550DC9E483A00797BFD207EFB092A45DE9514C1BBD22178396BD39D891265658C238DEA00936C654E5E433CB65A26D9F6EDB5EBC14EBF49A45CB856E66048291F6939A9A81BB5C89177
310
38143CA680F4AA299D66A042CEB3354A2684DC9D8D178FE0D9B8B41CAAD720F880EE7EF93C0C18769E099ECC04D5A102C8049A8A05632F4DDF376CF1DE0F6BB65C2F8627B65A33C6BB62177CEBBDAD973006829F89F22E814B54F4BC2BE347F8AA8F681390B50FA73F804400B5F542E796F19FF974E7F78DB802FE05E20750
310
4B0304140006080800CC70623BE75B7789680500003C100000340000006662782F41393633353835312D344632462D344230382D423046372D3739314545314133324237412F6F626A656374732E786D6CAD575B8F9B3818FD2B887D06C22499CB8AA1CA655245D5B455A356FB305264C061D8018C6C3393D95FBFC7600890
310
A4CD5EF210B0B1BFEBF98E3F7B1FF6596ABC522E1296DF9BAE3D320D9A872C4AF2F8DE2CE5CEBA358D0FBEC719939D65A691938CDE9B6ADAF4BD98B3B2D05311DD91329583D9D5FC0F438434A7A611A644887B5384CF34233629258BA878B12322891DEFF6B66BD70BFB62634E8AE781D082709A4B588AF91C528CDA28B73F
310
1C998EEF39EABBEFA97FBD6A7C7E9553F9D3D79FE442923C3C523610337627CB87ABE99D359D4CC6D6E4FACAB5E6ABF9D2726FC6A3C5F56271377BB88362213924694B38DD99FE47C48627A1E7D49F5A8BB5E1A74C0A599ED3B0F21F1E56366B89112D681E218F0915D0D6F17AD41FBA2A369DCF6335D62ABBD39779D5DDD1
310
11D4D8DE3CBB96B2E04FB8202E41051754A1AA8E8F76B4C6DFE810B580B1547F4B84911149794252234D024EF8BBE963A95AE27B3D310A9D5C215C7960FAEE415ED75694C6AFB17BCACA5D99A60A9AA65F217B0BFC53292ACB92BF283FAD0D3621576592CB5BED907C2FA8E9DF794E35E97BEA31BED21FEB401ABB94C44839
310
DCACBF0E1C5DA8DA5B2F4DFFD32AD86F543D9E565E7056502E157C00AD2671CD534549AB752FCA9CDA00677A313F04E51B22FF19E57B300579E3C97EB29F682D92935CEC18CF901B7B54FD8C51F362B56FC72FE0B3C1EAE335EDCCBF5AEC39ADB17DC238973F804BA5E6F6BFE7AF1FB32E523BE9F3BD571418E3631DCA4D48
310
5250CF639223210A9446CA30052EDF057BD35F8329C1ECD84552BF0DC8D18BE7BCE23BFE6BD960AB4A7DE79923A103BEBD80F911CBAA2C60DB19B01CF164A5583B772EE6D3FFA56666CBCDA74DC97724A48F9A58967497E489C4D979006FD7A05E227A1EBDD0F737C623387A9C844D3709995625106D157315F8B8392CD4E0
310
A0B9A720C4BE9829CEF37EA1E13111214D53925356365ADA634861B52519DD27A00AEB808EAF0628E6F435519D446F45CF2C9CF5214F0A15B2F6D06B79DA3EE3CBF7F56780D2F4E7EF73A0F5E5B02A38D07DC852C6B7C1FBB6664213E0C39E3EBA7FF4E1AD23EA2829407C85E586727488B751B2DB9502BC7B228A3FD68B6E
310
A65A22397E690AA8D158D7E404EC8CDA235CC3B7D1898680131CEC2CDF2638C65196279577750F15884AEE19F94199155B92B13297978469D4F8D358DF0AEF7631E28DC8F0D9F437D5D39A83B2231A1D52D543813A824EF8D44BCFF2FA6A31BD1E8DAD87F1CCB526B3879935BF59CDADD5C37479BB1CDD4CA7B3556B516589
310
EF352754B706114D9C885EC9131DE6EFEB43D99AFE2391C2F958179413D7CFEF6B1B6DB1E7600F00DE6E5C67454A339A4BA2E0FBA85ED26F045D454F463DBFCE484C2F90F2E5E3666003662ED8F755951A7D1BECD5B30B550B2785C8E7320B7292A4838DDA71BBC863ED7613CAF659337A3354231D4FF4A182A54904C2898C
310
98B28C4AD0CE056CCF332A80986E571EE9DBC305BB5FEB7E509220A58D25CF042D712A806AC0AD0C657FDEF80D2D9CEAA2EE4D1C76F60BFE74219A06527D6F82DF6412526107381E55E353090704D085B52408A8913C4ED159D79BDA71BB4BC506F4831350EB6F975CD22D69BF7AC49B91A2C0A9DDA3D5CA36AD20FC478E37
310
E61844E2352865EBCB61A275A65283CAAA9DD27703B4102F5AF51EF5F573B75CBB5AD38BC845F7A49F82A0966A49C2E3EA5EA0ECD326CD965F1DB402C6FA8B51A4658C5C5E2EC9E214602E55810345408596591009A82E7E7FFACA19EEA299B14A0081A705CB3296EBC14CDF658DCD336EA6D1136881AAEB87B81AB9EE53D5
310
F5EB8BC8362082DA24122F98680A4E7930C01A0079749CEA14382A0783E5EBA5A10F8C098456A03D6A4AEB6BB881E2513747552A5DB22C7EDAF83BD5528081A365F7FF06504B0304140006080000CC70623B000000000000000000000000350000006662782F41393633353835312D344632462D344230382D423046372D37
310
39314545314133324237412F76657274696365732E62696E504B0304140006080800CC70623BF270F1330600000004000000360000006662782F41393633353835312D344632462D344230382D423046372D3739314545314133324237412F747269616E676C65732E62696E636660600000504B0304140006080000CC7062
310
3B000000000000000000000000370000006662782F41393633353835312D344632462D344230382D423046372D3739314545314133324237412F617474726962757465732E62696E504B0304140006080800CC70623B08DA0BD19000000041010000360000006662782F41393633353835312D344632462D344230382D4230
310
46372D3739314545314133324237412F6469726563746F72792E786D6C858F410AC3201045AF22B36F53E9A60B35CBEEBAE80D244E44489C6234F4F835464A48035D0DF398FF9F8AF63D0E6CC63039F212F8F9020C7D47C6792B21C5FE7403D62A1188E2E60C98D7234A5830286103A55745067B9D86B8A3CF9C7F90C11DE6
310
07FB144396D7B6A82D282E9A152AD114D5EF2CB866EEE831B8EEA07A7BB5A8D7D61A2BAAEB7FD5F70921FF497D00504B0304140006080800CC70623BEDD1DC58FD000000A00100003B0000006662782F41393633353835312D344632462D344230382D423046372D3739314545314133324237412F7265736F75726365732F
310
636F72652E786D6C8D504B6E833010BD0A9A6D65B00922041947112427E8052C33A156828DFCA97AFC9A40A576D7CDCCE87D344F8F9FBFE667F689CE6B6B3A6039850C8DB2A336530731DC4903D95970676DF82583CCC8193B5861107C72362E3BA4AC096842428D1D7107A5F7182053CF7474E0D507CE32973124857FE48B
310
540F3961CEF244279DE03EB81420DB9EAC1384436FA353E879B1B182C7A8C75DA3C7F453DF353A1075D537A7BA6464B8F535A99AE14A9A2BBD90E350DD183B5CFABE3AF262350B1EF4FC9351399401471025A527C218A1E53BAB5A5AB765F5469B96525EACF23FA6B88CFF34456DC2A1DCE36E360F82A5202F42F062ED2BAD
310
579969AFDD8A6F504B010214000A0000080000CC70623B3DEE336E79000000790000001B00000000000000000000000000000000006175746F6465736B2D64657369676E2D7061636B6167652E786D6C504B01021400140006080800CC70623BD486FD9CA0000000F40000001300000000000000000000000000B20000005B
310
436F6E74656E745F54797065735D2E786D6C504B01021400140006080800CC70623B853B8169EB0000007C010000080000000000000000000000000083010000636F72652E786D6C504B01021400140006080800CC70623B55019EA25F0000007C000000070000000000000000000000000094020000636E782E786D6C504B
310
01021400140006080800CC70623BDBABAAF470010000D40300000C00000000000000000000000000180300006662782F636F72652E786D6C504B01021400140006080800CC70623B9C113CC27E0000009D0000000B00000000000000000000000000B20400006662782F636E782E786D6C504B01021400140006080800CC70
310
623B7DF2F77C2A010000120200003100000000000000000000000000590500006662782F41393633353835312D344632462D344230382D423046372D3739314545314133324237412F636F72652E786D6C504B01021400140006080800CC70623BAD7543B64E010000330300003000000000000000000000000000D2060000
310
6662782F41393633353835312D344632462D344230382D423046372D3739314545314133324237412F636E782E786D6C504B01021400140006080800CC70623BE75B7789680500003C10000034000000000000000000000000006E0800006662782F41393633353835312D344632462D344230382D423046372D3739314545
310
314133324237412F6F626A656374732E786D6C504B01021400140006080000CC70623B0000000000000000000000003500000000000000000000000000280E00006662782F41393633353835312D344632462D344230382D423046372D3739314545314133324237412F76657274696365732E62696E504B01021400140006
310
080800CC70623BF270F133060000000400000036000000000000000000000000007B0E00006662782F41393633353835312D344632462D344230382D423046372D3739314545314133324237412F747269616E676C65732E62696E504B01021400140006080000CC70623B0000000000000000000000003700000000000000
310
000000000000D50E00006662782F41393633353835312D344632462D344230382D423046372D3739314545314133324237412F617474726962757465732E62696E504B01021400140006080800CC70623B08DA0BD1900000004101000036000000000000000000000000002A0F00006662782F41393633353835312D344632
310
462D344230382D423046372D3739314545314133324237412F6469726563746F72792E786D6C504B01021400140006080800CC70623BEDD1DC58FD000000A00100003B000000000000000000000000000E1000006662782F41393633353835312D344632462D344230382D423046372D3739314545314133324237412F7265
310
736F75726365732F636F72652E786D6C504B0506000000000E000E0080040000641100000000
  0
XRECORD
  5
D103
102
{ACAD_REACTORS
330
1F7
102
}
330
1F7
100
AcDbXrecord
280
     1
102
MATERIAL
148
0.0
149
0.0
149
0.0
 93
        0
 94
       63
282
     0
 72
     1
 77
     1
171
     1
175
     1
179
     1
273
     0
  0
XRECORD
  5
1F8
102
{ACAD_REACTORS
330
1F7
102
}
330
1F7
100
AcDbXrecord
280
     1
 70
     1
 90
429727718
  1
30362254-06B7-45E0-A893-8CFA70E3D6BC
310
504B03040A0000080000CC70623B3DEE336E79000000790000001B0000006175746F6465736B2D64657369676E2D7061636B6167652E786D6C3C3F786D6C2076657273696F6E3D22312E302220656E636F64696E673D227574662D3822203F3E3C666F726D6174733E3C666F726D61743E687474703A2F2F736368656D612E
310
6175746F6465736B2E636F6D2F64657369676E2D7061636B6167652F323030393C2F666F726D61743E3C2F666F726D6174733E504B0304140006080800CC70623BD486FD9CA0000000F4000000130000005B436F6E74656E745F54797065735D2E786D6C7D8EC10E82300C865F65E91D8A1E8C310C0EEA1BF002731658846E
310
D98AC1B77784ABF1D8FE5FBFBF75BBCE937A534CCEB38643598122B6FEE978D0B0485F9C41B54DDD7D022595594E1A469170414C76A4D9A4D207E29CF43ECE46F218070CC6BECC4078ACAA135ACF422C856C0E68EA1BF5669944DDD7BCDE7B1F8E415D77AECB980613C2E4AC91FC167A2B244592486606FC29C8FD7F045B9A
310
EF7053A7E60B504B0304140006080800CC70623B1EC5D7A3EB0000007C01000008000000636F72652E786D6C8D90416EC3201045AF82665B6103C6756C6122AB4D4ED00B204C5C94182C03558F5F9C3852BBEB6A467FFE9B197D71FC9E6FE8CBACC17AD7032D0820E3B41FAD9B7A48F1820F808E52ACDEC75F36404ECDA687
310
4D0629A6D5A76597B477D1B89855E747B38B2A041301E95B6E7A08FAD3CCAA50296647B8168BD2573599823EBB0CA76447F43862C7BCCF5EAC59410E4DDD9C7973C2755553CCCFA4C603E3040F1565ED3B1FDE4E432BCA0D9622DAF9795FAF464533826484B498524CD807E51D79ED187F21878E10516EF63F505AC67F42C9
310
BA58B1FDDD071640D2FCC87D2045B96591CB3DA85CB7DCE40F504B0304140006080800CC70623B55019EA25F0000007C00000007000000636E782E786D6C4DCB3B0E80201045D1AD90E915ED2CF8AC45050C11660C8261F98AB1B07AC9C97D42D718D865D3E909258CFD00CCE24AC6E326A164D74DC0B4128928FF32603847
310
2BA13128B1252AC747C6BAB984FC68F0B87FE8960A5C09FE86CFB69FBA01504B0304140006080800CC70623B8C9102E971010000D40300000C0000006662782F636F72652E786D6CC5535B6E833010BC8AE5DF0A6C08340F1947A84D4ED00B38C6A128602363A31CBFCB234A53A551FA553EC09AD9F5CE8C31DB9E9B1AF5CA
310
7695D1198E428A91D2D214952E33ECDD315861B4E5CC1AE3BE9561A445A3323CC098B3D21ADFCE9034DA29ED00D5A6503328BA4E398C640D8B0C77F253352214DE4145770A5B214FA2546114020D759C75CE8200340D19DE981F0F6746269C33EFAB6266AB02A655C74A59CCF365BADC27CB5D902ED22848F6340DF238A141
310
BE88E2F57B92BFEDF23523433367AE6A2EEAA455C2A902F398D2751045018D3FA264435F3771F242571B4A1919CA6F9A7C5B3CD9E42BED16F12C776AEB308F40C848FC700B1139D4891EF410CEC810227CC6846F8386402064270EF5C5C709A05E49676C024C61FC95EA45ED154CA5211D1FF4FB8291A913A68E9B83EBBB33
310
E2A7673CDE118E5AE8124C0807CB8377834E366998436B950D7A7746DAD846D4CFD978E0F04FD455FC5D49D2D4C6FE9722321F10997F0F32DC47FE05504B0304140006080800CC70623BFFEA85907E0000009D0000000B0000006662782F636E782E786D6C4DCCD10A83201886E15B91FFDC95D95A811AB6F23E625948A6C3
310
E9D8E5AF46073BFAE0E1E365ED67B3E8ADC3CB78C7815C7240DA3DFC64DCC221C519D7805AC182F7F1EF06C88D9BE6703008B6049F9E274D7A1E938DBB5AE3D6131B2589BA0D3D965551E0B2EA732C9B9A624AAEB41E3A557677029960D9AFB4EF11165F504B0304140006080800CC70623B4FEEA4082C0100001202000031
310
0000006662782F39464131463745442D413632322D343644302D413938332D3331353338454246344243312F636F72652E786D6C8D515B6EC32010BC0AE2AB55850DD871ED0813254D72825EC00192A2C460F1A872FC42ED48ED5F7E00CDCECCCEB26C731F6FE05B39AFADE921293004CA082BB5B9F43086336A21D870E6AC
310
0D7F68109861543DCC30E4ECE26C9C164858139409093556AA051CBC570102714B8F1E7AF1A5C6A11862480C7F2DA6415C878B2A4891CA89C7990F2E050073937C42DE1DB7E4F87ED8A36D4329AA9B3D46DBAEAD504556557BD81DEBDD0761E52CE42C462D17B996298E3E6BE59E35C962CE821E1FF18553435012728A7187
310
0841987E927A8D9B35ADDF70BBC6989599FE4F1427F9A4286A132ABAC49D651EF234CD5CE04CDA78BA3DC2A8FB645D00B9DF8B57E215725C60BCA2A463E54C4CE327C7A65E1C7DB02E7DEFCBF594B864C5CA6CDBD49C957943E9FA5D5FBAF336F90F504B0304140006080800CC70623BAD7543B64E01000033030000300000
310
006662782F39464131463745442D413632322D343644302D413938332D3331353338454246344243312F636E782E786D6CD593CD6EC32010845F0571AD6CE3D48AD20813A9873E410FBD12D82434182C7EAAE6EDBB2424CD25871E7B41D6EC30B3FA84F9E67BB2E40B4234DE8DB46F1925E094D7C6ED479AD3AE5951B2113C
310
789FEE6C943839C1488B4C05DF079FE72A69D8C96C13AAD6B8631503449F83828872B949AC57D26200B826A308D316B4064D6E46FCDA41C05550DC9E483A00797BFD207EFB092A45DE9514C1BBD22178396BD39D891265658C238DEA00936C654E5E433CB65A26D9F6EDB5EBC14EBF49A45CB856E66048291F6939A9A81BB5
310
C8917738143CA680F4AA299D66A042CEB3354A2684DC9D8D178FE0D9B8B41CAAD720F880EE7EF93C0C18769E099ECC04D5A102C8049A8A05632F4DDF376CF1DE0F6BB65C2F8627B65A33C6BB62177CEBBDAD973006829F89F22E814B54F4BC2BE347F8AA8F681390B50FA73F804400B5F542E796F19FF974E7F78DB802FE05
310
E207504B0304140006080800CC70623B16AB87BA640500003C100000340000006662782F39464131463745442D413632322D343644302D413938332D3331353338454246344243312F6F626A656374732E786D6CAD575B6FA33818FD2B887DE6924B3BED8A326A92B68A663B534DD4D13E548A0C38942D60649B369D5FBFC7
310
600890A493BDE42160637FD7F31D7FF63E6FB3D478A55C242CBF3247B66B1A340F5994E4F19559CA8D75611A9F7D8F33263BCB4C232719BD32D5B4E97B316765A1A722BA21652A07B3B7B33F0D11D29C9A46981221AE4C113ED38CD8A4942CA2E2C58E882476BCD9DA23BB5ED8171B73523C0F841684D35CC252CCE79062D4
310
468DFA43D7747CCF51DF7D4FFDEB5593E3AB9CCA9FBEFE241792E4E19EB28198C968BAB8199F5D5A67D3E9C49A9E8F47D6EC76B6B0469F26EEFC7C3EBFBCBEB98462213924694B38DD98FE1D62C393D073EA4FADC5DAF04326852CCF6958F90F0F2B9BB5C48816348F90C7840A68EB78EDF68723159BCEE7891A6B95DDE9D3
310
BCEAEEE8086A6C6F9E5D4B59F0175C10A7A0820BAA5055C7473B5AE3CFDD452D602CD5DF12616444529E90D448938013FE6EFA58AA96F85E4F8C42275708571E98FE6827AF6B2B4AE3D7D83D64E5A64C53054DD3AF90BD06FEA9149565C94FCA0F6B834DC85599E4F2423B24DF0B6AFA979E534DFA9E7A4CC6FA631D486393
310
921829879BF5D781A373557BCB85E97FB90DB62B558F8795179C15944B051F40AB495CF35451D26A4727654E6D8033BD98EF82F21D91FF8AF2DD9982BCF1643BDD4EB516C9492E368C67C88DED563FC36D5EACF66DFF057C3658BDBFA69DF9578B3DA735B64F18C7F20770A9D45CFCF7FCF563D6456A277DBEF78A02637CA2
310
43B90A490AEAB94F72244481D24819A6C0E59B606BFA4B3025981DBB48EAB701D97BF19C577CC77F2D1B6C55A9EF3C732474C0B727303F625995056C3B02963D9EAC146BE78EC5FCEC7FA999EBC5EACBAAE41B12D27B4D2C0BBA49F244E2ECDC81B76B502F113D8F5EE8FB1BE3111CDD4FC2AA9B844CAB1288B68AB90A7CDC
310
1C166AB0D3DC5310625FCC14E779BFD0709F8890A629C9292B1B2DED31A4B0DA928CEE135085754027E3018A397D4D5427D15BD1330B677DC8934285AC3DF45A9EB68FF8F2B8FC0A509AFEECFD0FF2DE25CC6047F7214B195F07EFEB9A094D800F7BFAE8FED187B78EA8A3A400F115961BCAD1215E47C966530AF0EE8128FE
310
58CEBB996A8964FFA529A046635D9353B0336A8F700DDF46271A024E70B0B37C9DE01847591E54DED53D54202AB947E4076556AC49C6CA5C9E1226B7F1A7B1BE15DEED62C41B91E1B3E9AFAAA735036547343A925075041DF0A9979E893B391F8FCFA6967B3EFB644DCF6E5CEBFAE272625DCC6FAF3FB93793C5F90CE1EF57
310
407342756B10D1C489E8953CD1617E5CEECAD6F4EF8914CE5D5D504E5C3F1F9736DA62CFC11E00BCDDB8CC8A9466349744C1F75EBDA4DF09BA8A9E8C7A7E9991989E20E5DBDD6A6003664ED8F7A04A8DBE0DF6EAD9B9AA858342E47399053949D2C146EDB85DE4B176BB0965FBAC19BD19AA918E27FA50C1D22402E144464C
310
59462568E704B6E71915404CB72B8FF4EDE184DDAF753F284990D2C6926782963815403548A70C657FDEF80D2D9CEAA2AE4C1C76F60BFE74219A06527D6582DF6412526107381E55E353090704D085B52408D0933C4ED159D79BDA71BB4BC506F4831350EB6F979CD22D69BF7AC49B91A2C0A9DDA3D5CA36AD20FC478E37E6
310
1844E2352865EBCB6EA275A652E3836BE04EFB400BF1A2556F515F1FBB35B2AB35BD889C744FFA1004B5544B121E57F70215746DD2F5E2C1412B602CBF19455AC6C8E5E9922C4E01E65215385004546899059180EAFCF7A707CE7017CD8CDB0410789AB32C63B91E5CEBBBACB17AC6CD347A022D5075FD106377347AAABA7E
310
7D11590744509B44E205134DC1290F06580320F78E537D3D73540E06CB970B431F185308AD40BBD794D6D77003C5A36E8EAA54BA64597CD8F83BD552A080A365F7FF06504B0304140006080000CC70623B000000000000000000000000350000006662782F39464131463745442D413632322D343644302D413938332D3331
310
353338454246344243312F76657274696365732E62696E504B0304140006080800CC70623BF270F1330600000004000000360000006662782F39464131463745442D413632322D343644302D413938332D3331353338454246344243312F747269616E676C65732E62696E636660600000504B0304140006080000CC70623B
310
000000000000000000000000370000006662782F39464131463745442D413632322D343644302D413938332D3331353338454246344243312F617474726962757465732E62696E504B0304140006080800CC70623B08DA0BD19000000041010000360000006662782F39464131463745442D413632322D343644302D413938
310
332D3331353338454246344243312F6469726563746F72792E786D6C858F410AC3201045AF22B36F53E9A60B35CBEEBAE80D244E44489C6234F4F835464A48035D0DF398FF9F8AF63D0E6CC63039F212F8F9020C7D47C6792B21C5FE7403D62A1188E2E60C98D7234A5830286103A55745067B9D86B8A3CF9C7F90C11DE607
310
FB144396D7B6A82D282E9A152AD114D5EF2CB866EEE831B8EEA07A7BB5A8D7D61A2BAAEB7FD5F70921FF497D00504B0304140006080800CC70623B0D6EF93BFE000000A00100003B0000006662782F39464131463745442D413632322D343644302D413938332D3331353338454246344243312F7265736F75726365732F63
310
6F72652E786D6C8D50596E833010BD0A9ADFCA60B334011947A8694ED00B586642AC041B79A97AFC9A40A5F6AF3F33A3B7689E1E3F7DCD8FEC139DD7D6F4C0720A191A65476DA61E62B892236427C19DB5E1970C322367EC618541F0C9D9B8EC90B226A009093576C41D94DE63804C3DD2D18357379C652E63480A7FCF17A9
310
EE72C29CE5894E3AC17D702940B63D59270887DE46A7D0F36263058F518FBB468FE9A7BE6A7420864373B8D4873369AA8691FA421B3294352543C5CAF65C0F6FEF43CB8BD52C78D0F34F46E550061C419494B6843142CB0F5677F4B52BEB177AEC28E5C52AFF638ACBF84F53D42654E51E77B379102C05791282176B5F693D
310
CB4C7BED567C03504B010214000A0000080000CC70623B3DEE336E79000000790000001B00000000000000000000000000000000006175746F6465736B2D64657369676E2D7061636B6167652E786D6C504B01021400140006080800CC70623BD486FD9CA0000000F40000001300000000000000000000000000B20000005B
310
436F6E74656E745F54797065735D2E786D6C504B01021400140006080800CC70623B1EC5D7A3EB0000007C010000080000000000000000000000000083010000636F72652E786D6C504B01021400140006080800CC70623B55019EA25F0000007C000000070000000000000000000000000094020000636E782E786D6C504B
310
01021400140006080800CC70623B8C9102E971010000D40300000C00000000000000000000000000180300006662782F636F72652E786D6C504B01021400140006080800CC70623BFFEA85907E0000009D0000000B00000000000000000000000000B30400006662782F636E782E786D6C504B01021400140006080800CC70
310
623B4FEEA4082C0100001202000031000000000000000000000000005A0500006662782F39464131463745442D413632322D343644302D413938332D3331353338454246344243312F636F72652E786D6C504B01021400140006080800CC70623BAD7543B64E010000330300003000000000000000000000000000D5060000
310
6662782F39464131463745442D413632322D343644302D413938332D3331353338454246344243312F636E782E786D6C504B01021400140006080800CC70623B16AB87BA640500003C1000003400000000000000000000000000710800006662782F39464131463745442D413632322D343644302D413938332D3331353338
310
454246344243312F6F626A656374732E786D6C504B01021400140006080000CC70623B0000000000000000000000003500000000000000000000000000270E00006662782F39464131463745442D413632322D343644302D413938332D3331353338454246344243312F76657274696365732E62696E504B01021400140006
310
080800CC70623BF270F133060000000400000036000000000000000000000000007A0E00006662782F39464131463745442D413632322D343644302D413938332D3331353338454246344243312F747269616E676C65732E62696E504B01021400140006080000CC70623B0000000000000000000000003700000000000000
310
000000000000D40E00006662782F39464131463745442D413632322D343644302D413938332D3331353338454246344243312F617474726962757465732E62696E504B01021400140006080800CC70623B08DA0BD190000000410100003600000000000000000000000000290F00006662782F39464131463745442D413632
310
322D343644302D413938332D3331353338454246344243312F6469726563746F72792E786D6C504B01021400140006080800CC70623B0D6EF93BFE000000A00100003B000000000000000000000000000D1000006662782F39464131463745442D413632322D343644302D413938332D3331353338454246344243312F7265
310
736F75726365732F636F72652E786D6C504B0506000000000E000E0080040000641100000000
  0
XRECORD
  5
D105
102
{ACAD_REACTORS
330
173
102
}
330
173
100
AcDbXrecord
280
     1
102
MATERIAL
148
0.0
149
0.0
149
0.0
 93
        0
 94
       63
282
     0
 72
     1
 77
     1
171
     1
175
     1
179
     1
273
     0
  0
XRECORD
  5
175
102
{ACAD_REACTORS
330
173
102
}
330
173
100
AcDbXrecord
280
     1
270
     1
271
     1
  0
XRECORD
  5
174
102
{ACAD_REACTORS
330
173
102
}
330
173
100
AcDbXrecord
280
     1
270
     1
271
     1
  0
XRECORD
  5
1FB
102
{ACAD_REACTORS
330
173
102
}
330
173
100
AcDbXrecord
280
     1
 70
     0
 90
1673772943
  1
ECE7A1D2-D628-4531-984C-D00F80459256
310
504B03040A0000080000CC70623B3DEE336E79000000790000001B0000006175746F6465736B2D64657369676E2D7061636B6167652E786D6C3C3F786D6C2076657273696F6E3D22312E302220656E636F64696E673D227574662D3822203F3E3C666F726D6174733E3C666F726D61743E687474703A2F2F736368656D612E
310
6175746F6465736B2E636F6D2F64657369676E2D7061636B6167652F323030393C2F666F726D61743E3C2F666F726D6174733E504B0304140006080800CC70623BD486FD9CA0000000F4000000130000005B436F6E74656E745F54797065735D2E786D6C7D8EC10E82300C865F65E91D8A1E8C310C0EEA1BF002731658846E
310
D98AC1B77784ABF1D8FE5FBFBF75BBCE937A534CCEB38643598122B6FEE978D0B0485F9C41B54DDD7D022595594E1A469170414C76A4D9A4D207E29CF43ECE46F218070CC6BECC4078ACAA135ACF422C856C0E68EA1BF5669944DDD7BCDE7B1F8E415D77AECB980613C2E4AC91FC167A2B244592486606FC29C8FD7F045B9A
310
EF7053A7E60B504B0304140006080800CC70623BD9DDAED0EC0000007C01000008000000636F72652E786D6C8D90416EC3201045AF82665B61836D9CD8C2444DD39CA01740405C94182C03558F5F9C3852BBEB6A467FFE9B197D7EF89E6EE8CB2CC17A37002D0820E394D7D68D03A478C17B4007C117EFE32F1B20272733C0
310
2A83E0E3E2D3BC49CABB685CCCAAF3DA6CA20CC14440EA969B0182FA34932C648AD911AEC52CD5558EA6A0CF2EC329598D1E47ACCEFBECC59A050463A7EA5833865FEBDD0E37353BE3EE8DBDE3F6786A48D375FBF6CC78B9C282473B3DEFABC5C86834888A900E538A49F5419B9EB47DD5BC907D4F082F57FB1F28CDFA9F50
310
B22ED6D5F6EE030B20687EE43E10BC5CB3C8E51E54AE6B6EE207504B0304140006080800CC70623B55019EA25F0000007C00000007000000636E782E786D6C4DCB3B0E80201045D1AD90E915ED2CF8AC45050C11660C8261F98AB1B07AC9C97D42D718D865D3E909258CFD00CCE24AC6E326A164D74DC0B4128928FF326038
310
472BA13128B1252AC747C6BAB984FC68F0B87FE8960A5C09FE86CFB69FBA01504B0304140006080800CC70623BA24EB22D72010000D40300000C0000006662782F636F72652E786D6CC5535B6E833010BC8AE5DF0A6C5E49888CA3A6694ED00B38E05014B091B1518EDFE511A5A9D228FD2A1F60CDEC7A67C6986DCE4D8D7A
310
69BA4AAB0C073EC548AA5C17952A33ECECD15B61B4E1CC686DBF9561A44423333CC098B3D268D7CE50AE9595CA02AA74216750749DB418E5352C32DCE59FB211BE70162ABA93DF8AFC244AE9073ED050C759670D0840D390E18DF9F1706664C23973AE2A66B62A605A75ACA4C13C4976E1364A12EF355A2EBD384AF65EFA96
310
BC7B8BED2EA6719AAE16FB8491A199335B351775B991C2CA02F390D2D40B028F861F41BCA68B7518BFD0D59A524686F29B26D7164F36B94AD9289CE54E6D1DE6010819891F6E21228B3AD1831EC219194284CF98F06DD01008846CC5A1BEF83801D4CBDC6A1303536877A57A513B0953A94FC707FDBE6064EA84A9E3E6E0FA
310
EE8CF0E9198F7784A316AA0413C2C2F2E0ECA0934D1AE6D05A69BCDE9E91D2A611F573361E38FC1375157F5752AE6B6DFE4B11990F88CCBF0719EE23FF02504B0304140006080800CC70623B408A7D3B7C0000009D0000000B0000006662782F636E782E786D6C4DCCD10A83201886E15B91FFDC552A92A0064DBC8F581632
310
D3703A76F9ABD1C18E3E78F878E5F0D9027ABBFCF2292AE86E2D20171F69F6715550CB827B40839639A5F2770314A7CD293819B45C73AAFB45B35BA61ACAA1C1C7E7855C58C15BC331339661262CC762340413D68D77DA5B42298546CBE6573AF60CEB2F504B0304140006080800CC70623B449FB9BD290100001202000031
310
0000006662782F36394639363044362D344446342D343946362D394244322D3234314243333846323333332F636F72652E786D6C8D515B6EC32010BC0AE22B55850D98B871848994463E412FE002495162B07854397EA176A4F62F3F2C9A9D991D587EB84F37F0AD7D30CEF6905418026DA553C65E7A98E219ED203808EE9D
310
8B7F6810D871D23D2C3014FCE25D9A57483A1BB58D19B54EE9151C43D0110279CB971E06F9A5A7B11A53CC8C70ADE6515EC78BAE4895DB992778883E0700CB907242D17643D7E2538BD869608875438BBAE38922CAC8F1BDD90DB4691A5E2F42C153326A951B95E398B3D1FE599322163C9AE9115F7A3D46ADA0A018778810
310
84E907617BDCEE297BC5BB3DC6BC2EF47FA234AB2745C9D8D8D035EE220B50105E2F0DC1954B9FB747187D9F9D8FA0CCDB042D5FA0C015C65B42DF78BD10F3F3B363CB56C7109DCFDFBBB97E662ED92EB62D13BC2E1BCAE5777DB9966D8A1F504B0304140006080800CC70623BAD7543B64E01000033030000300000006662
310
782F36394639363044362D344446342D343946362D394244322D3234314243333846323333332F636E782E786D6CD593CD6EC32010845F0571AD6CE3D48AD20813A9873E410FBD12D82434182C7EAAE6EDBB2424CD25871E7B41D6EC30B3FA84F9E67BB2E40B4234DE8DB46F1925E094D7C6ED479AD3AE5951B2113C789FEE
310
6C943839C1488B4C05DF079FE72A69D8C96C13AAD6B8631503449F83828872B949AC57D26200B826A308D316B4064D6E46FCDA41C05550DC9E483A00797BFD207EFB092A45DE9514C1BBD22178396BD39D891265658C238DEA00936C654E5E433CB65A26D9F6EDB5EBC14EBF49A45CB856E66048291F6939A9A81BB5C89177
310
38143CA680F4AA299D66A042CEB3354A2684DC9D8D178FE0D9B8B41CAAD720F880EE7EF93C0C18769E099ECC04D5A102C8049A8A05632F4DDF376CF1DE0F6BB65C2F8627B65A33C6BB62177CEBBDAD973006829F89F22E814B54F4BC2BE347F8AA8F681390B50FA73F804400B5F542E796F19FF974E7F78DB802FE05E20750
310
4B0304140006080800CC70623B8D05915C650500003B100000340000006662782F36394639363044362D344446342D343946362D394244322D3234314243333846323333332F6F626A656374732E786D6CAD575B6FA33814FE2B887D06429276DA1565D4266D158D3A339A6846FB502932E050B66023DB74D2FDF5FB190C01
310
9276B2973C046C8ECFF53B17071F77456EBD502133CEAE6CDF9DD81665314F32965ED995DA3A17B6F5310C04E7AA47665B8C14F4CAD6DB7618A48257A5D94AE89654B91AEDDEDDFC61C998326A5B714EA4BCB265FC440BE2924AF184CA6737218AB8E976E7FA6E4338649B0A523E8D98964450A6A029F619B8588D52FE7039
310
B1BD30F0F4F730D0FF866AF6369557DB33949F31A9088B0F848DD8CCFCF9F2767A76E99CCDE733677E3EF59D9BBB9BA5E37F984D16E78BC5E5F5ED25044B25C0C96822E8D60EEFE11B91C581D77CEA34368A1F5329E68CD1B8B61F16D63A1B8E092D294B10C78C4A48EB593D192E7DED9BDEE7995E1B91FDEDD3ACEA9FE831
310
6A756F9F7D4D79F4274C90A7A04248AA51D5F8C718DAE06FB2F75AC4796EBE65D22A88A22223B995679120E2D50E41AA49C260C046A35368846B0BECD0DFF3EBEB8AD4F835768F69B9ADF25C43D30E6B646F807FAA64AD59F61715C7A54127C4AACA98BA3006A9D792DAE165E0D59B61A01FB3A9F9D838D2DAE62445C86166
310
F37564E842E7DE6A69879FEEA2DD5AE7E371E1A5E025154AC307D06A03D73EB5978C58FFA4C8E9033066E0F3BD53BEC1F39F91BE7B55103791EDE6BBB991A2046172CB4581D8B893FA674DDA17A77B3B7C413D1B511FD2743BFF8A38F03A658705E3ADF8015C3A3417FF3D7E439FF591DA0B5F18BC20C1B8981957AE6392A3
310
F43C640C01D1A0B4728E2DD4F26DB4B3C3152A252A3B4E913CEC1C72F012782FF88EFF8637AA552DBEF76408E8A8DE9E50F9E1CB3A2DA0DB1B6039A893B56063DC5B3E3FFB5F72E67AB9FEB4AEC496C4F4C1149625DD662C53E89D7BF0F6151A046260D1337DFDC94502430F83B0EE07A130A224BCAD7DAE1D9FB6CD422FF6
310
920702629C4BB9AE79C12F243C6432A6794E18E5552BA56B431AAB5D91317302B2B071E86C3A42B1A02F999E24061403B5D0EB639195DA655DD3EBEAB4FB862DDF579F014AD0E73C22F99E28DA57FB98E75C6CA2D74D53086D600F4786E0FE3144B771A8A7B900F03594DB8A633CBC49B2EDB69228BB479CF863B5E807AAAB
310
23872F6DFEB4129B949CA33823F58830E86D65621E10047D9DB34D862E8EAC3C2ABC2F7B2C40D67CDFE01F5545B92105AF983AC54D93D69E56FB8E797F88913F898A9FEC705D3F9D1B54EC8426FB500D40A03BD0119B06E1B95DDC7EB8F6975367793EBD70E66733DFB9BC982F9CE564727731999F5D4ECFCE3B8D6A4DC2A0
310
6D50FD148437D110834A64C6CDDF57FBACB5C307A2A477DFE4939736CFEF2B175371E0E10CF0DD1D5C15654E0BCA14D1E87DD02FF93782A162C0A3D95F1524A52770F972BF1EE9809D13CE7DD599467F8ECE9ADD85CE85A34CD45355448C64F9E8A031DC2D596ACC6E5DD93D9B82DE2EF5CAF81363A8E47996A0DE24564A79
310
4115AACE09C55E14540231FDA13C319787134EBF34E3A022514E5B4D9E0826E25C02D5805B15ABE1BEF51B26383D445DD9E875EE33FE4C22DA16427D65A3BCA92CA6D28DD01DF5DC53330704308475351050232CCD31583787BA75774AFB06E5070DD0C8EF484E19968C5D83BA5B90B244D31E54D55A372320FE4786B7EA58
310
44E135AA5467CB7EA333A61683CC6A8C3257034C10CF46F40EF9F5BE59BE5BD30C3C72D235E95D10345C1D45445A5F0BB47E46A5EBE5570F9380B5FA629579952296A773720405982B9DE04011506178964401AA8BDF1FBF0A8EAB6861DD6580C0E38217056766716DAEB2D6FA0917D3E4116581EADB879C4E7CFFB11EFACD
310
3D641311495D92C8676CB409A72D18610D803CE8A626049E8EC1887CB5B44CC39883690DDA8399B4B9855B481E7D71D4A9D22F96E5BB73BF5793020C02137BF837504B0304140006080000CC70623B000000000000000000000000350000006662782F36394639363044362D344446342D343946362D394244322D32343142
310
43333846323333332F76657274696365732E62696E504B0304140006080800CC70623BF270F1330600000004000000360000006662782F36394639363044362D344446342D343946362D394244322D3234314243333846323333332F747269616E676C65732E62696E636660600000504B0304140006080000CC70623B0000
310
00000000000000000000370000006662782F36394639363044362D344446342D343946362D394244322D3234314243333846323333332F617474726962757465732E62696E504B0304140006080800CC70623B08DA0BD19000000041010000360000006662782F36394639363044362D344446342D343946362D394244322D
310
3234314243333846323333332F6469726563746F72792E786D6C858F410AC3201045AF22B36F53E9A60B35CBEEBAE80D244E44489C6234F4F835464A48035D0DF398FF9F8AF63D0E6CC63039F212F8F9020C7D47C6792B21C5FE7403D62A1188E2E60C98D7234A5830286103A55745067B9D86B8A3CF9C7F90C11DE607FB14
310
4396D7B6A82D282E9A152AD114D5EF2CB866EEE831B8EEA07A7BB5A8D7D61A2BAAEB7FD5F70921FF497D00504B0304140006080800CC70623BCA768048FE000000A00100003B0000006662782F36394639363044362D344446342D343946362D394244322D3234314243333846323333332F7265736F75726365732F636F72
310
652E786D6C8D50596E833010BD0A9ADFCA60D600328E9AA639412F609909B1126CE4A5EAF16B0295DABFFECC8CDEA2797AECF8353F924FB44E193D409E5248504B332A3D0D10FC95B4901C39B3C6F85F3248B49871801506CE266BC2B243D2688FDA47549B11775038871E12F988C7004EDE7016A9083E2ADC3D5D84BC8B09
310
D33C8D74D471E6BC8D0192EDC93A815B742658898E651BCB59086ADC356A8C3FD555A1055ED7E7E254D615792D0F075295F585746FF53B694EE78A565DD736979A65AB9933AFE69F8CD2A2F038022F28ED489E135A7CE4554F9BBEA85E68DB53CAB255FEC71496F19FA6A0B42F8B3DEE6673C0F318E4497096AD7DC5F52C33
310
EEB55BFE0D504B010214000A0000080000CC70623B3DEE336E79000000790000001B00000000000000000000000000000000006175746F6465736B2D64657369676E2D7061636B6167652E786D6C504B01021400140006080800CC70623BD486FD9CA0000000F40000001300000000000000000000000000B20000005B436F
310
6E74656E745F54797065735D2E786D6C504B01021400140006080800CC70623BD9DDAED0EC0000007C010000080000000000000000000000000083010000636F72652E786D6C504B01021400140006080800CC70623B55019EA25F0000007C000000070000000000000000000000000095020000636E782E786D6C504B0102
310
1400140006080800CC70623BA24EB22D72010000D40300000C00000000000000000000000000190300006662782F636F72652E786D6C504B01021400140006080800CC70623B408A7D3B7C0000009D0000000B00000000000000000000000000B50400006662782F636E782E786D6C504B01021400140006080800CC70623B
310
449FB9BD290100001202000031000000000000000000000000005A0500006662782F36394639363044362D344446342D343946362D394244322D3234314243333846323333332F636F72652E786D6C504B01021400140006080800CC70623BAD7543B64E010000330300003000000000000000000000000000D20600006662
310
782F36394639363044362D344446342D343946362D394244322D3234314243333846323333332F636E782E786D6C504B01021400140006080800CC70623B8D05915C650500003B10000034000000000000000000000000006E0800006662782F36394639363044362D344446342D343946362D394244322D32343142433338
310
46323333332F6F626A656374732E786D6C504B01021400140006080000CC70623B0000000000000000000000003500000000000000000000000000250E00006662782F36394639363044362D344446342D343946362D394244322D3234314243333846323333332F76657274696365732E62696E504B010214001400060808
310
00CC70623BF270F13306000000040000003600000000000000000000000000780E00006662782F36394639363044362D344446342D343946362D394244322D3234314243333846323333332F747269616E676C65732E62696E504B01021400140006080000CC70623B00000000000000000000000037000000000000000000
310
00000000D20E00006662782F36394639363044362D344446342D343946362D394244322D3234314243333846323333332F617474726962757465732E62696E504B01021400140006080800CC70623B08DA0BD190000000410100003600000000000000000000000000270F00006662782F36394639363044362D344446342D
310
343946362D394244322D3234314243333846323333332F6469726563746F72792E786D6C504B01021400140006080800CC70623BCA768048FE000000A00100003B000000000000000000000000000B1000006662782F36394639363044362D344446342D343946362D394244322D3234314243333846323333332F7265736F
310
75726365732F636F72652E786D6C504B0506000000000E000E0080040000621100000000
  0
XRECORD
  5
176
102
{ACAD_REACTORS
330
173
102
}
330
173
100
AcDbXrecord
280
     1
270
     1
271
     1
  0
XRECORD
  5
177
102
{ACAD_REACTORS
330
173
102
}
330
173
100
AcDbXrecord
280
     1
270
     1
271
     1
  0
XRECORD
  5
D127
102
{ACAD_REACTORS
330
D126
102
}
330
D126
100
AcDbXrecord
280
     1
102
ACAD_ROUNDTRIP_2012_MLEADER_STYLE
298
     1
  0
XRECORD
  5
D139
102
{ACAD_REACTORS
330
D138
102
}
330
D138
100
AcDbXrecord
280
     1
102
DISPLAYNAME
  1
Metric50
102
FLAGS
 90
        0
  0
CELLSTYLEMAP
  5
D0F9
102
{ACAD_REACTORS
330
162
102
}
330
162
100
AcDbCellStyleMap
 90
        3
300
CELLSTYLE
  1
TABLEFORMAT_BEGIN
 90
        5
170
     1
 91
        0
 92
    32768
 62
   257
 93
        1
300
CONTENTFORMAT
  1
CONTENTFORMAT_BEGIN
 90
        0
 91
        0
 92
      512
 93
        0
300

 40
0.0
140
1.0
 94
        5
 62
     0
340
11
144
6.0
309
CONTENTFORMAT_END
171
     1
301
MARGIN
  1
CELLMARGIN_BEGIN
 40
1.5
 40
1.5
 40
1.5
 40
1.5
 40
4.5
 40
4.5
309
CELLMARGIN_END
 94
        6
 95
        1
302
GRIDFORMAT
  1
GRIDFORMAT_BEGIN
 90
        0
 91
        1
 62
     0
 92
       -2
340
14
 93
        0
 40
1.125
309
GRIDFORMAT_END
 95
        2
302
GRIDFORMAT
  1
GRIDFORMAT_BEGIN
 90
        0
 91
        1
 62
     0
 92
       -2
340
14
 93
        0
 40
1.125
309
GRIDFORMAT_END
 95
        4
302
GRIDFORMAT
  1
GRIDFORMAT_BEGIN
 90
        0
 91
        1
 62
     0
 92
       -2
340
14
 93
        0
 40
1.125
309
GRIDFORMAT_END
 95
        8
302
GRIDFORMAT
  1
GRIDFORMAT_BEGIN
 90
        0
 91
        1
 62
     0
 92
       -2
340
14
 93
        0
 40
1.125
309
GRIDFORMAT_END
 95
       16
302
GRIDFORMAT
  1
GRIDFORMAT_BEGIN
 90
        0
 91
        1
 62
     0
 92
       -2
340
14
 93
        0
 40
1.125
309
GRIDFORMAT_END
 95
       32
302
GRIDFORMAT
  1
GRIDFORMAT_BEGIN
 90
        0
 91
        1
 62
     0
 92
       -2
340
14
 93
        0
 40
1.125
309
GRIDFORMAT_END
309
TABLEFORMAT_END
  1
CELLSTYLE_BEGIN
 90
        1
 91
        1
300
_TITLE
309
CELLSTYLE_END
300
CELLSTYLE
  1
TABLEFORMAT_BEGIN
 90
        5
170
     1
 91
        0
 92
        0
 62
   257
 93
        1
300
CONTENTFORMAT
  1
CONTENTFORMAT_BEGIN
 90
        0
 91
        0
 92
      512
 93
        0
300

 40
0.0
140
1.0
 94
        5
 62
     0
340
11
144
4.5
309
CONTENTFORMAT_END
171
     1
301
MARGIN
  1
CELLMARGIN_BEGIN
 40
1.5
 40
1.5
 40
1.5
 40
1.5
 40
4.5
 40
4.5
309
CELLMARGIN_END
 94
        6
 95
        1
302
GRIDFORMAT
  1
GRIDFORMAT_BEGIN
 90
        0
 91
        1
 62
     0
 92
       -2
340
14
 93
        0
 40
1.125
309
GRIDFORMAT_END
 95
        2
302
GRIDFORMAT
  1
GRIDFORMAT_BEGIN
 90
        0
 91
        1
 62
     0
 92
       -2
340
14
 93
        0
 40
1.125
309
GRIDFORMAT_END
 95
        4
302
GRIDFORMAT
  1
GRIDFORMAT_BEGIN
 90
        0
 91
        1
 62
     0
 92
       -2
340
14
 93
        0
 40
1.125
309
GRIDFORMAT_END
 95
        8
302
GRIDFORMAT
  1
GRIDFORMAT_BEGIN
 90
        0
 91
        1
 62
     0
 92
       -2
340
14
 93
        0
 40
1.125
309
GRIDFORMAT_END
 95
       16
302
GRIDFORMAT
  1
GRIDFORMAT_BEGIN
 90
        0
 91
        1
 62
     0
 92
       -2
340
14
 93
        0
 40
1.125
309
GRIDFORMAT_END
 95
       32
302
GRIDFORMAT
  1
GRIDFORMAT_BEGIN
 90
        0
 91
        1
 62
     0
 92
       -2
340
14
 93
        0
 40
1.125
309
GRIDFORMAT_END
309
TABLEFORMAT_END
  1
CELLSTYLE_BEGIN
 90
        2
 91
        1
300
_HEADER
309
CELLSTYLE_END
300
CELLSTYLE
  1
TABLEFORMAT_BEGIN
 90
        5
170
     1
 91
        0
 92
        0
 62
   257
 93
        1
300
CONTENTFORMAT
  1
CONTENTFORMAT_BEGIN
 90
        0
 91
        0
 92
      512
 93
        0
300

 40
0.0
140
1.0
 94
        2
 62
     0
340
11
144
4.5
309
CONTENTFORMAT_END
171
     1
301
MARGIN
  1
CELLMARGIN_BEGIN
 40
1.5
 40
1.5
 40
1.5
 40
1.5
 40
4.5
 40
4.5
309
CELLMARGIN_END
 94
        6
 95
        1
302
GRIDFORMAT
  1
GRIDFORMAT_BEGIN
 90
        0
 91
        1
 62
     0
 92
       -2
340
14
 93
        0
 40
1.125
309
GRIDFORMAT_END
 95
        2
302
GRIDFORMAT
  1
GRIDFORMAT_BEGIN
 90
        0
 91
        1
 62
     0
 92
       -2
340
14
 93
        0
 40
1.125
309
GRIDFORMAT_END
 95
        4
302
GRIDFORMAT
  1
GRIDFORMAT_BEGIN
 90
        0
 91
        1
 62
     0
 92
       -2
340
14
 93
        0
 40
1.125
309
GRIDFORMAT_END
 95
        8
302
GRIDFORMAT
  1
GRIDFORMAT_BEGIN
 90
        0
 91
        1
 62
     0
 92
       -2
340
14
 93
        0
 40
1.125
309
GRIDFORMAT_END
 95
       16
302
GRIDFORMAT
  1
GRIDFORMAT_BEGIN
 90
        0
 91
        1
 62
     0
 92
       -2
340
14
 93
        0
 40
1.125
309
GRIDFORMAT_END
 95
       32
302
GRIDFORMAT
  1
GRIDFORMAT_BEGIN
 90
        0
 91
        1
 62
     0
 92
       -2
340
14
 93
        0
 40
1.125
309
GRIDFORMAT_END
309
TABLEFORMAT_END
  1
CELLSTYLE_BEGIN
 90
        3
 91
        2
300
_DATA
309
CELLSTYLE_END
  0
XRECORD
  5
D0FE
102
{ACAD_REACTORS
330
162
102
}
330
162
100
AcDbXrecord
280
     1
102
ACAD_ROUNDTRIP_PRE2007_TABLESTYLE
 90
      512
 91
        0
  1

 92
      512
 93
        0
  2

 94
      512
 95
        0
  3

  0
XRECORD
  5
D111
102
{ACAD_REACTORS
330
D110
102
}
330
D110
100
AcDbXrecord
280
     1
102
RTVSPost2010Prop28
280
     1
102
RTVSPost2010PropOp28
 70
     1
102
RTVSPost2010Prop29
280
     1
102
RTVSPost2010PropOp29
 70
     1
102
RTVSPost2010Prop30
280
     0
102
RTVSPost2010PropOp30
 70
     1
102
RTVSPost2010Prop31
280
     0
102
RTVSPost2010PropOp31
 70
     1
102
RTVSPost2010Prop32
280
     0
102
RTVSPost2010PropOp32
 70
     1
102
RTVSPost2010Prop33
280
     0
102
RTVSPost2010PropOp33
 70
     1
102
RTVSPost2010Prop34
280
     0
102
RTVSPost2010PropOp34
 70
     1
102
RTVSPost2010Prop35
280
     0
102
RTVSPost2010PropOp35
 70
     1
102
RTVSPost2010Prop36
280
     0
102
RTVSPost2010PropOp36
 70
     1
102
RTVSPost2010Prop37
 90
       50
102
RTVSPost2010PropOp37
 70
     1
102
RTVSPost2010Prop38
140
0.0
102
RTVSPost2010PropOp38
 70
     1
102
RTVSPost2010Prop39
140
1.0
102
RTVSPost2010PropOp39
 70
     1
102
RTVSPost2010Prop40
 90
        0
102
RTVSPost2010PropOp40
 70
     1
102
RTVSPost2010Prop41ColorIndex
 90
       18
102
RTVSPost2010Prop41ColorRGB
 90
        0
102
RTVSPost2010PropOp41
 70
     1
102
RTVSPost2010Prop42
 90
       50
102
RTVSPost2010PropOp42
 70
     1
102
RTVSPost2010Prop43
 90
        3
102
RTVSPost2010PropOp43
 70
     1
102
RTVSPost2010Prop44ColorIndex
 90
        5
102
RTVSPost2010Prop44ColorRGB
 90
      255
102
RTVSPost2010PropOp44
 70
     1
102
RTVSPost2010Prop45
280
     0
102
RTVSPost2010PropOp45
 70
     1
102
RTVSPost2010Prop46
 90
       50
102
RTVSPost2010PropOp46
 70
     1
102
RTVSPost2010Prop47
 90
       50
102
RTVSPost2010PropOp47
 70
     1
102
RTVSPost2010Prop48
 90
       50
102
RTVSPost2010PropOp48
 70
     1
102
RTVSPost2010Prop49
280
     0
102
RTVSPost2010PropOp49
 70
     1
102
RTVSPost2010Prop50
 90
       50
102
RTVSPost2010PropOp50
 70
     1
102
RTVSPost2010Prop51ColorIndex
 90
      256
102
RTVSPost2010Prop51ColorRGB
 90
-16777216
102
RTVSPost2010PropOp51
 70
     0
102
RTVSPost2010Prop52
140
1.0
102
RTVSPost2010PropOp52
 70
     0
102
RTVSPost2010Prop53
 90
        2
102
RTVSPost2010PropOp53
 70
     1
102
RTVSPost2010Prop54
  1
strokes_ogs.tif
102
RTVSPost2010PropOp54
 70
     1
102
RTVSPost2010Prop55
280
     0
102
RTVSPost2010PropOp55
 70
     1
102
RTVSPost2010Prop56
140
1.0
102
RTVSPost2010PropOp56
 70
     1
102
RTVSPost2010Prop57
140
1.0
102
RTVSPost2010PropOp57
 70
     1
102
RTVSPropertyOp0
 70
     1
102
RTVSPropertyOp1
 70
     1
102
RTVSPropertyOp2
 70
     1
102
RTVSPropertyOp3
 70
     1
102
RTVSPropertyOp4
 70
     1
102
RTVSPropertyOp5
 70
     1
102
RTVSPropertyOp6
 70
     1
102
RTVSPropertyOp7
 70
     1
102
RTVSPropertyOp8
 70
     1
102
RTVSPropertyOp9
 70
     1
102
RTVSPropertyOp10
 70
     1
102
RTVSPropertyOp11
 70
     1
102
RTVSPropertyOp12
 70
     1
102
RTVSPropertyOp13
 70
     1
102
RTVSPropertyOp14
 70
     1
102
RTVSPropertyOp15
 70
     1
102
RTVSPropertyOp16
 70
     1
102
RTVSPropertyOp17
 70
     1
102
RTVSPropertyOp18
 70
     1
102
RTVSPropertyOp19
 70
     1
102
RTVSPropertyOp20
 70
     1
102
RTVSPropertyOp21
 70
     1
102
RTVSPropertyOp22
 70
     1
102
RTVSPropertyOp23
 70
     1
102
RTVSPropertyOp24
 70
     1
102
RTVSPropertyOp25
 70
     1
102
RTVSPropertyOp26
 70
     1
102
RTVSPropertyOp27
 70
     1
102
RTVSPropertyOp28
 70
     1
102
RTVSPropertyOp29
 70
     1
102
RTVSPropertyOp30
 70
     1
102
RTVSPropertyOp31
 70
     1
102
RTVSPropertyOp32
 70
     1
102
RTVSPropertyOp33
 70
     1
102
RTVSPropertyOp34
 70
     1
102
RTVSPropertyOp35
 70
     1
102
RTVSPropertyOp36
 70
     1
102
RTVSPropertyOp37
 70
     1
102
RTVSPropertyOp38
 70
     1
102
RTVSPropertyOp39
 70
     1
102
RTVSPropertyOp40
 70
     1
102
RTVSPropertyOp41
 70
     1
102
RTVSPropertyOp42
 70
     1
102
RTVSPropertyOp43
 70
     1
102
RTVSPropertyOp44
 70
     1
102
RTVSPropertyOp45
 70
     1
102
RTVSPropertyOp46
 70
     1
102
RTVSPropertyOp47
 70
     1
102
RTVSPropertyOp48
 70
     1
102
RTVSPropertyOp49
 70
     1
102
RTVSPropertyOp50
 70
     1
102
RTVSPropertyOp51
 70
     0
102
RTVSPropertyOp52
 70
     0
102
RTVSPropertyOp53
 70
     1
102
RTVSPropertyOp54
 70
     1
102
RTVSPropertyOp55
 70
     1
102
RTVSPropertyOp56
 70
     1
102
RTVSPropertyOp57
 70
     1
102
RTVSPropertyOp58
 70
     1
102
RTVSPropertyOp59
 70
     1
102
RTVSPropertyOp60
 70
     1
102
RTVSPropertyOp61
 70
     1
102
RTVSPropertyOp62
 70
     1
  0
XRECORD
  5
D10F
102
{ACAD_REACTORS
330
D10E
102
}
330
D10E
100
AcDbXrecord
280
     1
102
RTVSPost2010Prop28
280
     0
102
RTVSPost2010PropOp28
 70
     1
102
RTVSPost2010Prop29
280
     1
102
RTVSPost2010PropOp29
 70
     1
102
RTVSPost2010Prop30
280
     1
102
RTVSPost2010PropOp30
 70
     1
102
RTVSPost2010Prop31
280
     0
102
RTVSPost2010PropOp31
 70
     1
102
RTVSPost2010Prop32
280
     0
102
RTVSPost2010PropOp32
 70
     1
102
RTVSPost2010Prop33
280
     0
102
RTVSPost2010PropOp33
 70
     1
102
RTVSPost2010Prop34
280
     0
102
RTVSPost2010PropOp34
 70
     1
102
RTVSPost2010Prop35
280
     0
102
RTVSPost2010PropOp35
 70
     1
102
RTVSPost2010Prop36
280
     0
102
RTVSPost2010PropOp36
 70
     1
102
RTVSPost2010Prop37
 90
       50
102
RTVSPost2010PropOp37
 70
     1
102
RTVSPost2010Prop38
140
0.0
102
RTVSPost2010PropOp38
 70
     1
102
RTVSPost2010Prop39
140
1.0
102
RTVSPost2010PropOp39
 70
     1
102
RTVSPost2010Prop40
 90
        0
102
RTVSPost2010PropOp40
 70
     1
102
RTVSPost2010Prop41ColorIndex
 90
       18
102
RTVSPost2010Prop41ColorRGB
 90
        0
102
RTVSPost2010PropOp41
 70
     1
102
RTVSPost2010Prop42
 90
       50
102
RTVSPost2010PropOp42
 70
     1
102
RTVSPost2010Prop43
 90
        3
102
RTVSPost2010PropOp43
 70
     1
102
RTVSPost2010Prop44ColorIndex
 90
        5
102
RTVSPost2010Prop44ColorRGB
 90
      255
102
RTVSPost2010PropOp44
 70
     1
102
RTVSPost2010Prop45
280
     0
102
RTVSPost2010PropOp45
 70
     1
102
RTVSPost2010Prop46
 90
       50
102
RTVSPost2010PropOp46
 70
     1
102
RTVSPost2010Prop47
 90
       50
102
RTVSPost2010PropOp47
 70
     1
102
RTVSPost2010Prop48
 90
       50
102
RTVSPost2010PropOp48
 70
     1
102
RTVSPost2010Prop49
280
     0
102
RTVSPost2010PropOp49
 70
     1
102
RTVSPost2010Prop50
 90
       50
102
RTVSPost2010PropOp50
 70
     1
102
RTVSPost2010Prop51ColorIndex
 90
      256
102
RTVSPost2010Prop51ColorRGB
 90
-16777216
102
RTVSPost2010PropOp51
 70
     0
102
RTVSPost2010Prop52
140
1.0
102
RTVSPost2010PropOp52
 70
     0
102
RTVSPost2010Prop53
 90
        2
102
RTVSPost2010PropOp53
 70
     1
102
RTVSPost2010Prop54
  1
strokes_ogs.tif
102
RTVSPost2010PropOp54
 70
     1
102
RTVSPost2010Prop55
280
     0
102
RTVSPost2010PropOp55
 70
     1
102
RTVSPost2010Prop56
140
1.0
102
RTVSPost2010PropOp56
 70
     1
102
RTVSPost2010Prop57
140
1.0
102
RTVSPost2010PropOp57
 70
     1
102
RTVSPropertyOp0
 70
     1
102
RTVSPropertyOp1
 70
     1
102
RTVSPropertyOp2
 70
     1
102
RTVSPropertyOp3
 70
     1
102
RTVSPropertyOp4
 70
     1
102
RTVSPropertyOp5
 70
     1
102
RTVSPropertyOp6
 70
     1
102
RTVSPropertyOp7
 70
     1
102
RTVSPropertyOp8
 70
     1
102
RTVSPropertyOp9
 70
     1
102
RTVSPropertyOp10
 70
     1
102
RTVSPropertyOp11
 70
     1
102
RTVSPropertyOp12
 70
     1
102
RTVSPropertyOp13
 70
     1
102
RTVSPropertyOp14
 70
     1
102
RTVSPropertyOp15
 70
     1
102
RTVSPropertyOp16
 70
     1
102
RTVSPropertyOp17
 70
     1
102
RTVSPropertyOp18
 70
     1
102
RTVSPropertyOp19
 70
     1
102
RTVSPropertyOp20
 70
     1
102
RTVSPropertyOp21
 70
     1
102
RTVSPropertyOp22
 70
     1
102
RTVSPropertyOp23
 70
     1
102
RTVSPropertyOp24
 70
     1
102
RTVSPropertyOp25
 70
     1
102
RTVSPropertyOp26
 70
     1
102
RTVSPropertyOp27
 70
     1
102
RTVSPropertyOp28
 70
     1
102
RTVSPropertyOp29
 70
     1
102
RTVSPropertyOp30
 70
     1
102
RTVSPropertyOp31
 70
     1
102
RTVSPropertyOp32
 70
     1
102
RTVSPropertyOp33
 70
     1
102
RTVSPropertyOp34
 70
     1
102
RTVSPropertyOp35
 70
     1
102
RTVSPropertyOp36
 70
     1
102
RTVSPropertyOp37
 70
     1
102
RTVSPropertyOp38
 70
     1
102
RTVSPropertyOp39
 70
     1
102
RTVSPropertyOp40
 70
     1
102
RTVSPropertyOp41
 70
     1
102
RTVSPropertyOp42
 70
     1
102
RTVSPropertyOp43
 70
     1
102
RTVSPropertyOp44
 70
     1
102
RTVSPropertyOp45
 70
     1
102
RTVSPropertyOp46
 70
     1
102
RTVSPropertyOp47
 70
     1
102
RTVSPropertyOp48
 70
     1
102
RTVSPropertyOp49
 70
     1
102
RTVSPropertyOp50
 70
     1
102
RTVSPropertyOp51
 70
     0
102
RTVSPropertyOp52
 70
     0
102
RTVSPropertyOp53
 70
     1
102
RTVSPropertyOp54
 70
     1
102
RTVSPropertyOp55
 70
     1
102
RTVSPropertyOp56
 70
     1
102
RTVSPropertyOp57
 70
     1
102
RTVSPropertyOp58
 70
     1
102
RTVSPropertyOp59
 70
     1
102
RTVSPropertyOp60
 70
     1
102
RTVSPropertyOp61
 70
     1
102
RTVSPropertyOp62
 70
     1
  0
XRECORD
  5
D11D
102
{ACAD_REACTORS
330
D11C
102
}
330
D11C
100
AcDbXrecord
280
     1
102
RTVSPost2010Prop28
280
     0
102
RTVSPost2010PropOp28
 70
     1
102
RTVSPost2010Prop29
280
     1
102
RTVSPost2010PropOp29
 70
     1
102
RTVSPost2010Prop30
280
     1
102
RTVSPost2010PropOp30
 70
     1
102
RTVSPost2010Prop31
280
     0
102
RTVSPost2010PropOp31
 70
     1
102
RTVSPost2010Prop32
280
     0
102
RTVSPost2010PropOp32
 70
     1
102
RTVSPost2010Prop33
280
     0
102
RTVSPost2010PropOp33
 70
     1
102
RTVSPost2010Prop34
280
     0
102
RTVSPost2010PropOp34
 70
     1
102
RTVSPost2010Prop35
280
     0
102
RTVSPost2010PropOp35
 70
     1
102
RTVSPost2010Prop36
280
     0
102
RTVSPost2010PropOp36
 70
     1
102
RTVSPost2010Prop37
 90
       50
102
RTVSPost2010PropOp37
 70
     1
102
RTVSPost2010Prop38
140
0.0
102
RTVSPost2010PropOp38
 70
     1
102
RTVSPost2010Prop39
140
1.0
102
RTVSPost2010PropOp39
 70
     1
102
RTVSPost2010Prop40
 90
        0
102
RTVSPost2010PropOp40
 70
     1
102
RTVSPost2010Prop41ColorIndex
 90
       18
102
RTVSPost2010Prop41ColorRGB
 90
        0
102
RTVSPost2010PropOp41
 70
     1
102
RTVSPost2010Prop42
 90
       50
102
RTVSPost2010PropOp42
 70
     1
102
RTVSPost2010Prop43
 90
        3
102
RTVSPost2010PropOp43
 70
     1
102
RTVSPost2010Prop44ColorIndex
 90
        5
102
RTVSPost2010Prop44ColorRGB
 90
      255
102
RTVSPost2010PropOp44
 70
     1
102
RTVSPost2010Prop45
280
     0
102
RTVSPost2010PropOp45
 70
     1
102
RTVSPost2010Prop46
 90
       50
102
RTVSPost2010PropOp46
 70
     1
102
RTVSPost2010Prop47
 90
       50
102
RTVSPost2010PropOp47
 70
     1
102
RTVSPost2010Prop48
 90
       50
102
RTVSPost2010PropOp48
 70
     1
102
RTVSPost2010Prop49
280
     0
102
RTVSPost2010PropOp49
 70
     1
102
RTVSPost2010Prop50
 90
       50
102
RTVSPost2010PropOp50
 70
     1
102
RTVSPost2010Prop51ColorIndex
 90
      256
102
RTVSPost2010Prop51ColorRGB
 90
-16777216
102
RTVSPost2010PropOp51
 70
     0
102
RTVSPost2010Prop52
140
1.0
102
RTVSPost2010PropOp52
 70
     0
102
RTVSPost2010Prop53
 90
        2
102
RTVSPost2010PropOp53
 70
     1
102
RTVSPost2010Prop54
  1
strokes_ogs.tif
102
RTVSPost2010PropOp54
 70
     1
102
RTVSPost2010Prop55
280
     0
102
RTVSPost2010PropOp55
 70
     1
102
RTVSPost2010Prop56
140
1.0
102
RTVSPost2010PropOp56
 70
     1
102
RTVSPost2010Prop57
140
1.0
102
RTVSPost2010PropOp57
 70
     1
102
RTVSPropertyOp0
 70
     1
102
RTVSPropertyOp1
 70
     1
102
RTVSPropertyOp2
 70
     1
102
RTVSPropertyOp3
 70
     1
102
RTVSPropertyOp4
 70
     1
102
RTVSPropertyOp5
 70
     1
102
RTVSPropertyOp6
 70
     1
102
RTVSPropertyOp7
 70
     1
102
RTVSPropertyOp8
 70
     1
102
RTVSPropertyOp9
 70
     1
102
RTVSPropertyOp10
 70
     1
102
RTVSPropertyOp11
 70
     1
102
RTVSPropertyOp12
 70
     1
102
RTVSPropertyOp13
 70
     1
102
RTVSPropertyOp14
 70
     1
102
RTVSPropertyOp15
 70
     1
102
RTVSPropertyOp16
 70
     1
102
RTVSPropertyOp17
 70
     1
102
RTVSPropertyOp18
 70
     1
102
RTVSPropertyOp19
 70
     1
102
RTVSPropertyOp20
 70
     1
102
RTVSPropertyOp21
 70
     1
102
RTVSPropertyOp22
 70
     1
102
RTVSPropertyOp23
 70
     1
102
RTVSPropertyOp24
 70
     1
102
RTVSPropertyOp25
 70
     1
102
RTVSPropertyOp26
 70
     1
102
RTVSPropertyOp27
 70
     1
102
RTVSPropertyOp28
 70
     1
102
RTVSPropertyOp29
 70
     1
102
RTVSPropertyOp30
 70
     1
102
RTVSPropertyOp31
 70
     1
102
RTVSPropertyOp32
 70
     1
102
RTVSPropertyOp33
 70
     1
102
RTVSPropertyOp34
 70
     1
102
RTVSPropertyOp35
 70
     1
102
RTVSPropertyOp36
 70
     1
102
RTVSPropertyOp37
 70
     1
102
RTVSPropertyOp38
 70
     1
102
RTVSPropertyOp39
 70
     1
102
RTVSPropertyOp40
 70
     1
102
RTVSPropertyOp41
 70
     1
102
RTVSPropertyOp42
 70
     1
102
RTVSPropertyOp43
 70
     1
102
RTVSPropertyOp44
 70
     1
102
RTVSPropertyOp45
 70
     1
102
RTVSPropertyOp46
 70
     1
102
RTVSPropertyOp47
 70
     1
102
RTVSPropertyOp48
 70
     1
102
RTVSPropertyOp49
 70
     1
102
RTVSPropertyOp50
 70
     1
102
RTVSPropertyOp51
 70
     0
102
RTVSPropertyOp52
 70
     0
102
RTVSPropertyOp53
 70
     1
102
RTVSPropertyOp54
 70
     1
102
RTVSPropertyOp55
 70
     1
102
RTVSPropertyOp56
 70
     1
102
RTVSPropertyOp57
 70
     1
102
RTVSPropertyOp58
 70
     1
102
RTVSPropertyOp59
 70
     1
102
RTVSPropertyOp60
 70
     1
102
RTVSPropertyOp61
 70
     1
102
RTVSPropertyOp62
 70
     1
  0
XRECORD
  5
D125
102
{ACAD_REACTORS
330
D124
102
}
330
D124
100
AcDbXrecord
280
     1
102
RTVSPost2010Prop28
280
     0
102
RTVSPost2010PropOp28
 70
     1
102
RTVSPost2010Prop29
280
     1
102
RTVSPost2010PropOp29
 70
     1
102
RTVSPost2010Prop30
280
     1
102
RTVSPost2010PropOp30
 70
     1
102
RTVSPost2010Prop31
280
     0
102
RTVSPost2010PropOp31
 70
     1
102
RTVSPost2010Prop32
280
     0
102
RTVSPost2010PropOp32
 70
     1
102
RTVSPost2010Prop33
280
     0
102
RTVSPost2010PropOp33
 70
     1
102
RTVSPost2010Prop34
280
     0
102
RTVSPost2010PropOp34
 70
     1
102
RTVSPost2010Prop35
280
     0
102
RTVSPost2010PropOp35
 70
     1
102
RTVSPost2010Prop36
280
     0
102
RTVSPost2010PropOp36
 70
     1
102
RTVSPost2010Prop37
 90
       50
102
RTVSPost2010PropOp37
 70
     1
102
RTVSPost2010Prop38
140
0.0
102
RTVSPost2010PropOp38
 70
     1
102
RTVSPost2010Prop39
140
1.0
102
RTVSPost2010PropOp39
 70
     1
102
RTVSPost2010Prop40
 90
        0
102
RTVSPost2010PropOp40
 70
     1
102
RTVSPost2010Prop41ColorIndex
 90
       18
102
RTVSPost2010Prop41ColorRGB
 90
        0
102
RTVSPost2010PropOp41
 70
     1
102
RTVSPost2010Prop42
 90
       50
102
RTVSPost2010PropOp42
 70
     1
102
RTVSPost2010Prop43
 90
        3
102
RTVSPost2010PropOp43
 70
     1
102
RTVSPost2010Prop44ColorIndex
 90
        5
102
RTVSPost2010Prop44ColorRGB
 90
      255
102
RTVSPost2010PropOp44
 70
     1
102
RTVSPost2010Prop45
280
     0
102
RTVSPost2010PropOp45
 70
     1
102
RTVSPost2010Prop46
 90
       50
102
RTVSPost2010PropOp46
 70
     1
102
RTVSPost2010Prop47
 90
       50
102
RTVSPost2010PropOp47
 70
     1
102
RTVSPost2010Prop48
 90
       50
102
RTVSPost2010PropOp48
 70
     1
102
RTVSPost2010Prop49
280
     0
102
RTVSPost2010PropOp49
 70
     1
102
RTVSPost2010Prop50
 90
       50
102
RTVSPost2010PropOp50
 70
     1
102
RTVSPost2010Prop51ColorIndex
 90
      256
102
RTVSPost2010Prop51ColorRGB
 90
-16777216
102
RTVSPost2010PropOp51
 70
     0
102
RTVSPost2010Prop52
140
1.0
102
RTVSPost2010PropOp52
 70
     0
102
RTVSPost2010Prop53
 90
        2
102
RTVSPost2010PropOp53
 70
     1
102
RTVSPost2010Prop54
  1
strokes_ogs.tif
102
RTVSPost2010PropOp54
 70
     1
102
RTVSPost2010Prop55
280
     0
102
RTVSPost2010PropOp55
 70
     1
102
RTVSPost2010Prop56
140
1.0
102
RTVSPost2010PropOp56
 70
     1
102
RTVSPost2010Prop57
140
1.0
102
RTVSPost2010PropOp57
 70
     1
102
RTVSPropertyOp0
 70
     1
102
RTVSPropertyOp1
 70
     1
102
RTVSPropertyOp2
 70
     1
102
RTVSPropertyOp3
 70
     1
102
RTVSPropertyOp4
 70
     1
102
RTVSPropertyOp5
 70
     1
102
RTVSPropertyOp6
 70
     1
102
RTVSPropertyOp7
 70
     1
102
RTVSPropertyOp8
 70
     1
102
RTVSPropertyOp9
 70
     1
102
RTVSPropertyOp10
 70
     1
102
RTVSPropertyOp11
 70
     1
102
RTVSPropertyOp12
 70
     1
102
RTVSPropertyOp13
 70
     1
102
RTVSPropertyOp14
 70
     1
102
RTVSPropertyOp15
 70
     1
102
RTVSPropertyOp16
 70
     1
102
RTVSPropertyOp17
 70
     1
102
RTVSPropertyOp18
 70
     1
102
RTVSPropertyOp19
 70
     1
102
RTVSPropertyOp20
 70
     1
102
RTVSPropertyOp21
 70
     1
102
RTVSPropertyOp22
 70
     1
102
RTVSPropertyOp23
 70
     1
102
RTVSPropertyOp24
 70
     1
102
RTVSPropertyOp25
 70
     1
102
RTVSPropertyOp26
 70
     1
102
RTVSPropertyOp27
 70
     1
102
RTVSPropertyOp28
 70
     1
102
RTVSPropertyOp29
 70
     1
102
RTVSPropertyOp30
 70
     1
102
RTVSPropertyOp31
 70
     1
102
RTVSPropertyOp32
 70
     1
102
RTVSPropertyOp33
 70
     1
102
RTVSPropertyOp34
 70
     1
102
RTVSPropertyOp35
 70
     1
102
RTVSPropertyOp36
 70
     1
102
RTVSPropertyOp37
 70
     1
102
RTVSPropertyOp38
 70
     1
102
RTVSPropertyOp39
 70
     1
102
RTVSPropertyOp40
 70
     1
102
RTVSPropertyOp41
 70
     1
102
RTVSPropertyOp42
 70
     1
102
RTVSPropertyOp43
 70
     1
102
RTVSPropertyOp44
 70
     1
102
RTVSPropertyOp45
 70
     1
102
RTVSPropertyOp46
 70
     1
102
RTVSPropertyOp47
 70
     1
102
RTVSPropertyOp48
 70
     1
102
RTVSPropertyOp49
 70
     1
102
RTVSPropertyOp50
 70
     1
102
RTVSPropertyOp51
 70
     0
102
RTVSPropertyOp52
 70
     0
102
RTVSPropertyOp53
 70
     1
102
RTVSPropertyOp54
 70
     1
102
RTVSPropertyOp55
 70
     1
102
RTVSPropertyOp56
 70
     1
102
RTVSPropertyOp57
 70
     1
102
RTVSPropertyOp58
 70
     1
102
RTVSPropertyOp59
 70
     1
102
RTVSPropertyOp60
 70
     1
102
RTVSPropertyOp61
 70
     1
102
RTVSPropertyOp62
 70
     1
  0
XRECORD
  5
D117
102
{ACAD_REACTORS
330
D116
102
}
330
D116
100
AcDbXrecord
280
     1
102
RTVSPost2010Prop28
280
     0
102
RTVSPost2010PropOp28
 70
     1
102
RTVSPost2010Prop29
280
     1
102
RTVSPost2010PropOp29
 70
     1
102
RTVSPost2010Prop30
280
     1
102
RTVSPost2010PropOp30
 70
     1
102
RTVSPost2010Prop31
280
     0
102
RTVSPost2010PropOp31
 70
     1
102
RTVSPost2010Prop32
280
     0
102
RTVSPost2010PropOp32
 70
     1
102
RTVSPost2010Prop33
280
     0
102
RTVSPost2010PropOp33
 70
     1
102
RTVSPost2010Prop34
280
     0
102
RTVSPost2010PropOp34
 70
     1
102
RTVSPost2010Prop35
280
     0
102
RTVSPost2010PropOp35
 70
     1
102
RTVSPost2010Prop36
280
     0
102
RTVSPost2010PropOp36
 70
     1
102
RTVSPost2010Prop37
 90
       50
102
RTVSPost2010PropOp37
 70
     1
102
RTVSPost2010Prop38
140
0.0
102
RTVSPost2010PropOp38
 70
     1
102
RTVSPost2010Prop39
140
1.0
102
RTVSPost2010PropOp39
 70
     1
102
RTVSPost2010Prop40
 90
        0
102
RTVSPost2010PropOp40
 70
     1
102
RTVSPost2010Prop41ColorIndex
 90
       18
102
RTVSPost2010Prop41ColorRGB
 90
        0
102
RTVSPost2010PropOp41
 70
     1
102
RTVSPost2010Prop42
 90
       50
102
RTVSPost2010PropOp42
 70
     1
102
RTVSPost2010Prop43
 90
        3
102
RTVSPost2010PropOp43
 70
     1
102
RTVSPost2010Prop44ColorIndex
 90
        5
102
RTVSPost2010Prop44ColorRGB
 90
      255
102
RTVSPost2010PropOp44
 70
     1
102
RTVSPost2010Prop45
280
     0
102
RTVSPost2010PropOp45
 70
     1
102
RTVSPost2010Prop46
 90
       50
102
RTVSPost2010PropOp46
 70
     1
102
RTVSPost2010Prop47
 90
       50
102
RTVSPost2010PropOp47
 70
     1
102
RTVSPost2010Prop48
 90
       50
102
RTVSPost2010PropOp48
 70
     1
102
RTVSPost2010Prop49
280
     0
102
RTVSPost2010PropOp49
 70
     1
102
RTVSPost2010Prop50
 90
       50
102
RTVSPost2010PropOp50
 70
     1
102
RTVSPost2010Prop51ColorIndex
 90
      256
102
RTVSPost2010Prop51ColorRGB
 90
-16777216
102
RTVSPost2010PropOp51
 70
     0
102
RTVSPost2010Prop52
140
1.0
102
RTVSPost2010PropOp52
 70
     0
102
RTVSPost2010Prop53
 90
        2
102
RTVSPost2010PropOp53
 70
     1
102
RTVSPost2010Prop54
  1
strokes_ogs.tif
102
RTVSPost2010PropOp54
 70
     1
102
RTVSPost2010Prop55
280
     0
102
RTVSPost2010PropOp55
 70
     1
102
RTVSPost2010Prop56
140
1.0
102
RTVSPost2010PropOp56
 70
     1
102
RTVSPost2010Prop57
140
1.0
102
RTVSPost2010PropOp57
 70
     1
102
RTVSPropertyOp0
 70
     1
102
RTVSPropertyOp1
 70
     1
102
RTVSPropertyOp2
 70
     1
102
RTVSPropertyOp3
 70
     1
102
RTVSPropertyOp4
 70
     1
102
RTVSPropertyOp5
 70
     1
102
RTVSPropertyOp6
 70
     1
102
RTVSPropertyOp7
 70
     1
102
RTVSPropertyOp8
 70
     1
102
RTVSPropertyOp9
 70
     1
102
RTVSPropertyOp10
 70
     1
102
RTVSPropertyOp11
 70
     1
102
RTVSPropertyOp12
 70
     1
102
RTVSPropertyOp13
 70
     1
102
RTVSPropertyOp14
 70
     1
102
RTVSPropertyOp15
 70
     1
102
RTVSPropertyOp16
 70
     1
102
RTVSPropertyOp17
 70
     1
102
RTVSPropertyOp18
 70
     1
102
RTVSPropertyOp19
 70
     1
102
RTVSPropertyOp20
 70
     1
102
RTVSPropertyOp21
 70
     1
102
RTVSPropertyOp22
 70
     1
102
RTVSPropertyOp23
 70
     1
102
RTVSPropertyOp24
 70
     1
102
RTVSPropertyOp25
 70
     1
102
RTVSPropertyOp26
 70
     1
102
RTVSPropertyOp27
 70
     1
102
RTVSPropertyOp28
 70
     1
102
RTVSPropertyOp29
 70
     1
102
RTVSPropertyOp30
 70
     1
102
RTVSPropertyOp31
 70
     1
102
RTVSPropertyOp32
 70
     1
102
RTVSPropertyOp33
 70
     1
102
RTVSPropertyOp34
 70
     1
102
RTVSPropertyOp35
 70
     1
102
RTVSPropertyOp36
 70
     1
102
RTVSPropertyOp37
 70
     1
102
RTVSPropertyOp38
 70
     1
102
RTVSPropertyOp39
 70
     1
102
RTVSPropertyOp40
 70
     1
102
RTVSPropertyOp41
 70
     1
102
RTVSPropertyOp42
 70
     1
102
RTVSPropertyOp43
 70
     1
102
RTVSPropertyOp44
 70
     1
102
RTVSPropertyOp45
 70
     1
102
RTVSPropertyOp46
 70
     1
102
RTVSPropertyOp47
 70
     1
102
RTVSPropertyOp48
 70
     1
102
RTVSPropertyOp49
 70
     1
102
RTVSPropertyOp50
 70
     1
102
RTVSPropertyOp51
 70
     0
102
RTVSPropertyOp52
 70
     0
102
RTVSPropertyOp53
 70
     1
102
RTVSPropertyOp54
 70
     1
102
RTVSPropertyOp55
 70
     1
102
RTVSPropertyOp56
 70
     1
102
RTVSPropertyOp57
 70
     1
102
RTVSPropertyOp58
 70
     1
102
RTVSPropertyOp59
 70
     1
102
RTVSPropertyOp60
 70
     1
102
RTVSPropertyOp61
 70
     1
102
RTVSPropertyOp62
 70
     1
  0
XRECORD
  5
D11B
102
{ACAD_REACTORS
330
D11A
102
}
330
D11A
100
AcDbXrecord
280
     1
102
RTVSPost2010Prop28
280
     0
102
RTVSPost2010PropOp28
 70
     1
102
RTVSPost2010Prop29
280
     1
102
RTVSPost2010PropOp29
 70
     1
102
RTVSPost2010Prop30
280
     1
102
RTVSPost2010PropOp30
 70
     1
102
RTVSPost2010Prop31
280
     0
102
RTVSPost2010PropOp31
 70
     1
102
RTVSPost2010Prop32
280
     0
102
RTVSPost2010PropOp32
 70
     1
102
RTVSPost2010Prop33
280
     0
102
RTVSPost2010PropOp33
 70
     1
102
RTVSPost2010Prop34
280
     0
102
RTVSPost2010PropOp34
 70
     1
102
RTVSPost2010Prop35
280
     0
102
RTVSPost2010PropOp35
 70
     1
102
RTVSPost2010Prop36
280
     0
102
RTVSPost2010PropOp36
 70
     1
102
RTVSPost2010Prop37
 90
       50
102
RTVSPost2010PropOp37
 70
     1
102
RTVSPost2010Prop38
140
0.0
102
RTVSPost2010PropOp38
 70
     1
102
RTVSPost2010Prop39
140
1.0
102
RTVSPost2010PropOp39
 70
     1
102
RTVSPost2010Prop40
 90
        0
102
RTVSPost2010PropOp40
 70
     1
102
RTVSPost2010Prop41ColorIndex
 90
       18
102
RTVSPost2010Prop41ColorRGB
 90
        0
102
RTVSPost2010PropOp41
 70
     1
102
RTVSPost2010Prop42
 90
       50
102
RTVSPost2010PropOp42
 70
     1
102
RTVSPost2010Prop43
 90
        3
102
RTVSPost2010PropOp43
 70
     1
102
RTVSPost2010Prop44ColorIndex
 90
        5
102
RTVSPost2010Prop44ColorRGB
 90
      255
102
RTVSPost2010PropOp44
 70
     1
102
RTVSPost2010Prop45
280
     0
102
RTVSPost2010PropOp45
 70
     1
102
RTVSPost2010Prop46
 90
       50
102
RTVSPost2010PropOp46
 70
     1
102
RTVSPost2010Prop47
 90
       50
102
RTVSPost2010PropOp47
 70
     1
102
RTVSPost2010Prop48
 90
       50
102
RTVSPost2010PropOp48
 70
     1
102
RTVSPost2010Prop49
280
     0
102
RTVSPost2010PropOp49
 70
     1
102
RTVSPost2010Prop50
 90
       50
102
RTVSPost2010PropOp50
 70
     1
102
RTVSPost2010Prop51ColorIndex
 90
      256
102
RTVSPost2010Prop51ColorRGB
 90
-16777216
102
RTVSPost2010PropOp51
 70
     0
102
RTVSPost2010Prop52
140
1.0
102
RTVSPost2010PropOp52
 70
     0
102
RTVSPost2010Prop53
 90
        2
102
RTVSPost2010PropOp53
 70
     1
102
RTVSPost2010Prop54
  1
strokes_ogs.tif
102
RTVSPost2010PropOp54
 70
     1
102
RTVSPost2010Prop55
280
     0
102
RTVSPost2010PropOp55
 70
     1
102
RTVSPost2010Prop56
140
1.0
102
RTVSPost2010PropOp56
 70
     1
102
RTVSPost2010Prop57
140
1.0
102
RTVSPost2010PropOp57
 70
     1
102
RTVSPropertyOp0
 70
     1
102
RTVSPropertyOp1
 70
     1
102
RTVSPropertyOp2
 70
     1
102
RTVSPropertyOp3
 70
     1
102
RTVSPropertyOp4
 70
     1
102
RTVSPropertyOp5
 70
     1
102
RTVSPropertyOp6
 70
     1
102
RTVSPropertyOp7
 70
     1
102
RTVSPropertyOp8
 70
     1
102
RTVSPropertyOp9
 70
     1
102
RTVSPropertyOp10
 70
     1
102
RTVSPropertyOp11
 70
     1
102
RTVSPropertyOp12
 70
     1
102
RTVSPropertyOp13
 70
     1
102
RTVSPropertyOp14
 70
     1
102
RTVSPropertyOp15
 70
     1
102
RTVSPropertyOp16
 70
     1
102
RTVSPropertyOp17
 70
     1
102
RTVSPropertyOp18
 70
     1
102
RTVSPropertyOp19
 70
     1
102
RTVSPropertyOp20
 70
     1
102
RTVSPropertyOp21
 70
     1
102
RTVSPropertyOp22
 70
     1
102
RTVSPropertyOp23
 70
     1
102
RTVSPropertyOp24
 70
     1
102
RTVSPropertyOp25
 70
     1
102
RTVSPropertyOp26
 70
     1
102
RTVSPropertyOp27
 70
     1
102
RTVSPropertyOp28
 70
     1
102
RTVSPropertyOp29
 70
     1
102
RTVSPropertyOp30
 70
     1
102
RTVSPropertyOp31
 70
     1
102
RTVSPropertyOp32
 70
     1
102
RTVSPropertyOp33
 70
     1
102
RTVSPropertyOp34
 70
     1
102
RTVSPropertyOp35
 70
     1
102
RTVSPropertyOp36
 70
     1
102
RTVSPropertyOp37
 70
     1
102
RTVSPropertyOp38
 70
     1
102
RTVSPropertyOp39
 70
     1
102
RTVSPropertyOp40
 70
     1
102
RTVSPropertyOp41
 70
     1
102
RTVSPropertyOp42
 70
     1
102
RTVSPropertyOp43
 70
     1
102
RTVSPropertyOp44
 70
     1
102
RTVSPropertyOp45
 70
     1
102
RTVSPropertyOp46
 70
     1
102
RTVSPropertyOp47
 70
     1
102
RTVSPropertyOp48
 70
     1
102
RTVSPropertyOp49
 70
     1
102
RTVSPropertyOp50
 70
     1
102
RTVSPropertyOp51
 70
     0
102
RTVSPropertyOp52
 70
     0
102
RTVSPropertyOp53
 70
     1
102
RTVSPropertyOp54
 70
     1
102
RTVSPropertyOp55
 70
     1
102
RTVSPropertyOp56
 70
     1
102
RTVSPropertyOp57
 70
     1
102
RTVSPropertyOp58
 70
     1
102
RTVSPropertyOp59
 70
     1
102
RTVSPropertyOp60
 70
     1
102
RTVSPropertyOp61
 70
     1
102
RTVSPropertyOp62
 70
     1
  0
XRECORD
  5
D12D
102
{ACAD_REACTORS
330
D12C
102
}
330
D12C
100
AcDbXrecord
280
     1
102
RTVSPost2010Prop28
280
     0
102
RTVSPost2010PropOp28
 70
     1
102
RTVSPost2010Prop29
280
     1
102
RTVSPost2010PropOp29
 70
     1
102
RTVSPost2010Prop30
280
     1
102
RTVSPost2010PropOp30
 70
     1
102
RTVSPost2010Prop31
280
     0
102
RTVSPost2010PropOp31
 70
     1
102
RTVSPost2010Prop32
280
     0
102
RTVSPost2010PropOp32
 70
     1
102
RTVSPost2010Prop33
280
     0
102
RTVSPost2010PropOp33
 70
     1
102
RTVSPost2010Prop34
280
     0
102
RTVSPost2010PropOp34
 70
     1
102
RTVSPost2010Prop35
280
     0
102
RTVSPost2010PropOp35
 70
     1
102
RTVSPost2010Prop36
280
     0
102
RTVSPost2010PropOp36
 70
     1
102
RTVSPost2010Prop37
 90
       50
102
RTVSPost2010PropOp37
 70
     1
102
RTVSPost2010Prop38
140
0.0
102
RTVSPost2010PropOp38
 70
     1
102
RTVSPost2010Prop39
140
1.0
102
RTVSPost2010PropOp39
 70
     1
102
RTVSPost2010Prop40
 90
        0
102
RTVSPost2010PropOp40
 70
     1
102
RTVSPost2010Prop41ColorIndex
 90
       18
102
RTVSPost2010Prop41ColorRGB
 90
        0
102
RTVSPost2010PropOp41
 70
     1
102
RTVSPost2010Prop42
 90
       50
102
RTVSPost2010PropOp42
 70
     1
102
RTVSPost2010Prop43
 90
        3
102
RTVSPost2010PropOp43
 70
     1
102
RTVSPost2010Prop44ColorIndex
 90
        5
102
RTVSPost2010Prop44ColorRGB
 90
      255
102
RTVSPost2010PropOp44
 70
     1
102
RTVSPost2010Prop45
280
     0
102
RTVSPost2010PropOp45
 70
     1
102
RTVSPost2010Prop46
 90
       50
102
RTVSPost2010PropOp46
 70
     1
102
RTVSPost2010Prop47
 90
       50
102
RTVSPost2010PropOp47
 70
     1
102
RTVSPost2010Prop48
 90
       50
102
RTVSPost2010PropOp48
 70
     1
102
RTVSPost2010Prop49
280
     0
102
RTVSPost2010PropOp49
 70
     1
102
RTVSPost2010Prop50
 90
       50
102
RTVSPost2010PropOp50
 70
     1
102
RTVSPost2010Prop51ColorIndex
 90
      256
102
RTVSPost2010Prop51ColorRGB
 90
-16777216
102
RTVSPost2010PropOp51
 70
     0
102
RTVSPost2010Prop52
140
1.0
102
RTVSPost2010PropOp52
 70
     0
102
RTVSPost2010Prop53
 90
        2
102
RTVSPost2010PropOp53
 70
     1
102
RTVSPost2010Prop54
  1
strokes_ogs.tif
102
RTVSPost2010PropOp54
 70
     1
102
RTVSPost2010Prop55
280
     0
102
RTVSPost2010PropOp55
 70
     1
102
RTVSPost2010Prop56
140
1.0
102
RTVSPost2010PropOp56
 70
     1
102
RTVSPost2010Prop57
140
1.0
102
RTVSPost2010PropOp57
 70
     1
102
RTVSPropertyOp0
 70
     0
102
RTVSPropertyOp1
 70
     0
102
RTVSPropertyOp2
 70
     0
102
RTVSPropertyOp3
 70
     0
102
RTVSPropertyOp4
 70
     0
102
RTVSPropertyOp5
 70
     0
102
RTVSPropertyOp6
 70
     0
102
RTVSPropertyOp7
 70
     0
102
RTVSPropertyOp8
 70
     0
102
RTVSPropertyOp9
 70
     0
102
RTVSPropertyOp10
 70
     0
102
RTVSPropertyOp11
 70
     0
102
RTVSPropertyOp12
 70
     0
102
RTVSPropertyOp13
 70
     0
102
RTVSPropertyOp14
 70
     2
102
RTVSPropertyOp15
 70
     0
102
RTVSPropertyOp16
 70
     0
102
RTVSPropertyOp17
 70
     0
102
RTVSPropertyOp18
 70
     0
102
RTVSPropertyOp19
 70
     0
102
RTVSPropertyOp20
 70
     0
102
RTVSPropertyOp21
 70
     0
102
RTVSPropertyOp22
 70
     0
102
RTVSPropertyOp23
 70
     0
102
RTVSPropertyOp24
 70
     0
102
RTVSPropertyOp25
 70
     0
102
RTVSPropertyOp26
 70
     0
102
RTVSPropertyOp27
 70
     0
102
RTVSPropertyOp28
 70
     1
102
RTVSPropertyOp29
 70
     1
102
RTVSPropertyOp30
 70
     1
102
RTVSPropertyOp31
 70
     1
102
RTVSPropertyOp32
 70
     1
102
RTVSPropertyOp33
 70
     1
102
RTVSPropertyOp34
 70
     1
102
RTVSPropertyOp35
 70
     1
102
RTVSPropertyOp36
 70
     1
102
RTVSPropertyOp37
 70
     1
102
RTVSPropertyOp38
 70
     1
102
RTVSPropertyOp39
 70
     1
102
RTVSPropertyOp40
 70
     1
102
RTVSPropertyOp41
 70
     1
102
RTVSPropertyOp42
 70
     1
102
RTVSPropertyOp43
 70
     1
102
RTVSPropertyOp44
 70
     1
102
RTVSPropertyOp45
 70
     1
102
RTVSPropertyOp46
 70
     1
102
RTVSPropertyOp47
 70
     1
102
RTVSPropertyOp48
 70
     1
102
RTVSPropertyOp49
 70
     1
102
RTVSPropertyOp50
 70
     1
102
RTVSPropertyOp51
 70
     0
102
RTVSPropertyOp52
 70
     0
102
RTVSPropertyOp53
 70
     1
102
RTVSPropertyOp54
 70
     1
102
RTVSPropertyOp55
 70
     1
102
RTVSPropertyOp56
 70
     1
102
RTVSPropertyOp57
 70
     1
102
RTVSPropertyOp58
 70
     1
102
RTVSPropertyOp59
 70
     1
102
RTVSPropertyOp60
 70
     1
102
RTVSPropertyOp61
 70
     1
102
RTVSPropertyOp62
 70
     1
  0
XRECORD
  5
D123
102
{ACAD_REACTORS
330
D122
102
}
330
D122
100
AcDbXrecord
280
     1
102
RTVSPost2010Prop28
280
     0
102
RTVSPost2010PropOp28
 70
     1
102
RTVSPost2010Prop29
280
     1
102
RTVSPost2010PropOp29
 70
     1
102
RTVSPost2010Prop30
280
     1
102
RTVSPost2010PropOp30
 70
     1
102
RTVSPost2010Prop31
280
     0
102
RTVSPost2010PropOp31
 70
     1
102
RTVSPost2010Prop32
280
     0
102
RTVSPost2010PropOp32
 70
     1
102
RTVSPost2010Prop33
280
     0
102
RTVSPost2010PropOp33
 70
     1
102
RTVSPost2010Prop34
280
     0
102
RTVSPost2010PropOp34
 70
     1
102
RTVSPost2010Prop35
280
     0
102
RTVSPost2010PropOp35
 70
     1
102
RTVSPost2010Prop36
280
     0
102
RTVSPost2010PropOp36
 70
     1
102
RTVSPost2010Prop37
 90
       50
102
RTVSPost2010PropOp37
 70
     1
102
RTVSPost2010Prop38
140
0.0
102
RTVSPost2010PropOp38
 70
     1
102
RTVSPost2010Prop39
140
1.0
102
RTVSPost2010PropOp39
 70
     1
102
RTVSPost2010Prop40
 90
        0
102
RTVSPost2010PropOp40
 70
     1
102
RTVSPost2010Prop41ColorIndex
 90
       18
102
RTVSPost2010Prop41ColorRGB
 90
        0
102
RTVSPost2010PropOp41
 70
     1
102
RTVSPost2010Prop42
 90
       50
102
RTVSPost2010PropOp42
 70
     1
102
RTVSPost2010Prop43
 90
        3
102
RTVSPost2010PropOp43
 70
     1
102
RTVSPost2010Prop44ColorIndex
 90
        5
102
RTVSPost2010Prop44ColorRGB
 90
      255
102
RTVSPost2010PropOp44
 70
     1
102
RTVSPost2010Prop45
280
     0
102
RTVSPost2010PropOp45
 70
     1
102
RTVSPost2010Prop46
 90
       50
102
RTVSPost2010PropOp46
 70
     1
102
RTVSPost2010Prop47
 90
       50
102
RTVSPost2010PropOp47
 70
     1
102
RTVSPost2010Prop48
 90
       50
102
RTVSPost2010PropOp48
 70
     1
102
RTVSPost2010Prop49
280
     0
102
RTVSPost2010PropOp49
 70
     1
102
RTVSPost2010Prop50
 90
       50
102
RTVSPost2010PropOp50
 70
     1
102
RTVSPost2010Prop51ColorIndex
 90
      256
102
RTVSPost2010Prop51ColorRGB
 90
-16777216
102
RTVSPost2010PropOp51
 70
     0
102
RTVSPost2010Prop52
140
1.0
102
RTVSPost2010PropOp52
 70
     0
102
RTVSPost2010Prop53
 90
        2
102
RTVSPost2010PropOp53
 70
     1
102
RTVSPost2010Prop54
  1
strokes_ogs.tif
102
RTVSPost2010PropOp54
 70
     1
102
RTVSPost2010Prop55
280
     0
102
RTVSPost2010PropOp55
 70
     1
102
RTVSPost2010Prop56
140
1.0
102
RTVSPost2010PropOp56
 70
     1
102
RTVSPost2010Prop57
140
1.0
102
RTVSPost2010PropOp57
 70
     1
102
RTVSPropertyOp0
 70
     1
102
RTVSPropertyOp1
 70
     1
102
RTVSPropertyOp2
 70
     1
102
RTVSPropertyOp3
 70
     1
102
RTVSPropertyOp4
 70
     1
102
RTVSPropertyOp5
 70
     1
102
RTVSPropertyOp6
 70
     1
102
RTVSPropertyOp7
 70
     1
102
RTVSPropertyOp8
 70
     1
102
RTVSPropertyOp9
 70
     1
102
RTVSPropertyOp10
 70
     1
102
RTVSPropertyOp11
 70
     1
102
RTVSPropertyOp12
 70
     1
102
RTVSPropertyOp13
 70
     1
102
RTVSPropertyOp14
 70
     1
102
RTVSPropertyOp15
 70
     1
102
RTVSPropertyOp16
 70
     1
102
RTVSPropertyOp17
 70
     1
102
RTVSPropertyOp18
 70
     1
102
RTVSPropertyOp19
 70
     1
102
RTVSPropertyOp20
 70
     1
102
RTVSPropertyOp21
 70
     1
102
RTVSPropertyOp22
 70
     1
102
RTVSPropertyOp23
 70
     1
102
RTVSPropertyOp24
 70
     1
102
RTVSPropertyOp25
 70
     1
102
RTVSPropertyOp26
 70
     1
102
RTVSPropertyOp27
 70
     1
102
RTVSPropertyOp28
 70
     1
102
RTVSPropertyOp29
 70
     1
102
RTVSPropertyOp30
 70
     1
102
RTVSPropertyOp31
 70
     1
102
RTVSPropertyOp32
 70
     1
102
RTVSPropertyOp33
 70
     1
102
RTVSPropertyOp34
 70
     1
102
RTVSPropertyOp35
 70
     1
102
RTVSPropertyOp36
 70
     1
102
RTVSPropertyOp37
 70
     1
102
RTVSPropertyOp38
 70
     1
102
RTVSPropertyOp39
 70
     1
102
RTVSPropertyOp40
 70
     1
102
RTVSPropertyOp41
 70
     1
102
RTVSPropertyOp42
 70
     1
102
RTVSPropertyOp43
 70
     1
102
RTVSPropertyOp44
 70
     1
102
RTVSPropertyOp45
 70
     1
102
RTVSPropertyOp46
 70
     1
102
RTVSPropertyOp47
 70
     1
102
RTVSPropertyOp48
 70
     1
102
RTVSPropertyOp49
 70
     1
102
RTVSPropertyOp50
 70
     1
102
RTVSPropertyOp51
 70
     0
102
RTVSPropertyOp52
 70
     0
102
RTVSPropertyOp53
 70
     1
102
RTVSPropertyOp54
 70
     1
102
RTVSPropertyOp55
 70
     1
102
RTVSPropertyOp56
 70
     1
102
RTVSPropertyOp57
 70
     1
102
RTVSPropertyOp58
 70
     1
102
RTVSPropertyOp59
 70
     1
102
RTVSPropertyOp60
 70
     1
102
RTVSPropertyOp61
 70
     1
102
RTVSPropertyOp62
 70
     1
  0
XRECORD
  5
D107
102
{ACAD_REACTORS
330
D106
102
}
330
D106
100
AcDbXrecord
280
     1
102
RTVSPost2010Prop28
280
     0
102
RTVSPost2010PropOp28
 70
     1
102
RTVSPost2010Prop29
280
     1
102
RTVSPost2010PropOp29
 70
     1
102
RTVSPost2010Prop30
280
     1
102
RTVSPost2010PropOp30
 70
     1
102
RTVSPost2010Prop31
280
     0
102
RTVSPost2010PropOp31
 70
     1
102
RTVSPost2010Prop32
280
     0
102
RTVSPost2010PropOp32
 70
     1
102
RTVSPost2010Prop33
280
     0
102
RTVSPost2010PropOp33
 70
     1
102
RTVSPost2010Prop34
280
     0
102
RTVSPost2010PropOp34
 70
     1
102
RTVSPost2010Prop35
280
     0
102
RTVSPost2010PropOp35
 70
     1
102
RTVSPost2010Prop36
280
     0
102
RTVSPost2010PropOp36
 70
     1
102
RTVSPost2010Prop37
 90
       50
102
RTVSPost2010PropOp37
 70
     1
102
RTVSPost2010Prop38
140
0.0
102
RTVSPost2010PropOp38
 70
     1
102
RTVSPost2010Prop39
140
1.0
102
RTVSPost2010PropOp39
 70
     1
102
RTVSPost2010Prop40
 90
        0
102
RTVSPost2010PropOp40
 70
     1
102
RTVSPost2010Prop41ColorIndex
 90
       18
102
RTVSPost2010Prop41ColorRGB
 90
        0
102
RTVSPost2010PropOp41
 70
     1
102
RTVSPost2010Prop42
 90
       50
102
RTVSPost2010PropOp42
 70
     1
102
RTVSPost2010Prop43
 90
        3
102
RTVSPost2010PropOp43
 70
     1
102
RTVSPost2010Prop44ColorIndex
 90
        5
102
RTVSPost2010Prop44ColorRGB
 90
      255
102
RTVSPost2010PropOp44
 70
     1
102
RTVSPost2010Prop45
280
     0
102
RTVSPost2010PropOp45
 70
     1
102
RTVSPost2010Prop46
 90
       50
102
RTVSPost2010PropOp46
 70
     1
102
RTVSPost2010Prop47
 90
       50
102
RTVSPost2010PropOp47
 70
     1
102
RTVSPost2010Prop48
 90
       50
102
RTVSPost2010PropOp48
 70
     1
102
RTVSPost2010Prop49
280
     0
102
RTVSPost2010PropOp49
 70
     1
102
RTVSPost2010Prop50
 90
       50
102
RTVSPost2010PropOp50
 70
     1
102
RTVSPost2010Prop51ColorIndex
 90
      256
102
RTVSPost2010Prop51ColorRGB
 90
-16777216
102
RTVSPost2010PropOp51
 70
     0
102
RTVSPost2010Prop52
140
1.0
102
RTVSPost2010PropOp52
 70
     0
102
RTVSPost2010Prop53
 90
        2
102
RTVSPost2010PropOp53
 70
     1
102
RTVSPost2010Prop54
  1
strokes_ogs.tif
102
RTVSPost2010PropOp54
 70
     1
102
RTVSPost2010Prop55
280
     0
102
RTVSPost2010PropOp55
 70
     1
102
RTVSPost2010Prop56
140
1.0
102
RTVSPost2010PropOp56
 70
     1
102
RTVSPost2010Prop57
140
1.0
102
RTVSPost2010PropOp57
 70
     1
102
RTVSPropertyOp0
 70
     1
102
RTVSPropertyOp1
 70
     1
102
RTVSPropertyOp2
 70
     1
102
RTVSPropertyOp3
 70
     1
102
RTVSPropertyOp4
 70
     1
102
RTVSPropertyOp5
 70
     1
102
RTVSPropertyOp6
 70
     1
102
RTVSPropertyOp7
 70
     1
102
RTVSPropertyOp8
 70
     1
102
RTVSPropertyOp9
 70
     1
102
RTVSPropertyOp10
 70
     1
102
RTVSPropertyOp11
 70
     1
102
RTVSPropertyOp12
 70
     1
102
RTVSPropertyOp13
 70
     1
102
RTVSPropertyOp14
 70
     1
102
RTVSPropertyOp15
 70
     1
102
RTVSPropertyOp16
 70
     1
102
RTVSPropertyOp17
 70
     1
102
RTVSPropertyOp18
 70
     1
102
RTVSPropertyOp19
 70
     1
102
RTVSPropertyOp20
 70
     1
102
RTVSPropertyOp21
 70
     1
102
RTVSPropertyOp22
 70
     1
102
RTVSPropertyOp23
 70
     1
102
RTVSPropertyOp24
 70
     1
102
RTVSPropertyOp25
 70
     1
102
RTVSPropertyOp26
 70
     1
102
RTVSPropertyOp27
 70
     1
102
RTVSPropertyOp28
 70
     1
102
RTVSPropertyOp29
 70
     1
102
RTVSPropertyOp30
 70
     1
102
RTVSPropertyOp31
 70
     1
102
RTVSPropertyOp32
 70
     1
102
RTVSPropertyOp33
 70
     1
102
RTVSPropertyOp34
 70
     1
102
RTVSPropertyOp35
 70
     1
102
RTVSPropertyOp36
 70
     1
102
RTVSPropertyOp37
 70
     1
102
RTVSPropertyOp38
 70
     1
102
RTVSPropertyOp39
 70
     1
102
RTVSPropertyOp40
 70
     1
102
RTVSPropertyOp41
 70
     1
102
RTVSPropertyOp42
 70
     1
102
RTVSPropertyOp43
 70
     1
102
RTVSPropertyOp44
 70
     1
102
RTVSPropertyOp45
 70
     1
102
RTVSPropertyOp46
 70
     1
102
RTVSPropertyOp47
 70
     1
102
RTVSPropertyOp48
 70
     1
102
RTVSPropertyOp49
 70
     1
102
RTVSPropertyOp50
 70
     1
102
RTVSPropertyOp51
 70
     0
102
RTVSPropertyOp52
 70
     0
102
RTVSPropertyOp53
 70
     1
102
RTVSPropertyOp54
 70
     1
102
RTVSPropertyOp55
 70
     1
102
RTVSPropertyOp56
 70
     1
102
RTVSPropertyOp57
 70
     1
102
RTVSPropertyOp58
 70
     1
102
RTVSPropertyOp59
 70
     1
102
RTVSPropertyOp60
 70
     1
102
RTVSPropertyOp61
 70
     1
102
RTVSPropertyOp62
 70
     1
  0
XRECORD
  5
D109
102
{ACAD_REACTORS
330
D108
102
}
330
D108
100
AcDbXrecord
280
     1
102
RTVSPost2010Prop28
280
     0
102
RTVSPost2010PropOp28
 70
     1
102
RTVSPost2010Prop29
280
     1
102
RTVSPost2010PropOp29
 70
     1
102
RTVSPost2010Prop30
280
     1
102
RTVSPost2010PropOp30
 70
     1
102
RTVSPost2010Prop31
280
     0
102
RTVSPost2010PropOp31
 70
     1
102
RTVSPost2010Prop32
280
     0
102
RTVSPost2010PropOp32
 70
     1
102
RTVSPost2010Prop33
280
     0
102
RTVSPost2010PropOp33
 70
     1
102
RTVSPost2010Prop34
280
     0
102
RTVSPost2010PropOp34
 70
     1
102
RTVSPost2010Prop35
280
     0
102
RTVSPost2010PropOp35
 70
     1
102
RTVSPost2010Prop36
280
     0
102
RTVSPost2010PropOp36
 70
     1
102
RTVSPost2010Prop37
 90
       50
102
RTVSPost2010PropOp37
 70
     1
102
RTVSPost2010Prop38
140
0.0
102
RTVSPost2010PropOp38
 70
     1
102
RTVSPost2010Prop39
140
1.0
102
RTVSPost2010PropOp39
 70
     1
102
RTVSPost2010Prop40
 90
        0
102
RTVSPost2010PropOp40
 70
     1
102
RTVSPost2010Prop41ColorIndex
 90
       18
102
RTVSPost2010Prop41ColorRGB
 90
        0
102
RTVSPost2010PropOp41
 70
     1
102
RTVSPost2010Prop42
 90
       50
102
RTVSPost2010PropOp42
 70
     1
102
RTVSPost2010Prop43
 90
        3
102
RTVSPost2010PropOp43
 70
     1
102
RTVSPost2010Prop44ColorIndex
 90
        5
102
RTVSPost2010Prop44ColorRGB
 90
      255
102
RTVSPost2010PropOp44
 70
     1
102
RTVSPost2010Prop45
280
     0
102
RTVSPost2010PropOp45
 70
     1
102
RTVSPost2010Prop46
 90
       50
102
RTVSPost2010PropOp46
 70
     1
102
RTVSPost2010Prop47
 90
       50
102
RTVSPost2010PropOp47
 70
     1
102
RTVSPost2010Prop48
 90
       50
102
RTVSPost2010PropOp48
 70
     1
102
RTVSPost2010Prop49
280
     0
102
RTVSPost2010PropOp49
 70
     1
102
RTVSPost2010Prop50
 90
       50
102
RTVSPost2010PropOp50
 70
     1
102
RTVSPost2010Prop51ColorIndex
 90
      256
102
RTVSPost2010Prop51ColorRGB
 90
-16777216
102
RTVSPost2010PropOp51
 70
     0
102
RTVSPost2010Prop52
140
1.0
102
RTVSPost2010PropOp52
 70
     0
102
RTVSPost2010Prop53
 90
        2
102
RTVSPost2010PropOp53
 70
     1
102
RTVSPost2010Prop54
  1
strokes_ogs.tif
102
RTVSPost2010PropOp54
 70
     1
102
RTVSPost2010Prop55
280
     0
102
RTVSPost2010PropOp55
 70
     1
102
RTVSPost2010Prop56
140
1.0
102
RTVSPost2010PropOp56
 70
     1
102
RTVSPost2010Prop57
140
1.0
102
RTVSPost2010PropOp57
 70
     1
102
RTVSPropertyOp0
 70
     1
102
RTVSPropertyOp1
 70
     1
102
RTVSPropertyOp2
 70
     1
102
RTVSPropertyOp3
 70
     1
102
RTVSPropertyOp4
 70
     1
102
RTVSPropertyOp5
 70
     1
102
RTVSPropertyOp6
 70
     1
102
RTVSPropertyOp7
 70
     1
102
RTVSPropertyOp8
 70
     1
102
RTVSPropertyOp9
 70
     1
102
RTVSPropertyOp10
 70
     1
102
RTVSPropertyOp11
 70
     1
102
RTVSPropertyOp12
 70
     1
102
RTVSPropertyOp13
 70
     1
102
RTVSPropertyOp14
 70
     1
102
RTVSPropertyOp15
 70
     1
102
RTVSPropertyOp16
 70
     1
102
RTVSPropertyOp17
 70
     1
102
RTVSPropertyOp18
 70
     1
102
RTVSPropertyOp19
 70
     1
102
RTVSPropertyOp20
 70
     1
102
RTVSPropertyOp21
 70
     1
102
RTVSPropertyOp22
 70
     1
102
RTVSPropertyOp23
 70
     1
102
RTVSPropertyOp24
 70
     1
102
RTVSPropertyOp25
 70
     1
102
RTVSPropertyOp26
 70
     1
102
RTVSPropertyOp27
 70
     1
102
RTVSPropertyOp28
 70
     1
102
RTVSPropertyOp29
 70
     1
102
RTVSPropertyOp30
 70
     1
102
RTVSPropertyOp31
 70
     1
102
RTVSPropertyOp32
 70
     1
102
RTVSPropertyOp33
 70
     1
102
RTVSPropertyOp34
 70
     1
102
RTVSPropertyOp35
 70
     1
102
RTVSPropertyOp36
 70
     1
102
RTVSPropertyOp37
 70
     1
102
RTVSPropertyOp38
 70
     1
102
RTVSPropertyOp39
 70
     1
102
RTVSPropertyOp40
 70
     1
102
RTVSPropertyOp41
 70
     1
102
RTVSPropertyOp42
 70
     1
102
RTVSPropertyOp43
 70
     1
102
RTVSPropertyOp44
 70
     1
102
RTVSPropertyOp45
 70
     1
102
RTVSPropertyOp46
 70
     1
102
RTVSPropertyOp47
 70
     1
102
RTVSPropertyOp48
 70
     1
102
RTVSPropertyOp49
 70
     1
102
RTVSPropertyOp50
 70
     1
102
RTVSPropertyOp51
 70
     0
102
RTVSPropertyOp52
 70
     0
102
RTVSPropertyOp53
 70
     1
102
RTVSPropertyOp54
 70
     1
102
RTVSPropertyOp55
 70
     1
102
RTVSPropertyOp56
 70
     1
102
RTVSPropertyOp57
 70
     1
102
RTVSPropertyOp58
 70
     1
102
RTVSPropertyOp59
 70
     1
102
RTVSPropertyOp60
 70
     1
102
RTVSPropertyOp61
 70
     1
102
RTVSPropertyOp62
 70
     1
  0
XRECORD
  5
D10B
102
{ACAD_REACTORS
330
D10A
102
}
330
D10A
100
AcDbXrecord
280
     1
102
RTVSPost2010Prop28
280
     0
102
RTVSPost2010PropOp28
 70
     1
102
RTVSPost2010Prop29
280
     1
102
RTVSPost2010PropOp29
 70
     1
102
RTVSPost2010Prop30
280
     1
102
RTVSPost2010PropOp30
 70
     1
102
RTVSPost2010Prop31
280
     0
102
RTVSPost2010PropOp31
 70
     1
102
RTVSPost2010Prop32
280
     0
102
RTVSPost2010PropOp32
 70
     1
102
RTVSPost2010Prop33
280
     0
102
RTVSPost2010PropOp33
 70
     1
102
RTVSPost2010Prop34
280
     0
102
RTVSPost2010PropOp34
 70
     1
102
RTVSPost2010Prop35
280
     0
102
RTVSPost2010PropOp35
 70
     1
102
RTVSPost2010Prop36
280
     0
102
RTVSPost2010PropOp36
 70
     1
102
RTVSPost2010Prop37
 90
       50
102
RTVSPost2010PropOp37
 70
     1
102
RTVSPost2010Prop38
140
0.0
102
RTVSPost2010PropOp38
 70
     1
102
RTVSPost2010Prop39
140
1.0
102
RTVSPost2010PropOp39
 70
     1
102
RTVSPost2010Prop40
 90
        0
102
RTVSPost2010PropOp40
 70
     1
102
RTVSPost2010Prop41ColorIndex
 90
       18
102
RTVSPost2010Prop41ColorRGB
 90
        0
102
RTVSPost2010PropOp41
 70
     1
102
RTVSPost2010Prop42
 90
       50
102
RTVSPost2010PropOp42
 70
     1
102
RTVSPost2010Prop43
 90
        3
102
RTVSPost2010PropOp43
 70
     1
102
RTVSPost2010Prop44ColorIndex
 90
        5
102
RTVSPost2010Prop44ColorRGB
 90
      255
102
RTVSPost2010PropOp44
 70
     1
102
RTVSPost2010Prop45
280
     0
102
RTVSPost2010PropOp45
 70
     1
102
RTVSPost2010Prop46
 90
       50
102
RTVSPost2010PropOp46
 70
     1
102
RTVSPost2010Prop47
 90
       50
102
RTVSPost2010PropOp47
 70
     1
102
RTVSPost2010Prop48
 90
       50
102
RTVSPost2010PropOp48
 70
     1
102
RTVSPost2010Prop49
280
     0
102
RTVSPost2010PropOp49
 70
     1
102
RTVSPost2010Prop50
 90
       50
102
RTVSPost2010PropOp50
 70
     1
102
RTVSPost2010Prop51ColorIndex
 90
      256
102
RTVSPost2010Prop51ColorRGB
 90
-16777216
102
RTVSPost2010PropOp51
 70
     0
102
RTVSPost2010Prop52
140
1.0
102
RTVSPost2010PropOp52
 70
     0
102
RTVSPost2010Prop53
 90
        2
102
RTVSPost2010PropOp53
 70
     1
102
RTVSPost2010Prop54
  1
strokes_ogs.tif
102
RTVSPost2010PropOp54
 70
     1
102
RTVSPost2010Prop55
280
     0
102
RTVSPost2010PropOp55
 70
     1
102
RTVSPost2010Prop56
140
1.0
102
RTVSPost2010PropOp56
 70
     1
102
RTVSPost2010Prop57
140
1.0
102
RTVSPost2010PropOp57
 70
     1
102
RTVSPropertyOp0
 70
     1
102
RTVSPropertyOp1
 70
     1
102
RTVSPropertyOp2
 70
     1
102
RTVSPropertyOp3
 70
     1
102
RTVSPropertyOp4
 70
     1
102
RTVSPropertyOp5
 70
     1
102
RTVSPropertyOp6
 70
     1
102
RTVSPropertyOp7
 70
     1
102
RTVSPropertyOp8
 70
     1
102
RTVSPropertyOp9
 70
     1
102
RTVSPropertyOp10
 70
     1
102
RTVSPropertyOp11
 70
     1
102
RTVSPropertyOp12
 70
     1
102
RTVSPropertyOp13
 70
     1
102
RTVSPropertyOp14
 70
     1
102
RTVSPropertyOp15
 70
     1
102
RTVSPropertyOp16
 70
     1
102
RTVSPropertyOp17
 70
     1
102
RTVSPropertyOp18
 70
     1
102
RTVSPropertyOp19
 70
     1
102
RTVSPropertyOp20
 70
     1
102
RTVSPropertyOp21
 70
     1
102
RTVSPropertyOp22
 70
     1
102
RTVSPropertyOp23
 70
     1
102
RTVSPropertyOp24
 70
     1
102
RTVSPropertyOp25
 70
     1
102
RTVSPropertyOp26
 70
     1
102
RTVSPropertyOp27
 70
     1
102
RTVSPropertyOp28
 70
     1
102
RTVSPropertyOp29
 70
     1
102
RTVSPropertyOp30
 70
     1
102
RTVSPropertyOp31
 70
     1
102
RTVSPropertyOp32
 70
     1
102
RTVSPropertyOp33
 70
     1
102
RTVSPropertyOp34
 70
     1
102
RTVSPropertyOp35
 70
     1
102
RTVSPropertyOp36
 70
     1
102
RTVSPropertyOp37
 70
     1
102
RTVSPropertyOp38
 70
     1
102
RTVSPropertyOp39
 70
     1
102
RTVSPropertyOp40
 70
     1
102
RTVSPropertyOp41
 70
     1
102
RTVSPropertyOp42
 70
     1
102
RTVSPropertyOp43
 70
     1
102
RTVSPropertyOp44
 70
     1
102
RTVSPropertyOp45
 70
     1
102
RTVSPropertyOp46
 70
     1
102
RTVSPropertyOp47
 70
     1
102
RTVSPropertyOp48
 70
     1
102
RTVSPropertyOp49
 70
     1
102
RTVSPropertyOp50
 70
     1
102
RTVSPropertyOp51
 70
     0
102
RTVSPropertyOp52
 70
     0
102
RTVSPropertyOp53
 70
     1
102
RTVSPropertyOp54
 70
     1
102
RTVSPropertyOp55
 70
     1
102
RTVSPropertyOp56
 70
     1
102
RTVSPropertyOp57
 70
     1
102
RTVSPropertyOp58
 70
     1
102
RTVSPropertyOp59
 70
     1
102
RTVSPropertyOp60
 70
     1
102
RTVSPropertyOp61
 70
     1
102
RTVSPropertyOp62
 70
     1
  0
XRECORD
  5
D10D
102
{ACAD_REACTORS
330
D10C
102
}
330
D10C
100
AcDbXrecord
280
     1
102
RTVSPost2010Prop28
280
     0
102
RTVSPost2010PropOp28
 70
     1
102
RTVSPost2010Prop29
280
     1
102
RTVSPost2010PropOp29
 70
     1
102
RTVSPost2010Prop30
280
     1
102
RTVSPost2010PropOp30
 70
     1
102
RTVSPost2010Prop31
280
     0
102
RTVSPost2010PropOp31
 70
     1
102
RTVSPost2010Prop32
280
     0
102
RTVSPost2010PropOp32
 70
     1
102
RTVSPost2010Prop33
280
     0
102
RTVSPost2010PropOp33
 70
     1
102
RTVSPost2010Prop34
280
     0
102
RTVSPost2010PropOp34
 70
     1
102
RTVSPost2010Prop35
280
     0
102
RTVSPost2010PropOp35
 70
     1
102
RTVSPost2010Prop36
280
     0
102
RTVSPost2010PropOp36
 70
     1
102
RTVSPost2010Prop37
 90
       50
102
RTVSPost2010PropOp37
 70
     1
102
RTVSPost2010Prop38
140
0.0
102
RTVSPost2010PropOp38
 70
     1
102
RTVSPost2010Prop39
140
1.0
102
RTVSPost2010PropOp39
 70
     1
102
RTVSPost2010Prop40
 90
        0
102
RTVSPost2010PropOp40
 70
     1
102
RTVSPost2010Prop41ColorIndex
 90
       18
102
RTVSPost2010Prop41ColorRGB
 90
        0
102
RTVSPost2010PropOp41
 70
     1
102
RTVSPost2010Prop42
 90
       50
102
RTVSPost2010PropOp42
 70
     1
102
RTVSPost2010Prop43
 90
        3
102
RTVSPost2010PropOp43
 70
     1
102
RTVSPost2010Prop44ColorIndex
 90
        5
102
RTVSPost2010Prop44ColorRGB
 90
      255
102
RTVSPost2010PropOp44
 70
     1
102
RTVSPost2010Prop45
280
     0
102
RTVSPost2010PropOp45
 70
     1
102
RTVSPost2010Prop46
 90
       50
102
RTVSPost2010PropOp46
 70
     1
102
RTVSPost2010Prop47
 90
       50
102
RTVSPost2010PropOp47
 70
     1
102
RTVSPost2010Prop48
 90
       50
102
RTVSPost2010PropOp48
 70
     1
102
RTVSPost2010Prop49
280
     0
102
RTVSPost2010PropOp49
 70
     1
102
RTVSPost2010Prop50
 90
       50
102
RTVSPost2010PropOp50
 70
     1
102
RTVSPost2010Prop51ColorIndex
 90
      256
102
RTVSPost2010Prop51ColorRGB
 90
-16777216
102
RTVSPost2010PropOp51
 70
     0
102
RTVSPost2010Prop52
140
1.0
102
RTVSPost2010PropOp52
 70
     0
102
RTVSPost2010Prop53
 90
        2
102
RTVSPost2010PropOp53
 70
     1
102
RTVSPost2010Prop54
  1
strokes_ogs.tif
102
RTVSPost2010PropOp54
 70
     1
102
RTVSPost2010Prop55
280
     0
102
RTVSPost2010PropOp55
 70
     1
102
RTVSPost2010Prop56
140
1.0
102
RTVSPost2010PropOp56
 70
     1
102
RTVSPost2010Prop57
140
1.0
102
RTVSPost2010PropOp57
 70
     1
102
RTVSPropertyOp0
 70
     1
102
RTVSPropertyOp1
 70
     1
102
RTVSPropertyOp2
 70
     1
102
RTVSPropertyOp3
 70
     1
102
RTVSPropertyOp4
 70
     1
102
RTVSPropertyOp5
 70
     1
102
RTVSPropertyOp6
 70
     1
102
RTVSPropertyOp7
 70
     1
102
RTVSPropertyOp8
 70
     1
102
RTVSPropertyOp9
 70
     1
102
RTVSPropertyOp10
 70
     1
102
RTVSPropertyOp11
 70
     1
102
RTVSPropertyOp12
 70
     1
102
RTVSPropertyOp13
 70
     1
102
RTVSPropertyOp14
 70
     1
102
RTVSPropertyOp15
 70
     1
102
RTVSPropertyOp16
 70
     1
102
RTVSPropertyOp17
 70
     1
102
RTVSPropertyOp18
 70
     1
102
RTVSPropertyOp19
 70
     1
102
RTVSPropertyOp20
 70
     1
102
RTVSPropertyOp21
 70
     1
102
RTVSPropertyOp22
 70
     1
102
RTVSPropertyOp23
 70
     1
102
RTVSPropertyOp24
 70
     1
102
RTVSPropertyOp25
 70
     1
102
RTVSPropertyOp26
 70
     1
102
RTVSPropertyOp27
 70
     1
102
RTVSPropertyOp28
 70
     1
102
RTVSPropertyOp29
 70
     1
102
RTVSPropertyOp30
 70
     1
102
RTVSPropertyOp31
 70
     1
102
RTVSPropertyOp32
 70
     1
102
RTVSPropertyOp33
 70
     1
102
RTVSPropertyOp34
 70
     1
102
RTVSPropertyOp35
 70
     1
102
RTVSPropertyOp36
 70
     1
102
RTVSPropertyOp37
 70
     1
102
RTVSPropertyOp38
 70
     1
102
RTVSPropertyOp39
 70
     1
102
RTVSPropertyOp40
 70
     1
102
RTVSPropertyOp41
 70
     1
102
RTVSPropertyOp42
 70
     1
102
RTVSPropertyOp43
 70
     1
102
RTVSPropertyOp44
 70
     1
102
RTVSPropertyOp45
 70
     1
102
RTVSPropertyOp46
 70
     1
102
RTVSPropertyOp47
 70
     1
102
RTVSPropertyOp48
 70
     1
102
RTVSPropertyOp49
 70
     1
102
RTVSPropertyOp50
 70
     1
102
RTVSPropertyOp51
 70
     0
102
RTVSPropertyOp52
 70
     0
102
RTVSPropertyOp53
 70
     1
102
RTVSPropertyOp54
 70
     1
102
RTVSPropertyOp55
 70
     1
102
RTVSPropertyOp56
 70
     1
102
RTVSPropertyOp57
 70
     1
102
RTVSPropertyOp58
 70
     1
102
RTVSPropertyOp59
 70
     1
102
RTVSPropertyOp60
 70
     1
102
RTVSPropertyOp61
 70
     1
102
RTVSPropertyOp62
 70
     1
  0
XRECORD
  5
D115
102
{ACAD_REACTORS
330
D114
102
}
330
D114
100
AcDbXrecord
280
     1
102
RTVSPost2010Prop28
280
     0
102
RTVSPost2010PropOp28
 70
     1
102
RTVSPost2010Prop29
280
     1
102
RTVSPost2010PropOp29
 70
     1
102
RTVSPost2010Prop30
280
     1
102
RTVSPost2010PropOp30
 70
     1
102
RTVSPost2010Prop31
280
     0
102
RTVSPost2010PropOp31
 70
     1
102
RTVSPost2010Prop32
280
     0
102
RTVSPost2010PropOp32
 70
     1
102
RTVSPost2010Prop33
280
     0
102
RTVSPost2010PropOp33
 70
     1
102
RTVSPost2010Prop34
280
     0
102
RTVSPost2010PropOp34
 70
     1
102
RTVSPost2010Prop35
280
     0
102
RTVSPost2010PropOp35
 70
     1
102
RTVSPost2010Prop36
280
     0
102
RTVSPost2010PropOp36
 70
     1
102
RTVSPost2010Prop37
 90
       50
102
RTVSPost2010PropOp37
 70
     1
102
RTVSPost2010Prop38
140
0.0
102
RTVSPost2010PropOp38
 70
     1
102
RTVSPost2010Prop39
140
1.0
102
RTVSPost2010PropOp39
 70
     1
102
RTVSPost2010Prop40
 90
        0
102
RTVSPost2010PropOp40
 70
     1
102
RTVSPost2010Prop41ColorIndex
 90
       18
102
RTVSPost2010Prop41ColorRGB
 90
        0
102
RTVSPost2010PropOp41
 70
     1
102
RTVSPost2010Prop42
 90
       50
102
RTVSPost2010PropOp42
 70
     1
102
RTVSPost2010Prop43
 90
        3
102
RTVSPost2010PropOp43
 70
     1
102
RTVSPost2010Prop44ColorIndex
 90
        5
102
RTVSPost2010Prop44ColorRGB
 90
      255
102
RTVSPost2010PropOp44
 70
     1
102
RTVSPost2010Prop45
280
     0
102
RTVSPost2010PropOp45
 70
     1
102
RTVSPost2010Prop46
 90
       50
102
RTVSPost2010PropOp46
 70
     1
102
RTVSPost2010Prop47
 90
       50
102
RTVSPost2010PropOp47
 70
     1
102
RTVSPost2010Prop48
 90
       50
102
RTVSPost2010PropOp48
 70
     1
102
RTVSPost2010Prop49
280
     0
102
RTVSPost2010PropOp49
 70
     1
102
RTVSPost2010Prop50
 90
       50
102
RTVSPost2010PropOp50
 70
     1
102
RTVSPost2010Prop51ColorIndex
 90
      256
102
RTVSPost2010Prop51ColorRGB
 90
-16777216
102
RTVSPost2010PropOp51
 70
     0
102
RTVSPost2010Prop52
140
1.0
102
RTVSPost2010PropOp52
 70
     0
102
RTVSPost2010Prop53
 90
        2
102
RTVSPost2010PropOp53
 70
     1
102
RTVSPost2010Prop54
  1
strokes_ogs.tif
102
RTVSPost2010PropOp54
 70
     1
102
RTVSPost2010Prop55
280
     0
102
RTVSPost2010PropOp55
 70
     1
102
RTVSPost2010Prop56
140
1.0
102
RTVSPost2010PropOp56
 70
     1
102
RTVSPost2010Prop57
140
1.0
102
RTVSPost2010PropOp57
 70
     1
102
RTVSPropertyOp0
 70
     1
102
RTVSPropertyOp1
 70
     1
102
RTVSPropertyOp2
 70
     1
102
RTVSPropertyOp3
 70
     1
102
RTVSPropertyOp4
 70
     1
102
RTVSPropertyOp5
 70
     1
102
RTVSPropertyOp6
 70
     1
102
RTVSPropertyOp7
 70
     1
102
RTVSPropertyOp8
 70
     1
102
RTVSPropertyOp9
 70
     1
102
RTVSPropertyOp10
 70
     1
102
RTVSPropertyOp11
 70
     1
102
RTVSPropertyOp12
 70
     1
102
RTVSPropertyOp13
 70
     1
102
RTVSPropertyOp14
 70
     1
102
RTVSPropertyOp15
 70
     1
102
RTVSPropertyOp16
 70
     1
102
RTVSPropertyOp17
 70
     1
102
RTVSPropertyOp18
 70
     1
102
RTVSPropertyOp19
 70
     1
102
RTVSPropertyOp20
 70
     1
102
RTVSPropertyOp21
 70
     1
102
RTVSPropertyOp22
 70
     1
102
RTVSPropertyOp23
 70
     1
102
RTVSPropertyOp24
 70
     1
102
RTVSPropertyOp25
 70
     1
102
RTVSPropertyOp26
 70
     1
102
RTVSPropertyOp27
 70
     1
102
RTVSPropertyOp28
 70
     1
102
RTVSPropertyOp29
 70
     1
102
RTVSPropertyOp30
 70
     1
102
RTVSPropertyOp31
 70
     1
102
RTVSPropertyOp32
 70
     1
102
RTVSPropertyOp33
 70
     1
102
RTVSPropertyOp34
 70
     1
102
RTVSPropertyOp35
 70
     1
102
RTVSPropertyOp36
 70
     1
102
RTVSPropertyOp37
 70
     1
102
RTVSPropertyOp38
 70
     1
102
RTVSPropertyOp39
 70
     1
102
RTVSPropertyOp40
 70
     1
102
RTVSPropertyOp41
 70
     1
102
RTVSPropertyOp42
 70
     1
102
RTVSPropertyOp43
 70
     1
102
RTVSPropertyOp44
 70
     1
102
RTVSPropertyOp45
 70
     1
102
RTVSPropertyOp46
 70
     1
102
RTVSPropertyOp47
 70
     1
102
RTVSPropertyOp48
 70
     1
102
RTVSPropertyOp49
 70
     1
102
RTVSPropertyOp50
 70
     1
102
RTVSPropertyOp51
 70
     0
102
RTVSPropertyOp52
 70
     0
102
RTVSPropertyOp53
 70
     1
102
RTVSPropertyOp54
 70
     1
102
RTVSPropertyOp55
 70
     1
102
RTVSPropertyOp56
 70
     1
102
RTVSPropertyOp57
 70
     1
102
RTVSPropertyOp58
 70
     1
102
RTVSPropertyOp59
 70
     1
102
RTVSPropertyOp60
 70
     1
102
RTVSPropertyOp61
 70
     1
102
RTVSPropertyOp62
 70
     1
  0
XRECORD
  5
D129
102
{ACAD_REACTORS
330
D128
102
}
330
D128
100
AcDbXrecord
280
     1
102
RTVSPost2010Prop28
280
     0
102
RTVSPost2010PropOp28
 70
     1
102
RTVSPost2010Prop29
280
     1
102
RTVSPost2010PropOp29
 70
     1
102
RTVSPost2010Prop30
280
     1
102
RTVSPost2010PropOp30
 70
     1
102
RTVSPost2010Prop31
280
     0
102
RTVSPost2010PropOp31
 70
     1
102
RTVSPost2010Prop32
280
     0
102
RTVSPost2010PropOp32
 70
     1
102
RTVSPost2010Prop33
280
     0
102
RTVSPost2010PropOp33
 70
     1
102
RTVSPost2010Prop34
280
     0
102
RTVSPost2010PropOp34
 70
     1
102
RTVSPost2010Prop35
280
     0
102
RTVSPost2010PropOp35
 70
     1
102
RTVSPost2010Prop36
280
     0
102
RTVSPost2010PropOp36
 70
     1
102
RTVSPost2010Prop37
 90
       50
102
RTVSPost2010PropOp37
 70
     1
102
RTVSPost2010Prop38
140
0.0
102
RTVSPost2010PropOp38
 70
     1
102
RTVSPost2010Prop39
140
1.0
102
RTVSPost2010PropOp39
 70
     1
102
RTVSPost2010Prop40
 90
        0
102
RTVSPost2010PropOp40
 70
     1
102
RTVSPost2010Prop41ColorIndex
 90
       18
102
RTVSPost2010Prop41ColorRGB
 90
        0
102
RTVSPost2010PropOp41
 70
     1
102
RTVSPost2010Prop42
 90
       50
102
RTVSPost2010PropOp42
 70
     1
102
RTVSPost2010Prop43
 90
        3
102
RTVSPost2010PropOp43
 70
     1
102
RTVSPost2010Prop44ColorIndex
 90
        5
102
RTVSPost2010Prop44ColorRGB
 90
      255
102
RTVSPost2010PropOp44
 70
     1
102
RTVSPost2010Prop45
280
     0
102
RTVSPost2010PropOp45
 70
     1
102
RTVSPost2010Prop46
 90
       50
102
RTVSPost2010PropOp46
 70
     1
102
RTVSPost2010Prop47
 90
       50
102
RTVSPost2010PropOp47
 70
     1
102
RTVSPost2010Prop48
 90
       50
102
RTVSPost2010PropOp48
 70
     1
102
RTVSPost2010Prop49
280
     0
102
RTVSPost2010PropOp49
 70
     1
102
RTVSPost2010Prop50
 90
       50
102
RTVSPost2010PropOp50
 70
     1
102
RTVSPost2010Prop51ColorIndex
 90
      256
102
RTVSPost2010Prop51ColorRGB
 90
-16777216
102
RTVSPost2010PropOp51
 70
     0
102
RTVSPost2010Prop52
140
1.0
102
RTVSPost2010PropOp52
 70
     0
102
RTVSPost2010Prop53
 90
        2
102
RTVSPost2010PropOp53
 70
     1
102
RTVSPost2010Prop54
  1
strokes_ogs.tif
102
RTVSPost2010PropOp54
 70
     1
102
RTVSPost2010Prop55
280
     0
102
RTVSPost2010PropOp55
 70
     1
102
RTVSPost2010Prop56
140
1.0
102
RTVSPost2010PropOp56
 70
     1
102
RTVSPost2010Prop57
140
1.0
102
RTVSPost2010PropOp57
 70
     1
102
RTVSPropertyOp0
 70
     0
102
RTVSPropertyOp1
 70
     0
102
RTVSPropertyOp2
 70
     0
102
RTVSPropertyOp3
 70
     0
102
RTVSPropertyOp4
 70
     0
102
RTVSPropertyOp5
 70
     0
102
RTVSPropertyOp6
 70
     0
102
RTVSPropertyOp7
 70
     0
102
RTVSPropertyOp8
 70
     0
102
RTVSPropertyOp9
 70
     0
102
RTVSPropertyOp10
 70
     0
102
RTVSPropertyOp11
 70
     0
102
RTVSPropertyOp12
 70
     0
102
RTVSPropertyOp13
 70
     0
102
RTVSPropertyOp14
 70
     2
102
RTVSPropertyOp15
 70
     0
102
RTVSPropertyOp16
 70
     0
102
RTVSPropertyOp17
 70
     0
102
RTVSPropertyOp18
 70
     0
102
RTVSPropertyOp19
 70
     0
102
RTVSPropertyOp20
 70
     0
102
RTVSPropertyOp21
 70
     0
102
RTVSPropertyOp22
 70
     0
102
RTVSPropertyOp23
 70
     0
102
RTVSPropertyOp24
 70
     0
102
RTVSPropertyOp25
 70
     0
102
RTVSPropertyOp26
 70
     0
102
RTVSPropertyOp27
 70
     0
102
RTVSPropertyOp28
 70
     1
102
RTVSPropertyOp29
 70
     1
102
RTVSPropertyOp30
 70
     1
102
RTVSPropertyOp31
 70
     1
102
RTVSPropertyOp32
 70
     1
102
RTVSPropertyOp33
 70
     1
102
RTVSPropertyOp34
 70
     1
102
RTVSPropertyOp35
 70
     1
102
RTVSPropertyOp36
 70
     1
102
RTVSPropertyOp37
 70
     1
102
RTVSPropertyOp38
 70
     1
102
RTVSPropertyOp39
 70
     1
102
RTVSPropertyOp40
 70
     1
102
RTVSPropertyOp41
 70
     1
102
RTVSPropertyOp42
 70
     1
102
RTVSPropertyOp43
 70
     1
102
RTVSPropertyOp44
 70
     1
102
RTVSPropertyOp45
 70
     1
102
RTVSPropertyOp46
 70
     1
102
RTVSPropertyOp47
 70
     1
102
RTVSPropertyOp48
 70
     1
102
RTVSPropertyOp49
 70
     1
102
RTVSPropertyOp50
 70
     1
102
RTVSPropertyOp51
 70
     0
102
RTVSPropertyOp52
 70
     0
102
RTVSPropertyOp53
 70
     1
102
RTVSPropertyOp54
 70
     1
102
RTVSPropertyOp55
 70
     1
102
RTVSPropertyOp56
 70
     1
102
RTVSPropertyOp57
 70
     1
102
RTVSPropertyOp58
 70
     1
102
RTVSPropertyOp59
 70
     1
102
RTVSPropertyOp60
 70
     1
102
RTVSPropertyOp61
 70
     1
102
RTVSPropertyOp62
 70
     1
  0
XRECORD
  5
D121
102
{ACAD_REACTORS
330
D120
102
}
330
D120
100
AcDbXrecord
280
     1
102
RTVSPost2010Prop28
280
     0
102
RTVSPost2010PropOp28
 70
     1
102
RTVSPost2010Prop29
280
     1
102
RTVSPost2010PropOp29
 70
     1
102
RTVSPost2010Prop30
280
     1
102
RTVSPost2010PropOp30
 70
     1
102
RTVSPost2010Prop31
280
     0
102
RTVSPost2010PropOp31
 70
     1
102
RTVSPost2010Prop32
280
     0
102
RTVSPost2010PropOp32
 70
     1
102
RTVSPost2010Prop33
280
     0
102
RTVSPost2010PropOp33
 70
     1
102
RTVSPost2010Prop34
280
     0
102
RTVSPost2010PropOp34
 70
     1
102
RTVSPost2010Prop35
280
     0
102
RTVSPost2010PropOp35
 70
     1
102
RTVSPost2010Prop36
280
     0
102
RTVSPost2010PropOp36
 70
     1
102
RTVSPost2010Prop37
 90
       50
102
RTVSPost2010PropOp37
 70
     1
102
RTVSPost2010Prop38
140
0.0
102
RTVSPost2010PropOp38
 70
     1
102
RTVSPost2010Prop39
140
1.0
102
RTVSPost2010PropOp39
 70
     1
102
RTVSPost2010Prop40
 90
        0
102
RTVSPost2010PropOp40
 70
     1
102
RTVSPost2010Prop41ColorIndex
 90
       18
102
RTVSPost2010Prop41ColorRGB
 90
        0
102
RTVSPost2010PropOp41
 70
     1
102
RTVSPost2010Prop42
 90
       50
102
RTVSPost2010PropOp42
 70
     1
102
RTVSPost2010Prop43
 90
        3
102
RTVSPost2010PropOp43
 70
     1
102
RTVSPost2010Prop44ColorIndex
 90
        5
102
RTVSPost2010Prop44ColorRGB
 90
      255
102
RTVSPost2010PropOp44
 70
     1
102
RTVSPost2010Prop45
280
     0
102
RTVSPost2010PropOp45
 70
     1
102
RTVSPost2010Prop46
 90
       50
102
RTVSPost2010PropOp46
 70
     1
102
RTVSPost2010Prop47
 90
       50
102
RTVSPost2010PropOp47
 70
     1
102
RTVSPost2010Prop48
 90
       50
102
RTVSPost2010PropOp48
 70
     1
102
RTVSPost2010Prop49
280
     0
102
RTVSPost2010PropOp49
 70
     1
102
RTVSPost2010Prop50
 90
       50
102
RTVSPost2010PropOp50
 70
     1
102
RTVSPost2010Prop51ColorIndex
 90
      256
102
RTVSPost2010Prop51ColorRGB
 90
-16777216
102
RTVSPost2010PropOp51
 70
     0
102
RTVSPost2010Prop52
140
1.0
102
RTVSPost2010PropOp52
 70
     0
102
RTVSPost2010Prop53
 90
        2
102
RTVSPost2010PropOp53
 70
     1
102
RTVSPost2010Prop54
  1
strokes_ogs.tif
102
RTVSPost2010PropOp54
 70
     1
102
RTVSPost2010Prop55
280
     0
102
RTVSPost2010PropOp55
 70
     1
102
RTVSPost2010Prop56
140
1.0
102
RTVSPost2010PropOp56
 70
     1
102
RTVSPost2010Prop57
140
1.0
102
RTVSPost2010PropOp57
 70
     1
102
RTVSPropertyOp0
 70
     1
102
RTVSPropertyOp1
 70
     1
102
RTVSPropertyOp2
 70
     1
102
RTVSPropertyOp3
 70
     1
102
RTVSPropertyOp4
 70
     1
102
RTVSPropertyOp5
 70
     1
102
RTVSPropertyOp6
 70
     1
102
RTVSPropertyOp7
 70
     1
102
RTVSPropertyOp8
 70
     1
102
RTVSPropertyOp9
 70
     1
102
RTVSPropertyOp10
 70
     1
102
RTVSPropertyOp11
 70
     1
102
RTVSPropertyOp12
 70
     1
102
RTVSPropertyOp13
 70
     1
102
RTVSPropertyOp14
 70
     1
102
RTVSPropertyOp15
 70
     1
102
RTVSPropertyOp16
 70
     1
102
RTVSPropertyOp17
 70
     1
102
RTVSPropertyOp18
 70
     1
102
RTVSPropertyOp19
 70
     1
102
RTVSPropertyOp20
 70
     1
102
RTVSPropertyOp21
 70
     1
102
RTVSPropertyOp22
 70
     1
102
RTVSPropertyOp23
 70
     1
102
RTVSPropertyOp24
 70
     1
102
RTVSPropertyOp25
 70
     1
102
RTVSPropertyOp26
 70
     1
102
RTVSPropertyOp27
 70
     1
102
RTVSPropertyOp28
 70
     1
102
RTVSPropertyOp29
 70
     1
102
RTVSPropertyOp30
 70
     1
102
RTVSPropertyOp31
 70
     1
102
RTVSPropertyOp32
 70
     1
102
RTVSPropertyOp33
 70
     1
102
RTVSPropertyOp34
 70
     1
102
RTVSPropertyOp35
 70
     1
102
RTVSPropertyOp36
 70
     1
102
RTVSPropertyOp37
 70
     1
102
RTVSPropertyOp38
 70
     1
102
RTVSPropertyOp39
 70
     1
102
RTVSPropertyOp40
 70
     1
102
RTVSPropertyOp41
 70
     1
102
RTVSPropertyOp42
 70
     1
102
RTVSPropertyOp43
 70
     1
102
RTVSPropertyOp44
 70
     1
102
RTVSPropertyOp45
 70
     1
102
RTVSPropertyOp46
 70
     1
102
RTVSPropertyOp47
 70
     1
102
RTVSPropertyOp48
 70
     1
102
RTVSPropertyOp49
 70
     1
102
RTVSPropertyOp50
 70
     1
102
RTVSPropertyOp51
 70
     0
102
RTVSPropertyOp52
 70
     0
102
RTVSPropertyOp53
 70
     1
102
RTVSPropertyOp54
 70
     1
102
RTVSPropertyOp55
 70
     1
102
RTVSPropertyOp56
 70
     1
102
RTVSPropertyOp57
 70
     1
102
RTVSPropertyOp58
 70
     1
102
RTVSPropertyOp59
 70
     1
102
RTVSPropertyOp60
 70
     1
102
RTVSPropertyOp61
 70
     1
102
RTVSPropertyOp62
 70
     1
  0
XRECORD
  5
D12B
102
{ACAD_REACTORS
330
D12A
102
}
330
D12A
100
AcDbXrecord
280
     1
102
RTVSPost2010Prop28
280
     0
102
RTVSPost2010PropOp28
 70
     1
102
RTVSPost2010Prop29
280
     1
102
RTVSPost2010PropOp29
 70
     1
102
RTVSPost2010Prop30
280
     1
102
RTVSPost2010PropOp30
 70
     1
102
RTVSPost2010Prop31
280
     0
102
RTVSPost2010PropOp31
 70
     1
102
RTVSPost2010Prop32
280
     0
102
RTVSPost2010PropOp32
 70
     1
102
RTVSPost2010Prop33
280
     0
102
RTVSPost2010PropOp33
 70
     1
102
RTVSPost2010Prop34
280
     0
102
RTVSPost2010PropOp34
 70
     1
102
RTVSPost2010Prop35
280
     0
102
RTVSPost2010PropOp35
 70
     1
102
RTVSPost2010Prop36
280
     0
102
RTVSPost2010PropOp36
 70
     1
102
RTVSPost2010Prop37
 90
       50
102
RTVSPost2010PropOp37
 70
     1
102
RTVSPost2010Prop38
140
0.0
102
RTVSPost2010PropOp38
 70
     1
102
RTVSPost2010Prop39
140
1.0
102
RTVSPost2010PropOp39
 70
     1
102
RTVSPost2010Prop40
 90
        0
102
RTVSPost2010PropOp40
 70
     1
102
RTVSPost2010Prop41ColorIndex
 90
       18
102
RTVSPost2010Prop41ColorRGB
 90
        0
102
RTVSPost2010PropOp41
 70
     1
102
RTVSPost2010Prop42
 90
       50
102
RTVSPost2010PropOp42
 70
     1
102
RTVSPost2010Prop43
 90
        3
102
RTVSPost2010PropOp43
 70
     1
102
RTVSPost2010Prop44ColorIndex
 90
        5
102
RTVSPost2010Prop44ColorRGB
 90
      255
102
RTVSPost2010PropOp44
 70
     1
102
RTVSPost2010Prop45
280
     0
102
RTVSPost2010PropOp45
 70
     1
102
RTVSPost2010Prop46
 90
       50
102
RTVSPost2010PropOp46
 70
     1
102
RTVSPost2010Prop47
 90
       50
102
RTVSPost2010PropOp47
 70
     1
102
RTVSPost2010Prop48
 90
       50
102
RTVSPost2010PropOp48
 70
     1
102
RTVSPost2010Prop49
280
     0
102
RTVSPost2010PropOp49
 70
     1
102
RTVSPost2010Prop50
 90
       50
102
RTVSPost2010PropOp50
 70
     1
102
RTVSPost2010Prop51ColorIndex
 90
      256
102
RTVSPost2010Prop51ColorRGB
 90
-16777216
102
RTVSPost2010PropOp51
 70
     0
102
RTVSPost2010Prop52
140
1.0
102
RTVSPost2010PropOp52
 70
     0
102
RTVSPost2010Prop53
 90
        2
102
RTVSPost2010PropOp53
 70
     1
102
RTVSPost2010Prop54
  1
strokes_ogs.tif
102
RTVSPost2010PropOp54
 70
     1
102
RTVSPost2010Prop55
280
     0
102
RTVSPost2010PropOp55
 70
     1
102
RTVSPost2010Prop56
140
1.0
102
RTVSPost2010PropOp56
 70
     1
102
RTVSPost2010Prop57
140
1.0
102
RTVSPost2010PropOp57
 70
     1
102
RTVSPropertyOp0
 70
     0
102
RTVSPropertyOp1
 70
     0
102
RTVSPropertyOp2
 70
     0
102
RTVSPropertyOp3
 70
     0
102
RTVSPropertyOp4
 70
     0
102
RTVSPropertyOp5
 70
     0
102
RTVSPropertyOp6
 70
     0
102
RTVSPropertyOp7
 70
     0
102
RTVSPropertyOp8
 70
     0
102
RTVSPropertyOp9
 70
     0
102
RTVSPropertyOp10
 70
     0
102
RTVSPropertyOp11
 70
     0
102
RTVSPropertyOp12
 70
     0
102
RTVSPropertyOp13
 70
     0
102
RTVSPropertyOp14
 70
     2
102
RTVSPropertyOp15
 70
     0
102
RTVSPropertyOp16
 70
     0
102
RTVSPropertyOp17
 70
     0
102
RTVSPropertyOp18
 70
     0
102
RTVSPropertyOp19
 70
     0
102
RTVSPropertyOp20
 70
     0
102
RTVSPropertyOp21
 70
     0
102
RTVSPropertyOp22
 70
     0
102
RTVSPropertyOp23
 70
     0
102
RTVSPropertyOp24
 70
     0
102
RTVSPropertyOp25
 70
     0
102
RTVSPropertyOp26
 70
     0
102
RTVSPropertyOp27
 70
     0
102
RTVSPropertyOp28
 70
     1
102
RTVSPropertyOp29
 70
     1
102
RTVSPropertyOp30
 70
     1
102
RTVSPropertyOp31
 70
     1
102
RTVSPropertyOp32
 70
     1
102
RTVSPropertyOp33
 70
     1
102
RTVSPropertyOp34
 70
     1
102
RTVSPropertyOp35
 70
     1
102
RTVSPropertyOp36
 70
     1
102
RTVSPropertyOp37
 70
     1
102
RTVSPropertyOp38
 70
     1
102
RTVSPropertyOp39
 70
     1
102
RTVSPropertyOp40
 70
     1
102
RTVSPropertyOp41
 70
     1
102
RTVSPropertyOp42
 70
     1
102
RTVSPropertyOp43
 70
     1
102
RTVSPropertyOp44
 70
     1
102
RTVSPropertyOp45
 70
     1
102
RTVSPropertyOp46
 70
     1
102
RTVSPropertyOp47
 70
     1
102
RTVSPropertyOp48
 70
     1
102
RTVSPropertyOp49
 70
     1
102
RTVSPropertyOp50
 70
     1
102
RTVSPropertyOp51
 70
     0
102
RTVSPropertyOp52
 70
     0
102
RTVSPropertyOp53
 70
     1
102
RTVSPropertyOp54
 70
     1
102
RTVSPropertyOp55
 70
     1
102
RTVSPropertyOp56
 70
     1
102
RTVSPropertyOp57
 70
     1
102
RTVSPropertyOp58
 70
     1
102
RTVSPropertyOp59
 70
     1
102
RTVSPropertyOp60
 70
     1
102
RTVSPropertyOp61
 70
     1
102
RTVSPropertyOp62
 70
     1
  0
XRECORD
  5
D119
102
{ACAD_REACTORS
330
D118
102
}
330
D118
100
AcDbXrecord
280
     1
102
RTVSPost2010Prop28
280
     0
102
RTVSPost2010PropOp28
 70
     1
102
RTVSPost2010Prop29
280
     1
102
RTVSPost2010PropOp29
 70
     1
102
RTVSPost2010Prop30
280
     1
102
RTVSPost2010PropOp30
 70
     1
102
RTVSPost2010Prop31
280
     0
102
RTVSPost2010PropOp31
 70
     1
102
RTVSPost2010Prop32
280
     0
102
RTVSPost2010PropOp32
 70
     1
102
RTVSPost2010Prop33
280
     0
102
RTVSPost2010PropOp33
 70
     1
102
RTVSPost2010Prop34
280
     0
102
RTVSPost2010PropOp34
 70
     1
102
RTVSPost2010Prop35
280
     0
102
RTVSPost2010PropOp35
 70
     1
102
RTVSPost2010Prop36
280
     0
102
RTVSPost2010PropOp36
 70
     1
102
RTVSPost2010Prop37
 90
       50
102
RTVSPost2010PropOp37
 70
     1
102
RTVSPost2010Prop38
140
0.0
102
RTVSPost2010PropOp38
 70
     1
102
RTVSPost2010Prop39
140
1.0
102
RTVSPost2010PropOp39
 70
     1
102
RTVSPost2010Prop40
 90
        0
102
RTVSPost2010PropOp40
 70
     1
102
RTVSPost2010Prop41ColorIndex
 90
       18
102
RTVSPost2010Prop41ColorRGB
 90
        0
102
RTVSPost2010PropOp41
 70
     1
102
RTVSPost2010Prop42
 90
       50
102
RTVSPost2010PropOp42
 70
     1
102
RTVSPost2010Prop43
 90
        3
102
RTVSPost2010PropOp43
 70
     1
102
RTVSPost2010Prop44ColorIndex
 90
        5
102
RTVSPost2010Prop44ColorRGB
 90
      255
102
RTVSPost2010PropOp44
 70
     1
102
RTVSPost2010Prop45
280
     0
102
RTVSPost2010PropOp45
 70
     1
102
RTVSPost2010Prop46
 90
       50
102
RTVSPost2010PropOp46
 70
     1
102
RTVSPost2010Prop47
 90
       50
102
RTVSPost2010PropOp47
 70
     1
102
RTVSPost2010Prop48
 90
       50
102
RTVSPost2010PropOp48
 70
     1
102
RTVSPost2010Prop49
280
     0
102
RTVSPost2010PropOp49
 70
     1
102
RTVSPost2010Prop50
 90
       50
102
RTVSPost2010PropOp50
 70
     1
102
RTVSPost2010Prop51ColorIndex
 90
      256
102
RTVSPost2010Prop51ColorRGB
 90
-16777216
102
RTVSPost2010PropOp51
 70
     0
102
RTVSPost2010Prop52
140
1.0
102
RTVSPost2010PropOp52
 70
     0
102
RTVSPost2010Prop53
 90
        2
102
RTVSPost2010PropOp53
 70
     1
102
RTVSPost2010Prop54
  1
strokes_ogs.tif
102
RTVSPost2010PropOp54
 70
     1
102
RTVSPost2010Prop55
280
     0
102
RTVSPost2010PropOp55
 70
     1
102
RTVSPost2010Prop56
140
1.0
102
RTVSPost2010PropOp56
 70
     1
102
RTVSPost2010Prop57
140
1.0
102
RTVSPost2010PropOp57
 70
     1
102
RTVSPropertyOp0
 70
     1
102
RTVSPropertyOp1
 70
     1
102
RTVSPropertyOp2
 70
     1
102
RTVSPropertyOp3
 70
     1
102
RTVSPropertyOp4
 70
     1
102
RTVSPropertyOp5
 70
     1
102
RTVSPropertyOp6
 70
     1
102
RTVSPropertyOp7
 70
     1
102
RTVSPropertyOp8
 70
     1
102
RTVSPropertyOp9
 70
     1
102
RTVSPropertyOp10
 70
     1
102
RTVSPropertyOp11
 70
     1
102
RTVSPropertyOp12
 70
     1
102
RTVSPropertyOp13
 70
     1
102
RTVSPropertyOp14
 70
     1
102
RTVSPropertyOp15
 70
     1
102
RTVSPropertyOp16
 70
     1
102
RTVSPropertyOp17
 70
     1
102
RTVSPropertyOp18
 70
     1
102
RTVSPropertyOp19
 70
     1
102
RTVSPropertyOp20
 70
     1
102
RTVSPropertyOp21
 70
     1
102
RTVSPropertyOp22
 70
     1
102
RTVSPropertyOp23
 70
     1
102
RTVSPropertyOp24
 70
     1
102
RTVSPropertyOp25
 70
     1
102
RTVSPropertyOp26
 70
     1
102
RTVSPropertyOp27
 70
     1
102
RTVSPropertyOp28
 70
     1
102
RTVSPropertyOp29
 70
     1
102
RTVSPropertyOp30
 70
     1
102
RTVSPropertyOp31
 70
     1
102
RTVSPropertyOp32
 70
     1
102
RTVSPropertyOp33
 70
     1
102
RTVSPropertyOp34
 70
     1
102
RTVSPropertyOp35
 70
     1
102
RTVSPropertyOp36
 70
     1
102
RTVSPropertyOp37
 70
     1
102
RTVSPropertyOp38
 70
     1
102
RTVSPropertyOp39
 70
     1
102
RTVSPropertyOp40
 70
     1
102
RTVSPropertyOp41
 70
     1
102
RTVSPropertyOp42
 70
     1
102
RTVSPropertyOp43
 70
     1
102
RTVSPropertyOp44
 70
     1
102
RTVSPropertyOp45
 70
     1
102
RTVSPropertyOp46
 70
     1
102
RTVSPropertyOp47
 70
     1
102
RTVSPropertyOp48
 70
     1
102
RTVSPropertyOp49
 70
     1
102
RTVSPropertyOp50
 70
     1
102
RTVSPropertyOp51
 70
     0
102
RTVSPropertyOp52
 70
     0
102
RTVSPropertyOp53
 70
     1
102
RTVSPropertyOp54
 70
     1
102
RTVSPropertyOp55
 70
     1
102
RTVSPropertyOp56
 70
     1
102
RTVSPropertyOp57
 70
     1
102
RTVSPropertyOp58
 70
     1
102
RTVSPropertyOp59
 70
     1
102
RTVSPropertyOp60
 70
     1
102
RTVSPropertyOp61
 70
     1
102
RTVSPropertyOp62
 70
     1
  0
XRECORD
  5
D137
102
{ACAD_REACTORS
330
D136
102
}
330
D136
100
AcDbXrecord
280
     1
102
RTVSPost2010Prop28
280
     0
102
RTVSPost2010PropOp28
 70
     1
102
RTVSPost2010Prop29
280
     1
102
RTVSPost2010PropOp29
 70
     1
102
RTVSPost2010Prop30
280
     1
102
RTVSPost2010PropOp30
 70
     1
102
RTVSPost2010Prop31
280
     0
102
RTVSPost2010PropOp31
 70
     1
102
RTVSPost2010Prop32
280
     0
102
RTVSPost2010PropOp32
 70
     1
102
RTVSPost2010Prop33
280
     0
102
RTVSPost2010PropOp33
 70
     1
102
RTVSPost2010Prop34
280
     0
102
RTVSPost2010PropOp34
 70
     1
102
RTVSPost2010Prop35
280
     0
102
RTVSPost2010PropOp35
 70
     1
102
RTVSPost2010Prop36
280
     0
102
RTVSPost2010PropOp36
 70
     1
102
RTVSPost2010Prop37
 90
       50
102
RTVSPost2010PropOp37
 70
     1
102
RTVSPost2010Prop38
140
0.0
102
RTVSPost2010PropOp38
 70
     1
102
RTVSPost2010Prop39
140
1.0
102
RTVSPost2010PropOp39
 70
     1
102
RTVSPost2010Prop40
 90
        0
102
RTVSPost2010PropOp40
 70
     1
102
RTVSPost2010Prop41ColorIndex
 90
       18
102
RTVSPost2010Prop41ColorRGB
 90
        0
102
RTVSPost2010PropOp41
 70
     1
102
RTVSPost2010Prop42
 90
       50
102
RTVSPost2010PropOp42
 70
     1
102
RTVSPost2010Prop43
 90
        3
102
RTVSPost2010PropOp43
 70
     1
102
RTVSPost2010Prop44ColorIndex
 90
        5
102
RTVSPost2010Prop44ColorRGB
 90
      255
102
RTVSPost2010PropOp44
 70
     1
102
RTVSPost2010Prop45
280
     0
102
RTVSPost2010PropOp45
 70
     1
102
RTVSPost2010Prop46
 90
       50
102
RTVSPost2010PropOp46
 70
     1
102
RTVSPost2010Prop47
 90
       50
102
RTVSPost2010PropOp47
 70
     1
102
RTVSPost2010Prop48
 90
       50
102
RTVSPost2010PropOp48
 70
     1
102
RTVSPost2010Prop49
280
     0
102
RTVSPost2010PropOp49
 70
     1
102
RTVSPost2010Prop50
 90
       50
102
RTVSPost2010PropOp50
 70
     1
102
RTVSPost2010Prop51ColorIndex
 90
      256
102
RTVSPost2010Prop51ColorRGB
 90
-16777216
102
RTVSPost2010PropOp51
 70
     0
102
RTVSPost2010Prop52
140
1.0
102
RTVSPost2010PropOp52
 70
     0
102
RTVSPost2010Prop53
 90
        2
102
RTVSPost2010PropOp53
 70
     1
102
RTVSPost2010Prop54
  1
strokes_ogs.tif
102
RTVSPost2010PropOp54
 70
     1
102
RTVSPost2010Prop55
280
     0
102
RTVSPost2010PropOp55
 70
     1
102
RTVSPost2010Prop56
140
1.0
102
RTVSPost2010PropOp56
 70
     1
102
RTVSPost2010Prop57
140
1.0
102
RTVSPost2010PropOp57
 70
     1
102
RTVSPropertyOp0
 70
     1
102
RTVSPropertyOp1
 70
     1
102
RTVSPropertyOp2
 70
     1
102
RTVSPropertyOp3
 70
     1
102
RTVSPropertyOp4
 70
     1
102
RTVSPropertyOp5
 70
     1
102
RTVSPropertyOp6
 70
     1
102
RTVSPropertyOp7
 70
     1
102
RTVSPropertyOp8
 70
     1
102
RTVSPropertyOp9
 70
     1
102
RTVSPropertyOp10
 70
     1
102
RTVSPropertyOp11
 70
     1
102
RTVSPropertyOp12
 70
     1
102
RTVSPropertyOp13
 70
     1
102
RTVSPropertyOp14
 70
     1
102
RTVSPropertyOp15
 70
     1
102
RTVSPropertyOp16
 70
     1
102
RTVSPropertyOp17
 70
     1
102
RTVSPropertyOp18
 70
     1
102
RTVSPropertyOp19
 70
     1
102
RTVSPropertyOp20
 70
     1
102
RTVSPropertyOp21
 70
     1
102
RTVSPropertyOp22
 70
     1
102
RTVSPropertyOp23
 70
     1
102
RTVSPropertyOp24
 70
     1
102
RTVSPropertyOp25
 70
     1
102
RTVSPropertyOp26
 70
     1
102
RTVSPropertyOp27
 70
     1
102
RTVSPropertyOp28
 70
     1
102
RTVSPropertyOp29
 70
     1
102
RTVSPropertyOp30
 70
     1
102
RTVSPropertyOp31
 70
     1
102
RTVSPropertyOp32
 70
     1
102
RTVSPropertyOp33
 70
     1
102
RTVSPropertyOp34
 70
     1
102
RTVSPropertyOp35
 70
     1
102
RTVSPropertyOp36
 70
     1
102
RTVSPropertyOp37
 70
     1
102
RTVSPropertyOp38
 70
     1
102
RTVSPropertyOp39
 70
     1
102
RTVSPropertyOp40
 70
     1
102
RTVSPropertyOp41
 70
     1
102
RTVSPropertyOp42
 70
     1
102
RTVSPropertyOp43
 70
     1
102
RTVSPropertyOp44
 70
     1
102
RTVSPropertyOp45
 70
     1
102
RTVSPropertyOp46
 70
     1
102
RTVSPropertyOp47
 70
     1
102
RTVSPropertyOp48
 70
     1
102
RTVSPropertyOp49
 70
     1
102
RTVSPropertyOp50
 70
     1
102
RTVSPropertyOp51
 70
     0
102
RTVSPropertyOp52
 70
     0
102
RTVSPropertyOp53
 70
     1
102
RTVSPropertyOp54
 70
     1
102
RTVSPropertyOp55
 70
     1
102
RTVSPropertyOp56
 70
     1
102
RTVSPropertyOp57
 70
     1
102
RTVSPropertyOp58
 70
     1
102
RTVSPropertyOp59
 70
     1
102
RTVSPropertyOp60
 70
     1
102
RTVSPropertyOp61
 70
     1
102
RTVSPropertyOp62
 70
     1
  0
XRECORD
  5
D135
102
{ACAD_REACTORS
330
D134
102
}
330
D134
100
AcDbXrecord
280
     1
102
RTVSPost2010Prop28
280
     0
102
RTVSPost2010PropOp28
 70
     1
102
RTVSPost2010Prop29
280
     1
102
RTVSPost2010PropOp29
 70
     1
102
RTVSPost2010Prop30
280
     1
102
RTVSPost2010PropOp30
 70
     1
102
RTVSPost2010Prop31
280
     0
102
RTVSPost2010PropOp31
 70
     1
102
RTVSPost2010Prop32
280
     0
102
RTVSPost2010PropOp32
 70
     1
102
RTVSPost2010Prop33
280
     0
102
RTVSPost2010PropOp33
 70
     1
102
RTVSPost2010Prop34
280
     0
102
RTVSPost2010PropOp34
 70
     1
102
RTVSPost2010Prop35
280
     0
102
RTVSPost2010PropOp35
 70
     1
102
RTVSPost2010Prop36
280
     0
102
RTVSPost2010PropOp36
 70
     1
102
RTVSPost2010Prop37
 90
       50
102
RTVSPost2010PropOp37
 70
     1
102
RTVSPost2010Prop38
140
0.0
102
RTVSPost2010PropOp38
 70
     1
102
RTVSPost2010Prop39
140
1.0
102
RTVSPost2010PropOp39
 70
     1
102
RTVSPost2010Prop40
 90
        0
102
RTVSPost2010PropOp40
 70
     1
102
RTVSPost2010Prop41ColorIndex
 90
       18
102
RTVSPost2010Prop41ColorRGB
 90
        0
102
RTVSPost2010PropOp41
 70
     1
102
RTVSPost2010Prop42
 90
       50
102
RTVSPost2010PropOp42
 70
     1
102
RTVSPost2010Prop43
 90
        3
102
RTVSPost2010PropOp43
 70
     1
102
RTVSPost2010Prop44ColorIndex
 90
        5
102
RTVSPost2010Prop44ColorRGB
 90
      255
102
RTVSPost2010PropOp44
 70
     1
102
RTVSPost2010Prop45
280
     0
102
RTVSPost2010PropOp45
 70
     1
102
RTVSPost2010Prop46
 90
       50
102
RTVSPost2010PropOp46
 70
     1
102
RTVSPost2010Prop47
 90
       50
102
RTVSPost2010PropOp47
 70
     1
102
RTVSPost2010Prop48
 90
       50
102
RTVSPost2010PropOp48
 70
     1
102
RTVSPost2010Prop49
280
     0
102
RTVSPost2010PropOp49
 70
     1
102
RTVSPost2010Prop50
 90
       50
102
RTVSPost2010PropOp50
 70
     1
102
RTVSPost2010Prop51ColorIndex
 90
      256
102
RTVSPost2010Prop51ColorRGB
 90
-16777216
102
RTVSPost2010PropOp51
 70
     0
102
RTVSPost2010Prop52
140
1.0
102
RTVSPost2010PropOp52
 70
     0
102
RTVSPost2010Prop53
 90
        2
102
RTVSPost2010PropOp53
 70
     1
102
RTVSPost2010Prop54
  1
strokes_ogs.tif
102
RTVSPost2010PropOp54
 70
     1
102
RTVSPost2010Prop55
280
     0
102
RTVSPost2010PropOp55
 70
     1
102
RTVSPost2010Prop56
140
1.0
102
RTVSPost2010PropOp56
 70
     1
102
RTVSPost2010Prop57
140
1.0
102
RTVSPost2010PropOp57
 70
     1
102
RTVSPropertyOp0
 70
     1
102
RTVSPropertyOp1
 70
     1
102
RTVSPropertyOp2
 70
     1
102
RTVSPropertyOp3
 70
     1
102
RTVSPropertyOp4
 70
     1
102
RTVSPropertyOp5
 70
     1
102
RTVSPropertyOp6
 70
     1
102
RTVSPropertyOp7
 70
     1
102
RTVSPropertyOp8
 70
     1
102
RTVSPropertyOp9
 70
     1
102
RTVSPropertyOp10
 70
     1
102
RTVSPropertyOp11
 70
     1
102
RTVSPropertyOp12
 70
     1
102
RTVSPropertyOp13
 70
     1
102
RTVSPropertyOp14
 70
     1
102
RTVSPropertyOp15
 70
     1
102
RTVSPropertyOp16
 70
     1
102
RTVSPropertyOp17
 70
     1
102
RTVSPropertyOp18
 70
     1
102
RTVSPropertyOp19
 70
     1
102
RTVSPropertyOp20
 70
     1
102
RTVSPropertyOp21
 70
     1
102
RTVSPropertyOp22
 70
     1
102
RTVSPropertyOp23
 70
     1
102
RTVSPropertyOp24
 70
     1
102
RTVSPropertyOp25
 70
     1
102
RTVSPropertyOp26
 70
     1
102
RTVSPropertyOp27
 70
     1
102
RTVSPropertyOp28
 70
     1
102
RTVSPropertyOp29
 70
     1
102
RTVSPropertyOp30
 70
     1
102
RTVSPropertyOp31
 70
     1
102
RTVSPropertyOp32
 70
     1
102
RTVSPropertyOp33
 70
     1
102
RTVSPropertyOp34
 70
     1
102
RTVSPropertyOp35
 70
     1
102
RTVSPropertyOp36
 70
     1
102
RTVSPropertyOp37
 70
     1
102
RTVSPropertyOp38
 70
     1
102
RTVSPropertyOp39
 70
     1
102
RTVSPropertyOp40
 70
     1
102
RTVSPropertyOp41
 70
     1
102
RTVSPropertyOp42
 70
     1
102
RTVSPropertyOp43
 70
     1
102
RTVSPropertyOp44
 70
     1
102
RTVSPropertyOp45
 70
     1
102
RTVSPropertyOp46
 70
     1
102
RTVSPropertyOp47
 70
     1
102
RTVSPropertyOp48
 70
     1
102
RTVSPropertyOp49
 70
     1
102
RTVSPropertyOp50
 70
     1
102
RTVSPropertyOp51
 70
     0
102
RTVSPropertyOp52
 70
     0
102
RTVSPropertyOp53
 70
     1
102
RTVSPropertyOp54
 70
     1
102
RTVSPropertyOp55
 70
     1
102
RTVSPropertyOp56
 70
     1
102
RTVSPropertyOp57
 70
     1
102
RTVSPropertyOp58
 70
     1
102
RTVSPropertyOp59
 70
     1
102
RTVSPropertyOp60
 70
     1
102
RTVSPropertyOp61
 70
     1
102
RTVSPropertyOp62
 70
     1
  0
XRECORD
  5
D12F
102
{ACAD_REACTORS
330
D12E
102
}
330
D12E
100
AcDbXrecord
280
     1
102
RTVSPost2010Prop28
280
     0
102
RTVSPost2010PropOp28
 70
     1
102
RTVSPost2010Prop29
280
     1
102
RTVSPost2010PropOp29
 70
     1
102
RTVSPost2010Prop30
280
     1
102
RTVSPost2010PropOp30
 70
     1
102
RTVSPost2010Prop31
280
     0
102
RTVSPost2010PropOp31
 70
     1
102
RTVSPost2010Prop32
280
     0
102
RTVSPost2010PropOp32
 70
     1
102
RTVSPost2010Prop33
280
     0
102
RTVSPost2010PropOp33
 70
     1
102
RTVSPost2010Prop34
280
     0
102
RTVSPost2010PropOp34
 70
     1
102
RTVSPost2010Prop35
280
     0
102
RTVSPost2010PropOp35
 70
     1
102
RTVSPost2010Prop36
280
     0
102
RTVSPost2010PropOp36
 70
     1
102
RTVSPost2010Prop37
 90
       50
102
RTVSPost2010PropOp37
 70
     1
102
RTVSPost2010Prop38
140
0.0
102
RTVSPost2010PropOp38
 70
     1
102
RTVSPost2010Prop39
140
1.0
102
RTVSPost2010PropOp39
 70
     1
102
RTVSPost2010Prop40
 90
        0
102
RTVSPost2010PropOp40
 70
     1
102
RTVSPost2010Prop41ColorIndex
 90
       18
102
RTVSPost2010Prop41ColorRGB
 90
        0
102
RTVSPost2010PropOp41
 70
     1
102
RTVSPost2010Prop42
 90
       50
102
RTVSPost2010PropOp42
 70
     1
102
RTVSPost2010Prop43
 90
        3
102
RTVSPost2010PropOp43
 70
     1
102
RTVSPost2010Prop44ColorIndex
 90
        5
102
RTVSPost2010Prop44ColorRGB
 90
      255
102
RTVSPost2010PropOp44
 70
     1
102
RTVSPost2010Prop45
280
     0
102
RTVSPost2010PropOp45
 70
     1
102
RTVSPost2010Prop46
 90
       50
102
RTVSPost2010PropOp46
 70
     1
102
RTVSPost2010Prop47
 90
       50
102
RTVSPost2010PropOp47
 70
     1
102
RTVSPost2010Prop48
 90
       50
102
RTVSPost2010PropOp48
 70
     1
102
RTVSPost2010Prop49
280
     0
102
RTVSPost2010PropOp49
 70
     1
102
RTVSPost2010Prop50
 90
       50
102
RTVSPost2010PropOp50
 70
     1
102
RTVSPost2010Prop51ColorIndex
 90
      256
102
RTVSPost2010Prop51ColorRGB
 90
-16777216
102
RTVSPost2010PropOp51
 70
     0
102
RTVSPost2010Prop52
140
1.0
102
RTVSPost2010PropOp52
 70
     0
102
RTVSPost2010Prop53
 90
        2
102
RTVSPost2010PropOp53
 70
     1
102
RTVSPost2010Prop54
  1
strokes_ogs.tif
102
RTVSPost2010PropOp54
 70
     1
102
RTVSPost2010Prop55
280
     0
102
RTVSPost2010PropOp55
 70
     1
102
RTVSPost2010Prop56
140
1.0
102
RTVSPost2010PropOp56
 70
     1
102
RTVSPost2010Prop57
140
1.0
102
RTVSPost2010PropOp57
 70
     1
102
RTVSPropertyOp0
 70
     1
102
RTVSPropertyOp1
 70
     1
102
RTVSPropertyOp2
 70
     1
102
RTVSPropertyOp3
 70
     1
102
RTVSPropertyOp4
 70
     1
102
RTVSPropertyOp5
 70
     1
102
RTVSPropertyOp6
 70
     1
102
RTVSPropertyOp7
 70
     1
102
RTVSPropertyOp8
 70
     1
102
RTVSPropertyOp9
 70
     1
102
RTVSPropertyOp10
 70
     1
102
RTVSPropertyOp11
 70
     1
102
RTVSPropertyOp12
 70
     1
102
RTVSPropertyOp13
 70
     1
102
RTVSPropertyOp14
 70
     1
102
RTVSPropertyOp15
 70
     1
102
RTVSPropertyOp16
 70
     1
102
RTVSPropertyOp17
 70
     1
102
RTVSPropertyOp18
 70
     1
102
RTVSPropertyOp19
 70
     1
102
RTVSPropertyOp20
 70
     1
102
RTVSPropertyOp21
 70
     1
102
RTVSPropertyOp22
 70
     1
102
RTVSPropertyOp23
 70
     1
102
RTVSPropertyOp24
 70
     1
102
RTVSPropertyOp25
 70
     1
102
RTVSPropertyOp26
 70
     1
102
RTVSPropertyOp27
 70
     1
102
RTVSPropertyOp28
 70
     1
102
RTVSPropertyOp29
 70
     1
102
RTVSPropertyOp30
 70
     1
102
RTVSPropertyOp31
 70
     1
102
RTVSPropertyOp32
 70
     1
102
RTVSPropertyOp33
 70
     1
102
RTVSPropertyOp34
 70
     1
102
RTVSPropertyOp35
 70
     1
102
RTVSPropertyOp36
 70
     1
102
RTVSPropertyOp37
 70
     1
102
RTVSPropertyOp38
 70
     1
102
RTVSPropertyOp39
 70
     1
102
RTVSPropertyOp40
 70
     1
102
RTVSPropertyOp41
 70
     1
102
RTVSPropertyOp42
 70
     1
102
RTVSPropertyOp43
 70
     1
102
RTVSPropertyOp44
 70
     1
102
RTVSPropertyOp45
 70
     1
102
RTVSPropertyOp46
 70
     1
102
RTVSPropertyOp47
 70
     1
102
RTVSPropertyOp48
 70
     1
102
RTVSPropertyOp49
 70
     1
102
RTVSPropertyOp50
 70
     1
102
RTVSPropertyOp51
 70
     0
102
RTVSPropertyOp52
 70
     0
102
RTVSPropertyOp53
 70
     1
102
RTVSPropertyOp54
 70
     1
102
RTVSPropertyOp55
 70
     1
102
RTVSPropertyOp56
 70
     1
102
RTVSPropertyOp57
 70
     1
102
RTVSPropertyOp58
 70
     1
102
RTVSPropertyOp59
 70
     1
102
RTVSPropertyOp60
 70
     1
102
RTVSPropertyOp61
 70
     1
102
RTVSPropertyOp62
 70
     1
  0
XRECORD
  5
D131
102
{ACAD_REACTORS
330
D130
102
}
330
D130
100
AcDbXrecord
280
     1
102
RTVSPost2010Prop28
280
     0
102
RTVSPost2010PropOp28
 70
     1
102
RTVSPost2010Prop29
280
     1
102
RTVSPost2010PropOp29
 70
     1
102
RTVSPost2010Prop30
280
     1
102
RTVSPost2010PropOp30
 70
     1
102
RTVSPost2010Prop31
280
     0
102
RTVSPost2010PropOp31
 70
     1
102
RTVSPost2010Prop32
280
     0
102
RTVSPost2010PropOp32
 70
     1
102
RTVSPost2010Prop33
280
     0
102
RTVSPost2010PropOp33
 70
     1
102
RTVSPost2010Prop34
280
     0
102
RTVSPost2010PropOp34
 70
     1
102
RTVSPost2010Prop35
280
     0
102
RTVSPost2010PropOp35
 70
     1
102
RTVSPost2010Prop36
280
     0
102
RTVSPost2010PropOp36
 70
     1
102
RTVSPost2010Prop37
 90
       50
102
RTVSPost2010PropOp37
 70
     1
102
RTVSPost2010Prop38
140
0.0
102
RTVSPost2010PropOp38
 70
     1
102
RTVSPost2010Prop39
140
1.0
102
RTVSPost2010PropOp39
 70
     1
102
RTVSPost2010Prop40
 90
        0
102
RTVSPost2010PropOp40
 70
     1
102
RTVSPost2010Prop41ColorIndex
 90
       18
102
RTVSPost2010Prop41ColorRGB
 90
        0
102
RTVSPost2010PropOp41
 70
     1
102
RTVSPost2010Prop42
 90
       50
102
RTVSPost2010PropOp42
 70
     1
102
RTVSPost2010Prop43
 90
        3
102
RTVSPost2010PropOp43
 70
     1
102
RTVSPost2010Prop44ColorIndex
 90
        5
102
RTVSPost2010Prop44ColorRGB
 90
      255
102
RTVSPost2010PropOp44
 70
     1
102
RTVSPost2010Prop45
280
     0
102
RTVSPost2010PropOp45
 70
     1
102
RTVSPost2010Prop46
 90
       50
102
RTVSPost2010PropOp46
 70
     1
102
RTVSPost2010Prop47
 90
       50
102
RTVSPost2010PropOp47
 70
     1
102
RTVSPost2010Prop48
 90
       50
102
RTVSPost2010PropOp48
 70
     1
102
RTVSPost2010Prop49
280
     0
102
RTVSPost2010PropOp49
 70
     1
102
RTVSPost2010Prop50
 90
       50
102
RTVSPost2010PropOp50
 70
     1
102
RTVSPost2010Prop51ColorIndex
 90
      256
102
RTVSPost2010Prop51ColorRGB
 90
-16777216
102
RTVSPost2010PropOp51
 70
     0
102
RTVSPost2010Prop52
140
1.0
102
RTVSPost2010PropOp52
 70
     0
102
RTVSPost2010Prop53
 90
        2
102
RTVSPost2010PropOp53
 70
     1
102
RTVSPost2010Prop54
  1
strokes_ogs.tif
102
RTVSPost2010PropOp54
 70
     1
102
RTVSPost2010Prop55
280
     0
102
RTVSPost2010PropOp55
 70
     1
102
RTVSPost2010Prop56
140
1.0
102
RTVSPost2010PropOp56
 70
     1
102
RTVSPost2010Prop57
140
1.0
102
RTVSPost2010PropOp57
 70
     1
102
RTVSPropertyOp0
 70
     1
102
RTVSPropertyOp1
 70
     1
102
RTVSPropertyOp2
 70
     1
102
RTVSPropertyOp3
 70
     1
102
RTVSPropertyOp4
 70
     1
102
RTVSPropertyOp5
 70
     1
102
RTVSPropertyOp6
 70
     1
102
RTVSPropertyOp7
 70
     1
102
RTVSPropertyOp8
 70
     1
102
RTVSPropertyOp9
 70
     1
102
RTVSPropertyOp10
 70
     1
102
RTVSPropertyOp11
 70
     1
102
RTVSPropertyOp12
 70
     1
102
RTVSPropertyOp13
 70
     1
102
RTVSPropertyOp14
 70
     1
102
RTVSPropertyOp15
 70
     1
102
RTVSPropertyOp16
 70
     1
102
RTVSPropertyOp17
 70
     1
102
RTVSPropertyOp18
 70
     1
102
RTVSPropertyOp19
 70
     1
102
RTVSPropertyOp20
 70
     1
102
RTVSPropertyOp21
 70
     1
102
RTVSPropertyOp22
 70
     1
102
RTVSPropertyOp23
 70
     1
102
RTVSPropertyOp24
 70
     1
102
RTVSPropertyOp25
 70
     1
102
RTVSPropertyOp26
 70
     1
102
RTVSPropertyOp27
 70
     1
102
RTVSPropertyOp28
 70
     1
102
RTVSPropertyOp29
 70
     1
102
RTVSPropertyOp30
 70
     1
102
RTVSPropertyOp31
 70
     1
102
RTVSPropertyOp32
 70
     1
102
RTVSPropertyOp33
 70
     1
102
RTVSPropertyOp34
 70
     1
102
RTVSPropertyOp35
 70
     1
102
RTVSPropertyOp36
 70
     1
102
RTVSPropertyOp37
 70
     1
102
RTVSPropertyOp38
 70
     1
102
RTVSPropertyOp39
 70
     1
102
RTVSPropertyOp40
 70
     1
102
RTVSPropertyOp41
 70
     1
102
RTVSPropertyOp42
 70
     1
102
RTVSPropertyOp43
 70
     1
102
RTVSPropertyOp44
 70
     1
102
RTVSPropertyOp45
 70
     1
102
RTVSPropertyOp46
 70
     1
102
RTVSPropertyOp47
 70
     1
102
RTVSPropertyOp48
 70
     1
102
RTVSPropertyOp49
 70
     1
102
RTVSPropertyOp50
 70
     1
102
RTVSPropertyOp51
 70
     0
102
RTVSPropertyOp52
 70
     0
102
RTVSPropertyOp53
 70
     1
102
RTVSPropertyOp54
 70
     1
102
RTVSPropertyOp55
 70
     1
102
RTVSPropertyOp56
 70
     1
102
RTVSPropertyOp57
 70
     1
102
RTVSPropertyOp58
 70
     1
102
RTVSPropertyOp59
 70
     1
102
RTVSPropertyOp60
 70
     1
102
RTVSPropertyOp61
 70
     1
102
RTVSPropertyOp62
 70
     1
  0
XRECORD
  5
D11F
102
{ACAD_REACTORS
330
D11E
102
}
330
D11E
100
AcDbXrecord
280
     1
102
RTVSPost2010Prop28
280
     0
102
RTVSPost2010PropOp28
 70
     1
102
RTVSPost2010Prop29
280
     1
102
RTVSPost2010PropOp29
 70
     1
102
RTVSPost2010Prop30
280
     1
102
RTVSPost2010PropOp30
 70
     1
102
RTVSPost2010Prop31
280
     0
102
RTVSPost2010PropOp31
 70
     1
102
RTVSPost2010Prop32
280
     0
102
RTVSPost2010PropOp32
 70
     1
102
RTVSPost2010Prop33
280
     0
102
RTVSPost2010PropOp33
 70
     1
102
RTVSPost2010Prop34
280
     0
102
RTVSPost2010PropOp34
 70
     1
102
RTVSPost2010Prop35
280
     0
102
RTVSPost2010PropOp35
 70
     1
102
RTVSPost2010Prop36
280
     0
102
RTVSPost2010PropOp36
 70
     1
102
RTVSPost2010Prop37
 90
       50
102
RTVSPost2010PropOp37
 70
     1
102
RTVSPost2010Prop38
140
0.0
102
RTVSPost2010PropOp38
 70
     1
102
RTVSPost2010Prop39
140
1.0
102
RTVSPost2010PropOp39
 70
     1
102
RTVSPost2010Prop40
 90
        0
102
RTVSPost2010PropOp40
 70
     1
102
RTVSPost2010Prop41ColorIndex
 90
       18
102
RTVSPost2010Prop41ColorRGB
 90
        0
102
RTVSPost2010PropOp41
 70
     1
102
RTVSPost2010Prop42
 90
       50
102
RTVSPost2010PropOp42
 70
     1
102
RTVSPost2010Prop43
 90
        3
102
RTVSPost2010PropOp43
 70
     1
102
RTVSPost2010Prop44ColorIndex
 90
        5
102
RTVSPost2010Prop44ColorRGB
 90
      255
102
RTVSPost2010PropOp44
 70
     1
102
RTVSPost2010Prop45
280
     0
102
RTVSPost2010PropOp45
 70
     1
102
RTVSPost2010Prop46
 90
       50
102
RTVSPost2010PropOp46
 70
     1
102
RTVSPost2010Prop47
 90
       50
102
RTVSPost2010PropOp47
 70
     1
102
RTVSPost2010Prop48
 90
       50
102
RTVSPost2010PropOp48
 70
     1
102
RTVSPost2010Prop49
280
     0
102
RTVSPost2010PropOp49
 70
     1
102
RTVSPost2010Prop50
 90
       50
102
RTVSPost2010PropOp50
 70
     1
102
RTVSPost2010Prop51ColorIndex
 90
      256
102
RTVSPost2010Prop51ColorRGB
 90
-16777216
102
RTVSPost2010PropOp51
 70
     0
102
RTVSPost2010Prop52
140
1.0
102
RTVSPost2010PropOp52
 70
     0
102
RTVSPost2010Prop53
 90
        2
102
RTVSPost2010PropOp53
 70
     1
102
RTVSPost2010Prop54
  1
strokes_ogs.tif
102
RTVSPost2010PropOp54
 70
     1
102
RTVSPost2010Prop55
280
     0
102
RTVSPost2010PropOp55
 70
     1
102
RTVSPost2010Prop56
140
1.0
102
RTVSPost2010PropOp56
 70
     1
102
RTVSPost2010Prop57
140
1.0
102
RTVSPost2010PropOp57
 70
     1
102
RTVSPropertyOp0
 70
     1
102
RTVSPropertyOp1
 70
     1
102
RTVSPropertyOp2
 70
     1
102
RTVSPropertyOp3
 70
     1
102
RTVSPropertyOp4
 70
     1
102
RTVSPropertyOp5
 70
     1
102
RTVSPropertyOp6
 70
     1
102
RTVSPropertyOp7
 70
     1
102
RTVSPropertyOp8
 70
     1
102
RTVSPropertyOp9
 70
     1
102
RTVSPropertyOp10
 70
     1
102
RTVSPropertyOp11
 70
     1
102
RTVSPropertyOp12
 70
     1
102
RTVSPropertyOp13
 70
     1
102
RTVSPropertyOp14
 70
     1
102
RTVSPropertyOp15
 70
     1
102
RTVSPropertyOp16
 70
     1
102
RTVSPropertyOp17
 70
     1
102
RTVSPropertyOp18
 70
     1
102
RTVSPropertyOp19
 70
     1
102
RTVSPropertyOp20
 70
     1
102
RTVSPropertyOp21
 70
     1
102
RTVSPropertyOp22
 70
     1
102
RTVSPropertyOp23
 70
     1
102
RTVSPropertyOp24
 70
     1
102
RTVSPropertyOp25
 70
     1
102
RTVSPropertyOp26
 70
     1
102
RTVSPropertyOp27
 70
     1
102
RTVSPropertyOp28
 70
     1
102
RTVSPropertyOp29
 70
     1
102
RTVSPropertyOp30
 70
     1
102
RTVSPropertyOp31
 70
     1
102
RTVSPropertyOp32
 70
     1
102
RTVSPropertyOp33
 70
     1
102
RTVSPropertyOp34
 70
     1
102
RTVSPropertyOp35
 70
     1
102
RTVSPropertyOp36
 70
     1
102
RTVSPropertyOp37
 70
     1
102
RTVSPropertyOp38
 70
     1
102
RTVSPropertyOp39
 70
     1
102
RTVSPropertyOp40
 70
     1
102
RTVSPropertyOp41
 70
     1
102
RTVSPropertyOp42
 70
     1
102
RTVSPropertyOp43
 70
     1
102
RTVSPropertyOp44
 70
     1
102
RTVSPropertyOp45
 70
     1
102
RTVSPropertyOp46
 70
     1
102
RTVSPropertyOp47
 70
     1
102
RTVSPropertyOp48
 70
     1
102
RTVSPropertyOp49
 70
     1
102
RTVSPropertyOp50
 70
     1
102
RTVSPropertyOp51
 70
     0
102
RTVSPropertyOp52
 70
     0
102
RTVSPropertyOp53
 70
     1
102
RTVSPropertyOp54
 70
     1
102
RTVSPropertyOp55
 70
     1
102
RTVSPropertyOp56
 70
     1
102
RTVSPropertyOp57
 70
     1
102
RTVSPropertyOp58
 70
     1
102
RTVSPropertyOp59
 70
     1
102
RTVSPropertyOp60
 70
     1
102
RTVSPropertyOp61
 70
     1
102
RTVSPropertyOp62
 70
     1
  0
XRECORD
  5
D113
102
{ACAD_REACTORS
330
D112
102
}
330
D112
100
AcDbXrecord
280
     1
102
RTVSPost2010Prop28
280
     0
102
RTVSPost2010PropOp28
 70
     1
102
RTVSPost2010Prop29
280
     1
102
RTVSPost2010PropOp29
 70
     1
102
RTVSPost2010Prop30
280
     1
102
RTVSPost2010PropOp30
 70
     1
102
RTVSPost2010Prop31
280
     0
102
RTVSPost2010PropOp31
 70
     1
102
RTVSPost2010Prop32
280
     0
102
RTVSPost2010PropOp32
 70
     1
102
RTVSPost2010Prop33
280
     0
102
RTVSPost2010PropOp33
 70
     1
102
RTVSPost2010Prop34
280
     0
102
RTVSPost2010PropOp34
 70
     1
102
RTVSPost2010Prop35
280
     0
102
RTVSPost2010PropOp35
 70
     1
102
RTVSPost2010Prop36
280
     0
102
RTVSPost2010PropOp36
 70
     1
102
RTVSPost2010Prop37
 90
       50
102
RTVSPost2010PropOp37
 70
     1
102
RTVSPost2010Prop38
140
0.0
102
RTVSPost2010PropOp38
 70
     1
102
RTVSPost2010Prop39
140
1.0
102
RTVSPost2010PropOp39
 70
     1
102
RTVSPost2010Prop40
 90
        0
102
RTVSPost2010PropOp40
 70
     1
102
RTVSPost2010Prop41ColorIndex
 90
       18
102
RTVSPost2010Prop41ColorRGB
 90
        0
102
RTVSPost2010PropOp41
 70
     1
102
RTVSPost2010Prop42
 90
       50
102
RTVSPost2010PropOp42
 70
     1
102
RTVSPost2010Prop43
 90
        3
102
RTVSPost2010PropOp43
 70
     1
102
RTVSPost2010Prop44ColorIndex
 90
        5
102
RTVSPost2010Prop44ColorRGB
 90
      255
102
RTVSPost2010PropOp44
 70
     1
102
RTVSPost2010Prop45
280
     0
102
RTVSPost2010PropOp45
 70
     1
102
RTVSPost2010Prop46
 90
       50
102
RTVSPost2010PropOp46
 70
     1
102
RTVSPost2010Prop47
 90
       50
102
RTVSPost2010PropOp47
 70
     1
102
RTVSPost2010Prop48
 90
       50
102
RTVSPost2010PropOp48
 70
     1
102
RTVSPost2010Prop49
280
     0
102
RTVSPost2010PropOp49
 70
     1
102
RTVSPost2010Prop50
 90
       50
102
RTVSPost2010PropOp50
 70
     1
102
RTVSPost2010Prop51ColorIndex
 90
      256
102
RTVSPost2010Prop51ColorRGB
 90
-16777216
102
RTVSPost2010PropOp51
 70
     0
102
RTVSPost2010Prop52
140
1.0
102
RTVSPost2010PropOp52
 70
     0
102
RTVSPost2010Prop53
 90
        2
102
RTVSPost2010PropOp53
 70
     1
102
RTVSPost2010Prop54
  1
strokes_ogs.tif
102
RTVSPost2010PropOp54
 70
     1
102
RTVSPost2010Prop55
280
     0
102
RTVSPost2010PropOp55
 70
     1
102
RTVSPost2010Prop56
140
1.0
102
RTVSPost2010PropOp56
 70
     1
102
RTVSPost2010Prop57
140
1.0
102
RTVSPost2010PropOp57
 70
     1
102
RTVSPropertyOp0
 70
     1
102
RTVSPropertyOp1
 70
     1
102
RTVSPropertyOp2
 70
     1
102
RTVSPropertyOp3
 70
     1
102
RTVSPropertyOp4
 70
     1
102
RTVSPropertyOp5
 70
     1
102
RTVSPropertyOp6
 70
     1
102
RTVSPropertyOp7
 70
     1
102
RTVSPropertyOp8
 70
     1
102
RTVSPropertyOp9
 70
     1
102
RTVSPropertyOp10
 70
     1
102
RTVSPropertyOp11
 70
     1
102
RTVSPropertyOp12
 70
     1
102
RTVSPropertyOp13
 70
     1
102
RTVSPropertyOp14
 70
     1
102
RTVSPropertyOp15
 70
     1
102
RTVSPropertyOp16
 70
     1
102
RTVSPropertyOp17
 70
     1
102
RTVSPropertyOp18
 70
     1
102
RTVSPropertyOp19
 70
     1
102
RTVSPropertyOp20
 70
     1
102
RTVSPropertyOp21
 70
     1
102
RTVSPropertyOp22
 70
     1
102
RTVSPropertyOp23
 70
     1
102
RTVSPropertyOp24
 70
     1
102
RTVSPropertyOp25
 70
     1
102
RTVSPropertyOp26
 70
     1
102
RTVSPropertyOp27
 70
     1
102
RTVSPropertyOp28
 70
     1
102
RTVSPropertyOp29
 70
     1
102
RTVSPropertyOp30
 70
     1
102
RTVSPropertyOp31
 70
     1
102
RTVSPropertyOp32
 70
     1
102
RTVSPropertyOp33
 70
     1
102
RTVSPropertyOp34
 70
     1
102
RTVSPropertyOp35
 70
     1
102
RTVSPropertyOp36
 70
     1
102
RTVSPropertyOp37
 70
     1
102
RTVSPropertyOp38
 70
     1
102
RTVSPropertyOp39
 70
     1
102
RTVSPropertyOp40
 70
     1
102
RTVSPropertyOp41
 70
     1
102
RTVSPropertyOp42
 70
     1
102
RTVSPropertyOp43
 70
     1
102
RTVSPropertyOp44
 70
     1
102
RTVSPropertyOp45
 70
     1
102
RTVSPropertyOp46
 70
     1
102
RTVSPropertyOp47
 70
     1
102
RTVSPropertyOp48
 70
     1
102
RTVSPropertyOp49
 70
     1
102
RTVSPropertyOp50
 70
     1
102
RTVSPropertyOp51
 70
     0
102
RTVSPropertyOp52
 70
     0
102
RTVSPropertyOp53
 70
     1
102
RTVSPropertyOp54
 70
     1
102
RTVSPropertyOp55
 70
     1
102
RTVSPropertyOp56
 70
     1
102
RTVSPropertyOp57
 70
     1
102
RTVSPropertyOp58
 70
     1
102
RTVSPropertyOp59
 70
     1
102
RTVSPropertyOp60
 70
     1
102
RTVSPropertyOp61
 70
     1
102
RTVSPropertyOp62
 70
     1
  0
XRECORD
  5
D133
102
{ACAD_REACTORS
330
D132
102
}
330
D132
100
AcDbXrecord
280
     1
102
RTVSPost2010Prop28
280
     0
102
RTVSPost2010PropOp28
 70
     1
102
RTVSPost2010Prop29
280
     1
102
RTVSPost2010PropOp29
 70
     1
102
RTVSPost2010Prop30
280
     1
102
RTVSPost2010PropOp30
 70
     1
102
RTVSPost2010Prop31
280
     0
102
RTVSPost2010PropOp31
 70
     1
102
RTVSPost2010Prop32
280
     0
102
RTVSPost2010PropOp32
 70
     1
102
RTVSPost2010Prop33
280
     0
102
RTVSPost2010PropOp33
 70
     1
102
RTVSPost2010Prop34
280
     0
102
RTVSPost2010PropOp34
 70
     1
102
RTVSPost2010Prop35
280
     0
102
RTVSPost2010PropOp35
 70
     1
102
RTVSPost2010Prop36
280
     0
102
RTVSPost2010PropOp36
 70
     1
102
RTVSPost2010Prop37
 90
       50
102
RTVSPost2010PropOp37
 70
     1
102
RTVSPost2010Prop38
140
0.0
102
RTVSPost2010PropOp38
 70
     1
102
RTVSPost2010Prop39
140
1.0
102
RTVSPost2010PropOp39
 70
     1
102
RTVSPost2010Prop40
 90
        0
102
RTVSPost2010PropOp40
 70
     1
102
RTVSPost2010Prop41ColorIndex
 90
       18
102
RTVSPost2010Prop41ColorRGB
 90
        0
102
RTVSPost2010PropOp41
 70
     1
102
RTVSPost2010Prop42
 90
       50
102
RTVSPost2010PropOp42
 70
     1
102
RTVSPost2010Prop43
 90
        3
102
RTVSPost2010PropOp43
 70
     1
102
RTVSPost2010Prop44ColorIndex
 90
        5
102
RTVSPost2010Prop44ColorRGB
 90
      255
102
RTVSPost2010PropOp44
 70
     1
102
RTVSPost2010Prop45
280
     0
102
RTVSPost2010PropOp45
 70
     1
102
RTVSPost2010Prop46
 90
       50
102
RTVSPost2010PropOp46
 70
     1
102
RTVSPost2010Prop47
 90
       50
102
RTVSPost2010PropOp47
 70
     1
102
RTVSPost2010Prop48
 90
       50
102
RTVSPost2010PropOp48
 70
     1
102
RTVSPost2010Prop49
280
     0
102
RTVSPost2010PropOp49
 70
     1
102
RTVSPost2010Prop50
 90
       50
102
RTVSPost2010PropOp50
 70
     1
102
RTVSPost2010Prop51ColorIndex
 90
      256
102
RTVSPost2010Prop51ColorRGB
 90
-16777216
102
RTVSPost2010PropOp51
 70
     0
102
RTVSPost2010Prop52
140
1.0
102
RTVSPost2010PropOp52
 70
     0
102
RTVSPost2010Prop53
 90
        2
102
RTVSPost2010PropOp53
 70
     1
102
RTVSPost2010Prop54
  1
strokes_ogs.tif
102
RTVSPost2010PropOp54
 70
     1
102
RTVSPost2010Prop55
280
     0
102
RTVSPost2010PropOp55
 70
     1
102
RTVSPost2010Prop56
140
1.0
102
RTVSPost2010PropOp56
 70
     1
102
RTVSPost2010Prop57
140
1.0
102
RTVSPost2010PropOp57
 70
     1
102
RTVSPropertyOp0
 70
     1
102
RTVSPropertyOp1
 70
     1
102
RTVSPropertyOp2
 70
     1
102
RTVSPropertyOp3
 70
     1
102
RTVSPropertyOp4
 70
     1
102
RTVSPropertyOp5
 70
     1
102
RTVSPropertyOp6
 70
     1
102
RTVSPropertyOp7
 70
     1
102
RTVSPropertyOp8
 70
     1
102
RTVSPropertyOp9
 70
     1
102
RTVSPropertyOp10
 70
     1
102
RTVSPropertyOp11
 70
     1
102
RTVSPropertyOp12
 70
     1
102
RTVSPropertyOp13
 70
     1
102
RTVSPropertyOp14
 70
     1
102
RTVSPropertyOp15
 70
     1
102
RTVSPropertyOp16
 70
     1
102
RTVSPropertyOp17
 70
     1
102
RTVSPropertyOp18
 70
     1
102
RTVSPropertyOp19
 70
     1
102
RTVSPropertyOp20
 70
     1
102
RTVSPropertyOp21
 70
     1
102
RTVSPropertyOp22
 70
     1
102
RTVSPropertyOp23
 70
     1
102
RTVSPropertyOp24
 70
     1
102
RTVSPropertyOp25
 70
     1
102
RTVSPropertyOp26
 70
     1
102
RTVSPropertyOp27
 70
     1
102
RTVSPropertyOp28
 70
     1
102
RTVSPropertyOp29
 70
     1
102
RTVSPropertyOp30
 70
     1
102
RTVSPropertyOp31
 70
     1
102
RTVSPropertyOp32
 70
     1
102
RTVSPropertyOp33
 70
     1
102
RTVSPropertyOp34
 70
     1
102
RTVSPropertyOp35
 70
     1
102
RTVSPropertyOp36
 70
     1
102
RTVSPropertyOp37
 70
     1
102
RTVSPropertyOp38
 70
     1
102
RTVSPropertyOp39
 70
     1
102
RTVSPropertyOp40
 70
     1
102
RTVSPropertyOp41
 70
     1
102
RTVSPropertyOp42
 70
     1
102
RTVSPropertyOp43
 70
     1
102
RTVSPropertyOp44
 70
     1
102
RTVSPropertyOp45
 70
     1
102
RTVSPropertyOp46
 70
     1
102
RTVSPropertyOp47
 70
     1
102
RTVSPropertyOp48
 70
     1
102
RTVSPropertyOp49
 70
     1
102
RTVSPropertyOp50
 70
     1
102
RTVSPropertyOp51
 70
     0
102
RTVSPropertyOp52
 70
     0
102
RTVSPropertyOp53
 70
     1
102
RTVSPropertyOp54
 70
     1
102
RTVSPropertyOp55
 70
     1
102
RTVSPropertyOp56
 70
     1
102
RTVSPropertyOp57
 70
     1
102
RTVSPropertyOp58
 70
     1
102
RTVSPropertyOp59
 70
     1
102
RTVSPropertyOp60
 70
     1
102
RTVSPropertyOp61
 70
     1
102
RTVSPropertyOp62
 70
     1
  0
ENDSEC
  0
EOF
