  0
SECTION
  2
HEADER
  9
$ACADVER
  1
AC1015
  9
$ACADMAINTVER
 70
    18
  9
$DWGCODEPAGE
  3
ANSI_1252
  9
$INSBASE
 10
0.0
 20
0.0
 30
0.0
  9
$EXTMIN
 10
-140.2670279939973
 20
-156.9927057900847
 30
-0.0015258207003583
  9
$EXTMAX
 10
163.8894660117681
 20
188.2670751498862
 30
0.0000000349246037
  9
$LIMMIN
 10
0.0
 20
0.0
  9
$LIMMAX
 10
420.0
 20
297.0
  9
$ORTHOMODE
 70
     0
  9
$REGENMODE
 70
     1
  9
$FILLMODE
 70
     1
  9
$QTEXTMODE
 70
     0
  9
$MIRRTEXT
 70
     0
  9
$LTSCALE
 40
1.0
  9
$ATTMODE
 70
     1
  9
$TEXTSIZE
 40
2.5
  9
$TRACEWID
 40
1.0
  9
$TEXTSTYLE
  7
Standard
  9
$CLAYER
  8
0
  9
$CELTYPE
  6
ByLayer
  9
$CECOLOR
 62
   256
  9
$CELTSCALE
 40
1.0
  9
$DISPSILH
 70
     0
  9
$DIMSCALE
 40
1.0
  9
$DIMASZ
 40
2.5
  9
$DIMEXO
 40
0.625
  9
$DIMDLI
 40
3.75
  9
$DIMRND
 40
0.0
  9
$DIMDLE
 40
0.0
  9
$DIMEXE
 40
1.25
  9
$DIMTP
 40
0.0
  9
$DIMTM
 40
0.0
  9
$DIMTXT
 40
2.5
  9
$DIMCEN
 40
2.5
  9
$DIMTSZ
 40
0.0
  9
$DIMTOL
 70
     0
  9
$DIMLIM
 70
     0
  9
$DIMTIH
 70
     0
  9
$DIMTOH
 70
     0
  9
$DIMSE1
 70
     0
  9
$DIMSE2
 70
     0
  9
$DIMTAD
 70
     1
  9
$DIMZIN
 70
     8
  9
$DIMBLK
  1

  9
$DIMASO
 70
     1
  9
$DIMSHO
 70
     1
  9
$DIMPOST
  1

  9
$DIMAPOST
  1

  9
$DIMALT
 70
     0
  9
$DIMALTD
 70
     3
  9
$DIMALTF
 40
0.03937007874016
  9
$DIMLFAC
 40
1.0
  9
$DIMTOFL
 70
     1
  9
$DIMTVP
 40
0.0
  9
$DIMTIX
 70
     0
  9
$DIMSOXD
 70
     0
  9
$DIMSAH
 70
     0
  9
$DIMBLK1
  1

  9
$DIMBLK2
  1

  9
$DIMSTYLE
  2
ISO-25
  9
$DIMCLRD
 70
     0
  9
$DIMCLRE
 70
     0
  9
$DIMCLRT
 70
     0
  9
$DIMTFAC
 40
1.0
  9
$DIMGAP
 40
0.625
  9
$DIMJUST
 70
     0
  9
$DIMSD1
 70
     0
  9
$DIMSD2
 70
     0
  9
$DIMTOLJ
 70
     0
  9
$DIMTZIN
 70
     8
  9
$DIMALTZ
 70
     0
  9
$DIMALTTZ
 70
     0
  9
$DIMUPT
 70
     0
  9
$DIMDEC
 70
     2
  9
$DIMTDEC
 70
     2
  9
$DIMALTU
 70
     2
  9
$DIMALTTD
 70
     3
  9
$DIMTXSTY
  7
Standard
  9
$DIMAUNIT
 70
     0
  9
$DIMADEC
 70
     0
  9
$DIMALTRND
 40
0.0
  9
$DIMAZIN
 70
     0
  9
$DIMDSEP
 70
    44
  9
$DIMATFIT
 70
     3
  9
$DIMFRAC
 70
     0
  9
$DIMLDRBLK
  1

  9
$DIMLUNIT
 70
     2
  9
$DIMLWD
 70
    -2
  9
$DIMLWE
 70
    -2
  9
$DIMTMOVE
 70
     0
  9
$LUNITS
 70
     2
  9
$LUPREC
 70
     4
  9
$SKETCHINC
 40
1.0
  9
$FILLETRAD
 40
0.0
  9
$AUNITS
 70
     0
  9
$AUPREC
 70
     0
  9
$MENU
  1
.
  9
$ELEVATION
 40
0.0
  9
$PELEVATION
 40
0.0
  9
$THICKNESS
 40
0.0
  9
$LIMCHECK
 70
     0
  9
$CHAMFERA
 40
0.0
  9
$CHAMFERB
 40
0.0
  9
$CHAMFERC
 40
0.0
  9
$CHAMFERD
 40
0.0
  9
$SKPOLY
 70
     0
  9
$TDCREATE
 40
2460286.622500000
  9
$TDUCREATE
 40
2460286.330833334
  9
$TDUPDATE
 40
2460286.638946759
  9
$TDUUPDATE
 40
2460286.347280093
  9
$TDINDWG
 40
0.0049189815
  9
$TDUSRTIMER
 40
0.0049189815
  9
$USRTIMER
 70
     1
  9
$ANGBASE
 50
0.0
  9
$ANGDIR
 70
     0
  9
$PDMODE
 70
     0
  9
$PDSIZE
 40
0.0
  9
$PLINEWID
 40
0.0
  9
$SPLFRAME
 70
     0
  9
$SPLINETYPE
 70
     6
  9
$SPLINESEGS
 70
     8
  9
$HANDSEED
  5
DE89
  9
$SURFTAB1
 70
     6
  9
$SURFTAB2
 70
     6
  9
$SURFTYPE
 70
     6
  9
$SURFU
 70
     6
  9
$SURFV
 70
     6
  9
$UCSBASE
  2

  9
$UCSNAME
  2

  9
$UCSORG
 10
0.0
 20
0.0
 30
0.0
  9
$UCSXDIR
 10
1.0
 20
0.0
 30
0.0
  9
$UCSYDIR
 10
0.0
 20
1.0
 30
0.0
  9
$UCSORTHOREF
  2

  9
$UCSORTHOVIEW
 70
     0
  9
$UCSORGTOP
 10
0.0
 20
0.0
 30
0.0
  9
$UCSORGBOTTOM
 10
0.0
 20
0.0
 30
0.0
  9
$UCSORGLEFT
 10
0.0
 20
0.0
 30
0.0
  9
$UCSORGRIGHT
 10
0.0
 20
0.0
 30
0.0
  9
$UCSORGFRONT
 10
0.0
 20
0.0
 30
0.0
  9
$UCSORGBACK
 10
0.0
 20
0.0
 30
0.0
  9
$PUCSBASE
  2

  9
$PUCSNAME
  2

  9
$PUCSORG
 10
0.0
 20
0.0
 30
0.0
  9
$PUCSXDIR
 10
1.0
 20
0.0
 30
0.0
  9
$PUCSYDIR
 10
0.0
 20
1.0
 30
0.0
  9
$PUCSORTHOREF
  2

  9
$PUCSORTHOVIEW
 70
     0
  9
$PUCSORGTOP
 10
0.0
 20
0.0
 30
0.0
  9
$PUCSORGBOTTOM
 10
0.0
 20
0.0
 30
0.0
  9
$PUCSORGLEFT
 10
0.0
 20
0.0
 30
0.0
  9
$PUCSORGRIGHT
 10
0.0
 20
0.0
 30
0.0
  9
$PUCSORGFRONT
 10
0.0
 20
0.0
 30
0.0
  9
$PUCSORGBACK
 10
0.0
 20
0.0
 30
0.0
  9
$USERI1
 70
     0
  9
$USERI2
 70
     0
  9
$USERI3
 70
     0
  9
$USERI4
 70
     0
  9
$USERI5
 70
     0
  9
$USERR1
 40
0.0
  9
$USERR2
 40
0.0
  9
$USERR3
 40
0.0
  9
$USERR4
 40
0.0
  9
$USERR5
 40
0.0
  9
$WORLDVIEW
 70
     1
  9
$SHADEDGE
 70
     3
  9
$SHADEDIF
 70
    70
  9
$TILEMODE
 70
     1
  9
$MAXACTVP
 70
    48
  9
$PINSBASE
 10
0.0
 20
0.0
 30
0.0
  9
$PLIMCHECK
 70
     0
  9
$PEXTMIN
 10
0.0
 20
0.0
 30
0.0
  9
$PEXTMAX
 10
0.0
 20
0.0
 30
0.0
  9
$PLIMMIN
 10
0.0
 20
0.0
  9
$PLIMMAX
 10
12.0
 20
9.0
  9
$UNITMODE
 70
     0
  9
$VISRETAIN
 70
     1
  9
$PLINEGEN
 70
     0
  9
$PSLTSCALE
 70
     1
  9
$TREEDEPTH
 70
  3020
  9
$CMLSTYLE
  2
Standard
  9
$CMLJUST
 70
     0
  9
$CMLSCALE
 40
20.0
  9
$PROXYGRAPHICS
 70
     1
  9
$MEASUREMENT
 70
     1
  9
$CELWEIGHT
370
    -1
  9
$ENDCAPS
280
     0
  9
$JOINSTYLE
280
     0
  9
$LWDISPLAY
290
     0
  9
$INSUNITS
 70
     4
  9
$HYPERLINKBASE
  1

  9
$STYLESHEET
  1

  9
$XEDIT
290
     1
  9
$CEPSNTYPE
380
     0
  9
$PSTYLEMODE
290
     1
  9
$FINGERPRINTGUID
  2
{F076C30E-3F10-754B-AD36-B589FE558AAC}
  9
$VERSIONGUID
  2
{413C740F-F710-B541-B71D-AFE9DA68D475}
  9
$EXTNAMES
290
     1
  9
$PSVPSCALE
 40
0.0
  9
$OLESTARTUP
290
     0
  0
ENDSEC
  0
SECTION
  2
CLASSES
  0
CLASS
  1
ACDBDICTIONARYWDFLT
  2
AcDbDictionaryWithDefault
  3
ObjectDBX Classes
 90
        0
280
     0
281
     0
  0
CLASS
  1
ACDBPLACEHOLDER
  2
AcDbPlaceHolder
  3
ObjectDBX Classes
 90
        0
280
     0
281
     0
  0
CLASS
  1
LAYOUT
  2
AcDbLayout
  3
ObjectDBX Classes
 90
        0
280
     0
281
     0
  0
CLASS
  1
DICTIONARYVAR
  2
AcDbDictionaryVar
  3
ObjectDBX Classes
 90
        0
280
     0
281
     0
  0
CLASS
  1
TABLESTYLE
  2
AcDbTableStyle
  3
ObjectDBX Classes
 90
     4095
280
     0
281
     0
  0
CLASS
  1
MATERIAL
  2
AcDbMaterial
  3
ObjectDBX Classes
 90
     1153
280
     0
281
     0
  0
CLASS
  1
VISUALSTYLE
  2
AcDbVisualStyle
  3
ObjectDBX Classes
 90
     4095
280
     0
281
     0
  0
CLASS
  1
SCALE
  2
AcDbScale
  3
ObjectDBX Classes
 90
     1153
280
     0
281
     0
  0
CLASS
  1
MLEADERSTYLE
  2
AcDbMLeaderStyle
  3
ACDB_MLEADERSTYLE_CLASS
 90
     4095
280
     0
281
     0
  0
CLASS
  1
CELLSTYLEMAP
  2
AcDbCellStyleMap
  3
ObjectDBX Classes
 90
     1152
280
     0
281
     0
  0
CLASS
  1
EXACXREFPANELOBJECT
  2
ExAcXREFPanelObject
  3
EXAC_ESW
 90
    33793
280
     0
281
     0
  0
CLASS
  1
NPOCOLLECTION
  2
AcDbImpNonPersistentObjectsCollection
  3
ObjectDBX Classes
 90
    33921
280
     0
281
     0
  0
CLASS
  1
LAYER_INDEX
  2
AcDbLayerIndex
  3
ObjectDBX Classes
 90
    32768
280
     0
281
     0
  0
CLASS
  1
SPATIAL_INDEX
  2
AcDbSpatialIndex
  3
ObjectDBX Classes
 90
    32768
280
     0
281
     0
  0
CLASS
  1
IDBUFFER
  2
AcDbIdBuffer
  3
ObjectDBX Classes
 90
    32768
280
     0
281
     0
  0
CLASS
  1
ACDBSECTIONVIEWSTYLE
  2
AcDbSectionViewStyle
  3
ObjectDBX Classes
 90
     1025
280
     0
281
     0
  0
CLASS
  1
ACDBDETAILVIEWSTYLE
  2
AcDbDetailViewStyle
  3
ObjectDBX Classes
 90
     1025
280
     0
281
     0
  0
CLASS
  1
XRECORD
  2
AcDbXrecord
  3
ObjectDBX Classes
 90
        0
280
     0
281
     0
  0
ENDSEC
  0
SECTION
  2
TABLES
  0
TABLE
  2
VPORT
  5
8
102
{ACAD_XDICTIONARY
360
DD97
102
}
330
0
100
AcDbSymbolTable
 70
     1
  0
VPORT
  5
EA
330
8
100
AcDbSymbolTableRecord
100
AcDbViewportTableRecord
  2
*Active
 70
     0
 10
0.0
 20
0.0
 11
1.0
 21
1.0
 12
11.81121900888542
 22
15.63718467990074
 13
0.0
 23
0.0
 14
10.0
 24
10.0
 15
10.0
 25
10.0
 16
0.0
 26
0.0
 36
1.0
 17
0.0
 27
0.0
 37
0.0
 40
367.1524884434395
 41
0.9846153846153846
 42
50.0
 43
0.0
 44
0.0
 50
0.0
 51
0.0
 71
     0
 72
  1000
 73
     1
 74
     3
 75
     0
 76
     1
 77
     0
 78
     0
281
     0
 65
     1
110
0.0
120
0.0
130
0.0
111
1.0
121
0.0
131
0.0
112
0.0
122
1.0
132
0.0
 79
     0
146
0.0
1001
ACAD_NAV_VCDISPLAY
1070
     3
  0
ENDTAB
  0
TABLE
  2
LTYPE
  5
5
330
0
100
AcDbSymbolTable
 70
     1
  0
LTYPE
  5
14
330
5
100
AcDbSymbolTableRecord
100
AcDbLinetypeTableRecord
  2
ByBlock
 70
     0
  3

 72
    65
 73
     0
 40
0.0
  0
LTYPE
  5
15
330
5
100
AcDbSymbolTableRecord
100
AcDbLinetypeTableRecord
  2
ByLayer
 70
     0
  3

 72
    65
 73
     0
 40
0.0
  0
LTYPE
  5
16
330
5
100
AcDbSymbolTableRecord
100
AcDbLinetypeTableRecord
  2
Continuous
 70
     0
  3
Solid line
 72
    65
 73
     0
 40
0.0
  0
ENDTAB
  0
TABLE
  2
LAYER
  5
2
102
{ACAD_XDICTIONARY
360
1FF
102
}
330
0
100
AcDbSymbolTable
 70
     1
  0
LAYER
  5
10
102
{ACAD_XDICTIONARY
360
13C
102
}
330
2
100
AcDbSymbolTableRecord
100
AcDbLayerTableRecord
  2
0
 70
     0
 62
     7
  6
Continuous
370
    -3
390
F
  0
ENDTAB
  0
TABLE
  2
STYLE
  5
3
330
0
100
AcDbSymbolTable
 70
     1
  0
STYLE
  5
11
330
3
100
AcDbSymbolTableRecord
100
AcDbTextStyleTableRecord
  2
Standard
 70
     0
 40
0.0
 41
1.0
 50
0.0
 71
     0
 42
2.5
  3
arial.ttf
  4

1001
ACAD
1000
Arial
1071
       34
  0
ENDTAB
  0
TABLE
  2
VIEW
  5
6
330
0
100
AcDbSymbolTable
 70
     0
  0
ENDTAB
  0
TABLE
  2
UCS
  5
7
330
0
100
AcDbSymbolTable
 70
     0
  0
ENDTAB
  0
TABLE
  2
APPID
  5
9
330
0
100
AcDbSymbolTable
 70
     8
  0
APPID
  5
12
330
9
100
AcDbSymbolTableRecord
100
AcDbRegAppTableRecord
  2
ACAD
 70
     0
  0
APPID
  5
9E
330
9
100
AcDbSymbolTableRecord
100
AcDbRegAppTableRecord
  2
ACAD_PSEXT
 70
     0
  0
APPID
  5
133
330
9
100
AcDbSymbolTableRecord
100
AcDbRegAppTableRecord
  2
AcadAnnoPO
 70
     0
  0
APPID
  5
134
330
9
100
AcDbSymbolTableRecord
100
AcDbRegAppTableRecord
  2
AcadAnnotative
 70
     0
  0
APPID
  5
135
330
9
100
AcDbSymbolTableRecord
100
AcDbRegAppTableRecord
  2
ACAD_DSTYLE_DIMJAG
 70
     0
  0
APPID
  5
136
330
9
100
AcDbSymbolTableRecord
100
AcDbRegAppTableRecord
  2
ACAD_DSTYLE_DIMTALN
 70
     0
  0
APPID
  5
165
330
9
100
AcDbSymbolTableRecord
100
AcDbRegAppTableRecord
  2
ACAD_MLEADERVER
 70
     0
  0
APPID
  5
217
330
9
100
AcDbSymbolTableRecord
100
AcDbRegAppTableRecord
  2
ACAD_NAV_VCDISPLAY
 70
     0
  0
ENDTAB
  0
TABLE
  2
DIMSTYLE
  5
A
330
0
100
AcDbSymbolTable
 70
     1
100
AcDbDimStyleTable
 71
     0
  0
DIMSTYLE
105
27
330
A
100
AcDbSymbolTableRecord
100
AcDbDimStyleTableRecord
  2
ISO-25
 70
     0
 41
2.5
 42
0.625
 43
3.75
 44
1.25
 73
     0
 74
     0
 77
     1
 78
     8
140
2.5
141
2.5
143
0.03937007874016
147
0.625
171
     3
172
     1
271
     2
272
     2
274
     3
278
    44
283
     0
284
     8
340
11
  0
ENDTAB
  0
TABLE
  2
BLOCK_RECORD
  5
1
330
0
100
AcDbSymbolTable
 70
     7
  0
BLOCK_RECORD
  5
1F
102
{ACAD_XDICTIONARY
360
1CE
102
}
330
1
100
AcDbSymbolTableRecord
100
AcDbBlockTableRecord
  2
*Model_Space
340
22
  0
BLOCK_RECORD
  5
D2
102
{ACAD_XDICTIONARY
360
DD4A
102
}
330
1
100
AcDbSymbolTableRecord
100
AcDbBlockTableRecord
  2
*Paper_Space
340
D3
  0
BLOCK_RECORD
  5
D6
102
{ACAD_XDICTIONARY
360
DD4C
102
}
330
1
100
AcDbSymbolTableRecord
100
AcDbBlockTableRecord
  2
*Paper_Space0
340
D7
  0
BLOCK_RECORD
  5
DAF8
330
1
100
AcDbSymbolTableRecord
100
AcDbBlockTableRecord
  2
SBE38_96-F-Front
340
0
102
{BLKREFS
331
DD40
102
}
  0
BLOCK_RECORD
  5
DB60
330
1
100
AcDbSymbolTableRecord
100
AcDbBlockTableRecord
  2
SBE38_96-F-Left
340
0
102
{BLKREFS
331
DD41
102
}
  0
BLOCK_RECORD
  5
DB93
330
1
100
AcDbSymbolTableRecord
100
AcDbBlockTableRecord
  2
SBE38_96-F-Right
340
0
102
{BLKREFS
331
DD42
102
}
  0
BLOCK_RECORD
  5
DBC6
330
1
100
AcDbSymbolTableRecord
100
AcDbBlockTableRecord
  2
SBE38_96-F-Top
340
0
102
{BLKREFS
331
DD43
102
}
  0
BLOCK_RECORD
  5
DC1A
330
1
100
AcDbSymbolTableRecord
100
AcDbBlockTableRecord
  2
SBE38_96-F-Bottom
340
0
102
{BLKREFS
331
DD44
102
}
  0
BLOCK_RECORD
  5
DC4F
330
1
100
AcDbSymbolTableRecord
100
AcDbBlockTableRecord
  2
SBE38_96-F-ISO
340
0
102
{BLKREFS
331
DD45
102
}
  0
ENDTAB
  0
ENDSEC
  0
SECTION
  2
BLOCKS
  0
BLOCK
  5
20
330
1F
100
AcDbEntity
  8
0
100
AcDbBlockBegin
  2
*Model_Space
 70
     0
 10
0.0
 20
0.0
 30
0.0
  3
*Model_Space
  1

  0
ENDBLK
  5
21
330
1F
100
AcDbEntity
  8
0
100
AcDbBlockEnd
  0
BLOCK
  5
D4
330
D2
100
AcDbEntity
 67
     1
  8
0
100
AcDbBlockBegin
  2
*Paper_Space
 70
     0
 10
0.0
 20
0.0
 30
0.0
  3
*Paper_Space
  1

  0
ENDBLK
  5
D5
330
D2
100
AcDbEntity
 67
     1
  8
0
100
AcDbBlockEnd
  0
BLOCK
  5
D8
330
D6
100
AcDbEntity
 67
     1
  8
0
100
AcDbBlockBegin
  2
*Paper_Space0
 70
     0
 10
0.0
 20
0.0
 30
0.0
  3
*Paper_Space0
  1

  0
ENDBLK
  5
D9
330
D6
100
AcDbEntity
 67
     1
  8
0
100
AcDbBlockEnd
  0
BLOCK
  5
DAF9
330
DAF8
100
AcDbEntity
  8
0
100
AcDbBlockBegin
  2
SBE38_96-F-Front
 70
     0
 10
0.0
 20
0.0
 30
0.0
  3
SBE38_96-F-Front
  1

  0
LINE
  5
DAFB
330
DAF8
100
AcDbEntity
  8
0
100
AcDbLine
 10
-20.50000000000002
 20
96.00000000000001
 30
0.0
 11
-22.00000000000002
 21
96.00000000000001
 31
0.0
  0
LINE
  5
DAFC
330
DAF8
100
AcDbEntity
  8
0
100
AcDbLine
 10
20.50000000000015
 20
96.00000000000003
 30
0.0
 11
22.00000000000015
 21
96.00000000000003
 31
0.0
  0
LINE
  5
DAFD
330
DAF8
100
AcDbEntity
  8
0
100
AcDbLine
 10
-20.50000000000001
 20
26.00610095525755
 30
0.0
 11
-20.5
 21
1.500000000000003
 31
0.0
  0
LINE
  5
DAFE
330
DAF8
100
AcDbEntity
  8
0
100
AcDbLine
 10
-19.00000000000001
 20
26.00610095525755
 30
0.0
 11
-19.0
 21
1.500000000000003
 31
0.0
  0
LINE
  5
DAFF
330
DAF8
100
AcDbEntity
  8
0
100
AcDbLine
 10
19.0
 20
1.499999999999999
 30
0.0
 11
19.00000000000004
 21
26.00610095525755
 31
0.0
  0
LINE
  5
DB00
330
DAF8
100
AcDbEntity
  8
0
100
AcDbLine
 10
20.5
 20
1.500000000000003
 30
0.0
 11
20.50000000000005
 21
26.00610095525755
 31
0.0
  0
LINE
  5
DB01
330
DAF8
100
AcDbEntity
  8
0
100
AcDbLine
 10
-17.5
 20
-1.499999999999992
 30
0.0
 11
17.50000000000001
 21
-1.499999999999988
 31
0.0
  0
LINE
  5
DB02
330
DAF8
100
AcDbEntity
  8
0
100
AcDbLine
 10
-17.5
 20
0.0
 30
0.0
 11
17.5
 21
0.0
 31
0.0
  0
LINE
  5
DB03
330
DAF8
100
AcDbEntity
  8
0
100
AcDbLine
 10
-20.50000000000001
 20
26.00610095525755
 30
0.0
 11
-20.50000000000001
 21
34.24206230927727
 31
0.0
  0
LINE
  5
DB04
330
DAF8
100
AcDbEntity
  8
0
100
AcDbLine
 10
-20.50000000000002
 20
44.19051317993776
 30
0.0
 11
-20.50000000000003
 21
90.00000000000001
 31
0.0
  0
LINE
  5
DB05
330
DAF8
100
AcDbEntity
  8
0
100
AcDbLine
 10
-19.00000000000002
 20
90.00000000000001
 30
0.0
 11
-19.00000000000001
 21
44.19051317993776
 31
0.0
  0
LINE
  5
DB06
330
DAF8
100
AcDbEntity
  8
0
100
AcDbLine
 10
-19.00000000000001
 20
34.24206230927727
 30
0.0
 11
-19.00000000000001
 21
26.00610095525755
 31
0.0
  0
LINE
  5
DB07
330
DAF8
100
AcDbEntity
  8
0
100
AcDbLine
 10
19.00000000000004
 20
26.00610095525755
 30
0.0
 11
19.00000000000006
 21
34.24206230927727
 31
0.0
  0
LINE
  5
DB08
330
DAF8
100
AcDbEntity
  8
0
100
AcDbLine
 10
19.00000000000007
 20
44.19051317993776
 30
0.0
 11
19.00000000000015
 21
90.00000000000003
 31
0.0
  0
LINE
  5
DB09
330
DAF8
100
AcDbEntity
  8
0
100
AcDbLine
 10
20.50000000000015
 20
90.00000000000003
 30
0.0
 11
20.50000000000007
 21
44.19051317993776
 31
0.0
  0
LINE
  5
DB0A
330
DAF8
100
AcDbEntity
  8
0
100
AcDbLine
 10
20.50000000000006
 20
34.24206230927727
 30
0.0
 11
20.50000000000005
 21
26.00610095525755
 31
0.0
  0
LINE
  5
DB0B
330
DAF8
100
AcDbEntity
  8
0
100
AcDbLine
 10
20.50000000000005
 20
26.00610095525755
 30
0.0
 11
19.00000000000004
 21
26.00610095525755
 31
0.0
  0
LINE
  5
DB0C
330
DAF8
100
AcDbEntity
  8
0
100
AcDbLine
 10
-19.00000000000001
 20
26.00610095525755
 30
0.0
 11
-20.50000000000001
 21
26.00610095525755
 31
0.0
  0
LINE
  5
DB0D
330
DAF8
100
AcDbEntity
  8
0
100
AcDbLine
 10
-20.5
 20
44.19051317993776
 30
0.0
 11
-20.49999999999999
 21
34.24206230927726
 31
0.0
  0
LINE
  5
DB0E
330
DAF8
100
AcDbEntity
  8
0
100
AcDbLine
 10
-18.99999999999999
 20
34.24206230927726
 30
0.0
 11
-19.0
 21
44.19051317993776
 31
0.0
  0
LINE
  5
DB0F
330
DAF8
100
AcDbEntity
  8
0
100
AcDbLine
 10
18.99999999999998
 20
44.19051317993776
 30
0.0
 11
18.99999999999996
 21
34.24206230927727
 31
0.0
  0
LINE
  5
DB10
330
DAF8
100
AcDbEntity
  8
0
100
AcDbLine
 10
20.49999999999997
 20
34.24206230927726
 30
0.0
 11
20.49999999999998
 21
44.19051317993776
 31
0.0
  0
ARC
  5
DB11
330
DAF8
100
AcDbEntity
  8
0
100
AcDbCircle
 10
-36.00000000000002
 20
44.19051317993768
 30
0.0
 40
12.0
100
AcDbArc
 50
180.0
 51
236.0000000000001
  0
ARC
  5
DB12
330
DAF8
100
AcDbEntity
  8
0
100
AcDbCircle
 10
36.00000000000007
 20
44.19051317993771
 30
0.0
 40
12.0
100
AcDbArc
 50
304.0
 51
0.0
  0
LINE
  5
DB13
330
DAF8
100
AcDbEntity
  8
0
100
AcDbLine
 10
-20.50000000000002
 20
96.00000000000001
 30
0.0
 11
-20.50000000000003
 21
90.00000000000001
 31
0.0
  0
LINE
  5
DB14
330
DAF8
100
AcDbEntity
  8
0
100
AcDbLine
 10
-19.00000000000002
 20
90.00000000000001
 30
0.0
 11
-19.00000000000002
 21
96.00000000000001
 31
0.0
  0
LINE
  5
DB15
330
DAF8
100
AcDbEntity
  8
0
100
AcDbLine
 10
19.00000000000016
 20
96.00000000000003
 30
0.0
 11
19.00000000000015
 21
90.00000000000003
 31
0.0
  0
LINE
  5
DB16
330
DAF8
100
AcDbEntity
  8
0
100
AcDbLine
 10
20.50000000000015
 20
90.00000000000003
 30
0.0
 11
20.50000000000016
 21
96.00000000000003
 31
0.0
  0
LINE
  5
DB17
330
DAF8
100
AcDbEntity
  8
0
100
AcDbLine
 10
-48.00000000000004
 20
90.00000000000001
 30
0.0
 11
-42.00000000000004
 21
96.00000000000001
 31
0.0
  0
LINE
  5
DB18
330
DAF8
100
AcDbEntity
  8
0
100
AcDbLine
 10
-19.00000000000002
 20
96.00000000000001
 30
0.0
 11
-20.50000000000002
 21
96.00000000000001
 31
0.0
  0
LINE
  5
DB19
330
DAF8
100
AcDbEntity
  8
0
100
AcDbLine
 10
-20.50000000000003
 20
90.00000000000001
 30
0.0
 11
-19.00000000000002
 21
90.00000000000001
 31
0.0
  0
LINE
  5
DB1A
330
DAF8
100
AcDbEntity
  8
0
100
AcDbLine
 10
20.50000000000016
 20
96.00000000000003
 30
0.0
 11
19.00000000000016
 21
96.00000000000003
 31
0.0
  0
LINE
  5
DB1B
330
DAF8
100
AcDbEntity
  8
0
100
AcDbLine
 10
19.00000000000015
 20
90.00000000000003
 30
0.0
 11
20.50000000000015
 21
90.00000000000003
 31
0.0
  0
LINE
  5
DB1C
330
DAF8
100
AcDbEntity
  8
0
100
AcDbLine
 10
42.00000000000016
 20
95.99999999999985
 30
0.0
 11
48.00000000000014
 21
89.99999999999998
 31
0.0
  0
SPLINE
  5
DB1D
330
DAF8
100
AcDbEntity
  8
0
100
AcDbSpline
210
0.0
220
0.0
230
1.0
 70
     8
 71
     3
 72
    11
 73
     7
 74
     0
 42
0.000000001
 43
0.0000000001
 40
-1.0
 40
-1.0
 40
-1.0
 40
-1.0
 40
-0.8649350770690309
 40
-0.8649350770690309
 40
-0.8649350770690309
 40
0.0
 40
0.0
 40
0.0
 40
0.0
 10
20.5000000000001
 20
60.50000000000003
 30
0.0
 10
20.5000000000001
 20
60.58691438702476
 30
0.0
 10
20.508382714053
 20
60.6637300929
 30
0.0
 10
20.52783688767227
 20
60.72929168059417
 30
0.0
 10
20.65241843552022
 20
61.14913804539766
 30
0.0
 10
21.41714410067351
 20
61.05658642087345
 30
0.0
 10
22.00000000000009
 20
60.5
 30
0.0
  0
ARC
  5
DB1E
330
DAF8
100
AcDbEntity
  8
0
100
AcDbCircle
 10
20.50000000000006
 20
58.50000000000001
 30
0.0
 40
2.5
100
AcDbArc
 50
306.8698976458445
 51
53.13010235415525
  0
LINE
  5
DB1F
330
DAF8
100
AcDbEntity
  8
0
100
AcDbLine
 10
33.49000000000005
 20
49.99999999999999
 30
0.0
 11
33.49000000000007
 21
53.38043947198588
 31
0.0
  0
ARC
  5
DB20
330
DAF8
100
AcDbEntity
  8
0
100
AcDbCircle
 10
35.50000000000007
 20
58.49999999999998
 30
0.0
 40
5.500000000000001
100
AcDbArc
 50
291.4355588797962
 51
248.5644411202037
  0
LINE
  5
DB21
330
DAF8
100
AcDbEntity
  8
0
100
AcDbLine
 10
37.51000000000006
 20
53.38043947198588
 30
0.0
 11
37.51000000000005
 21
49.99999999999997
 31
0.0
  0
LINE
  5
DB22
330
DAF8
100
AcDbEntity
  8
0
100
AcDbLine
 10
37.51000000000005
 20
49.99999999999997
 30
0.0
 11
37.50508000000004
 21
49.99999999999997
 31
0.0
  0
LINE
  5
DB23
330
DAF8
100
AcDbEntity
  8
0
100
AcDbLine
 10
33.49492000000005
 20
49.99999999999999
 30
0.0
 11
33.49000000000005
 21
49.99999999999999
 31
0.0
  0
SPLINE
  5
DB24
330
DAF8
100
AcDbEntity
  8
0
100
AcDbSpline
210
0.0
220
0.0
230
1.0
 70
     8
 71
     3
 72
     8
 73
     4
 74
     0
 42
0.000000001
 43
0.0000000001
 40
0.0
 40
0.0
 40
0.0
 40
0.0
 40
0.3070366784835745
 40
0.3070366784835745
 40
0.3070366784835745
 40
0.3070366784835745
 10
22.00000000000009
 20
60.5
 30
0.0
 10
21.5861928967659
 20
60.69757835065857
 30
0.0
 10
21.12655007946413
 20
60.83668253397497
 30
0.0
 10
20.69461252515082
 20
60.91514915798089
 30
0.0
  0
SPLINE
  5
DB25
330
DAF8
100
AcDbEntity
  8
0
100
AcDbSpline
210
0.0
220
0.0
230
1.0
 70
     8
 71
     3
 72
    11
 73
     7
 74
     0
 42
0.000000001
 43
0.0000000001
 40
-1.0
 40
-1.0
 40
-1.0
 40
-1.0
 40
-0.8649350770683268
 40
-0.8649350770683268
 40
-0.8649350770683268
 40
0.0
 40
0.0
 40
0.0
 40
0.0
 10
22.00000000000008
 20
56.50000000000002
 30
0.0
 10
21.90898347262143
 20
56.41308561297485
 30
0.0
 10
21.81193025838549
 20
56.33626990709925
 30
0.0
 10
21.7123617363734
 20
56.27070831940486
 30
0.0
 10
21.07474017341829
 20
55.85086195460245
 30
0.0
 10
20.50000000000008
 20
55.94341357912731
 30
0.0
 10
20.50000000000009
 20
56.49999999999999
 30
0.0
  0
SPLINE
  5
DB26
330
DAF8
100
AcDbEntity
  8
0
100
AcDbSpline
210
0.0
220
0.0
230
1.0
 70
     8
 71
     3
 72
    11
 73
     7
 74
     0
 42
0.000000001
 43
0.0000000001
 40
0.6929633215164483
 40
0.6929633215164483
 40
0.6929633215164483
 40
0.6929633215164483
 40
0.8649350770683268
 40
0.8649350770683268
 40
0.8649350770683268
 40
1.0
 40
1.0
 40
1.0
 40
1.0
 10
20.68702953183023
 20
56.08066694697035
 30
0.0
 10
20.92259161675129
 20
56.12401144857928
 30
0.0
 10
21.17117172657223
 20
56.18723186165514
 30
0.0
 10
21.42472347274673
 20
56.27070831940486
 30
0.0
 10
21.62386051677091
 20
56.33626990709925
 30
0.0
 10
21.81796694524279
 20
56.41308561297485
 30
0.0
 10
22.00000000000008
 20
56.50000000000002
 30
0.0
  0
LINE
  5
DB27
330
DAF8
100
AcDbEntity
  8
0
100
AcDbLine
 10
-22.00000000000002
 20
96.00000000000001
 30
0.0
 11
-42.00000000000004
 21
96.00000000000001
 31
0.0
  0
LINE
  5
DB28
330
DAF8
100
AcDbEntity
  8
0
100
AcDbLine
 10
-48.00000000000004
 20
90.00000000000001
 30
0.0
 11
-48.00000000000001
 21
44.19051317993766
 31
0.0
  0
LINE
  5
DB29
330
DAF8
100
AcDbEntity
  8
0
100
AcDbLine
 10
48.00000000000006
 20
44.19051317993769
 30
0.0
 11
48.00000000000014
 21
89.99999999999998
 31
0.0
  0
LINE
  5
DB2A
330
DAF8
100
AcDbEntity
  8
0
100
AcDbLine
 10
22.00000000000015
 20
96.00000000000001
 30
0.0
 11
42.00000000000016
 21
95.99999999999985
 31
0.0
  0
LINE
  5
DB2B
330
DAF8
100
AcDbEntity
  8
0
100
AcDbLine
 10
-42.71031484164897
 20
34.24206230927717
 30
0.0
 11
-22.00000000000002
 21
20.27277856209687
 31
0.0
  0
ARC
  5
DB2C
330
DAF8
100
AcDbEntity
  8
0
100
AcDbCircle
 10
-20.50000000000006
 20
58.50000000000001
 30
0.0
 40
2.5
100
AcDbArc
 50
126.8698976458447
 51
233.1301023541555
  0
CIRCLE
  5
DB2D
330
DAF8
100
AcDbEntity
  8
0
100
AcDbCircle
 10
-39.00000000000004
 20
41.49999999999997
 30
0.0
 40
2.5
  0
CIRCLE
  5
DB2E
330
DAF8
100
AcDbEntity
  8
0
100
AcDbCircle
 10
-29.0000000000001
 20
68.5
 30
0.0
 40
2.5
  0
CIRCLE
  5
DB2F
330
DAF8
100
AcDbEntity
  8
0
100
AcDbCircle
 10
-29.00000000000014
 20
88.49999999999999
 30
0.0
 40
2.5
  0
CIRCLE
  5
DB30
330
DAF8
100
AcDbEntity
  8
0
100
AcDbCircle
 10
-39.00000000000012
 20
78.49999999999997
 30
0.0
 40
2.5
  0
CIRCLE
  5
DB31
330
DAF8
100
AcDbEntity
  8
0
100
AcDbCircle
 10
-29.00000000000006
 20
48.5
 30
0.0
 40
2.5
  0
CIRCLE
  5
DB32
330
DAF8
100
AcDbEntity
  8
0
100
AcDbCircle
 10
-29.00000000000003
 20
34.49999999999999
 30
0.0
 40
2.5
  0
LINE
  5
DB33
330
DAF8
100
AcDbEntity
  8
0
100
AcDbLine
 10
-33.50000000000005
 20
49.99492
 30
0.0
 11
-33.50000000000005
 21
49.99999999999999
 31
0.0
  0
LINE
  5
DB34
330
DAF8
100
AcDbEntity
  8
0
100
AcDbLine
 10
-37.50000000000004
 20
49.99999999999997
 30
0.0
 11
-37.50000000000004
 21
49.99491999999998
 31
0.0
  0
LINE
  5
DB35
330
DAF8
100
AcDbEntity
  8
0
100
AcDbLine
 10
-37.50000000000004
 20
49.99491999999998
 30
0.0
 11
-37.50508000000004
 21
49.99491999999998
 31
0.0
  0
LINE
  5
DB36
330
DAF8
100
AcDbEntity
  8
0
100
AcDbLine
 10
-37.50508000000004
 20
49.99491999999998
 30
0.0
 11
-37.50508000000004
 21
49.99999999999997
 31
0.0
  0
LINE
  5
DB37
330
DAF8
100
AcDbEntity
  8
0
100
AcDbLine
 10
-37.50508000000004
 20
49.99999999999997
 30
0.0
 11
-37.51000000000005
 21
49.99999999999997
 31
0.0
  0
LINE
  5
DB38
330
DAF8
100
AcDbEntity
  8
0
100
AcDbLine
 10
-37.51000000000005
 20
49.99999999999997
 30
0.0
 11
-37.51000000000006
 21
53.38043947198588
 31
0.0
  0
ARC
  5
DB39
330
DAF8
100
AcDbEntity
  8
0
100
AcDbCircle
 10
-35.50000000000007
 20
58.49999999999998
 30
0.0
 40
5.500000000000001
100
AcDbArc
 50
291.4355588797964
 51
248.5644411202038
  0
LINE
  5
DB3A
330
DAF8
100
AcDbEntity
  8
0
100
AcDbLine
 10
-33.49000000000007
 20
53.38043947198588
 30
0.0
 11
-33.49000000000005
 21
49.99999999999999
 31
0.0
  0
LINE
  5
DB3B
330
DAF8
100
AcDbEntity
  8
0
100
AcDbLine
 10
-33.49000000000005
 20
49.99999999999999
 30
0.0
 11
-33.49492000000005
 21
49.99999999999999
 31
0.0
  0
LINE
  5
DB3C
330
DAF8
100
AcDbEntity
  8
0
100
AcDbLine
 10
-33.49492000000005
 20
49.99999999999999
 30
0.0
 11
-33.49492000000005
 21
49.99492
 31
0.0
  0
LINE
  5
DB3D
330
DAF8
100
AcDbEntity
  8
0
100
AcDbLine
 10
-33.49492000000005
 20
49.99492
 30
0.0
 11
-33.50000000000005
 21
49.99492
 31
0.0
  0
LINE
  5
DB3E
330
DAF8
100
AcDbEntity
  8
0
100
AcDbLine
 10
-37.50000000000004
 20
49.99999999999996
 30
0.0
 11
-37.50000000000008
 21
52.99999999999997
 31
0.0
  0
LINE
  5
DB3F
330
DAF8
100
AcDbEntity
  8
0
100
AcDbLine
 10
-33.50000000000006
 20
52.99999999999998
 30
0.0
 11
-33.50000000000006
 21
50.0
 31
0.0
  0
LINE
  5
DB40
330
DAF8
100
AcDbEntity
  8
0
100
AcDbLine
 10
-37.50000000000006
 20
53.0
 30
0.0
 11
-33.50000000000006
 21
53.0
 31
0.0
  0
SPLINE
  5
DB41
330
DAF8
100
AcDbEntity
  8
0
100
AcDbSpline
210
0.0
220
0.0
230
1.0
 70
     8
 71
     3
 72
     8
 73
     4
 74
     0
 42
0.000000001
 43
0.0000000001
 40
-0.3070366784835519
 40
-0.3070366784835519
 40
-0.3070366784835519
 40
-0.3070366784835519
 40
0.0
 40
0.0
 40
0.0
 40
0.0
 10
-20.69461252515091
 20
60.91514915798086
 30
0.0
 10
-21.12655007946419
 20
60.83668253397494
 30
0.0
 10
-21.58619289676592
 20
60.69757835065856
 30
0.0
 10
-22.00000000000009
 20
60.5
 30
0.0
  0
SPLINE
  5
DB42
330
DAF8
100
AcDbEntity
  8
0
100
AcDbSpline
210
0.0
220
0.0
230
1.0
 70
     8
 71
     3
 72
    11
 73
     7
 74
     0
 42
0.000000001
 43
0.0000000001
 40
0.0
 40
0.0
 40
0.0
 40
0.0
 40
0.8649350770690309
 40
0.8649350770690309
 40
0.8649350770690309
 40
1.0
 40
1.0
 40
1.0
 40
1.0
 10
-22.00000000000009
 20
60.5
 30
0.0
 10
-21.41714410067351
 20
61.05658642087345
 30
0.0
 10
-20.65241843552022
 20
61.14913804539766
 30
0.0
 10
-20.52783688767227
 20
60.72929168059417
 30
0.0
 10
-20.508382714053
 20
60.6637300929
 30
0.0
 10
-20.5000000000001
 20
60.58691438702476
 30
0.0
 10
-20.5000000000001
 20
60.50000000000003
 30
0.0
  0
SPLINE
  5
DB43
330
DAF8
100
AcDbEntity
  8
0
100
AcDbSpline
210
0.0
220
0.0
230
1.0
 70
     8
 71
     3
 72
    11
 73
     7
 74
     0
 42
0.000000001
 43
0.0000000001
 40
-1.0
 40
-1.0
 40
-1.0
 40
-1.0
 40
-0.8649350770683268
 40
-0.8649350770683268
 40
-0.8649350770683268
 40
-0.6929633215164223
 40
-0.6929633215164223
 40
-0.6929633215164223
 40
-0.6929633215164223
 10
-22.00000000000008
 20
56.50000000000002
 30
0.0
 10
-21.81796694524279
 20
56.41308561297485
 30
0.0
 10
-21.62386051677091
 20
56.33626990709925
 30
0.0
 10
-21.42472347274673
 20
56.27070831940486
 30
0.0
 10
-21.17117172657219
 20
56.18723186165511
 30
0.0
 10
-20.92259161675122
 20
56.12401144857926
 30
0.0
 10
-20.68702953183012
 20
56.08066694697031
 30
0.0
  0
SPLINE
  5
DB44
330
DAF8
100
AcDbEntity
  8
0
100
AcDbSpline
210
0.0
220
0.0
230
1.0
 70
     8
 71
     3
 72
    11
 73
     7
 74
     0
 42
0.000000001
 43
0.0000000001
 40
0.0
 40
0.0
 40
0.0
 40
0.0
 40
0.8649350770683268
 40
0.8649350770683268
 40
0.8649350770683268
 40
1.0
 40
1.0
 40
1.0
 40
1.0
 10
-20.50000000000009
 20
56.49999999999999
 30
0.0
 10
-20.50000000000008
 20
55.94341357912731
 30
0.0
 10
-21.07474017341829
 20
55.85086195460245
 30
0.0
 10
-21.7123617363734
 20
56.27070831940486
 30
0.0
 10
-21.81193025838549
 20
56.33626990709925
 30
0.0
 10
-21.90898347262143
 20
56.41308561297485
 30
0.0
 10
-22.00000000000008
 20
56.50000000000002
 30
0.0
  0
SPLINE
  5
DB45
330
DAF8
100
AcDbEntity
  8
0
100
AcDbSpline
210
0.0
220
0.0
230
1.0
 70
     8
 71
     3
 72
     8
 73
     4
 74
     0
 42
0.000000001
 43
0.0000000001
 40
0.0
 40
0.0
 40
0.0
 40
0.0
 40
1.0
 40
1.0
 40
1.0
 40
1.0
 10
-22.00000000000002
 20
20.2727785620969
 30
0.0
 10
-21.21460183660254
 20
19.59827004525388
 30
0.0
 10
-20.50000000000003
 20
18.9237615284119
 30
0.0
 10
-20.50000000000003
 20
18.24925301156959
 30
0.0
  0
LINE
  5
DB46
330
DAF8
100
AcDbEntity
  8
0
100
AcDbLine
 10
22.00000000000002
 20
20.27277856209687
 30
0.0
 11
42.71031484164901
 21
34.24206230927719
 31
0.0
  0
SPLINE
  5
DB47
330
DAF8
100
AcDbEntity
  8
0
100
AcDbSpline
210
0.0
220
0.0
230
1.0
 70
     8
 71
     3
 72
     8
 73
     4
 74
     0
 42
0.000000001
 43
0.0000000001
 40
-1.0
 40
-1.0
 40
-1.0
 40
-1.0
 40
0.0
 40
0.0
 40
0.0
 40
0.0
 10
20.50000000000003
 20
18.24925301156959
 30
0.0
 10
20.50000000000003
 20
18.9237615284119
 30
0.0
 10
21.21460183660254
 20
19.59827004525388
 30
0.0
 10
22.00000000000002
 20
20.2727785620969
 30
0.0
  0
CIRCLE
  5
DB48
330
DAF8
100
AcDbEntity
  8
0
100
AcDbCircle
 10
39.00000000000012
 20
78.49999999999997
 30
0.0
 40
2.5
  0
CIRCLE
  5
DB49
330
DAF8
100
AcDbEntity
  8
0
100
AcDbCircle
 10
29.00000000000014
 20
88.49999999999999
 30
0.0
 40
2.5
  0
CIRCLE
  5
DB4A
330
DAF8
100
AcDbEntity
  8
0
100
AcDbCircle
 10
29.0000000000001
 20
68.5
 30
0.0
 40
2.5
  0
CIRCLE
  5
DB4B
330
DAF8
100
AcDbEntity
  8
0
100
AcDbCircle
 10
29.00000000000003
 20
34.49999999999999
 30
0.0
 40
2.5
  0
CIRCLE
  5
DB4C
330
DAF8
100
AcDbEntity
  8
0
100
AcDbCircle
 10
29.00000000000006
 20
48.5
 30
0.0
 40
2.5
  0
CIRCLE
  5
DB4D
330
DAF8
100
AcDbEntity
  8
0
100
AcDbCircle
 10
39.00000000000004
 20
41.49999999999997
 30
0.0
 40
2.5
  0
LINE
  5
DB4E
330
DAF8
100
AcDbEntity
  8
0
100
AcDbLine
 10
37.50508000000004
 20
49.99999999999997
 30
0.0
 11
37.50508000000004
 21
49.99491999999998
 31
0.0
  0
LINE
  5
DB4F
330
DAF8
100
AcDbEntity
  8
0
100
AcDbLine
 10
37.50508000000004
 20
49.99491999999998
 30
0.0
 11
37.50000000000004
 21
49.99491999999998
 31
0.0
  0
LINE
  5
DB50
330
DAF8
100
AcDbEntity
  8
0
100
AcDbLine
 10
37.50000000000004
 20
49.99491999999998
 30
0.0
 11
37.50000000000004
 21
49.99999999999997
 31
0.0
  0
LINE
  5
DB51
330
DAF8
100
AcDbEntity
  8
0
100
AcDbLine
 10
33.50000000000005
 20
49.99999999999999
 30
0.0
 11
33.50000000000005
 21
49.99492
 31
0.0
  0
LINE
  5
DB52
330
DAF8
100
AcDbEntity
  8
0
100
AcDbLine
 10
33.50000000000005
 20
49.99492
 30
0.0
 11
33.49492000000005
 21
49.99492
 31
0.0
  0
LINE
  5
DB53
330
DAF8
100
AcDbEntity
  8
0
100
AcDbLine
 10
33.49492000000005
 20
49.99492
 30
0.0
 11
33.49492000000005
 21
49.99999999999999
 31
0.0
  0
LINE
  5
DB54
330
DAF8
100
AcDbEntity
  8
0
100
AcDbLine
 10
37.50000000000006
 20
52.99999999999997
 30
0.0
 11
37.50000000000006
 21
49.99999999999999
 31
0.0
  0
LINE
  5
DB55
330
DAF8
100
AcDbEntity
  8
0
100
AcDbLine
 10
33.50000000000006
 20
49.99999999999999
 30
0.0
 11
33.50000000000008
 21
52.99999999999998
 31
0.0
  0
LINE
  5
DB56
330
DAF8
100
AcDbEntity
  8
0
100
AcDbLine
 10
33.50000000000006
 20
52.99999999999998
 30
0.0
 11
37.50000000000006
 21
52.99999999999998
 31
0.0
  0
SPLINE
  5
DB57
330
DAF8
100
AcDbEntity
  8
0
100
AcDbSpline
210
0.0
220
0.0
230
1.0
 70
     8
 71
     3
 72
     8
 73
     4
 74
     0
 42
0.000000001
 43
0.0000000001
 40
0.0
 40
0.0
 40
0.0
 40
0.0
 40
1.0
 40
1.0
 40
1.0
 40
1.0
 10
-14.12499999999999
 20
1.500000000000005
 30
0.0
 10
-15.2500000000002
 20
0.7146018366025415
 30
0.0
 10
-16.37500000000002
 20
0.0000000000000058
 30
0.0
 10
-17.5
 20
0.0000000000000061
 30
0.0
  0
LINE
  5
DB58
330
DAF8
100
AcDbEntity
  8
0
100
AcDbLine
 10
-6.25
 20
8.500000000000005
 30
0.0
 11
-14.125
 21
1.500000000000007
 31
0.0
  0
SPLINE
  5
DB59
330
DAF8
100
AcDbEntity
  8
0
100
AcDbSpline
210
0.0
220
0.0
230
1.0
 70
     8
 71
     3
 72
     8
 73
     4
 74
     0
 42
0.000000001
 43
0.0000000001
 40
0.0
 40
0.0
 40
0.0
 40
0.0
 40
1.0
 40
1.0
 40
1.0
 40
1.0
 10
17.5
 20
0.0000000000000128
 30
0.0
 10
16.37499999999993
 20
0.0000000000000107
 30
0.0
 10
15.25000000000001
 20
0.7146018366025637
 30
0.0
 10
14.125
 20
1.500000000000011
 30
0.0
  0
LINE
  5
DB5A
330
DAF8
100
AcDbEntity
  8
0
100
AcDbLine
 10
14.125
 20
1.500000000000011
 30
0.0
 11
6.250000000000001
 21
8.500000000000007
 31
0.0
  0
LINE
  5
DB5B
330
DAF8
100
AcDbEntity
  8
0
100
AcDbLine
 10
6.250000000000001
 20
8.500000000000007
 30
0.0
 11
-6.25
 21
8.500000000000005
 31
0.0
  0
ARC
  5
DB5C
330
DAF8
100
AcDbEntity
  8
0
100
AcDbCircle
 10
-17.5
 20
1.500000000000003
 30
0.0
 40
1.499999999999999
100
AcDbArc
 50
180.0
 51
270.0000000000002
  0
ARC
  5
DB5D
330
DAF8
100
AcDbEntity
  8
0
100
AcDbCircle
 10
17.5
 20
1.50000000000001
 30
0.0
 40
2.999999999999996
100
AcDbArc
 50
270.0
 51
0.0
  0
ARC
  5
DB5E
330
DAF8
100
AcDbEntity
  8
0
100
AcDbCircle
 10
17.5
 20
1.50000000000001
 30
0.0
 40
1.499999999999999
100
AcDbArc
 50
270.0
 51
0.0
  0
ARC
  5
DB5F
330
DAF8
100
AcDbEntity
  8
0
100
AcDbCircle
 10
-17.5
 20
1.500000000000003
 30
0.0
 40
2.999999999999996
100
AcDbArc
 50
180.0
 51
270.0
  0
ENDBLK
  5
DAFA
330
DAF8
100
AcDbEntity
  8
0
100
AcDbBlockEnd
  0
BLOCK
  5
DB61
330
DB60
100
AcDbEntity
  8
0
100
AcDbBlockBegin
  2
SBE38_96-F-Left
 70
     0
 10
0.0
 20
0.0
 30
0.0
  3
SBE38_96-F-Left
  1

  0
LINE
  5
DB63
330
DB60
100
AcDbEntity
  8
0
100
AcDbLine
 10
2.999999999999999
 20
96.00000000000001
 30
0.0
 11
1.500000000000003
 21
96.00000000000001
 31
0.0
  0
LINE
  5
DB64
330
DB60
100
AcDbEntity
  8
0
100
AcDbLine
 10
2.999999999999997
 20
18.24925301156958
 30
0.0
 11
2.999999999999999
 21
1.500000000000003
 31
0.0
  0
LINE
  5
DB65
330
DB60
100
AcDbEntity
  8
0
100
AcDbLine
 10
2.999999999999998
 20
-1.499999999999996
 30
0.0
 11
2.999999999999998
 21
1.500000000000003
 31
0.0
  0
CIRCLE
  5
DB66
330
DB60
100
AcDbEntity
  8
0
100
AcDbCircle
 10
29.0
 20
48.50000000000001
 30
0.0
 40
2.5
  0
CIRCLE
  5
DB67
330
DB60
100
AcDbEntity
  8
0
100
AcDbCircle
 10
29.0
 20
88.50000000000001
 30
0.0
 40
2.5
  0
CIRCLE
  5
DB68
330
DB60
100
AcDbEntity
  8
0
100
AcDbCircle
 10
29.0
 20
68.50000000000001
 30
0.0
 40
2.5
  0
ARC
  5
DB69
330
DB60
100
AcDbEntity
  8
0
100
AcDbCircle
 10
1.50000000000003
 20
58.50000000000001
 30
0.0
 40
2.5
100
AcDbArc
 50
306.869897645843
 51
53.1301023541567
  0
LINE
  5
DB6A
330
DB60
100
AcDbEntity
  8
0
100
AcDbLine
 10
1.500000000000005
 20
34.24206230927717
 30
0.0
 11
1.500000000000004
 21
20.27277856209687
 31
0.0
  0
ARC
  5
DB6B
330
DB60
100
AcDbEntity
  8
0
100
AcDbCircle
 10
-1.500000000000002
 20
49.99999999999997
 30
0.0
 40
3.0
100
AcDbArc
 50
59.99999999999982
 51
90.0000000000003
  0
ARC
  5
DB6C
330
DB60
100
AcDbEntity
  8
0
100
AcDbCircle
 10
-1.500000000000002
 20
49.99999999999997
 30
0.0
 40
1.5
100
AcDbArc
 50
0.0
 51
90.00000000000031
  0
LINE
  5
DB6D
330
DB60
100
AcDbEntity
  8
0
100
AcDbLine
 10
0.0
 20
20.27277856209687
 30
0.0
 11
0.0
 21
34.24206230927717
 31
0.0
  0
SPLINE
  5
DB6E
330
DB60
100
AcDbEntity
  8
0
100
AcDbSpline
210
0.0
220
0.0
230
1.0
 70
     8
 71
     3
 72
    11
 73
     7
 74
     0
 42
0.000000001
 43
0.0000000001
 40
-1.0
 40
-1.0
 40
-1.0
 40
-1.0
 40
-0.8649350770690309
 40
-0.8649350770690309
 40
-0.8649350770690309
 40
-0.6929633215164248
 40
-0.6929633215164248
 40
-0.6929633215164248
 40
-0.6929633215164248
 10
3.000000000000003
 20
60.50000000000003
 30
0.0
 10
2.817966945243658
 20
60.58691438702476
 30
0.0
 10
2.623860516772857
 20
60.6637300929
 30
0.0
 10
2.424723472749764
 20
60.72929168059417
 30
0.0
 10
2.171171726574255
 20
60.81276813834438
 30
0.0
 10
1.922591616752272
 20
60.87598855142058
 30
0.0
 10
1.68702953183025
 20
60.91933305302972
 30
0.0
  0
SPLINE
  5
DB6F
330
DB60
100
AcDbEntity
  8
0
100
AcDbSpline
210
0.0
220
0.0
230
1.0
 70
     8
 71
     3
 72
    11
 73
     7
 74
     0
 42
0.000000001
 43
0.0000000001
 40
0.0
 40
0.0
 40
0.0
 40
0.0
 40
0.8649350770690309
 40
0.8649350770690309
 40
0.8649350770690309
 40
1.0
 40
1.0
 40
1.0
 40
1.0
 10
1.500000000000001
 20
60.5
 30
0.0
 10
1.500000000000001
 20
61.05658642087345
 30
0.0
 10
2.0747401734194
 20
61.14913804539766
 30
0.0
 10
2.712361736374879
 20
60.72929168059417
 30
0.0
 10
2.811930258386424
 20
60.6637300929
 30
0.0
 10
2.908983472621825
 20
60.58691438702476
 30
0.0
 10
2.999999999999997
 20
60.50000000000003
 30
0.0
  0
SPLINE
  5
DB70
330
DB60
100
AcDbEntity
  8
0
100
AcDbSpline
210
0.0
220
0.0
230
1.0
 70
     8
 71
     3
 72
     8
 73
     4
 74
     0
 42
0.000000001
 43
0.0000000001
 40
-0.307036678483549
 40
-0.307036678483549
 40
-0.307036678483549
 40
-0.307036678483549
 40
0.0
 40
0.0
 40
0.0
 40
0.0
 10
1.694612525150721
 20
56.08485084201927
 30
0.0
 10
2.126550079464073
 20
56.16331746602519
 30
0.0
 10
2.58619289676587
 20
56.30242164934154
 30
0.0
 10
3.000000000000003
 20
56.49999999999999
 30
0.0
  0
SPLINE
  5
DB71
330
DB60
100
AcDbEntity
  8
0
100
AcDbSpline
210
0.0
220
0.0
230
1.0
 70
     8
 71
     3
 72
    11
 73
     7
 74
     0
 42
0.000000001
 43
0.0000000001
 40
0.0
 40
0.0
 40
0.0
 40
0.0
 40
0.8649350770683268
 40
0.8649350770683268
 40
0.8649350770683268
 40
1.0
 40
1.0
 40
1.0
 40
1.0
 10
2.999999999999997
 20
56.49999999999999
 30
0.0
 10
2.417144100673931
 20
55.94341357912731
 30
0.0
 10
1.652418435521061
 20
55.85086195460245
 30
0.0
 10
1.527836887672487
 20
56.27070831940486
 30
0.0
 10
1.508382714052995
 20
56.33626990709925
 30
0.0
 10
1.500000000000001
 20
56.41308561297485
 30
0.0
 10
1.500000000000001
 20
56.50000000000002
 30
0.0
  0
SPLINE
  5
DB72
330
DB60
100
AcDbEntity
  8
0
100
AcDbSpline
210
0.0
220
0.0
230
1.0
 70
     8
 71
     3
 72
     8
 73
     4
 74
     0
 42
0.000000001
 43
0.0000000001
 40
-1.0
 40
-1.0
 40
-1.0
 40
-1.0
 40
0.0
 40
0.0
 40
0.0
 40
0.0
 10
3.000000000000002
 20
18.24925301156959
 30
0.0
 10
1.429203673205084
 20
18.9237615284119
 30
0.0
 10
-0.000000000000001
 20
19.59827004525388
 30
0.0
 10
0.0000000000000017
 20
20.2727785620969
 30
0.0
  0
SPLINE
  5
DB73
330
DB60
100
AcDbEntity
  8
0
100
AcDbSpline
210
0.0
220
0.0
230
1.0
 70
     8
 71
     3
 72
     8
 73
     4
 74
     0
 42
0.000000001
 43
0.0000000001
 40
0.0
 40
0.0
 40
0.0
 40
0.0
 40
1.0
 40
1.0
 40
1.0
 40
1.0
 10
1.500000000000001
 20
20.2727785620969
 30
0.0
 10
1.5
 20
19.59827004525388
 30
0.0
 10
2.21460183660254
 20
18.9237615284119
 30
0.0
 10
2.999999999999997
 20
18.24925301156959
 30
0.0
  0
LINE
  5
DB74
330
DB60
100
AcDbEntity
  8
0
100
AcDbLine
 10
1.500000000000004
 20
20.27277856209687
 30
0.0
 11
1.090140682895656
 21
20.27277856209687
 31
0.0
  0
LINE
  5
DB75
330
DB60
100
AcDbEntity
  8
0
100
AcDbLine
 10
1.090140682895656
 20
20.27277856209687
 30
0.0
 11
0.0
 21
20.27277856209687
 31
0.0
  0
LINE
  5
DB76
330
DB60
100
AcDbEntity
  8
0
100
AcDbLine
 10
-9.000000000000003
 20
52.99999999999998
 30
0.0
 11
-7.000000000000001
 21
52.99999999999998
 31
0.0
  0
LINE
  5
DB77
330
DB60
100
AcDbEntity
  8
0
100
AcDbLine
 10
-7.000000000000001
 20
52.99999999999998
 30
0.0
 11
-1.500000000000003
 21
53.0
 31
0.0
  0
LINE
  5
DB78
330
DB60
100
AcDbEntity
  8
0
100
AcDbLine
 10
-9.000000000000003
 20
52.99999999999998
 30
0.0
 11
-9.000000000000003
 21
51.49999999999999
 31
0.0
  0
LINE
  5
DB79
330
DB60
100
AcDbEntity
  8
0
100
AcDbLine
 10
-7.000000000000001
 20
52.99999999999998
 30
0.0
 11
-7.000000000000001
 21
51.49999999999998
 31
0.0
  0
LINE
  5
DB7A
330
DB60
100
AcDbEntity
  8
0
100
AcDbLine
 10
-1.500000000000003
 20
51.49999999999999
 30
0.0
 11
-7.000000000000001
 21
51.49999999999998
 31
0.0
  0
LINE
  5
DB7B
330
DB60
100
AcDbEntity
  8
0
100
AcDbLine
 10
-7.000000000000001
 20
51.49999999999998
 30
0.0
 11
-9.000000000000003
 21
51.49999999999999
 31
0.0
  0
LINE
  5
DB7C
330
DB60
100
AcDbEntity
  8
0
100
AcDbLine
 10
53.99999999999999
 20
26.00610095525755
 30
0.0
 11
54.0
 21
1.500000000000003
 31
0.0
  0
LINE
  5
DB7D
330
DB60
100
AcDbEntity
  8
0
100
AcDbLine
 10
2.999999999999999
 20
96.00000000000001
 30
0.0
 11
30.50000000000001
 21
96.00000000000001
 31
0.0
  0
LINE
  5
DB7E
330
DB60
100
AcDbEntity
  8
0
100
AcDbLine
 10
53.99999999999999
 20
26.00610095525755
 30
0.0
 11
41.78968515835104
 21
34.24206230927727
 31
0.0
  0
LINE
  5
DB7F
330
DB60
100
AcDbEntity
  8
0
100
AcDbLine
 10
36.5
 20
44.19051317993776
 30
0.0
 11
36.5
 21
90.00000000000001
 31
0.0
  0
ARC
  5
DB80
330
DB60
100
AcDbEntity
  8
0
100
AcDbCircle
 10
48.5
 20
44.19051317993776
 30
0.0
 40
12.0
100
AcDbArc
 50
180.0
 51
236.0
  0
LINE
  5
DB81
330
DB60
100
AcDbEntity
  8
0
100
AcDbLine
 10
1.500000000000005
 20
44.19051317993766
 30
0.0
 11
1.500000000000003
 21
34.24206230927717
 31
0.0
  0
LINE
  5
DB82
330
DB60
100
AcDbEntity
  8
0
100
AcDbLine
 10
0.0
 20
34.24206230927717
 30
0.0
 11
0.0
 21
44.19051317993766
 31
0.0
  0
LINE
  5
DB83
330
DB60
100
AcDbEntity
  8
0
100
AcDbLine
 10
30.50000000000001
 20
96.00000000000001
 30
0.0
 11
36.5
 21
90.00000000000001
 31
0.0
  0
LINE
  5
DB84
330
DB60
100
AcDbEntity
  8
0
100
AcDbLine
 10
0.0
 20
96.00000000000001
 30
0.0
 11
0.0
 21
90.00000000000001
 31
0.0
  0
LINE
  5
DB85
330
DB60
100
AcDbEntity
  8
0
100
AcDbLine
 10
0.0
 20
90.00000000000001
 30
0.0
 11
1.500000000000007
 21
90.00000000000001
 31
0.0
  0
LINE
  5
DB86
330
DB60
100
AcDbEntity
  8
0
100
AcDbLine
 10
1.500000000000007
 20
90.00000000000001
 30
0.0
 11
1.500000000000007
 21
96.00000000000001
 31
0.0
  0
LINE
  5
DB87
330
DB60
100
AcDbEntity
  8
0
100
AcDbLine
 10
1.500000000000007
 20
96.00000000000001
 30
0.0
 11
0.0
 21
96.00000000000001
 31
0.0
  0
LINE
  5
DB88
330
DB60
100
AcDbEntity
  8
0
100
AcDbLine
 10
1.500000000000007
 20
90.00000000000001
 30
0.0
 11
1.500000000000008
 21
44.19051317993766
 31
0.0
  0
LINE
  5
DB89
330
DB60
100
AcDbEntity
  8
0
100
AcDbLine
 10
0.0
 20
90.00000000000001
 30
0.0
 11
0.0
 21
44.19051317993766
 31
0.0
  0
LINE
  5
DB8A
330
DB60
100
AcDbEntity
  8
0
100
AcDbLine
 10
0.0
 20
1.500000000000006
 30
0.0
 11
1.09014068289695
 21
1.500000000000007
 31
0.0
  0
SPLINE
  5
DB8B
330
DB60
100
AcDbEntity
  8
0
100
AcDbSpline
210
0.0
220
0.0
230
1.0
 70
     8
 71
     3
 72
     8
 73
     4
 74
     0
 42
0.000000001
 43
0.0000000001
 40
-1.0
 40
-1.0
 40
-1.0
 40
-1.0
 40
0.0
 40
0.0
 40
0.0
 40
0.0
 10
3.000000000000001
 20
-1.499999999999994
 30
0.0
 10
1.429203673205133
 20
-1.499999999999994
 30
0.0
 10
0.0000000000000012
 20
-0.0707963267949236
 30
0.0
 10
-0.0000000000000006
 20
1.500000000000003
 30
0.0
  0
SPLINE
  5
DB8C
330
DB60
100
AcDbEntity
  8
0
100
AcDbSpline
210
0.0
220
0.0
230
1.0
 70
     8
 71
     3
 72
     8
 73
     4
 74
     0
 42
0.000000001
 43
0.0000000001
 40
0.0
 40
0.0
 40
0.0
 40
0.0
 40
1.0
 40
1.0
 40
1.0
 40
1.0
 10
1.499999999999999
 20
1.500000000000005
 30
0.0
 10
1.5
 20
0.7146018366025415
 30
0.0
 10
2.214601836602566
 20
0.0000000000000058
 30
0.0
 10
3.0
 20
0.0000000000000061
 30
0.0
  0
LINE
  5
DB8D
330
DB60
100
AcDbEntity
  8
0
100
AcDbLine
 10
1.09014068289695
 20
1.500000000000007
 30
0.0
 11
1.499999999999999
 21
1.500000000000007
 31
0.0
  0
LINE
  5
DB8E
330
DB60
100
AcDbEntity
  8
0
100
AcDbLine
 10
1.499999999999997
 20
8.500000000000005
 30
0.0
 11
1.499999999999999
 21
1.500000000000007
 31
0.0
  0
LINE
  5
DB8F
330
DB60
100
AcDbEntity
  8
0
100
AcDbLine
 10
0.0
 20
8.500000000000005
 30
0.0
 11
1.499999999999997
 21
8.500000000000005
 31
0.0
  0
LINE
  5
DB90
330
DB60
100
AcDbEntity
  8
0
100
AcDbLine
 10
0.0
 20
1.500000000000006
 30
0.0
 11
0.0
 21
8.500000000000005
 31
0.0
  0
LINE
  5
DB91
330
DB60
100
AcDbEntity
  8
0
100
AcDbLine
 10
54.0
 20
-1.499999999999992
 30
0.0
 11
2.999999999999998
 21
-1.499999999999996
 31
0.0
  0
LINE
  5
DB92
330
DB60
100
AcDbEntity
  8
0
100
AcDbLine
 10
54.0
 20
-1.499999999999992
 30
0.0
 11
54.0
 21
1.500000000000003
 31
0.0
  0
ENDBLK
  5
DB62
330
DB60
100
AcDbEntity
  8
0
100
AcDbBlockEnd
  0
BLOCK
  5
DB94
330
DB93
100
AcDbEntity
  8
0
100
AcDbBlockBegin
  2
SBE38_96-F-Right
 70
     0
 10
0.0
 20
0.0
 30
0.0
  3
SBE38_96-F-Right
  1

  0
SPLINE
  5
DB96
330
DB93
100
AcDbEntity
  8
0
100
AcDbSpline
210
0.0
220
0.0
230
1.0
 70
     8
 71
     3
 72
    11
 73
     7
 74
     0
 42
0.000000001
 43
0.0000000001
 40
-1.0
 40
-1.0
 40
-1.0
 40
-1.0
 40
-0.8649350770690309
 40
-0.8649350770690309
 40
-0.8649350770690309
 40
0.0
 40
0.0
 40
0.0
 40
0.0
 10
-2.999999999999997
 20
60.50000000000003
 30
0.0
 10
-2.908983472621825
 20
60.58691438702476
 30
0.0
 10
-2.811930258386424
 20
60.6637300929
 30
0.0
 10
-2.712361736374879
 20
60.72929168059417
 30
0.0
 10
-2.0747401734194
 20
61.14913804539766
 30
0.0
 10
-1.500000000000001
 20
61.05658642087345
 30
0.0
 10
-1.500000000000001
 20
60.5
 30
0.0
  0
ARC
  5
DB97
330
DB93
100
AcDbEntity
  8
0
100
AcDbCircle
 10
-1.50000000000003
 20
58.50000000000001
 30
0.0
 40
2.5
100
AcDbArc
 50
126.8698976458433
 51
233.130102354157
  0
LINE
  5
DB98
330
DB93
100
AcDbEntity
  8
0
100
AcDbLine
 10
8.999999999999994
 20
51.49999999999998
 30
0.0
 11
7.000000000000001
 21
51.49999999999998
 31
0.0
  0
LINE
  5
DB99
330
DB93
100
AcDbEntity
  8
0
100
AcDbLine
 10
7.000000000000001
 20
51.49999999999998
 30
0.0
 11
1.500000000000003
 21
51.49999999999998
 31
0.0
  0
SPLINE
  5
DB9A
330
DB93
100
AcDbEntity
  8
0
100
AcDbSpline
210
0.0
220
0.0
230
1.0
 70
     8
 71
     3
 72
    11
 73
     7
 74
     0
 42
0.000000001
 43
0.0000000001
 40
0.6929633215164485
 40
0.6929633215164485
 40
0.6929633215164485
 40
0.6929633215164485
 40
0.8649350770690309
 40
0.8649350770690309
 40
0.8649350770690309
 40
1.0
 40
1.0
 40
1.0
 40
1.0
 10
-1.687029531830347
 20
60.91933305302969
 30
0.0
 10
-1.92259161675234
 20
60.87598855142056
 30
0.0
 10
-2.17117172657429
 20
60.81276813834438
 30
0.0
 10
-2.424723472749764
 20
60.72929168059417
 30
0.0
 10
-2.623860516772857
 20
60.6637300929
 30
0.0
 10
-2.817966945243658
 20
60.58691438702476
 30
0.0
 10
-3.000000000000003
 20
60.50000000000003
 30
0.0
  0
SPLINE
  5
DB9B
330
DB93
100
AcDbEntity
  8
0
100
AcDbSpline
210
0.0
220
0.0
230
1.0
 70
     8
 71
     3
 72
    11
 73
     7
 74
     0
 42
0.000000001
 43
0.0000000001
 40
-1.0
 40
-1.0
 40
-1.0
 40
-1.0
 40
-0.8649350770683268
 40
-0.8649350770683268
 40
-0.8649350770683268
 40
0.0
 40
0.0
 40
0.0
 40
0.0
 10
-1.500000000000001
 20
56.50000000000002
 30
0.0
 10
-1.500000000000001
 20
56.41308561297485
 30
0.0
 10
-1.508382714052995
 20
56.33626990709925
 30
0.0
 10
-1.527836887672487
 20
56.27070831940486
 30
0.0
 10
-1.652418435521061
 20
55.85086195460245
 30
0.0
 10
-2.417144100673931
 20
55.94341357912731
 30
0.0
 10
-2.999999999999997
 20
56.49999999999999
 30
0.0
  0
SPLINE
  5
DB9C
330
DB93
100
AcDbEntity
  8
0
100
AcDbSpline
210
0.0
220
0.0
230
1.0
 70
     8
 71
     3
 72
     8
 73
     4
 74
     0
 42
0.000000001
 43
0.0000000001
 40
0.0
 40
0.0
 40
0.0
 40
0.0
 40
0.3070366784835728
 40
0.3070366784835728
 40
0.3070366784835728
 40
0.3070366784835728
 10
-3.000000000000003
 20
56.49999999999999
 30
0.0
 10
-2.586192896765838
 20
56.30242164934152
 30
0.0
 10
-2.126550079464
 20
56.16331746602515
 30
0.0
 10
-1.69461252515062
 20
56.08485084201923
 30
0.0
  0
LINE
  5
DB9D
330
DB93
100
AcDbEntity
  8
0
100
AcDbLine
 10
1.500000000000003
 20
52.99999999999998
 30
0.0
 11
7.000000000000001
 21
52.99999999999998
 31
0.0
  0
LINE
  5
DB9E
330
DB93
100
AcDbEntity
  8
0
100
AcDbLine
 10
7.000000000000001
 20
52.99999999999998
 30
0.0
 11
8.999999999999994
 21
52.99999999999998
 31
0.0
  0
LINE
  5
DB9F
330
DB93
100
AcDbEntity
  8
0
100
AcDbLine
 10
8.999999999999994
 20
52.99999999999998
 30
0.0
 11
8.999999999999994
 21
51.49999999999998
 31
0.0
  0
LINE
  5
DBA0
330
DB93
100
AcDbEntity
  8
0
100
AcDbLine
 10
7.000000000000001
 20
52.99999999999998
 30
0.0
 11
7.000000000000001
 21
51.49999999999998
 31
0.0
  0
CIRCLE
  5
DBA1
330
DB93
100
AcDbEntity
  8
0
100
AcDbCircle
 10
-29.0
 20
58.50000000000001
 30
0.0
 40
2.5
  0
CIRCLE
  5
DBA2
330
DB93
100
AcDbEntity
  8
0
100
AcDbCircle
 10
-29.0
 20
78.50000000000001
 30
0.0
 40
2.5
  0
CIRCLE
  5
DBA3
330
DB93
100
AcDbEntity
  8
0
100
AcDbCircle
 10
-29.00000000000001
 20
38.50000000000001
 30
0.0
 40
2.5
  0
LINE
  5
DBA4
330
DB93
100
AcDbEntity
  8
0
100
AcDbLine
 10
-30.50000000000001
 20
96.00000000000003
 30
0.0
 11
-2.999999999999998
 21
96.00000000000001
 31
0.0
  0
LINE
  5
DBA5
330
DB93
100
AcDbEntity
  8
0
100
AcDbLine
 10
-54.0
 20
1.500000000000003
 30
0.0
 11
-53.99999999999999
 21
26.00610095525755
 31
0.0
  0
LINE
  5
DBA6
330
DB93
100
AcDbEntity
  8
0
100
AcDbLine
 10
-36.5
 20
90.00000000000003
 30
0.0
 11
-30.50000000000001
 21
96.00000000000003
 31
0.0
  0
LINE
  5
DBA7
330
DB93
100
AcDbEntity
  8
0
100
AcDbLine
 10
0.0
 20
89.99999999999998
 30
0.0
 11
0.0
 21
95.99999999999985
 31
0.0
  0
LINE
  5
DBA8
330
DB93
100
AcDbEntity
  8
0
100
AcDbLine
 10
0.0
 20
95.99999999999985
 30
0.0
 11
-1.499999999999956
 21
95.99999999999985
 31
0.0
  0
LINE
  5
DBA9
330
DB93
100
AcDbEntity
  8
0
100
AcDbLine
 10
-1.499999999999956
 20
95.99999999999985
 30
0.0
 11
-1.499999999999992
 21
89.99999999999998
 31
0.0
  0
LINE
  5
DBAA
330
DB93
100
AcDbEntity
  8
0
100
AcDbLine
 10
-1.499999999999992
 20
89.99999999999998
 30
0.0
 11
0.0
 21
89.99999999999998
 31
0.0
  0
LINE
  5
DBAB
330
DB93
100
AcDbEntity
  8
0
100
AcDbLine
 10
-36.5
 20
90.00000000000003
 30
0.0
 11
-36.5
 21
44.19051317993776
 31
0.0
  0
LINE
  5
DBAC
330
DB93
100
AcDbEntity
  8
0
100
AcDbLine
 10
-41.78968515835104
 20
34.24206230927727
 30
0.0
 11
-53.99999999999999
 21
26.00610095525755
 31
0.0
  0
ARC
  5
DBAD
330
DB93
100
AcDbEntity
  8
0
100
AcDbCircle
 10
-48.5
 20
44.19051317993776
 30
0.0
 40
12.0
100
AcDbArc
 50
304.0
 51
0.0
  0
LINE
  5
DBAE
330
DB93
100
AcDbEntity
  8
0
100
AcDbLine
 10
-1.500000000000001
 20
34.2420623092772
 30
0.0
 11
-1.5
 21
44.19051317993769
 31
0.0
  0
LINE
  5
DBAF
330
DB93
100
AcDbEntity
  8
0
100
AcDbLine
 10
0.0
 20
44.19051317993769
 30
0.0
 11
0.0
 21
34.2420623092772
 31
0.0
  0
LINE
  5
DBB0
330
DB93
100
AcDbEntity
  8
0
100
AcDbLine
 10
-2.999999999999999
 20
1.500000000000003
 30
0.0
 11
-2.999999999999997
 21
18.24925301156958
 31
0.0
  0
LINE
  5
DBB1
330
DB93
100
AcDbEntity
  8
0
100
AcDbLine
 10
-2.999999999999999
 20
96.00000000000003
 30
0.0
 11
-1.499999999999992
 21
96.00000000000003
 31
0.0
  0
LINE
  5
DBB2
330
DB93
100
AcDbEntity
  8
0
100
AcDbLine
 10
-2.999999999999998
 20
1.500000000000003
 30
0.0
 11
-2.999999999999998
 21
-1.49999999999999
 31
0.0
  0
LINE
  5
DBB3
330
DB93
100
AcDbEntity
  8
0
100
AcDbLine
 10
-1.499999999999994
 20
44.19051317993769
 30
0.0
 11
-1.499999999999992
 21
89.99999999999998
 31
0.0
  0
LINE
  5
DBB4
330
DB93
100
AcDbEntity
  8
0
100
AcDbLine
 10
0.0
 20
44.19051317993769
 30
0.0
 11
0.0
 21
89.99999999999998
 31
0.0
  0
LINE
  5
DBB5
330
DB93
100
AcDbEntity
  8
0
100
AcDbLine
 10
-1.500000000000004
 20
20.27277856209687
 30
0.0
 11
-1.500000000000001
 21
34.24206230927719
 31
0.0
  0
LINE
  5
DBB6
330
DB93
100
AcDbEntity
  8
0
100
AcDbLine
 10
0.0
 20
34.24206230927719
 30
0.0
 11
0.0
 21
20.27277856209687
 31
0.0
  0
SPLINE
  5
DBB7
330
DB93
100
AcDbEntity
  8
0
100
AcDbSpline
210
0.0
220
0.0
230
1.0
 70
     8
 71
     3
 72
     8
 73
     4
 74
     0
 42
0.000000001
 43
0.0000000001
 40
0.0
 40
0.0
 40
0.0
 40
0.0
 40
1.0
 40
1.0
 40
1.0
 40
1.0
 10
-0.0000000000000017
 20
20.2727785620969
 30
0.0
 10
0.000000000000001
 20
19.59827004525388
 30
0.0
 10
-1.429203673205084
 20
18.9237615284119
 30
0.0
 10
-3.000000000000002
 20
18.24925301156959
 30
0.0
  0
SPLINE
  5
DBB8
330
DB93
100
AcDbEntity
  8
0
100
AcDbSpline
210
0.0
220
0.0
230
1.0
 70
     8
 71
     3
 72
     8
 73
     4
 74
     0
 42
0.000000001
 43
0.0000000001
 40
-1.0
 40
-1.0
 40
-1.0
 40
-1.0
 40
0.0
 40
0.0
 40
0.0
 40
0.0
 10
-2.999999999999997
 20
18.24925301156959
 30
0.0
 10
-2.21460183660254
 20
18.9237615284119
 30
0.0
 10
-1.5
 20
19.59827004525388
 30
0.0
 10
-1.500000000000001
 20
20.2727785620969
 30
0.0
  0
LINE
  5
DBB9
330
DB93
100
AcDbEntity
  8
0
100
AcDbLine
 10
-1.500000000000004
 20
20.27277856209687
 30
0.0
 11
-1.090140682895656
 21
20.27277856209687
 31
0.0
  0
LINE
  5
DBBA
330
DB93
100
AcDbEntity
  8
0
100
AcDbLine
 10
-1.090140682895656
 20
20.27277856209687
 30
0.0
 11
0.0
 21
20.27277856209687
 31
0.0
  0
ARC
  5
DBBB
330
DB93
100
AcDbEntity
  8
0
100
AcDbCircle
 10
1.500000000000003
 20
49.99999999999997
 30
0.0
 40
1.5
100
AcDbArc
 50
89.99999999999705
 51
180.0
  0
ARC
  5
DBBC
330
DB93
100
AcDbEntity
  8
0
100
AcDbCircle
 10
1.500000000000003
 20
49.99999999999997
 30
0.0
 40
3.0
100
AcDbArc
 50
89.99999999999852
 51
119.9999999999999
  0
SPLINE
  5
DBBD
330
DB93
100
AcDbEntity
  8
0
100
AcDbSpline
210
0.0
220
0.0
230
1.0
 70
     8
 71
     3
 72
     8
 73
     4
 74
     0
 42
0.000000001
 43
0.0000000001
 40
-1.0
 40
-1.0
 40
-1.0
 40
-1.0
 40
0.0
 40
0.0
 40
0.0
 40
0.0
 10
0.0000000000000006
 20
1.500000000000009
 30
0.0
 10
-0.0000000000000007
 20
-0.070796326794885
 30
0.0
 10
-1.429203673205064
 20
-1.499999999999991
 30
0.0
 10
-3.000000000000007
 20
-1.499999999999987
 30
0.0
  0
LINE
  5
DBBE
330
DB93
100
AcDbEntity
  8
0
100
AcDbLine
 10
0.0
 20
1.500000000000011
 30
0.0
 11
-1.09014068289725
 21
1.500000000000011
 31
0.0
  0
LINE
  5
DBBF
330
DB93
100
AcDbEntity
  8
0
100
AcDbLine
 10
-1.09014068289725
 20
1.500000000000011
 30
0.0
 11
-1.499999999999999
 21
1.500000000000011
 31
0.0
  0
SPLINE
  5
DBC0
330
DB93
100
AcDbEntity
  8
0
100
AcDbSpline
210
0.0
220
0.0
230
1.0
 70
     8
 71
     3
 72
     8
 73
     4
 74
     0
 42
0.000000001
 43
0.0000000001
 40
0.0
 40
0.0
 40
0.0
 40
0.0
 40
1.0
 40
1.0
 40
1.0
 40
1.0
 10
-3.000000000000003
 20
0.0000000000000128
 30
0.0
 10
-2.214601836602532
 20
0.0000000000000107
 30
0.0
 10
-1.5
 20
0.7146018366025637
 30
0.0
 10
-1.499999999999999
 20
1.500000000000011
 30
0.0
  0
LINE
  5
DBC1
330
DB93
100
AcDbEntity
  8
0
100
AcDbLine
 10
-1.499999999999999
 20
1.500000000000011
 30
0.0
 11
-1.499999999999997
 21
8.500000000000007
 31
0.0
  0
LINE
  5
DBC2
330
DB93
100
AcDbEntity
  8
0
100
AcDbLine
 10
0.0
 20
8.500000000000007
 30
0.0
 11
0.0
 21
1.500000000000011
 31
0.0
  0
LINE
  5
DBC3
330
DB93
100
AcDbEntity
  8
0
100
AcDbLine
 10
-1.499999999999997
 20
8.500000000000007
 30
0.0
 11
0.0
 21
8.500000000000007
 31
0.0
  0
LINE
  5
DBC4
330
DB93
100
AcDbEntity
  8
0
100
AcDbLine
 10
-54.0
 20
-1.499999999999988
 30
0.0
 11
-2.999999999999998
 21
-1.499999999999992
 31
0.0
  0
LINE
  5
DBC5
330
DB93
100
AcDbEntity
  8
0
100
AcDbLine
 10
-54.0
 20
1.500000000000003
 30
0.0
 11
-54.0
 21
-1.499999999999985
 31
0.0
  0
ENDBLK
  5
DB95
330
DB93
100
AcDbEntity
  8
0
100
AcDbBlockEnd
  0
BLOCK
  5
DBC7
330
DBC6
100
AcDbEntity
  8
0
100
AcDbBlockBegin
  2
SBE38_96-F-Top
 70
     0
 10
0.0
 20
0.0
 30
0.0
  3
SBE38_96-F-Top
  1

  0
ARC
  5
DBC9
330
DBC6
100
AcDbEntity
  8
0
100
AcDbCircle
 10
-22.00000000000002
 20
-2.999999999999998
 30
0.0
 40
1.499999999999994
100
AcDbArc
 50
0.0
 51
90.0
  0
ARC
  5
DBCA
330
DBC6
100
AcDbEntity
  8
0
100
AcDbCircle
 10
-22.00000000000002
 20
-2.999999999999998
 30
0.0
 40
2.999999999999998
100
AcDbArc
 50
0.0
 51
90.0
  0
ARC
  5
DBCB
330
DBC6
100
AcDbEntity
  8
0
100
AcDbCircle
 10
22.00000000000015
 20
-2.999999999999992
 30
0.0
 40
3.0
100
AcDbArc
 50
90.0
 51
180.0
  0
LINE
  5
DBCC
330
DBC6
100
AcDbEntity
  8
0
100
AcDbLine
 10
-17.5
 20
-2.999999999999998
 30
0.0
 11
-19.0
 21
-2.999999999999998
 31
0.0
  0
ARC
  5
DBCD
330
DBC6
100
AcDbEntity
  8
0
100
AcDbCircle
 10
22.00000000000015
 20
-2.999999999999992
 30
0.0
 40
1.499999999999999
100
AcDbArc
 50
90.0
 51
180.0
  0
LINE
  5
DBCE
330
DBC6
100
AcDbEntity
  8
0
100
AcDbLine
 10
19.0
 20
-2.999999999999998
 30
0.0
 11
17.5
 21
-2.999999999999998
 31
0.0
  0
LINE
  5
DBCF
330
DBC6
100
AcDbEntity
  8
0
100
AcDbLine
 10
-20.50000000000001
 20
-53.99999999999999
 30
0.0
 11
-20.50000000000001
 21
-41.78968515835104
 31
0.0
  0
LINE
  5
DBD0
330
DBC6
100
AcDbEntity
  8
0
100
AcDbLine
 10
-19.00000000000001
 20
-41.78968515835104
 30
0.0
 11
-19.00000000000001
 21
-54.0
 31
0.0
  0
LINE
  5
DBD1
330
DBC6
100
AcDbEntity
  8
0
100
AcDbLine
 10
19.00000000000004
 20
-53.99999999999999
 30
0.0
 11
19.00000000000006
 21
-41.78968515835103
 31
0.0
  0
LINE
  5
DBD2
330
DBC6
100
AcDbEntity
  8
0
100
AcDbLine
 10
20.50000000000006
 20
-41.78968515835104
 30
0.0
 11
20.50000000000005
 21
-53.99999999999999
 31
0.0
  0
LINE
  5
DBD3
330
DBC6
100
AcDbEntity
  8
0
100
AcDbLine
 10
20.50000000000005
 20
-53.99999999999999
 30
0.0
 11
19.00000000000004
 21
-53.99999999999999
 31
0.0
  0
LINE
  5
DBD4
330
DBC6
100
AcDbEntity
  8
0
100
AcDbLine
 10
-19.00000000000001
 20
-54.0
 30
0.0
 11
-20.50000000000001
 21
-53.99999999999999
 31
0.0
  0
LINE
  5
DBD5
330
DBC6
100
AcDbEntity
  8
0
100
AcDbLine
 10
-20.5
 20
-36.49999999999999
 30
0.0
 11
-20.49999999999999
 21
-41.78968515835103
 31
0.0
  0
LINE
  5
DBD6
330
DBC6
100
AcDbEntity
  8
0
100
AcDbLine
 10
-18.99999999999999
 20
-41.78968515835103
 30
0.0
 11
-19.0
 21
-36.49999999999999
 31
0.0
  0
LINE
  5
DBD7
330
DBC6
100
AcDbEntity
  8
0
100
AcDbLine
 10
18.99999999999998
 20
-36.49999999999999
 30
0.0
 11
18.99999999999996
 21
-41.78968515835103
 31
0.0
  0
LINE
  5
DBD8
330
DBC6
100
AcDbEntity
  8
0
100
AcDbLine
 10
20.49999999999997
 20
-41.78968515835103
 30
0.0
 11
20.49999999999998
 21
-36.49999999999999
 31
0.0
  0
LINE
  5
DBD9
330
DBC6
100
AcDbEntity
  8
0
100
AcDbLine
 10
-20.50000000000002
 20
-30.50000000000001
 30
0.0
 11
-20.50000000000003
 21
-36.5
 31
0.0
  0
LINE
  5
DBDA
330
DBC6
100
AcDbEntity
  8
0
100
AcDbLine
 10
-19.00000000000002
 20
-36.5
 30
0.0
 11
-19.00000000000002
 21
-30.50000000000001
 31
0.0
  0
LINE
  5
DBDB
330
DBC6
100
AcDbEntity
  8
0
100
AcDbLine
 10
19.00000000000016
 20
-30.50000000000001
 30
0.0
 11
19.00000000000015
 21
-36.5
 31
0.0
  0
LINE
  5
DBDC
330
DBC6
100
AcDbEntity
  8
0
100
AcDbLine
 10
20.50000000000015
 20
-36.5
 30
0.0
 11
20.50000000000016
 21
-30.50000000000001
 31
0.0
  0
LINE
  5
DBDD
330
DBC6
100
AcDbEntity
  8
0
100
AcDbLine
 10
-42.00000000000004
 20
0.0
 30
0.0
 11
-48.00000000000004
 21
0.0
 31
0.0
  0
LINE
  5
DBDE
330
DBC6
100
AcDbEntity
  8
0
100
AcDbLine
 10
-48.00000000000004
 20
0.0
 30
0.0
 11
-48.00000000000004
 21
-1.500000000000007
 31
0.0
  0
LINE
  5
DBDF
330
DBC6
100
AcDbEntity
  8
0
100
AcDbLine
 10
-48.00000000000004
 20
-1.500000000000007
 30
0.0
 11
-42.00000000000004
 21
-1.500000000000007
 31
0.0
  0
LINE
  5
DBE0
330
DBC6
100
AcDbEntity
  8
0
100
AcDbLine
 10
-42.00000000000004
 20
-1.500000000000007
 30
0.0
 11
-42.00000000000004
 21
0.0
 31
0.0
  0
LINE
  5
DBE1
330
DBC6
100
AcDbEntity
  8
0
100
AcDbLine
 10
-19.00000000000002
 20
-30.50000000000001
 30
0.0
 11
-20.50000000000002
 21
-30.50000000000001
 31
0.0
  0
LINE
  5
DBE2
330
DBC6
100
AcDbEntity
  8
0
100
AcDbLine
 10
-20.50000000000003
 20
-36.5
 30
0.0
 11
-19.00000000000002
 21
-36.5
 31
0.0
  0
LINE
  5
DBE3
330
DBC6
100
AcDbEntity
  8
0
100
AcDbLine
 10
20.50000000000016
 20
-30.50000000000001
 30
0.0
 11
19.00000000000016
 21
-30.50000000000001
 31
0.0
  0
LINE
  5
DBE4
330
DBC6
100
AcDbEntity
  8
0
100
AcDbLine
 10
19.00000000000015
 20
-36.5
 30
0.0
 11
20.50000000000015
 21
-36.5
 31
0.0
  0
LINE
  5
DBE5
330
DBC6
100
AcDbEntity
  8
0
100
AcDbLine
 10
48.00000000000014
 20
0.0
 30
0.0
 11
42.00000000000016
 21
0.0
 31
0.0
  0
LINE
  5
DBE6
330
DBC6
100
AcDbEntity
  8
0
100
AcDbLine
 10
42.00000000000016
 20
0.0
 30
0.0
 11
42.00000000000016
 21
-1.499999999999956
 31
0.0
  0
LINE
  5
DBE7
330
DBC6
100
AcDbEntity
  8
0
100
AcDbLine
 10
42.00000000000016
 20
-1.499999999999956
 30
0.0
 11
48.00000000000014
 21
-1.499999999999992
 31
0.0
  0
LINE
  5
DBE8
330
DBC6
100
AcDbEntity
  8
0
100
AcDbLine
 10
48.00000000000014
 20
-1.499999999999992
 30
0.0
 11
48.00000000000014
 21
0.0
 31
0.0
  0
LINE
  5
DBE9
330
DBC6
100
AcDbEntity
  8
0
100
AcDbLine
 10
-20.50000000000002
 20
-2.999999999999999
 30
0.0
 11
-20.50000000000002
 21
-30.50000000000001
 31
0.0
  0
LINE
  5
DBEA
330
DBC6
100
AcDbEntity
  8
0
100
AcDbLine
 10
-19.00000000000002
 20
-2.999999999999999
 30
0.0
 11
-19.00000000000002
 21
-30.50000000000001
 31
0.0
  0
LINE
  5
DBEB
330
DBC6
100
AcDbEntity
  8
0
100
AcDbLine
 10
19.00000000000016
 20
-2.999999999999999
 30
0.0
 11
19.00000000000016
 21
-30.50000000000001
 31
0.0
  0
LINE
  5
DBEC
330
DBC6
100
AcDbEntity
  8
0
100
AcDbLine
 10
20.50000000000016
 20
-30.50000000000001
 30
0.0
 11
20.50000000000016
 21
-2.999999999999998
 31
0.0
  0
LINE
  5
DBED
330
DBC6
100
AcDbEntity
  8
0
100
AcDbLine
 10
-17.5
 20
-54.0
 30
0.0
 11
17.5
 21
-54.0
 31
0.0
  0
LINE
  5
DBEE
330
DBC6
100
AcDbEntity
  8
0
100
AcDbLine
 10
-22.00000000000002
 20
-1.500000000000003
 30
0.0
 11
-42.00000000000004
 21
-1.500000000000007
 31
0.0
  0
LINE
  5
DBEF
330
DBC6
100
AcDbEntity
  8
0
100
AcDbLine
 10
22.00000000000015
 20
-1.499999999999988
 30
0.0
 11
42.00000000000016
 21
-1.499999999999956
 31
0.0
  0
LINE
  5
DBF0
330
DBC6
100
AcDbEntity
  8
0
100
AcDbLine
 10
-22.00000000000002
 20
0.0
 30
0.0
 11
-42.00000000000004
 21
0.0
 31
0.0
  0
LINE
  5
DBF1
330
DBC6
100
AcDbEntity
  8
0
100
AcDbLine
 10
42.00000000000016
 20
0.0
 30
0.0
 11
22.00000000000015
 21
0.0
 31
0.0
  0
LINE
  5
DBF2
330
DBC6
100
AcDbEntity
  8
0
100
AcDbLine
 10
-37.50000000000008
 20
0.0
 30
0.0
 11
-37.50000000000008
 21
1.500000000000017
 31
0.0
  0
LINE
  5
DBF3
330
DBC6
100
AcDbEntity
  8
0
100
AcDbLine
 10
-33.50000000000001
 20
1.500000000000043
 30
0.0
 11
-33.50000000000006
 21
0.0
 31
0.0
  0
LINE
  5
DBF4
330
DBC6
100
AcDbEntity
  8
0
100
AcDbLine
 10
-33.50000000000006
 20
1.500000000000012
 30
0.0
 11
-33.50000000000006
 21
7.00000000000001
 31
0.0
  0
LINE
  5
DBF5
330
DBC6
100
AcDbEntity
  8
0
100
AcDbLine
 10
-33.50000000000006
 20
7.00000000000001
 30
0.0
 11
-35.50000000000006
 21
9.000000000000003
 31
0.0
  0
LINE
  5
DBF6
330
DBC6
100
AcDbEntity
  8
0
100
AcDbLine
 10
-35.50000000000006
 20
9.000000000000003
 30
0.0
 11
-37.50000000000006
 21
7.000000000000001
 31
0.0
  0
LINE
  5
DBF7
330
DBC6
100
AcDbEntity
  8
0
100
AcDbLine
 10
-37.50000000000006
 20
7.000000000000001
 30
0.0
 11
-37.50000000000006
 21
1.500000000000003
 31
0.0
  0
ARC
  5
DBF8
330
DBC6
100
AcDbEntity
  8
0
100
AcDbCircle
 10
-28.32677949145489
 20
-7.495925238298273
 30
0.0
 40
5.000000000000001
100
AcDbArc
 50
8.999999999999984
 51
71.99999999999995
  0
LINE
  5
DBF9
330
DBC6
100
AcDbEntity
  8
0
100
AcDbLine
 10
-23.3883377884792
 20
-6.713752913097112
 30
0.0
 11
-20.51846748910731
 21
-24.83340086267727
 31
0.0
  0
LINE
  5
DBFA
330
DBC6
100
AcDbEntity
  8
0
100
AcDbLine
 10
-30.37405116892454
 20
-1.573415225557272
 30
0.0
 11
-26.78169451958015
 21
-2.740642656822511
 31
0.0
  0
LINE
  5
DBFB
330
DBC6
100
AcDbEntity
  8
0
100
AcDbLine
 10
37.50000000000004
 20
1.500000000000082
 30
0.0
 11
37.50000000000006
 21
0.0
 31
0.0
  0
LINE
  5
DBFC
330
DBC6
100
AcDbEntity
  8
0
100
AcDbLine
 10
33.50000000000008
 20
0.0
 30
0.0
 11
33.50000000000008
 21
1.500000000000003
 31
0.0
  0
LINE
  5
DBFD
330
DBC6
100
AcDbEntity
  8
0
100
AcDbLine
 10
-14.125
 20
0.0
 30
0.0
 11
-14.125
 21
-1.09014068289695
 31
0.0
  0
SPLINE
  5
DBFE
330
DBC6
100
AcDbEntity
  8
0
100
AcDbSpline
210
0.0
220
0.0
230
1.0
 70
     8
 71
     3
 72
     8
 73
     4
 74
     0
 42
0.000000001
 43
0.0000000001
 40
-1.0
 40
-1.0
 40
-1.0
 40
-1.0
 40
0.0
 40
0.0
 40
0.0
 40
0.0
 10
-17.5
 20
-3.000000000000001
 30
0.0
 10
-16.37500000000002
 20
-1.429203673205133
 30
0.0
 10
-15.2500000000002
 20
-0.0000000000000012
 30
0.0
 10
-14.12499999999999
 20
0.0000000000000006
 30
0.0
  0
SPLINE
  5
DBFF
330
DBC6
100
AcDbEntity
  8
0
100
AcDbSpline
210
0.0
220
0.0
230
1.0
 70
     8
 71
     3
 72
     8
 73
     4
 74
     0
 42
0.000000001
 43
0.0000000001
 40
0.0
 40
0.0
 40
0.0
 40
0.0
 40
1.0
 40
1.0
 40
1.0
 40
1.0
 10
-14.12499999999999
 20
-1.499999999999999
 30
0.0
 10
-15.2500000000002
 20
-1.5
 30
0.0
 10
-16.37500000000002
 20
-2.214601836602566
 30
0.0
 10
-17.5
 20
-3.0
 30
0.0
  0
LINE
  5
DC00
330
DBC6
100
AcDbEntity
  8
0
100
AcDbLine
 10
-14.125
 20
-1.09014068289695
 30
0.0
 11
-14.125
 21
-1.499999999999999
 31
0.0
  0
LINE
  5
DC01
330
DBC6
100
AcDbEntity
  8
0
100
AcDbLine
 10
-6.25
 20
-1.499999999999997
 30
0.0
 11
-14.125
 21
-1.499999999999999
 31
0.0
  0
LINE
  5
DC02
330
DBC6
100
AcDbEntity
  8
0
100
AcDbLine
 10
-6.25
 20
0.0
 30
0.0
 11
-6.25
 21
-1.499999999999997
 31
0.0
  0
LINE
  5
DC03
330
DBC6
100
AcDbEntity
  8
0
100
AcDbLine
 10
-14.125
 20
0.0
 30
0.0
 11
-6.25
 21
0.0
 31
0.0
  0
SPLINE
  5
DC04
330
DBC6
100
AcDbEntity
  8
0
100
AcDbSpline
210
0.0
220
0.0
230
1.0
 70
     8
 71
     3
 72
     8
 73
     4
 74
     0
 42
0.000000001
 43
0.0000000001
 40
-1.0
 40
-1.0
 40
-1.0
 40
-1.0
 40
0.0
 40
0.0
 40
0.0
 40
0.0
 10
14.125
 20
0.0000000000000006
 30
0.0
 10
15.25000000000001
 20
-0.0000000000000007
 30
0.0
 10
16.37499999999993
 20
-1.429203673205064
 30
0.0
 10
17.5
 20
-3.000000000000007
 30
0.0
  0
LINE
  5
DC05
330
DBC6
100
AcDbEntity
  8
0
100
AcDbLine
 10
14.125
 20
0.0
 30
0.0
 11
14.125
 21
-1.09014068289725
 31
0.0
  0
LINE
  5
DC06
330
DBC6
100
AcDbEntity
  8
0
100
AcDbLine
 10
14.125
 20
-1.09014068289725
 30
0.0
 11
14.125
 21
-1.499999999999999
 31
0.0
  0
SPLINE
  5
DC07
330
DBC6
100
AcDbEntity
  8
0
100
AcDbSpline
210
0.0
220
0.0
230
1.0
 70
     8
 71
     3
 72
     8
 73
     4
 74
     0
 42
0.000000001
 43
0.0000000001
 40
0.0
 40
0.0
 40
0.0
 40
0.0
 40
1.0
 40
1.0
 40
1.0
 40
1.0
 10
17.5
 20
-3.000000000000003
 30
0.0
 10
16.37499999999993
 20
-2.214601836602532
 30
0.0
 10
15.25000000000001
 20
-1.5
 30
0.0
 10
14.125
 20
-1.499999999999999
 30
0.0
  0
LINE
  5
DC08
330
DBC6
100
AcDbEntity
  8
0
100
AcDbLine
 10
14.125
 20
-1.499999999999999
 30
0.0
 11
6.250000000000001
 21
-1.499999999999997
 31
0.0
  0
LINE
  5
DC09
330
DBC6
100
AcDbEntity
  8
0
100
AcDbLine
 10
6.250000000000001
 20
0.0
 30
0.0
 11
14.125
 21
0.0
 31
0.0
  0
LINE
  5
DC0A
330
DBC6
100
AcDbEntity
  8
0
100
AcDbLine
 10
6.250000000000001
 20
-1.499999999999997
 30
0.0
 11
6.250000000000001
 21
0.0
 31
0.0
  0
LINE
  5
DC0B
330
DBC6
100
AcDbEntity
  8
0
100
AcDbLine
 10
6.250000000000001
 20
-1.499999999999997
 30
0.0
 11
-6.25
 21
-1.499999999999997
 31
0.0
  0
LINE
  5
DC0C
330
DBC6
100
AcDbEntity
  8
0
100
AcDbLine
 10
6.250000000000001
 20
0.0
 30
0.0
 11
-6.25
 21
0.0
 31
0.0
  0
LINE
  5
DC0D
330
DBC6
100
AcDbEntity
  8
0
100
AcDbLine
 10
-19.0
 20
-54.0
 30
0.0
 11
-17.5
 21
-54.0
 31
0.0
  0
LINE
  5
DC0E
330
DBC6
100
AcDbEntity
  8
0
100
AcDbLine
 10
17.5
 20
-54.0
 30
0.0
 11
19.0
 21
-54.0
 31
0.0
  0
LINE
  5
DC0F
330
DBC6
100
AcDbEntity
  8
0
100
AcDbLine
 10
37.50000000000006
 20
1.500000000000003
 30
0.0
 11
37.50000000000005
 21
7.000000000000001
 31
0.0
  0
LINE
  5
DC10
330
DBC6
100
AcDbEntity
  8
0
100
AcDbLine
 10
37.50000000000005
 20
7.000000000000001
 30
0.0
 11
35.50000000000005
 21
8.999999999999994
 31
0.0
  0
LINE
  5
DC11
330
DBC6
100
AcDbEntity
  8
0
100
AcDbLine
 10
35.50000000000005
 20
8.999999999999994
 30
0.0
 11
33.50000000000006
 21
7.000000000000001
 31
0.0
  0
LINE
  5
DC12
330
DBC6
100
AcDbEntity
  8
0
100
AcDbLine
 10
33.50000000000006
 20
7.000000000000001
 30
0.0
 11
33.50000000000006
 21
1.500000000000003
 31
0.0
  0
ARC
  5
DC13
330
DBC6
100
AcDbEntity
  8
0
100
AcDbCircle
 10
-30.83757666048696
 20
-3.000000000000002
 30
0.0
 40
1.5
100
AcDbArc
 50
72.00000000000006
 51
90.0
  0
ARC
  5
DC14
330
DBC6
100
AcDbEntity
  8
0
100
AcDbCircle
 10
-22.00000000000002
 20
-25.06805256023761
 30
0.0
 40
1.5
100
AcDbArc
 50
0.0
 51
8.999999999999902
  0
ARC
  5
DC15
330
DBC6
100
AcDbEntity
  8
0
100
AcDbCircle
 10
22.00000000000013
 20
-25.06805256023693
 30
0.0
 40
1.5
100
AcDbArc
 50
171.0000000000001
 51
180.0
  0
ARC
  5
DC16
330
DBC6
100
AcDbEntity
  8
0
100
AcDbCircle
 10
30.83757666048697
 20
-2.999999999999999
 30
0.0
 40
1.5
100
AcDbArc
 50
90.0
 51
107.9999999999999
  0
LINE
  5
DC17
330
DBC6
100
AcDbEntity
  8
0
100
AcDbLine
 10
26.78169451958015
 20
-2.740642656822511
 30
0.0
 11
30.37405116892454
 21
-1.57341522555727
 31
0.0
  0
LINE
  5
DC18
330
DBC6
100
AcDbEntity
  8
0
100
AcDbLine
 10
20.51846748910743
 20
-24.83340086267658
 30
0.0
 11
23.3883377884792
 21
-6.713752913097112
 31
0.0
  0
ARC
  5
DC19
330
DBC6
100
AcDbEntity
  8
0
100
AcDbCircle
 10
28.32677949145489
 20
-7.495925238298273
 30
0.0
 40
5.000000000000001
100
AcDbArc
 50
108.0
 51
171.0
  0
ENDBLK
  5
DBC8
330
DBC6
100
AcDbEntity
  8
0
100
AcDbBlockEnd
  0
BLOCK
  5
DC1B
330
DC1A
100
AcDbEntity
  8
0
100
AcDbBlockBegin
  2
SBE38_96-F-Bottom
 70
     0
 10
0.0
 20
0.0
 30
0.0
  3
SBE38_96-F-Bottom
  1

  0
LINE
  5
DC1D
330
DC1A
100
AcDbEntity
  8
0
100
AcDbLine
 10
-20.5
 20
54.0
 30
0.0
 11
-20.5
 21
2.999999999999998
 31
0.0
  0
LINE
  5
DC1E
330
DC1A
100
AcDbEntity
  8
0
100
AcDbLine
 10
20.5
 20
54.0
 30
0.0
 11
20.5
 21
2.999999999999998
 31
0.0
  0
LINE
  5
DC1F
330
DC1A
100
AcDbEntity
  8
0
100
AcDbLine
 10
20.5
 20
54.0
 30
0.0
 11
17.5
 21
54.0
 31
0.0
  0
LINE
  5
DC20
330
DC1A
100
AcDbEntity
  8
0
100
AcDbLine
 10
-17.5
 20
54.0
 30
0.0
 11
-20.5
 21
54.0
 31
0.0
  0
LINE
  5
DC21
330
DC1A
100
AcDbEntity
  8
0
100
AcDbLine
 10
-48.00000000000003
 20
1.500000000000005
 30
0.0
 11
-42.71031484164897
 21
1.500000000000003
 31
0.0
  0
LINE
  5
DC22
330
DC1A
100
AcDbEntity
  8
0
100
AcDbLine
 10
-48.00000000000001
 20
1.500000000000008
 30
0.0
 11
-48.00000000000001
 21
0.0
 31
0.0
  0
LINE
  5
DC23
330
DC1A
100
AcDbEntity
  8
0
100
AcDbLine
 10
48.00000000000006
 20
0.0
 30
0.0
 11
48.00000000000006
 21
1.499999999999994
 31
0.0
  0
LINE
  5
DC24
330
DC1A
100
AcDbEntity
  8
0
100
AcDbLine
 10
42.710314841649
 20
1.500000000000001
 30
0.0
 11
48.00000000000007
 21
1.5
 31
0.0
  0
LINE
  5
DC25
330
DC1A
100
AcDbEntity
  8
0
100
AcDbLine
 10
-42.71031484164897
 20
0.0
 30
0.0
 11
-48.00000000000003
 21
0.0
 31
0.0
  0
LINE
  5
DC26
330
DC1A
100
AcDbEntity
  8
0
100
AcDbLine
 10
48.00000000000007
 20
0.0
 30
0.0
 11
42.71031484164901
 21
0.0
 31
0.0
  0
LINE
  5
DC27
330
DC1A
100
AcDbEntity
  8
0
100
AcDbLine
 10
-42.71031484164897
 20
1.500000000000005
 30
0.0
 11
-22.00000000000002
 21
1.500000000000004
 31
0.0
  0
LINE
  5
DC28
330
DC1A
100
AcDbEntity
  8
0
100
AcDbLine
 10
-37.50000000000004
 20
0.0
 30
0.0
 11
-37.50000000000007
 21
-1.500000000000009
 31
0.0
  0
LINE
  5
DC29
330
DC1A
100
AcDbEntity
  8
0
100
AcDbLine
 10
-33.50000000000006
 20
-1.500000000000035
 30
0.0
 11
-33.50000000000012
 21
0.0
 31
0.0
  0
LINE
  5
DC2A
330
DC1A
100
AcDbEntity
  8
0
100
AcDbLine
 10
-22.00000000000002
 20
0.0
 30
0.0
 11
-42.71031484164897
 21
0.0
 31
0.0
  0
SPLINE
  5
DC2B
330
DC1A
100
AcDbEntity
  8
0
100
AcDbSpline
210
0.0
220
0.0
230
1.0
 70
     8
 71
     3
 72
     8
 73
     4
 74
     0
 42
0.000000001
 43
0.0000000001
 40
-1.0
 40
-1.0
 40
-1.0
 40
-1.0
 40
0.0
 40
0.0
 40
0.0
 40
0.0
 10
-19.00000000000003
 20
3.000000000000002
 30
0.0
 10
-19.00000000000002
 20
1.429203673205084
 30
0.0
 10
-20.42920367320506
 20
-0.000000000000001
 30
0.0
 10
-22.00000000000003
 20
0.0000000000000017
 30
0.0
  0
SPLINE
  5
DC2C
330
DC1A
100
AcDbEntity
  8
0
100
AcDbSpline
210
0.0
220
0.0
230
1.0
 70
     8
 71
     3
 72
     8
 73
     4
 74
     0
 42
0.000000001
 43
0.0000000001
 40
0.0
 40
0.0
 40
0.0
 40
0.0
 40
1.0
 40
1.0
 40
1.0
 40
1.0
 10
-22.00000000000002
 20
1.500000000000001
 30
0.0
 10
-21.21460183660254
 20
1.5
 30
0.0
 10
-20.50000000000003
 20
2.21460183660254
 30
0.0
 10
-20.50000000000003
 20
2.999999999999997
 30
0.0
  0
LINE
  5
DC2D
330
DC1A
100
AcDbEntity
  8
0
100
AcDbLine
 10
-22.00000000000002
 20
1.500000000000004
 30
0.0
 11
-22.00000000000002
 21
1.090140682895656
 31
0.0
  0
LINE
  5
DC2E
330
DC1A
100
AcDbEntity
  8
0
100
AcDbLine
 10
-22.00000000000002
 20
1.090140682895656
 30
0.0
 11
-22.00000000000002
 21
0.0
 31
0.0
  0
LINE
  5
DC2F
330
DC1A
100
AcDbEntity
  8
0
100
AcDbLine
 10
-35.50000000000005
 20
-9.000000000000003
 30
0.0
 11
-33.50000000000006
 21
-7.000000000000001
 31
0.0
  0
LINE
  5
DC30
330
DC1A
100
AcDbEntity
  8
0
100
AcDbLine
 10
-33.50000000000006
 20
-7.000000000000001
 30
0.0
 11
-33.50000000000006
 21
-1.500000000000003
 31
0.0
  0
LINE
  5
DC31
330
DC1A
100
AcDbEntity
  8
0
100
AcDbLine
 10
-37.50000000000005
 20
-1.500000000000003
 30
0.0
 11
-37.50000000000005
 21
-7.000000000000001
 31
0.0
  0
LINE
  5
DC32
330
DC1A
100
AcDbEntity
  8
0
100
AcDbLine
 10
-37.50000000000005
 20
-7.000000000000001
 30
0.0
 11
-35.50000000000005
 21
-9.000000000000003
 31
0.0
  0
ARC
  5
DC33
330
DC1A
100
AcDbEntity
  8
0
100
AcDbCircle
 10
-28.32677949145489
 20
7.495925238298273
 30
0.0
 40
5.000000000000001
100
AcDbArc
 50
288.0
 51
350.9999999999999
  0
LINE
  5
DC34
330
DC1A
100
AcDbEntity
  8
0
100
AcDbLine
 10
-23.3883377884792
 20
6.713752913097112
 30
0.0
 11
-20.51846748910731
 21
24.83340086267727
 31
0.0
  0
LINE
  5
DC35
330
DC1A
100
AcDbEntity
  8
0
100
AcDbLine
 10
-30.37405116892454
 20
1.573415225557272
 30
0.0
 11
-26.78169451958015
 21
2.740642656822511
 31
0.0
  0
LINE
  5
DC36
330
DC1A
100
AcDbEntity
  8
0
100
AcDbLine
 10
22.00000000000002
 20
1.500000000000004
 30
0.0
 11
42.71031484164901
 21
1.500000000000001
 31
0.0
  0
LINE
  5
DC37
330
DC1A
100
AcDbEntity
  8
0
100
AcDbLine
 10
42.71031484164902
 20
0.0
 30
0.0
 11
22.00000000000002
 21
0.0
 31
0.0
  0
SPLINE
  5
DC38
330
DC1A
100
AcDbEntity
  8
0
100
AcDbSpline
210
0.0
220
0.0
230
1.0
 70
     8
 71
     3
 72
     8
 73
     4
 74
     0
 42
0.000000001
 43
0.0000000001
 40
0.0
 40
0.0
 40
0.0
 40
0.0
 40
1.0
 40
1.0
 40
1.0
 40
1.0
 10
22.00000000000003
 20
0.0000000000000017
 30
0.0
 10
20.42920367320506
 20
-0.000000000000001
 30
0.0
 10
19.00000000000002
 20
1.429203673205084
 30
0.0
 10
19.00000000000003
 20
3.000000000000002
 30
0.0
  0
SPLINE
  5
DC39
330
DC1A
100
AcDbEntity
  8
0
100
AcDbSpline
210
0.0
220
0.0
230
1.0
 70
     8
 71
     3
 72
     8
 73
     4
 74
     0
 42
0.000000001
 43
0.0000000001
 40
-1.0
 40
-1.0
 40
-1.0
 40
-1.0
 40
0.0
 40
0.0
 40
0.0
 40
0.0
 10
20.50000000000003
 20
2.999999999999997
 30
0.0
 10
20.50000000000003
 20
2.21460183660254
 30
0.0
 10
21.21460183660254
 20
1.5
 30
0.0
 10
22.00000000000002
 20
1.500000000000001
 30
0.0
  0
LINE
  5
DC3A
330
DC1A
100
AcDbEntity
  8
0
100
AcDbLine
 10
22.00000000000002
 20
1.500000000000004
 30
0.0
 11
22.00000000000002
 21
1.090140682895656
 31
0.0
  0
LINE
  5
DC3B
330
DC1A
100
AcDbEntity
  8
0
100
AcDbLine
 10
22.00000000000002
 20
1.090140682895656
 30
0.0
 11
22.00000000000002
 21
0.0
 31
0.0
  0
LINE
  5
DC3C
330
DC1A
100
AcDbEntity
  8
0
100
AcDbLine
 10
33.50000000000006
 20
-1.500000000000003
 30
0.0
 11
33.50000000000005
 21
-7.000000000000001
 31
0.0
  0
LINE
  5
DC3D
330
DC1A
100
AcDbEntity
  8
0
100
AcDbLine
 10
33.50000000000005
 20
-7.000000000000001
 30
0.0
 11
35.50000000000005
 21
-8.999999999999994
 31
0.0
  0
LINE
  5
DC3E
330
DC1A
100
AcDbEntity
  8
0
100
AcDbLine
 10
35.50000000000005
 20
-8.999999999999994
 30
0.0
 11
37.50000000000004
 21
-7.000000000000001
 31
0.0
  0
LINE
  5
DC3F
330
DC1A
100
AcDbEntity
  8
0
100
AcDbLine
 10
37.50000000000004
 20
-7.000000000000001
 30
0.0
 11
37.50000000000005
 21
-1.500000000000003
 31
0.0
  0
LINE
  5
DC40
330
DC1A
100
AcDbEntity
  8
0
100
AcDbLine
 10
37.50000000000006
 20
-1.50000000000008
 30
0.0
 11
37.50000000000007
 21
0.0
 31
0.0
  0
LINE
  5
DC41
330
DC1A
100
AcDbEntity
  8
0
100
AcDbLine
 10
33.50000000000006
 20
0.0
 30
0.0
 11
33.50000000000007
 21
-1.500000000000002
 31
0.0
  0
SPLINE
  5
DC42
330
DC1A
100
AcDbEntity
  8
0
100
AcDbSpline
210
0.0
220
0.0
230
1.0
 70
     8
 71
     3
 72
     8
 73
     4
 74
     0
 42
0.000000001
 43
0.0000000001
 40
-1.0
 40
-1.0
 40
-1.0
 40
-1.0
 40
0.0
 40
0.0
 40
0.0
 40
0.0
 10
-17.5
 20
3.000000000000001
 30
0.0
 10
-16.37500000000002
 20
1.429203673205133
 30
0.0
 10
-15.2500000000002
 20
0.0000000000000012
 30
0.0
 10
-14.12499999999999
 20
-0.0000000000000006
 30
0.0
  0
SPLINE
  5
DC43
330
DC1A
100
AcDbEntity
  8
0
100
AcDbSpline
210
0.0
220
0.0
230
1.0
 70
     8
 71
     3
 72
     8
 73
     4
 74
     0
 42
0.000000001
 43
0.0000000001
 40
-1.0
 40
-1.0
 40
-1.0
 40
-1.0
 40
0.0
 40
0.0
 40
0.0
 40
0.0
 10
14.125
 20
-0.0000000000000006
 30
0.0
 10
15.25000000000001
 20
0.0000000000000007
 30
0.0
 10
16.37499999999993
 20
1.429203673205064
 30
0.0
 10
17.5
 20
3.000000000000007
 30
0.0
  0
LINE
  5
DC44
330
DC1A
100
AcDbEntity
  8
0
100
AcDbLine
 10
14.125
 20
0.0
 30
0.0
 11
-14.125
 21
0.0
 31
0.0
  0
LINE
  5
DC45
330
DC1A
100
AcDbEntity
  8
0
100
AcDbLine
 10
-17.5
 20
2.999999999999998
 30
0.0
 11
-20.5
 21
2.999999999999998
 31
0.0
  0
LINE
  5
DC46
330
DC1A
100
AcDbEntity
  8
0
100
AcDbLine
 10
20.50000000000001
 20
2.999999999999998
 30
0.0
 11
17.5
 21
2.999999999999998
 31
0.0
  0
LINE
  5
DC47
330
DC1A
100
AcDbEntity
  8
0
100
AcDbLine
 10
-17.5
 20
54.0
 30
0.0
 11
17.50000000000001
 21
54.0
 31
0.0
  0
ARC
  5
DC48
330
DC1A
100
AcDbEntity
  8
0
100
AcDbCircle
 10
-30.83757666048696
 20
3.000000000000002
 30
0.0
 40
1.5
100
AcDbArc
 50
270.0
 51
287.9999999999999
  0
ARC
  5
DC49
330
DC1A
100
AcDbEntity
  8
0
100
AcDbCircle
 10
-22.00000000000002
 20
25.06805256023761
 30
0.0
 40
1.5
100
AcDbArc
 50
351.0000000000001
 51
0.0
  0
ARC
  5
DC4A
330
DC1A
100
AcDbEntity
  8
0
100
AcDbCircle
 10
22.00000000000013
 20
25.06805256023693
 30
0.0
 40
1.5
100
AcDbArc
 50
180.0
 51
188.9999999999998
  0
ARC
  5
DC4B
330
DC1A
100
AcDbEntity
  8
0
100
AcDbCircle
 10
30.83757666048697
 20
2.999999999999999
 30
0.0
 40
1.5
100
AcDbArc
 50
252.0
 51
270.0
  0
LINE
  5
DC4C
330
DC1A
100
AcDbEntity
  8
0
100
AcDbLine
 10
26.78169451958015
 20
2.740642656822511
 30
0.0
 11
30.37405116892454
 21
1.57341522555727
 31
0.0
  0
LINE
  5
DC4D
330
DC1A
100
AcDbEntity
  8
0
100
AcDbLine
 10
20.51846748910743
 20
24.83340086267658
 30
0.0
 11
23.3883377884792
 21
6.713752913097112
 31
0.0
  0
ARC
  5
DC4E
330
DC1A
100
AcDbEntity
  8
0
100
AcDbCircle
 10
28.32677949145489
 20
7.495925238298273
 30
0.0
 40
5.000000000000001
100
AcDbArc
 50
188.9999999999999
 51
252.0
  0
ENDBLK
  5
DC1C
330
DC1A
100
AcDbEntity
  8
0
100
AcDbBlockEnd
  0
BLOCK
  5
DC50
330
DC4F
100
AcDbEntity
  8
0
100
AcDbBlockBegin
  2
SBE38_96-F-ISO
 70
     0
 10
0.0
 20
0.0
 30
0.0
  3
SBE38_96-F-ISO
  1

  0
ELLIPSE
  5
DC52
330
DC4F
100
AcDbEntity
  8
0
100
AcDbEllipse
 10
-1.767766952966436
 20
56.76514446129022
 30
0.0
 11
1.499999999999994
 21
-0.0000000000000001
 31
0.0
210
0.0
220
0.0
230
1.0
 40
0.5773502691896258
 41
5.497787143782141
 42
7.06858347057704
  0
LINE
  5
DC53
330
DC4F
100
AcDbEntity
  8
0
100
AcDbLine
 10
-0.707106781186615
 20
56.15277202559443
 30
0.0
 11
-0.7071067811866172
 21
57.37751689698601
 31
0.0
  0
LINE
  5
DC54
330
DC4F
100
AcDbEntity
  8
0
100
AcDbLine
 10
0.3535533906112498
 20
44.90475288437433
 30
0.0
 11
0.3535533905932042
 21
55.54039958989864
 31
0.0
  0
LINE
  5
DC55
330
DC4F
100
AcDbEntity
  8
0
100
AcDbLine
 10
0.3535533905932198
 20
-21.61852730777149
 30
0.0
 11
0.3535533905931976
 21
-7.942819490731496
 31
0.0
  0
LINE
  5
DC56
330
DC4F
100
AcDbEntity
  8
0
100
AcDbLine
 10
0.3535533905931976
 20
-7.942819490731496
 30
0.0
 11
0.3535533905931576
 21
23.28878464325346
 31
0.0
  0
LINE
  5
DC57
330
DC4F
100
AcDbEntity
  8
0
100
AcDbLine
 10
0.3535533905931487
 20
26.5547709669644
 30
0.0
 11
0.3535533906041377
 21
37.59866596292756
 31
0.0
  0
ELLIPSE
  5
DC58
330
DC4F
100
AcDbEntity
  8
0
100
AcDbEllipse
 10
-1.767766952966436
 20
56.76514446129022
 30
0.0
 11
2.999999999999998
 21
0.0000000000000001
 31
0.0
210
0.0
220
0.0
230
1.0
 40
0.5773502691896258
 41
5.497787143782137
 42
7.068583470577034
  0
ELLIPSE
  5
DC59
330
DC4F
100
AcDbEntity
  8
0
100
AcDbEllipse
 10
29.34493141924179
 20
38.80221968088019
 30
0.0
 11
-3.0
 21
-0.0000000000001747
 31
0.0
210
0.0
220
0.0
230
1.0
 40
0.5773502691896267
 41
3.926990816987
 42
5.497787143781899
  0
LINE
  5
DC5A
330
DC4F
100
AcDbEntity
  8
0
100
AcDbLine
 10
28.28427124746193
 20
10.42896349364173
 30
0.0
 11
28.28427124746195
 21
20.5749089404064
 31
0.0
  0
LINE
  5
DC5B
330
DC4F
100
AcDbEntity
  8
0
100
AcDbLine
 10
30.40559159102157
 20
20.57490894040638
 30
0.0
 11
30.40559159102156
 21
10.42896349364172
 31
0.0
  0
LINE
  5
DC5C
330
DC4F
100
AcDbEntity
  8
0
100
AcDbLine
 10
28.28427124746196
 20
29.67689496027516
 30
0.0
 11
28.28427124746197
 21
39.41459211657598
 31
0.0
  0
LINE
  5
DC5D
330
DC4F
100
AcDbEntity
  8
0
100
AcDbLine
 10
28.28427124746185
 20
-37.74433478109408
 30
0.0
 11
28.28427124746188
 21
-24.06862696405411
 31
0.0
  0
LINE
  5
DC5E
330
DC4F
100
AcDbEntity
  8
0
100
AcDbLine
 10
28.28427124746188
 20
-24.06862696405411
 30
0.0
 11
28.28427124746191
 21
7.162977169930799
 31
0.0
  0
LINE
  5
DC5F
330
DC4F
100
AcDbEntity
  8
0
100
AcDbLine
 10
30.40559159102155
 20
7.162977169930844
 30
0.0
 11
30.40559159102151
 21
-22.41642527062869
 31
0.0
  0
LINE
  5
DC60
330
DC4F
100
AcDbEntity
  8
0
100
AcDbLine
 10
30.40559159102161
 20
39.41459211657599
 30
0.0
 11
30.40559159102159
 21
29.67689496027517
 31
0.0
  0
ELLIPSE
  5
DC61
330
DC4F
100
AcDbEntity
  8
0
100
AcDbEllipse
 10
1.414213562373043
 20
-22.23089974346728
 30
0.0
 11
-0.7499999999999227
 21
1.299038105676701
 31
0.0
210
0.0
220
0.0
230
1.0
 40
0.5773502691896259
 41
0.785398163397689
 42
2.356194490192585
  0
LINE
  5
DC62
330
DC4F
100
AcDbEntity
  8
0
100
AcDbLine
 10
28.28427124746197
 20
39.41459211657598
 30
0.0
 11
27.22361107568215
 21
40.02696455227177
 31
0.0
  0
ELLIPSE
  5
DC63
330
DC4F
100
AcDbEntity
  8
0
100
AcDbEllipse
 10
29.34493141924179
 20
38.8022196808802
 30
0.0
 11
1.499999999999999
 21
-0.0000000000000896
 31
0.0
210
0.0
220
0.0
230
1.0
 40
0.5773502691896258
 41
0.7853981633976908
 42
2.356194490192594
  0
LINE
  5
DC64
330
DC4F
100
AcDbEntity
  8
0
100
AcDbLine
 10
-0.7071067811866172
 20
57.37751689698601
 30
0.0
 11
0.3535533905932042
 21
57.98988933268183
 31
0.0
  0
LINE
  5
DC65
330
DC4F
100
AcDbEntity
  8
0
100
AcDbLine
 10
0.3535533905932042
 20
55.54039958989864
 30
0.0
 11
-0.7071067811866172
 21
56.15277202559443
 31
0.0
  0
LINE
  5
DC66
330
DC4F
100
AcDbEntity
  8
0
100
AcDbLine
 10
31.46625176280143
 20
40.02696455227177
 30
0.0
 11
30.40559159102161
 21
39.41459211657599
 31
0.0
  0
ELLIPSE
  5
DC67
330
DC4F
100
AcDbEntity
  8
0
100
AcDbEllipse
 10
26.16295090390222
 20
-36.51958990970249
 30
0.0
 11
1.5
 21
-2.598076211353316
 31
0.0
210
0.0
220
0.0
230
0.9999999999999998
 40
0.5773502691896259
 41
0.0000000000000005
 42
0.7853981633974473
  0
LINE
  5
DC68
330
DC4F
100
AcDbEntity
  8
0
100
AcDbLine
 10
1.232233047033566
 20
46.2031374839471
 30
0.0
 11
1.232233047033564
 21
56.76514446129022
 31
0.0
  0
LINE
  5
DC69
330
DC4F
100
AcDbEntity
  8
0
100
AcDbLine
 10
1.23223304703357
 20
28.18776412881472
 30
0.0
 11
1.232233047033566
 21
38.74977110612011
 31
0.0
  0
LINE
  5
DC6A
330
DC4F
100
AcDbEntity
  8
0
100
AcDbLine
 10
1.232233047033577
 20
-5.891973772627214
 30
0.0
 11
1.23223304703357
 21
24.10528122418626
 31
0.0
  0
ELLIPSE
  5
DC6B
330
DC4F
100
AcDbEntity
  8
0
100
AcDbEllipse
 10
-19.09188309203685
 20
6.754728879467002
 30
0.0
 11
1.249999999999871
 21
2.16506350946117
 31
0.0
210
0.0
220
0.0
230
1.0
 40
0.5773502691896259
 41
3.579741684173546
 42
5.845036276594998
  0
ELLIPSE
  5
DC6C
330
DC4F
100
AcDbEntity
  8
0
100
AcDbEllipse
 10
-19.09188309203685
 20
39.41459211657605
 30
0.0
 11
1.24999999999987
 21
2.165063509461171
 31
0.0
210
0.0
220
0.0
230
1.0
 40
0.5773502691896259
 41
3.579741684173544
 42
5.845036276594996
  0
ELLIPSE
  5
DC6D
330
DC4F
100
AcDbEntity
  8
0
100
AcDbEllipse
 10
-19.09188309203685
 20
23.08466049802152
 30
0.0
 11
1.249999999999871
 21
2.16506350946117
 31
0.0
210
0.0
220
0.0
230
1.0
 40
0.5773502691896259
 41
3.579741684173546
 42
5.845036276594997
  0
ELLIPSE
  5
DC6E
330
DC4F
100
AcDbEntity
  8
0
100
AcDbEllipse
 10
-18.03122292025703
 20
22.47228806232573
 30
0.0
 11
1.25
 21
2.165063509461097
 31
0.0
210
0.0
220
0.0
230
1.0
 40
0.5773502691896259
 41
0.0
 42
6.283185307179586
  0
ELLIPSE
  5
DC6F
330
DC4F
100
AcDbEntity
  8
0
100
AcDbEllipse
 10
-18.03122292025703
 20
38.80221968088026
 30
0.0
 11
1.25
 21
2.165063509461097
 31
0.0
210
0.0
220
0.0
230
1.0
 40
0.5773502691896259
 41
0.0
 42
6.283185307179586
  0
ELLIPSE
  5
DC70
330
DC4F
100
AcDbEntity
  8
0
100
AcDbEllipse
 10
-18.03122292025703
 20
6.142356443771208
 30
0.0
 11
1.25
 21
2.165063509461097
 31
0.0
210
0.0
220
0.0
230
1.0
 40
0.5773502691896259
 41
0.0
 42
6.283185307179586
  0
LINE
  5
DC71
330
DC4F
100
AcDbEntity
  8
0
100
AcDbLine
 10
-36.76955262170054
 20
-21.81767004389524
 30
0.0
 11
-36.76955262170053
 21
-41.82681768573271
 31
0.0
  0
LINE
  5
DC72
330
DC4F
100
AcDbEntity
  8
0
100
AcDbLine
 10
-0.7071067811866172
 20
56.15277202559443
 30
0.0
 11
-20.15254326381668
 21
44.9259440378382
 31
0.0
  0
LINE
  5
DC73
330
DC4F
100
AcDbEntity
  8
0
100
AcDbLine
 10
0.3535533905932042
 20
55.54039958989864
 30
0.0
 11
-19.09188309203685
 21
44.3135716021424
 31
0.0
  0
LINE
  5
DC74
330
DC4F
100
AcDbEntity
  8
0
100
AcDbLine
 10
-35.70889244992071
 20
-22.43004247959104
 30
0.0
 11
-35.7088924499207
 21
-42.4391901214285
 31
0.0
  0
LINE
  5
DC75
330
DC4F
100
AcDbEntity
  8
0
100
AcDbLine
 10
-8.838834764831894
 20
-57.9526251590553
 30
0.0
 11
-8.838834764831862
 21
-37.94347751721785
 31
0.0
  0
LINE
  5
DC76
330
DC4F
100
AcDbEntity
  8
0
100
AcDbLine
 10
27.22361107568215
 20
40.02696455227177
 30
0.0
 11
7.778174593052085
 21
28.80013656451554
 31
0.0
  0
LINE
  5
DC77
330
DC4F
100
AcDbEntity
  8
0
100
AcDbLine
 10
8.838834764831904
 20
28.18776412881975
 30
0.0
 11
28.28427124746197
 21
39.41459211657598
 31
0.0
  0
LINE
  5
DC78
330
DC4F
100
AcDbEntity
  8
0
100
AcDbLine
 10
-7.778174593052069
 20
-58.56499759475109
 30
0.0
 11
-7.778174593052034
 21
-38.55584995291365
 31
0.0
  0
LINE
  5
DC79
330
DC4F
100
AcDbEntity
  8
0
100
AcDbLine
 10
-34.64823227814088
 20
-45.50105229990747
 30
0.0
 11
-9.899494936611713
 21
-59.78974246614267
 31
0.0
  0
LINE
  5
DC7A
330
DC4F
100
AcDbEntity
  8
0
100
AcDbLine
 10
-34.64823227814088
 20
-44.27630742851589
 30
0.0
 11
-9.899494936611713
 21
-58.56499759475109
 31
0.0
  0
LINE
  5
DC7B
330
DC4F
100
AcDbEntity
  8
0
100
AcDbLine
 10
-36.76955262170054
 20
-21.81767004389524
 30
0.0
 11
-28.13555619674782
 21
-10.10819559755653
 31
0.0
  0
LINE
  5
DC7C
330
DC4F
100
AcDbEntity
  8
0
100
AcDbLine
 10
-24.39518395093596
 20
0.1741854468541071
 30
0.0
 11
-24.39518395093597
 21
37.57747480948867
 31
0.0
  0
LINE
  5
DC7D
330
DC4F
100
AcDbEntity
  8
0
100
AcDbLine
 10
-23.33452377915614
 20
36.96510237379287
 30
0.0
 11
-23.33452377915613
 21
-0.4381869888416912
 31
0.0
  0
LINE
  5
DC7E
330
DC4F
100
AcDbEntity
  8
0
100
AcDbLine
 10
-27.07489602496799
 20
-10.72056803325232
 30
0.0
 11
-35.70889244992071
 21
-22.43004247959104
 31
0.0
  0
LINE
  5
DC7F
330
DC4F
100
AcDbEntity
  8
0
100
AcDbLine
 10
-8.838834764831862
 20
-37.94347751721785
 30
0.0
 11
-0.2048383398791254
 21
-26.23400307087916
 31
0.0
  0
LINE
  5
DC80
330
DC4F
100
AcDbEntity
  8
0
100
AcDbLine
 10
3.535533905932741
 20
-15.95162202646852
 30
0.0
 11
3.535533905932795
 21
21.45166733616602
 31
0.0
  0
LINE
  5
DC81
330
DC4F
100
AcDbEntity
  8
0
100
AcDbLine
 10
4.596194077712616
 20
20.83929490047023
 30
0.0
 11
4.596194077712563
 21
-16.56399446216431
 31
0.0
  0
LINE
  5
DC82
330
DC4F
100
AcDbEntity
  8
0
100
AcDbLine
 10
0.8558218319006893
 20
-26.84637550657495
 30
0.0
 11
-7.778174593052034
 21
-38.55584995291365
 31
0.0
  0
LINE
  5
DC83
330
DC4F
100
AcDbEntity
  8
0
100
AcDbLine
 10
-7.778174593052034
 20
-38.55584995291365
 30
0.0
 11
-8.838834764831862
 21
-37.94347751721785
 31
0.0
  0
LINE
  5
DC84
330
DC4F
100
AcDbEntity
  8
0
100
AcDbLine
 10
-35.70889244992071
 20
-22.43004247959104
 30
0.0
 11
-36.76955262170054
 21
-21.81767004389524
 31
0.0
  0
ELLIPSE
  5
DC85
330
DC4F
100
AcDbEntity
  8
0
100
AcDbEllipse
 10
-32.88046532517451
 20
-4.724794038712256
 30
0.0
 11
-6.000000000000621
 21
-10.39230484541291
 31
0.0
210
0.0
220
0.0
230
0.9999999999999998
 40
0.5773502691896258
 41
1.378810109075633
 42
2.356194490192587
  0
ELLIPSE
  5
DC86
330
DC4F
100
AcDbEntity
  8
0
100
AcDbEllipse
 10
-31.81980515339468
 20
-5.33716647440805
 30
0.0
 11
5.999999999999998
 21
10.39230484541326
 31
0.0
210
0.0
220
0.0
230
1.0
 40
0.5773502691896259
 41
4.520402762665312
 42
5.497787143782137
  0
ELLIPSE
  5
DC87
330
DC4F
100
AcDbEntity
  8
0
100
AcDbEllipse
 10
-4.949747468305898
 20
-20.85060151203483
 30
0.0
 11
-6.000000000000644
 21
-10.39230484541289
 31
0.0
210
0.0
220
0.0
230
0.9999999999999998
 40
0.5773502691896252
 41
1.378810109075635
 42
2.356194490192587
  0
ELLIPSE
  5
DC88
330
DC4F
100
AcDbEntity
  8
0
100
AcDbEllipse
 10
-3.889087296526076
 20
-21.46297394773063
 30
0.0
 11
6.000000000000016
 21
10.39230484541326
 31
0.0
210
0.0
220
0.0
230
1.0
 40
0.5773502691896253
 41
4.520402762665313
 42
5.497787143782137
  0
ELLIPSE
  5
DC89
330
DC4F
100
AcDbEntity
  8
0
100
AcDbEllipse
 10
-10.60660171779828
 20
20.79072411527912
 30
0.0
 11
-6.000000000000007
 21
10.39230484541327
 31
0.0
210
0.0
220
0.0
230
1.0
 40
0.5773502691896259
 41
0.9794938541811744
 42
1.17878422024786
  0
LINE
  5
DC8A
330
DC4F
100
AcDbEntity
  8
0
100
AcDbLine
 10
-23.33452377915613
 20
-0.4381869888416912
 30
0.0
 11
-24.39518395093596
 21
0.1741854468541071
 31
0.0
  0
LINE
  5
DC8B
330
DC4F
100
AcDbEntity
  8
0
100
AcDbLine
 10
4.596194077712563
 20
-16.56399446216431
 30
0.0
 11
3.535533905932741
 21
-15.95162202646852
 31
0.0
  0
LINE
  5
DC8C
330
DC4F
100
AcDbEntity
  8
0
100
AcDbLine
 10
49.8510280736516
 20
-12.88975984798959
 30
0.0
 11
48.79036790187178
 21
-13.50213228368539
 31
0.0
  0
ELLIPSE
  5
DC8D
330
DC4F
100
AcDbEntity
  8
0
100
AcDbEllipse
 10
40.3050865276332
 20
-8.603152798119019
 30
0.0
 11
6.000000000000005
 21
-10.39230484541326
 31
0.0
210
0.0
220
0.0
230
0.9999999999999998
 40
0.5773502691896261
 41
6.091199089460208
 42
7.068583470577032
  0
LINE
  5
DC8E
330
DC4F
100
AcDbEntity
  8
0
100
AcDbLine
 10
-28.13555619674782
 20
-10.10819559755653
 30
0.0
 11
-27.07489602496799
 21
-10.72056803325232
 31
0.0
  0
LINE
  5
DC8F
330
DC4F
100
AcDbEntity
  8
0
100
AcDbLine
 10
-0.2048383398791254
 20
-26.23400307087916
 30
0.0
 11
0.8558218319006893
 21
-26.84637550657495
 31
0.0
  0
ELLIPSE
  5
DC90
330
DC4F
100
AcDbEntity
  8
0
100
AcDbEllipse
 10
41.36574669941303
 20
-7.990780362423226
 30
0.0
 11
6.000000000000007
 21
-10.39230484541326
 31
0.0
210
0.0
220
0.0
230
1.0
 40
0.5773502691896259
 41
0.0
 42
0.7853981633974462
  0
LINE
  5
DC91
330
DC4F
100
AcDbEntity
  8
0
100
AcDbLine
 10
46.30508652763321
 20
-18.99545764353229
 30
0.0
 11
47.36574669941304
 21
-18.38308520783649
 31
0.0
  0
LINE
  5
DC92
330
DC4F
100
AcDbEntity
  8
0
100
AcDbLine
 10
-20.15254326381668
 20
44.9259440378382
 30
0.0
 11
-24.39518395093597
 21
37.57747480948867
 31
0.0
  0
LINE
  5
DC93
330
DC4F
100
AcDbEntity
  8
0
100
AcDbLine
 10
-23.33452377915614
 20
36.96510237379287
 30
0.0
 11
-19.09188309203685
 21
44.3135716021424
 31
0.0
  0
LINE
  5
DC94
330
DC4F
100
AcDbEntity
  8
0
100
AcDbLine
 10
7.778174593052085
 20
28.80013656451554
 30
0.0
 11
3.535533905932795
 21
21.45166733616602
 31
0.0
  0
LINE
  5
DC95
330
DC4F
100
AcDbEntity
  8
0
100
AcDbLine
 10
4.596194077712616
 20
20.83929490047023
 30
0.0
 11
8.838834764831904
 21
28.18776412881975
 31
0.0
  0
LINE
  5
DC96
330
DC4F
100
AcDbEntity
  8
0
100
AcDbLine
 10
-19.09188309203688
 20
63.0929929634801
 30
0.0
 11
-14.84924240491759
 21
65.5424827062633
 31
0.0
  0
LINE
  5
DC97
330
DC4F
100
AcDbEntity
  8
0
100
AcDbLine
 10
-14.84924240491759
 20
65.5424827062633
 30
0.0
 11
-13.78858223313777
 21
66.15485514195909
 31
0.0
  0
LINE
  5
DC98
330
DC4F
100
AcDbEntity
  8
0
100
AcDbLine
 10
-19.09188309203685
 20
44.3135716021424
 30
0.0
 11
-20.15254326381668
 21
44.9259440378382
 31
0.0
  0
LINE
  5
DC99
330
DC4F
100
AcDbEntity
  8
0
100
AcDbLine
 10
-24.39518395093597
 20
37.57747480948867
 30
0.0
 11
-23.33452377915614
 21
36.96510237379287
 31
0.0
  0
LINE
  5
DC9A
330
DC4F
100
AcDbEntity
  8
0
100
AcDbLine
 10
8.838834764831904
 20
28.18776412881975
 30
0.0
 11
7.778174593052085
 21
28.80013656451554
 31
0.0
  0
LINE
  5
DC9B
330
DC4F
100
AcDbEntity
  8
0
100
AcDbLine
 10
3.535533905932795
 20
21.45166733616602
 30
0.0
 11
4.596194077712616
 21
20.83929490047023
 31
0.0
  0
LINE
  5
DC9C
330
DC4F
100
AcDbEntity
  8
0
100
AcDbLine
 10
49.85102807365166
 20
24.51352951464496
 30
0.0
 11
45.6083873865324
 21
31.8619987429944
 31
0.0
  0
LINE
  5
DC9D
330
DC4F
100
AcDbEntity
  8
0
100
AcDbLine
 10
45.6083873865324
 20
31.8619987429944
 30
0.0
 11
44.54772721475258
 21
31.24962630729861
 31
0.0
  0
LINE
  5
DC9E
330
DC4F
100
AcDbEntity
  8
0
100
AcDbLine
 10
44.54772721475258
 20
31.24962630729861
 30
0.0
 11
48.79036790187185
 21
23.90115707894917
 31
0.0
  0
LINE
  5
DC9F
330
DC4F
100
AcDbEntity
  8
0
100
AcDbLine
 10
48.79036790187185
 20
23.90115707894917
 30
0.0
 11
49.85102807365166
 21
24.51352951464496
 31
0.0
  0
ELLIPSE
  5
DCA0
330
DC4F
100
AcDbEntity
  8
0
100
AcDbEllipse
 10
-1.887001330202739
 20
40.60179235229552
 30
0.0
 11
0.9850528317504789
 21
1.1312254057672
 31
0.0
210
0.0
220
0.0
230
1.0
 40
0.4173680013367587
 41
0.0
 42
0.5753553954488089
  0
SPLINE
  5
DCA1
330
DC4F
100
AcDbEntity
  8
0
100
AcDbSpline
210
0.0
220
0.0
230
1.0
 70
     8
 71
     3
 72
    10
 73
     6
 74
     0
 42
0.000000001
 43
0.0000000001
 40
0.1396843436543111
 40
0.1396843436543111
 40
0.1396843436543111
 40
0.1396843436543111
 40
0.1418729186708964
 40
0.1418729186708964
 40
0.2837458373417903
 40
0.2837458373417903
 40
0.2837458373417903
 40
0.2837458373417903
 10
-2.051978345125069
 20
42.64960718899531
 30
0.0
 10
-2.048004444843083
 20
42.64497641566321
 30
0.0
 10
-2.044035213784882
 20
42.64034802582992
 30
0.0
 10
-1.783067556999464
 20
42.33584800678963
 30
0.0
 10
-1.545310446509466
 20
42.04575123669338
 30
0.0
 10
-1.317448494883484
 20
41.7745984520029
 30
0.0
  0
ELLIPSE
  5
DCA2
330
DC4F
100
AcDbEntity
  8
0
100
AcDbEllipse
 10
-0.7071067811866106
 20
39.54047972742824
 30
0.0
 11
1.018271863351762
 21
1.101418363886361
 31
0.0
210
0.0
220
0.0
230
1.0
 40
0.3866729749328061
 41
0.0
 42
0.6279471263398922
  0
SPLINE
  5
DCA3
330
DC4F
100
AcDbEntity
  8
0
100
AcDbSpline
210
0.0
220
0.0
230
1.0
 70
     8
 71
     3
 72
    10
 73
     6
 74
     0
 42
0.000000001
 43
0.0000000001
 40
0.0
 40
0.0
 40
0.0
 40
0.0
 40
0.0866240026525033
 40
0.0866240026525033
 40
0.1732480053050065
 40
0.1732480053050065
 40
0.1732480053050065
 40
0.1732480053050065
 10
-1.317448494815809
 20
41.77459845195539
 30
0.0
 10
-1.11748171888258
 20
41.59271208819602
 30
0.0
 10
-0.9190556459881914
 20
41.40879513430926
 30
0.0
 10
-0.5245553887826793
 20
41.03799035706864
 30
0.0
 10
-0.3284812007073534
 20
40.85109927377489
 30
0.0
 10
-0.1332884217361507
 20
40.66310147658456
 30
0.0
  0
ELLIPSE
  5
DCA4
330
DC4F
100
AcDbEntity
  8
0
100
AcDbEllipse
 10
-0.7071067811756815
 20
38.21103839862335
 30
0.0
 11
0.4817249453119114
 21
-1.42054252912901
 31
0.0
210
0.0
220
0.0
230
0.9999999999999998
 40
0.6821022831553118
 41
0.9100452509960028
 42
2.142595991522581
  0
SPLINE
  5
DCA5
330
DC4F
100
AcDbEntity
  8
0
100
AcDbSpline
210
0.0
220
0.0
230
1.0
 70
     8
 71
     3
 72
    10
 73
     6
 74
     0
 42
0.000000001
 43
0.0000000001
 40
-0.2385842614456954
 40
-0.2385842614456954
 40
-0.2385842614456954
 40
-0.2385842614456954
 40
-0.1421416204810481
 40
-0.1421416204810481
 40
-0.1200897735668732
 40
-0.1200897735668732
 40
-0.1200897735668732
 40
-0.1200897735668732
 10
0.3535533906150712
 20
37.59866596293385
 30
0.0
 10
0.7988103552757853
 20
37.80269686907042
 30
0.0
 10
1.105776757500889
 20
38.12121370507156
 30
0.0
 10
1.221434354461565
 20
38.57473171873401
 30
0.0
 10
1.23203746774205
 20
38.66155850122369
 30
0.0
 10
1.231951507342567
 20
38.74976894128643
 30
0.0
  0
SPLINE
  5
DCA6
330
DC4F
100
AcDbEntity
  8
0
100
AcDbSpline
210
0.0
220
0.0
230
1.0
 70
     8
 71
     3
 72
    14
 73
    10
 74
     0
 42
0.000000001
 43
0.0000000001
 40
0.0
 40
0.0
 40
0.0
 40
0.0
 40
0.0303721411284291
 40
0.0303721411284291
 40
0.0789675669339156
 40
0.0789675669339156
 40
0.1421416204810481
 40
0.1421416204810481
 40
0.2385842614456954
 40
0.2385842614456954
 40
0.2385842614456954
 40
0.2385842614456954
 10
-0.1332884217361507
 20
40.66310147658456
 30
0.0
 10
-0.0648498544957765
 20
40.59718561662363
 30
0.0
 10
-0.0026775894350206
 20
40.52871466055864
 30
0.0
 10
0.1388439239349504
 20
40.34680680514009
 30
0.0
 10
0.2059210212210516
 20
40.23105600714796
 30
0.0
 10
0.3030245569391154
 20
39.96868692302341
 30
0.0
 10
0.3153371818021244
 20
39.82339131680573
 30
0.0
 10
0.2320481609893865
 20
39.49759867068334
 30
0.0
 10
0.0741905369045504
 20
39.34124983496407
 30
0.0
 10
-0.1529683734878073
 20
39.25607680411559
 30
0.0
  0
ELLIPSE
  5
DCA7
330
DC4F
100
AcDbEntity
  8
0
100
AcDbEllipse
 10
-3.009648091522012
 20
37.2543098114651
 30
0.0
 11
0.6735304878558951
 21
-1.340282314263905
 31
0.0
210
0.0
220
0.0
230
1.0
 40
0.6134744499317072
 41
0.8199141697227307
 42
2.003105718372863
  0
SPLINE
  5
DCA8
330
DC4F
100
AcDbEntity
  8
0
100
AcDbSpline
210
0.0
220
0.0
230
1.0
 70
     8
 71
     3
 72
    10
 73
     6
 74
     0
 42
0.000000001
 43
0.0000000001
 40
-0.3290771859225734
 40
-0.3290771859225734
 40
-0.3290771859225734
 40
-0.3290771859225734
 40
-0.1645385929612868
 40
-0.1645385929612868
 40
-0.0000000000000002
 40
-0.0000000000000002
 40
-0.0000000000000002
 40
-0.0000000000000002
 10
-1.948987919742184
 20
36.64193737576932
 30
0.0
 10
-1.561978351914681
 20
36.83642083664147
 30
0.0
 10
-1.176060050866607
 20
37.0114984632583
 30
0.0
 10
-0.4082116959140914
 20
37.32815890220337
 30
0.0
 10
-0.026267992030129
 20
37.46986345893635
 30
0.0
 10
0.3535533906041444
 20
37.59866596292757
 30
0.0
  0
SPLINE
  5
DCA9
330
DC4F
100
AcDbEntity
  8
0
100
AcDbSpline
210
0.0
220
0.0
230
1.0
 70
     8
 71
     3
 72
    10
 73
     6
 74
     0
 42
0.000000001
 43
0.0000000001
 40
0.0000000000000002
 40
0.0000000000000002
 40
0.0000000000000002
 40
0.0000000000000002
 40
0.1645385929612868
 40
0.1645385929612868
 40
0.3290771859225734
 40
0.3290771859225734
 40
0.3290771859225734
 40
0.3290771859225734
 10
-0.152968373487814
 20
39.25607680411559
 30
0.0
 10
-0.5405190162436857
 20
39.11076503627632
 30
0.0
 10
-0.9331630586214112
 20
38.95128401392323
 30
0.0
 10
-1.730472718564344
 20
38.59785534094048
 30
0.0
 10
-2.135225723175093
 20
38.40380030409573
 30
0.0
 10
-2.545251991179626
 20
38.19102651949048
 30
0.0
  0
ELLIPSE
  5
DCAA
330
DC4F
100
AcDbEntity
  8
0
100
AcDbEllipse
 10
-4.50858172061002
 20
36.50105246581561
 30
0.0
 11
0.673530487855896
 21
-1.340282314263904
 31
0.0
210
0.0
220
0.0
230
1.0
 40
0.6134744499317052
 41
0.8199141697227307
 42
2.003105718372864
  0
LINE
  5
DCAB
330
DC4F
100
AcDbEntity
  8
0
100
AcDbLine
 10
-3.447921548830197
 20
35.88868003011981
 30
0.0
 11
-1.948987919742186
 21
36.64193737576931
 31
0.0
  0
LINE
  5
DCAC
330
DC4F
100
AcDbEntity
  8
0
100
AcDbLine
 10
-2.545251991179628
 20
38.19102651949048
 30
0.0
 11
-4.044185620267639
 21
37.43776917384099
 31
0.0
  0
ELLIPSE
  5
DCAD
330
DC4F
100
AcDbEntity
  8
0
100
AcDbEllipse
 10
-4.508581722339251
 20
42.83754609255246
 30
0.0
 11
0.8193997375741245
 21
-1.256417156128775
 31
0.0
210
0.0
220
0.0
230
1.0
 40
0.5388095822648877
 41
0.000000000143411
 42
0.7550720329636877
  0
ELLIPSE
  5
DCAE
330
DC4F
100
AcDbEntity
  8
0
100
AcDbEllipse
 10
3.817177033176888
 20
43.25143346608068
 30
0.0
 11
-18.92465153915225
 21
-11.19850234446447
 31
0.0
210
0.0
220
0.0
230
0.9999999999999998
 40
0.1346372153812724
 41
5.025585556707155
 42
7.381780046922149
  0
ELLIPSE
  5
DCAF
330
DC4F
100
AcDbEntity
  8
0
100
AcDbEllipse
 10
2.75651686139706
 20
43.86380590177647
 30
0.0
 11
-17.74233703997128
 21
-11.57661130405069
 31
0.0
210
0.0
220
0.0
230
1.0
 40
0.0872913523692789
 41
5.532780666771431
 42
7.404387711445664
  0
ELLIPSE
  5
DCB0
330
DC4F
100
AcDbEntity
  8
0
100
AcDbEllipse
 10
-3.009648091522003
 20
43.81510821649623
 30
0.0
 11
0.8193997375596662
 21
-1.256417156078003
 31
0.0
210
0.0
220
0.0
230
0.9999999999999998
 40
0.5388095822689461
 41
0.0000000000000452
 42
0.7550720328373333
  0
LINE
  5
DCB1
330
DC4F
100
AcDbEntity
  8
0
100
AcDbLine
 10
-1.948987919742179
 20
43.20273578080044
 30
0.0
 11
-3.447921550559425
 21
42.22517365685667
 31
0.0
  0
ELLIPSE
  5
DCB2
330
DC4F
100
AcDbEntity
  8
0
100
AcDbEllipse
 10
-0.7071067811505261
 20
45.51712532008055
 30
0.0
 11
0.9480488983984169
 21
-1.162412700483581
 31
0.0
210
0.0
220
0.0
230
1.0
 40
0.4487796140200789
 41
0.0000000000000276
 42
0.7024165027826355
  0
SPLINE
  5
DCB3
330
DC4F
100
AcDbEntity
  8
0
100
AcDbSpline
210
0.0
220
0.0
230
1.0
 70
     8
 71
     3
 72
    10
 73
     6
 74
     0
 42
0.000000001
 43
0.0000000001
 40
-0.3290771859266586
 40
-0.3290771859266586
 40
-0.3290771859266586
 40
-0.3290771859266586
 40
-0.1645385929633293
 40
-0.1645385929633293
 40
0.0
 40
0.0
 40
0.0
 40
0.0
 10
0.3535533906292887
 20
44.90475288438474
 30
0.0
 10
-0.0262679920085751
 20
44.59497543335075
 30
0.0
 10
-0.4082116958964455
 20
44.29564938956956
 30
0.0
 10
-1.176060050857374
 20
43.72567491964198
 30
0.0
 10
-1.561978351909982
 20
43.45513247626159
 30
0.0
 10
-1.948987919742182
 20
43.20273578080044
 30
0.0
  0
SPLINE
  5
DCB4
330
DC4F
100
AcDbEntity
  8
0
100
AcDbSpline
210
0.0
220
0.0
230
1.0
 70
     8
 71
     3
 72
    12
 73
     8
 74
     0
 42
0.000000001
 43
0.0000000001
 40
-0.1184914436323641
 40
-0.1184914436323641
 40
-0.1184914436323641
 40
-0.1184914436323641
 40
-0.0753627829472238
 40
-0.0753627829472238
 40
-0.0289856857501223
 40
-0.0289856857501223
 40
-0.0000000000019339
 40
-0.0000000000019339
 40
-0.0000000000019339
 40
-0.0000000000019339
 10
1.23203671593427
 20
46.20311190869737
 30
0.0
 10
1.231837230255967
 20
46.04415941599518
 30
0.0
 10
1.190614377105467
 20
45.87899699092061
 30
0.0
 10
1.021597644441898
 20
45.53877062456859
 30
0.0
 10
0.8880175700682801
 20
45.36408854839686
 30
0.0
 10
0.6092637814086732
 20
45.09678339168423
 30
0.0
 10
0.4873746788738998
 20
44.99795522644792
 30
0.0
 10
0.3535533906388877
 20
44.90475288438713
 30
0.0
  0
ELLIPSE
  5
DCB5
330
DC4F
100
AcDbEntity
  8
0
100
AcDbEllipse
 10
26.87439804122448
 20
19.03076633524779
 30
0.0
 11
-0.6444133738665795
 21
1.35452257403924
 31
0.0
210
0.0
220
0.0
230
0.9999999999999998
 40
0.6257331206090904
 41
0.3725120245363946
 42
0.8333043077522646
  0
ELLIPSE
  5
DCB6
330
DC4F
100
AcDbEntity
  8
0
100
AcDbEllipse
 10
39.50529982795628
 20
30.37962095048208
 30
0.0
 11
-26.60789148696049
 21
-14.33873511477723
 31
0.0
210
0.0
220
0.0
230
0.9999999999999998
 40
0.1000225409266445
 41
5.170902668615084
 42
7.081851048126979
  0
ELLIPSE
  5
DCB7
330
DC4F
100
AcDbEntity
  8
0
100
AcDbEllipse
 10
26.8743980412245
 20
27.14356647236172
 30
0.0
 11
-0.8425747043855571
 21
1.240994708904744
 31
0.0
210
0.0
220
0.0
230
1.0
 40
0.5245233345042678
 41
0.7452041137883541
 42
1.810549179579979
  0
ELLIPSE
  5
DCB8
330
DC4F
100
AcDbEntity
  8
0
100
AcDbEllipse
 10
38.44463965617647
 20
30.99199338617788
 30
0.0
 11
-25.68345566027805
 21
-15.19796746748749
 31
0.0
210
0.0
220
0.0
230
1.0
 40
0.1346372153812722
 41
5.145249232568374
 42
7.262116370962244
  0
ELLIPSE
  5
DCB9
330
DC4F
100
AcDbEntity
  8
0
100
AcDbEllipse
 10
28.31456126403886
 20
19.61888149511157
 30
0.0
 11
0.5208505218990901
 21
-1.406667954365004
 31
0.0
210
0.0
220
0.0
230
1.0
 40
0.6701973449423543
 41
3.59256205882202
 42
4.032922845143477
  0
SPLINE
  5
DCBA
330
DC4F
100
AcDbEntity
  8
0
100
AcDbSpline
210
0.0
220
0.0
230
1.0
 70
     8
 71
     3
 72
    10
 73
     6
 74
     0
 42
0.000000001
 43
0.0000000001
 40
-0.1489505020863164
 40
-0.1489505020863164
 40
-0.1489505020863164
 40
-0.1489505020863164
 40
-0.0744752510431582
 40
-0.0744752510431582
 40
0.0
 40
0.0
 40
0.0
 40
0.0
 10
27.25390109225904
 20
20.23125393080736
 30
0.0
 10
27.42668449560393
 20
20.29523088110926
 30
0.0
 10
27.59893768864435
 20
20.35550699256699
 30
0.0
 10
27.94238303487811
 20
20.46971537409808
 30
0.0
 10
28.11357605075024
 20
20.52364986559837
 30
0.0
 10
28.28427124746195
 20
20.5749089404064
 30
0.0
  0
ELLIPSE
  5
DCBB
330
DC4F
100
AcDbEntity
  8
0
100
AcDbEllipse
 10
29.34493141924176
 20
19.96253650471059
 30
0.0
 11
-0.4314118640183608
 21
1.436622359419552
 31
0.0
210
0.0
220
0.0
230
1.0
 40
0.6961202208620353
 41
0.5876585946227096
 42
0.9343160604977915
  0
ELLIPSE
  5
DCBC
330
DC4F
100
AcDbEntity
  8
0
100
AcDbEllipse
 10
30.00754654343325
 20
28.43073202738599
 30
0.0
 11
1.030044369542925
 21
1.090416707856643
 31
0.0
210
0.0
220
0.0
230
1.0
 40
0.3751864151476548
 41
4.287665715117302
 42
5.610805162114782
  0
SPLINE
  5
DCBD
330
DC4F
100
AcDbEntity
  8
0
100
AcDbSpline
210
0.0
220
0.0
230
1.0
 70
     8
 71
     3
 72
    10
 73
     6
 74
     0
 42
0.000000001
 43
0.0000000001
 40
-0.0986315057595762
 40
-0.0986315057595762
 40
-0.0986315057595762
 40
-0.0986315057595762
 40
-0.0493157528797881
 40
-0.0493157528797881
 40
0.0
 40
0.0
 40
0.0
 40
0.0
 10
31.06820671521307
 20
29.04310446308178
 30
0.0
 10
30.95743683916437
 20
29.14774142096847
 30
0.0
 10
30.8468487628115
 20
29.25293269648248
 30
0.0
 10
30.62599118969592
 20
29.4642488794574
 30
0.0
 10
30.51572171490148
 20
29.57037400835734
 30
0.0
 10
30.40559159102159
 20
29.67689496027517
 30
0.0
  0
ELLIPSE
  5
DCBE
330
DC4F
100
AcDbEntity
  8
0
100
AcDbEllipse
 10
29.34493141924177
 20
29.06452252457937
 30
0.0
 11
-1.042846028619086
 21
-1.078180022349422
 31
0.0
210
0.0
220
0.0
230
1.0
 40
0.3623159750592228
 41
1.126298842996771
 42
2.473566334048445
  0
SPLINE
  5
DCBF
330
DC4F
100
AcDbEntity
  8
0
100
AcDbSpline
210
0.0
220
0.0
230
1.0
 70
     8
 71
     3
 72
    10
 73
     6
 74
     0
 42
0.000000001
 43
0.0000000001
 40
0.0
 40
0.0
 40
0.0
 40
0.0
 40
0.0493157528797881
 40
0.0493157528797881
 40
0.0986315057595762
 40
0.0986315057595762
 40
0.0986315057595762
 40
0.0986315057595762
 10
29.24918514802207
 20
28.25977663366734
 30
0.0
 10
29.36589409883769
 20
28.15389823007746
 30
0.0
 10
29.48309257552863
 20
28.04838224320042
 30
0.0
 10
29.71860326577381
 20
27.83817963472468
 30
0.0
 10
29.836915532729
 20
27.73349291228097
 30
0.0
 10
29.95585885027745
 20
27.62928260106638
 30
0.0
  0
ELLIPSE
  5
DCC0
330
DC4F
100
AcDbEntity
  8
0
100
AcDbEllipse
 10
32.78568814665979
 20
25.41201663609476
 30
0.0
 11
1.075724519468973
 21
1.045378763039138
 31
0.0
210
0.0
220
0.0
230
0.9999999999999998
 40
0.3273577323099357
 41
4.897499714566539
 42
5.625840623118908
  0
SPLINE
  5
DCC1
330
DC4F
100
AcDbEntity
  8
0
100
AcDbSpline
210
0.0
220
0.0
230
1.0
 70
     8
 71
     3
 72
    10
 73
     6
 74
     0
 42
0.000000001
 43
0.0000000001
 40
-0.429810554753678
 40
-0.429810554753678
 40
-0.429810554753678
 40
-0.429810554753678
 40
-0.252793505438244
 40
-0.252793505438244
 40
-0.0000000000000012
 40
-0.0000000000000012
 40
-0.0000000000000012
 40
-0.0000000000000012
 10
33.84634831843961
 20
26.02438907179056
 30
0.0
 10
33.45778452917646
 20
26.42423227720728
 30
0.0
 10
33.08744870554907
 20
26.86208617502938
 30
0.0
 10
32.17920698317115
 20
27.90468015325962
 30
0.0
 10
31.6360152475408
 20
28.5067333881628
 30
0.0
 10
31.06820671521307
 20
29.04310446308177
 30
0.0
  0
SPLINE
  5
DCC2
330
DC4F
100
AcDbEntity
  8
0
100
AcDbSpline
210
0.0
220
0.0
230
1.0
 70
     8
 71
     3
 72
    10
 73
     6
 74
     0
 42
0.000000001
 43
0.0000000001
 40
0.0000000000000012
 40
0.0000000000000012
 40
0.0000000000000012
 40
0.0000000000000012
 40
0.252793505438244
 40
0.252793505438244
 40
0.429810554753678
 40
0.429810554753678
 40
0.429810554753678
 40
0.429810554753678
 10
29.95585885027745
 20
27.62928260106635
 30
0.0
 10
30.55095302155578
 20
27.24328586474751
 30
0.0
 10
31.17041064677338
 20
26.80154155124647
 30
0.0
 10
32.30377799176735
 20
25.98251867007479
 30
0.0
 10
32.79525506146519
 20
25.6230703325464
 30
0.0
 10
33.32004744349058
 20
25.2582935979527
 30
0.0
  0
ELLIPSE
  5
DCC3
330
DC4F
100
AcDbEntity
  8
0
100
AcDbEllipse
 10
32.78568814665979
 20
19.64199874761355
 30
0.0
 11
0.1870368933165766
 21
1.488293385236421
 31
0.0
210
0.0
220
0.0
230
1.0
 40
0.7479997204301362
 41
5.228190434604784
 42
5.956531343157156
  0
ELLIPSE
  5
DCC4
330
DC4F
100
AcDbEntity
  8
0
100
AcDbEllipse
 10
23.61170199266457
 20
29.04835593879681
 30
0.0
 11
12.86670137892407
 21
-8.191212071365351
 31
0.0
210
0.0
220
0.0
230
1.0
 40
0.260920061353402
 41
5.779181046885875
 42
7.116398104046121
  0
ELLIPSE
  5
DCC5
330
DC4F
100
AcDbEntity
  8
0
100
AcDbEllipse
 10
22.55104182088475
 20
28.43598350310102
 30
0.0
 11
13.6515271782338
 21
-7.074985500025723
 31
0.0
210
0.0
220
0.0
230
1.0
 40
0.199067523960315
 41
5.717381004953949
 42
7.054598062114198
  0
ELLIPSE
  5
DCC6
330
DC4F
100
AcDbEntity
  8
0
100
AcDbEllipse
 10
30.00754654343325
 20
19.83120496126186
 30
0.0
 11
0.3083698224032539
 21
1.467960507858085
 31
0.0
210
0.0
220
0.0
230
1.0
 40
0.7251908855986261
 41
5.288653074036306
 42
6.04774640875657
  0
SPLINE
  5
DCC7
330
DC4F
100
AcDbEntity
  8
0
100
AcDbSpline
210
0.0
220
0.0
230
1.0
 70
     8
 71
     3
 72
    10
 73
     6
 74
     0
 42
0.000000001
 43
0.0000000001
 40
-0.4298560553329314
 40
-0.4298560553329314
 40
-0.4298560553329314
 40
-0.4298560553329314
 40
-0.2504545042259934
 40
-0.2504545042259934
 40
0.0
 40
0.0
 40
0.0
 40
0.0
 10
31.06820671521307
 20
20.44357739695765
 30
0.0
 10
31.47116695445957
 20
20.35892881360214
 30
0.0
 10
31.86267049290332
 20
20.32016493653952
 30
0.0
 10
32.78105687339788
 20
20.28403424551566
 30
0.0
 10
33.29658460033208
 20
20.32346112143113
 30
0.0
 10
33.8463483184396
 20
20.25437118330938
 30
0.0
  0
SPLINE
  5
DCC8
330
DC4F
100
AcDbEntity
  8
0
100
AcDbSpline
210
0.0
220
0.0
230
1.0
 70
     8
 71
     3
 72
    10
 73
     6
 74
     0
 42
0.000000001
 43
0.0000000001
 40
0.0
 40
0.0
 40
0.0
 40
0.0
 40
0.2504545042259934
 40
0.2504545042259934
 40
0.2614164267501706
 40
0.2614164267501706
 40
0.2614164267501706
 40
0.2614164267501706
 10
33.32004744349057
 20
21.00670146959815
 30
0.0
 10
32.57753921408531
 20
21.1568700142889
 30
0.0
 10
31.90291248659211
 20
21.16174357015366
 30
0.0
 10
31.24022150404961
 20
21.19154921059939
 30
0.0
 10
31.21250671404578
 20
21.19282052649913
 30
0.0
 10
31.18486402049079
 20
21.19411876852958
 30
0.0
  0
ELLIPSE
  5
DCC9
330
DC4F
100
AcDbEntity
  8
0
100
AcDbEllipse
 10
29.34493141924175
 20
19.96253650471058
 30
0.0
 11
-0.2763935293054369
 21
-1.474315643598103
 31
0.0
210
0.0
220
0.0
230
1.0
 40
0.731706089139312
 41
2.13122701721199
 42
2.680687794904647
  0
SPLINE
  5
DCCA
330
DC4F
100
AcDbEntity
  8
0
100
AcDbSpline
210
0.0
220
0.0
230
1.0
 70
     8
 71
     3
 72
    10
 73
     6
 74
     0
 42
0.000000001
 43
0.0000000001
 40
-0.098631505759579
 40
-0.098631505759579
 40
-0.098631505759579
 40
-0.098631505759579
 40
-0.0493157528797895
 40
-0.0493157528797895
 40
0.0
 40
0.0
 40
0.0
 40
0.0
 10
30.40559159102157
 20
20.57490894040638
 30
0.0
 10
30.51572171490148
 20
20.55426257898834
 30
0.0
 10
30.6259911896959
 20
20.53305948597637
 30
0.0
 10
30.84684876281152
 20
20.48935131036957
 30
0.0
 10
30.95743683916436
 20
20.4668464745806
 30
0.0
 10
31.06820671521307
 20
20.44357739695765
 30
0.0
  0
ELLIPSE
  5
DCCB
330
DC4F
100
AcDbEntity
  8
0
100
AcDbEllipse
 10
29.34493141924178
 20
29.06452252457936
 30
0.0
 11
-0.9743856472127031
 21
1.140426503772093
 31
0.0
210
0.0
220
0.0
230
1.0
 40
0.4267122036849452
 41
0.6924023912953832
 42
1.945961861863235
  0
SPLINE
  5
DCCC
330
DC4F
100
AcDbEntity
  8
0
100
AcDbSpline
210
0.0
220
0.0
230
1.0
 70
     8
 71
     3
 72
    10
 73
     6
 74
     0
 42
0.000000001
 43
0.0000000001
 40
-0.1489505020863119
 40
-0.1489505020863119
 40
-0.1489505020863119
 40
-0.1489505020863119
 40
-0.074475251043156
 40
-0.074475251043156
 40
0.0
 40
0.0
 40
0.0
 40
0.0
 10
28.28427124746196
 20
29.67689496027516
 30
0.0
 10
28.11357605075026
 20
29.53105219954144
 30
0.0
 10
27.94238303487813
 20
29.3873100234474
 30
0.0
 10
27.5989376886444
 20
29.10494187877855
 30
0.0
 10
27.42668449560396
 20
28.96631713549496
 30
0.0
 10
27.25390109225909
 20
28.83078099693151
 30
0.0
  0
ELLIPSE
  5
DCCD
330
DC4F
100
AcDbEntity
  8
0
100
AcDbEllipse
 10
28.3145612640389
 20
28.21840856123571
 30
0.0
 11
0.9257933986362122
 21
-1.180214634310899
 31
0.0
210
0.0
220
0.0
230
1.0
 40
0.4663712957493041
 41
3.852704097088718
 42
5.071307076913491
  0
SPLINE
  5
DCCE
330
DC4F
100
AcDbEntity
  8
0
100
AcDbSpline
210
0.0
220
0.0
230
1.0
 70
     8
 71
     3
 72
    10
 73
     6
 74
     0
 42
0.000000001
 43
0.0000000001
 40
0.0
 40
0.0
 40
0.0
 40
0.0
 40
0.074475251043156
 40
0.074475251043156
 40
0.1489505020863119
 40
0.1489505020863119
 40
0.1489505020863119
 40
0.1489505020863119
 10
28.12441267180673
 20
27.39959424794633
 30
0.0
 10
28.31419328599715
 20
27.53857561713245
 30
0.0
 10
28.50289533918026
 20
27.68001647290567
 30
0.0
 10
28.8778676807314
 20
27.96699486186419
 30
0.0
 10
29.0641407657473
 20
28.11253240040949
 30
0.0
 10
29.24918514802208
 20
28.25977663366733
 30
0.0
  0
ELLIPSE
  5
DCCF
330
DC4F
100
AcDbEntity
  8
0
100
AcDbEllipse
 10
29.34493141924177
 20
29.06452252457937
 30
0.0
 11
-1.499999999999989
 21
-0.0000000000000873
 31
0.0
210
0.0
220
0.0
230
1.0
 40
0.5773502691896267
 41
3.926990816987
 42
5.497787143781897
  0
ELLIPSE
  5
DCD0
330
DC4F
100
AcDbEntity
  8
0
100
AcDbEllipse
 10
29.34493141924176
 20
19.96253650471059
 30
0.0
 11
1.499999999999989
 21
-0.0000000000000896
 31
0.0
210
0.0
220
0.0
230
1.0
 40
0.5773502691896259
 41
0.7853981633976855
 42
2.35619449019259
  0
SPLINE
  5
DCD1
330
DC4F
100
AcDbEntity
  8
0
100
AcDbSpline
210
0.0
220
0.0
230
1.0
 70
     8
 71
     3
 72
     8
 73
     4
 74
     0
 42
0.000000001
 43
0.0000000001
 40
-1.158510647660077
 40
-1.158510647660077
 40
-1.158510647660077
 40
-1.158510647660077
 40
-0.9525469336706912
 40
-0.9525469336706912
 40
-0.9525469336706912
 40
-0.9525469336706912
 10
25.81373786944466
 20
19.64313877094358
 30
0.0
 10
26.29733061000096
 20
19.8732077528063
 30
0.0
 10
26.77603929008258
 20
20.05431482567824
 30
0.0
 10
27.25390109225904
 20
20.23125393080738
 30
0.0
  0
SPLINE
  5
DCD2
330
DC4F
100
AcDbEntity
  8
0
100
AcDbSpline
210
0.0
220
0.0
230
1.0
 70
     8
 71
     3
 72
     8
 73
     4
 74
     0
 42
0.000000001
 43
0.0000000001
 40
-0.2059637139893887
 40
-0.2059637139893887
 40
-0.2059637139893887
 40
-0.2059637139893887
 40
-0.0000000000000002
 40
-0.0000000000000002
 40
-0.0000000000000002
 40
-0.0000000000000002
 10
27.25390109225909
 20
28.8307809969315
 30
0.0
 10
26.7760382731239
 20
28.45593202408572
 30
0.0
 10
26.29733061000097
 20
28.08427472407146
 30
0.0
 10
25.81373786944467
 20
27.75593890805751
 30
0.0
  0
SPLINE
  5
DCD3
330
DC4F
100
AcDbEntity
  8
0
100
AcDbSpline
210
0.0
220
0.0
230
1.0
 70
     8
 71
     3
 72
     8
 73
     4
 74
     0
 42
0.000000001
 43
0.0000000001
 40
0.0000000000000002
 40
0.0000000000000002
 40
0.0000000000000002
 40
0.0000000000000002
 40
0.2059637139893888
 40
0.2059637139893888
 40
0.2059637139893888
 40
0.2059637139893888
 10
26.4421660714081
 20
26.41956783799194
 30
0.0
 10
27.00504214394352
 20
26.74813864836718
 30
0.0
 10
27.5735592146156
 20
27.08292831527263
 30
0.0
 10
28.12441267180673
 20
27.39959424794631
 30
0.0
  0
SPLINE
  5
DCD4
330
DC4F
100
AcDbEntity
  8
0
100
AcDbSpline
210
0.0
220
0.0
230
1.0
 70
     8
 71
     3
 72
    12
 73
     8
 74
     0
 42
0.000000001
 43
0.0000000001
 40
0.1197625046292705
 40
0.1197625046292705
 40
0.1197625046292705
 40
0.1197625046292705
 40
0.1702475024050752
 40
0.1702475024050752
 40
0.2269966698734327
 40
0.2269966698734327
 40
0.2837458373417903
 40
0.2837458373417903
 40
0.2837458373417903
 40
0.2837458373417903
 10
-1.959008135567663
 20
42.71156328046928
 30
0.0
 10
-1.846963891677346
 20
42.60418801512416
 30
0.0
 10
-1.736386512044605
 20
42.49850825834037
 30
0.0
 10
-1.503755952363239
 20
42.27852335737502
 30
0.0
 10
-1.381983828890547
 20
42.16477093003406
 30
0.0
 10
-1.140476854159515
 20
41.94374132378429
 30
0.0
 10
-1.020742654299628
 20
41.83646179231115
 30
0.0
 10
-0.9019484984486215
 20
41.73301775806272
 30
0.0
  0
SPLINE
  5
DCD5
330
DC4F
100
AcDbEntity
  8
0
100
AcDbSpline
210
0.0
220
0.0
230
1.0
 70
     8
 71
     3
 72
    16
 73
    12
 74
     0
 42
0.000000001
 43
0.0000000001
 40
0.0
 40
0.0
 40
0.0
 40
0.0
 40
0.0346496010610013
 40
0.0346496010610013
 40
0.0692992021220026
 40
0.0692992021220026
 40
0.1039488031830039
 40
0.1039488031830039
 40
0.1385984042440052
 40
0.1385984042440052
 40
0.1732480053050065
 40
0.1732480053050065
 40
0.1732480053050065
 40
0.1732480053050065
 10
-0.9019484984281778
 20
41.73301775800971
 30
0.0
 10
-0.8199651970633325
 20
41.66162802192482
 30
0.0
 10
-0.7382364327480562
 20
41.5899195590236
 30
0.0
 10
-0.5752468933915545
 20
41.44592898235743
 30
0.0
 10
-0.4939861089708098
 20
41.37364684264453
 30
0.0
 10
-0.3318936278025109
 20
41.22856522479008
 30
0.0
 10
-0.2510619268156633
 20
41.1557657216474
 30
0.0
 10
-0.0897911238703175
 20
41.00969901831061
 30
0.0
 10
-0.0093520211206033
 20
40.93643179451056
 30
0.0
 10
0.151167591894994
 20
40.78947335070441
 30
0.0
 10
0.2312481008490042
 20
40.7157821086385
 30
0.0
 10
0.3111650821651546
 20
40.6418980913146
 30
0.0
  0
SPLINE
  5
DCD6
330
DC4F
100
AcDbEntity
  8
0
100
AcDbSpline
210
0.0
220
0.0
230
1.0
 70
     8
 71
     3
 72
    16
 73
    12
 74
     0
 42
0.000000001
 43
0.0000000001
 40
0.0
 40
0.0
 40
0.0
 40
0.0
 40
0.0240179547133751
 40
0.0240179547133751
 40
0.0480359094267501
 40
0.0480359094267501
 40
0.0720538641401252
 40
0.0720538641401252
 40
0.0960718188535003
 40
0.0960718188535003
 40
0.1200897735668753
 40
0.1200897735668753
 40
0.1200897735668753
 40
0.1200897735668753
 10
0.3111650821651635
 20
40.64189809131459
 30
0.0
 10
0.402160996889216
 20
40.55777149357338
 30
0.0
 10
0.4902882244792007
 20
40.46792699015596
 30
0.0
 10
0.6590059496151502
 20
40.27407469433916
 30
0.0
 10
0.7396276467322438
 20
40.17007343311738
 30
0.0
 10
0.8899238389399787
 20
39.94414285845675
 30
0.0
 10
0.9596691302833315
 20
39.82217233932342
 30
0.0
 10
1.081719416792796
 20
39.55573469882548
 30
0.0
 10
1.134075434602141
 20
39.41108207762301
 30
0.0
 10
1.209426645354272
 20
39.09718352712277
 30
0.0
 10
1.232233047033568
 20
38.92764098221539
 30
0.0
 10
1.232233047033568
 20
38.74977110612011
 30
0.0
  0
SPLINE
  5
DCD7
330
DC4F
100
AcDbEntity
  8
0
100
AcDbSpline
210
0.0
220
0.0
230
1.0
 70
     8
 71
     3
 72
    16
 73
    12
 74
     0
 42
0.000000001
 43
0.0000000001
 40
0.6935097995171892
 40
0.6935097995171892
 40
0.6935097995171892
 40
0.6935097995171892
 40
0.7904272886253823
 40
0.7904272886253823
 40
0.8873447777335753
 40
0.8873447777335753
 40
0.9842622668417684
 40
0.9842622668417684
 40
1.081179755949961
 40
1.081179755949961
 40
1.178097245058154
 40
1.178097245058154
 40
1.178097245058154
 40
1.178097245058154
 10
-10.90957997191624
 20
36.4526702614068
 30
0.0
 10
-10.5278047078993
 20
36.75604968236306
 30
0.0
 10
-10.1222888736701
 20
37.07010448137257
 30
0.0
 10
-9.268172067889004
 20
37.71596833667455
 30
0.0
 10
-8.819569844983373
 20
38.04778046012673
 30
0.0
 10
-7.883909408391698
 20
38.72562607637633
 30
0.0
 10
-7.396851098674064
 20
39.07166068169247
 30
0.0
 10
-6.389164575496226
 20
39.7744119748917
 30
0.0
 10
-5.868536943595938
 20
40.13112880464515
 30
0.0
 10
-4.798845901765638
 20
40.85168324705242
 30
0.0
 10
-4.249783487649834
 20
41.21552049017807
 30
0.0
 10
-3.689181984771643
 20
41.58112893647961
 30
0.0
  0
LINE
  5
DCD8
330
DC4F
100
AcDbEntity
  8
0
100
AcDbLine
 10
-3.689181984772273
 20
41.58112893643464
 30
0.0
 11
-2.190248353962322
 21
42.55869106041824
 31
0.0
  0
SPLINE
  5
DCD9
330
DC4F
100
AcDbEntity
  8
0
100
AcDbSpline
210
0.0
220
0.0
230
1.0
 70
     8
 71
     3
 72
    16
 73
    12
 74
     0
 42
0.000000001
 43
0.0000000001
 40
0.0
 40
0.0
 40
0.0
 40
0.0
 40
0.0658154371853317
 40
0.0658154371853317
 40
0.1316308743706634
 40
0.1316308743706634
 40
0.1974463115559951
 40
0.1974463115559951
 40
0.2632617487413269
 40
0.2632617487413269
 40
0.3290771859266586
 40
0.3290771859266586
 40
0.3290771859266586
 40
0.3290771859266586
 10
-2.190248353962318
 20
42.55869106041824
 30
0.0
 10
-2.024081707203935
 20
42.66706024822049
 30
0.0
 10
-1.85861801377452
 20
42.77818918670394
 30
0.0
 10
-1.529325024773031
 20
43.00538016944916
 30
0.0
 10
-1.365494983336319
 20
43.12144079162925
 30
0.0
 10
-1.039572129354366
 20
43.35789551699559
 30
0.0
 10
-0.8774784048563578
 20
43.47828860939195
 30
0.0
 10
-0.5550319313491259
 20
43.72283564230971
 30
0.0
 10
-0.3946783525953901
 20
43.84698894796927
 30
0.0
 10
-0.0756438450635644
 20
44.09853520686796
 30
0.0
 10
0.0830376869907324
 20
44.2259277903377
 30
0.0
 10
0.240942117259515
 20
44.35471261960644
 30
0.0
  0
SPLINE
  5
DCDA
330
DC4F
100
AcDbEntity
  8
0
100
AcDbSpline
210
0.0
220
0.0
230
1.0
 70
     8
 71
     3
 72
    16
 73
    12
 74
     0
 42
0.000000001
 43
0.0000000001
 40
0.0000000000038475
 40
0.0000000000038475
 40
0.0000000000038475
 40
0.0000000000038475
 40
0.0236982887295508
 40
0.0236982887295508
 40
0.0473965774552541
 40
0.0473965774552541
 40
0.0710948661809573
 40
0.0710948661809573
 40
0.0947931549066606
 40
0.0947931549066606
 40
0.1184914436323638
 40
0.1184914436323638
 40
0.1184914436323638
 40
0.1184914436323638
 10
0.2409421172827564
 20
44.35471261962539
 30
0.0
 10
0.3330181928379683
 20
44.42980868659712
 30
0.0
 10
0.4229344375336597
 20
44.51043707270666
 30
0.0
 10
0.5971203543187876
 20
44.68630081656868
 30
0.0
 10
0.6814411614329697
 20
44.78150896666957
 30
0.0
 10
0.8415695849202343
 20
44.9921779267973
 30
0.0
 10
0.9175131822477222
 20
45.10767790786663
 30
0.0
 10
1.053858679565242
 20
45.36697844622664
 30
0.0
 10
1.114414715122684
 20
45.51108975123073
 30
0.0
 10
1.203773889108457
 20
45.83354614303008
 30
0.0
 10
1.232233047033564
 20
46.0125409072228
 30
0.0
 10
1.232233047033568
 20
46.20313748394709
 30
0.0
  0
LINE
  5
DCDB
330
DC4F
100
AcDbEntity
  8
0
100
AcDbLine
 10
0.3535533905932198
 20
-21.61852730777149
 30
0.0
 11
-35.7088924499207
 21
-42.4391901214285
 31
0.0
  0
LINE
  5
DCDC
330
DC4F
100
AcDbEntity
  8
0
100
AcDbLine
 10
-7.778174593052069
 20
-58.56499759475109
 30
0.0
 11
28.28427124746186
 21
-37.74433478109408
 31
0.0
  0
LINE
  5
DCDD
330
DC4F
100
AcDbEntity
  8
0
100
AcDbLine
 10
-35.7088924499207
 20
-42.4391901214285
 30
0.0
 11
-36.76955262170053
 21
-41.82681768573271
 31
0.0
  0
ELLIPSE
  5
DCDE
330
DC4F
100
AcDbEntity
  8
0
100
AcDbEllipse
 10
-34.64823227814088
 20
-43.0515625571243
 30
0.0
 11
0.7500000000000773
 21
-1.299038105676612
 31
0.0
210
0.0
220
0.0
230
1.0
 40
0.5773502691896259
 41
3.926990816986993
 42
5.497787143781898
  0
LINE
  5
DCDF
330
DC4F
100
AcDbEntity
  8
0
100
AcDbLine
 10
1.414213562373043
 20
-23.45564461485887
 30
0.0
 11
-34.64823227814088
 21
-44.27630742851589
 31
0.0
  0
ELLIPSE
  5
DCE0
330
DC4F
100
AcDbEntity
  8
0
100
AcDbEllipse
 10
-9.899494936611713
 20
-57.3402527233595
 30
0.0
 11
1.499999999999998
 21
-2.598076211353312
 31
0.0
210
0.0
220
0.0
230
1.0
 40
0.577350269189626
 41
5.497787143782137
 42
7.06858347057703
  0
LINE
  5
DCE1
330
DC4F
100
AcDbEntity
  8
0
100
AcDbLine
 10
-8.838834764831894
 20
-57.9526251590553
 30
0.0
 11
-7.778174593052069
 21
-58.56499759475109
 31
0.0
  0
LINE
  5
DCE2
330
DC4F
100
AcDbEntity
  8
0
100
AcDbLine
 10
-8.838834764831888
 20
-57.95262515905529
 30
0.0
 11
-9.899494936611713
 21
-58.56499759475109
 31
0.0
  0
ELLIPSE
  5
DCE3
330
DC4F
100
AcDbEntity
  8
0
100
AcDbEllipse
 10
-9.899494936611713
 20
-57.3402527233595
 30
0.0
 11
0.7499999999999999
 21
-1.299038105676657
 31
0.0
210
0.0
220
0.0
230
0.9999999999999998
 40
0.5773502691896259
 41
5.497787143782137
 42
7.068583470577023
  0
LINE
  5
DCE4
330
DC4F
100
AcDbEntity
  8
0
100
AcDbLine
 10
-9.899494936611713
 20
-58.56499759475109
 30
0.0
 11
-9.899494936611713
 21
-59.78974246614267
 31
0.0
  0
LINE
  5
DCE5
330
DC4F
100
AcDbEntity
  8
0
100
AcDbLine
 10
-34.64823227814088
 20
-44.27630742851589
 30
0.0
 11
-34.64823227814088
 21
-45.50105229990747
 31
0.0
  0
ELLIPSE
  5
DCE6
330
DC4F
100
AcDbEntity
  8
0
100
AcDbEllipse
 10
-34.64823227814088
 20
-43.0515625571243
 30
0.0
 11
1.500000000000153
 21
-2.598076211353221
 31
0.0
210
0.0
220
0.0
230
0.9999999999999998
 40
0.5773502691896258
 41
3.926990816987
 42
5.497787143781893
  0
LINE
  5
DCE7
330
DC4F
100
AcDbEntity
  8
0
100
AcDbLine
 10
27.66295090390222
 20
-39.1176661210558
 30
0.0
 11
-8.399494936611713
 21
-59.93832893471282
 31
0.0
  0
ELLIPSE
  5
DCE8
330
DC4F
100
AcDbEntity
  8
0
100
AcDbEllipse
 10
1.414213562373023
 20
25.53415024080468
 30
0.0
 11
-1.25
 21
-2.165063509461097
 31
0.0
210
0.0
220
0.0
230
1.0
 40
0.5773502691896259
 41
4.570491925780514
 42
6.425082361783763
  0
ELLIPSE
  5
DCE9
330
DC4F
100
AcDbEntity
  8
0
100
AcDbEllipse
 10
-9.420574858154594
 20
41.18716731928468
 30
0.0
 11
8.166754732810652
 21
0.0000000000000316
 31
0.0
210
0.0
220
0.0
230
1.0
 40
0.577350269189625
 41
5.654866776461627
 42
6.408095538707127
  0
LINE
  5
DCEA
330
DC4F
100
AcDbEntity
  8
0
100
AcDbLine
 10
-2.813531490418743
 20
38.41571398196973
 30
0.0
 11
-2.545251991179628
 21
38.19102651949048
 31
0.0
  0
ELLIPSE
  5
DCEB
330
DC4F
100
AcDbEntity
  8
0
100
AcDbEllipse
 10
-1.977618509905079
 20
40.10180405653658
 30
0.0
 11
1.679777606426227
 21
-2.113846539592925
 31
0.0
210
0.0
220
0.0
230
1.0
 40
0.6605596098195701
 41
3.711761074681957
 42
5.013199698257079
  0
ELLIPSE
  5
DCEC
330
DC4F
100
AcDbEntity
  8
0
100
AcDbEllipse
 10
-5.656854249492533
 20
54.11153057327513
 30
0.0
 11
-1.250000000000001
 21
2.165063509461096
 31
0.0
210
0.0
220
0.0
230
0.9999999999999998
 40
0.5773502691896259
 41
4.425632428173117
 42
8.140738186186059
  0
ELLIPSE
  5
DCED
330
DC4F
100
AcDbEntity
  8
0
100
AcDbEllipse
 10
-12.727922061358
 20
50.0290476686365
 30
0.0
 11
-1.250000000000001
 21
2.165063509461096
 31
0.0
210
0.0
220
0.0
230
1.0
 40
0.5773502691896259
 41
4.425632428173122
 42
8.14073818618605
  0
ELLIPSE
  5
DCEE
330
DC4F
100
AcDbEntity
  8
0
100
AcDbEllipse
 10
-4.596194077712709
 20
54.72390300897095
 30
0.0
 11
1.250000000000129
 21
-2.165063509461022
 31
0.0
210
0.0
220
0.0
230
1.0
 40
0.5773502691896259
 41
3.579741684173546
 42
4.999145532596052
  0
ELLIPSE
  5
DCEF
330
DC4F
100
AcDbEntity
  8
0
100
AcDbEllipse
 10
-11.66726188957817
 20
50.64142010433229
 30
0.0
 11
1.250000000000129
 21
-2.165063509461021
 31
0.0
210
0.0
220
0.0
230
1.0
 40
0.5773502691896259
 41
3.579741684173544
 42
4.999145532596042
  0
ELLIPSE
  5
DCF0
330
DC4F
100
AcDbEntity
  8
0
100
AcDbEllipse
 10
1.414213562372996
 20
26.75889511219632
 30
0.0
 11
1.250000000000001
 21
-2.165063509461096
 31
0.0
210
0.0
220
0.0
230
0.9999999999999998
 40
0.5773502691896259
 41
4.662295549665636
 42
4.854286034988843
  0
LINE
  5
DCF1
330
DC4F
100
AcDbEntity
  8
0
100
AcDbLine
 10
0.0
 20
23.49290878848536
 30
0.0
 11
0.3535533905931576
 21
23.28878464325346
 31
0.0
  0
SPLINE
  5
DCF2
330
DC4F
100
AcDbEntity
  8
0
100
AcDbSpline
210
0.0
220
0.0
230
1.0
 70
     8
 71
     3
 72
    11
 73
     7
 74
     0
 42
0.000000001
 43
0.0000000001
 40
-1.0
 40
-1.0
 40
-1.0
 40
-1.0
 40
-0.8649350770690309
 40
-0.8649350770690309
 40
-0.8649350770690309
 40
-0.500000000000012
 40
-0.500000000000012
 40
-0.500000000000012
 40
-0.500000000000012
 10
0.3535533905931509
 20
26.5547709669644
 30
0.0
 10
0.4822701980114652
 20
26.70005095021573
 30
0.0
 10
0.6076692219519586
 20
26.84885878637873
 30
0.0
 10
0.7209680199889901
 20
26.9995712226066
 30
0.0
 10
1.027092694673052
 20
27.40678468215288
 30
0.0
 10
1.156226738120236
 20
27.82342630811959
 30
0.0
 10
1.141315204112469
 20
28.17065985207353
 30
0.0
  0
SPLINE
  5
DCF3
330
DC4F
100
AcDbEntity
  8
0
100
AcDbSpline
210
0.0
220
0.0
230
1.0
 70
     8
 71
     3
 72
    11
 73
     7
 74
     0
 42
0.000000001
 43
0.0000000001
 40
-1.0
 40
-1.0
 40
-1.0
 40
-1.0
 40
-0.8649350770683268
 40
-0.8649350770683268
 40
-0.8649350770683268
 40
0.0
 40
0.0
 40
0.0
 40
0.0
 10
0.3535533905931643
 20
25.73827438603667
 30
0.0
 10
0.4822701980121447
 20
25.5929944027846
 30
0.0
 10
0.6076692219532754
 20
25.44418656662078
 30
0.0
 10
0.7209680199907687
 20
25.29347413039211
 30
0.0
 10
1.446516167394538
 20
24.32833477507232
 30
0.0
 10
1.177836108329253
 20
23.3102335825934
 30
0.0
 10
0.3535533905931576
 20
23.28878464325347
 30
0.0
  0
LINE
  5
DCF4
330
DC4F
100
AcDbEntity
  8
0
100
AcDbLine
 10
-0.2059716122289146
 20
25.41523247503903
 30
0.0
 11
0.3535533905931665
 21
25.73827438603668
 31
0.0
  0
SPLINE
  5
DCF5
330
DC4F
100
AcDbEntity
  8
0
100
AcDbSpline
210
0.0
220
0.0
230
1.0
 70
     8
 71
     3
 72
     8
 73
     4
 74
     0
 42
0.000000001
 43
0.0000000001
 40
0.4105686222824465
 40
0.4105686222824465
 40
0.4105686222824465
 40
0.4105686222824465
 40
0.7033723312467848
 40
0.7033723312467848
 40
0.7033723312467848
 40
0.7033723312467848
 10
-0.3314407701462785
 20
24.00373881360005
 30
0.0
 10
-0.2979296638025919
 20
24.1129604153788
 30
0.0
 10
-0.3081850261605767
 20
24.27352569779235
 30
0.0
 10
-0.3707151635690464
 20
24.46584059245453
 30
0.0
  0
SPLINE
  5
DCF6
330
DC4F
100
AcDbEntity
  8
0
100
AcDbSpline
210
0.0
220
0.0
230
1.0
 70
     8
 71
     3
 72
     8
 73
     4
 74
     0
 42
0.000000001
 43
0.0000000001
 40
-1.0
 40
-1.0
 40
-1.0
 40
-1.0
 40
-0.5000000000000037
 40
-0.5000000000000037
 40
-0.5000000000000037
 40
-0.5000000000000037
 10
0.3535533905931976
 20
-7.942819490731487
 30
0.0
 10
0.9089137578629991
 20
-7.346815084286832
 30
0.0
 10
1.18659394149791
 20
-6.619394428457168
 30
0.0
 10
1.186593941497919
 20
-5.891973772627423
 30
0.0
  0
LINE
  5
DCF7
330
DC4F
100
AcDbEntity
  8
0
100
AcDbLine
 10
-4.044185620267639
 20
37.43776917384099
 30
0.0
 11
-2.813531490418743
 21
38.41571398196973
 31
0.0
  0
ELLIPSE
  5
DCF8
330
DC4F
100
AcDbEntity
  8
0
100
AcDbEllipse
 10
8.838834764831835
 20
-17.53604440313288
 30
0.0
 11
1.249999999999874
 21
2.165063509461169
 31
0.0
210
0.0
220
0.0
230
0.9999999999999998
 40
0.5773502691896248
 41
3.579741684173548
 42
5.845036276594999
  0
ELLIPSE
  5
DCF9
330
DC4F
100
AcDbEntity
  8
0
100
AcDbEllipse
 10
8.838834764831887
 20
15.12381883397613
 30
0.0
 11
1.249999999999874
 21
2.165063509461169
 31
0.0
210
0.0
220
0.0
230
0.9999999999999998
 40
0.5773502691896248
 41
3.579741684173548
 42
5.845036276594998
  0
ELLIPSE
  5
DCFA
330
DC4F
100
AcDbEntity
  8
0
100
AcDbEllipse
 10
8.838834764831863
 20
-1.20611278457837
 30
0.0
 11
1.249999999999874
 21
2.165063509461169
 31
0.0
210
0.0
220
0.0
230
0.9999999999999998
 40
0.5773502691896248
 41
3.579741684173548
 42
5.845036276594998
  0
ELLIPSE
  5
DCFB
330
DC4F
100
AcDbEntity
  8
0
100
AcDbEllipse
 10
9.899494936611684
 20
-1.818485220274164
 30
0.0
 11
-1.250000000000003
 21
-2.165063509461094
 31
0.0
210
0.0
220
0.0
230
1.0
 40
0.5773502691896249
 41
0.0
 42
6.283185307179586
  0
ELLIPSE
  5
DCFC
330
DC4F
100
AcDbEntity
  8
0
100
AcDbEllipse
 10
9.899494936611707
 20
14.51144639828033
 30
0.0
 11
-1.250000000000003
 21
-2.165063509461094
 31
0.0
210
0.0
220
0.0
230
1.0
 40
0.5773502691896249
 41
0.0
 42
6.283185307179586
  0
ELLIPSE
  5
DCFD
330
DC4F
100
AcDbEntity
  8
0
100
AcDbEllipse
 10
9.899494936611656
 20
-18.14841683882868
 30
0.0
 11
-1.250000000000003
 21
-2.165063509461094
 31
0.0
210
0.0
220
0.0
230
1.0
 40
0.5773502691896249
 41
0.0
 42
6.283185307179586
  0
ELLIPSE
  5
DCFE
330
DC4F
100
AcDbEntity
  8
0
100
AcDbEllipse
 10
34.81625347461677
 20
24.82786909115491
 30
0.0
 11
-1.185309973000765
 21
-4.029272920503765
 31
0.0
210
0.0
220
0.0
230
0.9999999999999998
 40
0.3706816908110085
 41
4.714609510599314
 42
6.051826567759563
  0
ELLIPSE
  5
DCFF
330
DC4F
100
AcDbEntity
  8
0
100
AcDbEllipse
 10
30.63954087701296
 20
23.26342562436331
 30
0.0
 11
7.592729584066628
 21
-0.0000000000000225
 31
0.0
210
0.0
220
0.0
230
1.0
 40
0.5773502691896314
 41
1.660962753237633
 42
1.908429487387543
  0
ELLIPSE
  5
DD00
330
DC4F
100
AcDbEntity
  8
0
100
AcDbEllipse
 10
25.2319165559222
 20
24.39237166175664
 30
0.0
 11
1.62462978483087
 21
-3.873057973002781
 31
0.0
210
0.0
220
0.0
230
0.9999999999999998
 40
0.4799246488165454
 41
0.0
 42
1.910948379511896
  0
LINE
  5
DD01
330
DC4F
100
AcDbEntity
  8
0
100
AcDbLine
 10
21.96944799528923
 20
18.46932487144666
 30
0.0
 11
26.85654634075306
 21
20.51931368875387
 31
0.0
  0
SPLINE
  5
DD02
330
DC4F
100
AcDbEntity
  8
0
100
AcDbSpline
210
0.0
220
0.0
230
1.0
 70
     8
 71
     3
 72
    16
 73
    12
 74
     0
 42
0.000000001
 43
0.0000000001
 40
3.298672286269282
 40
3.298672286269282
 40
3.298672286269282
 40
3.298672286269282
 40
3.440463867569784
 40
3.440463867569784
 40
3.582255448870285
 40
3.582255448870285
 40
3.724047030170787
 40
3.724047030170787
 40
3.865838611471288
 40
3.865838611471288
 40
4.007630192771791
 40
4.007630192771791
 40
4.007630192771791
 40
4.007630192771791
 10
26.85654634075306
 20
20.51931368875385
 30
0.0
 10
27.0710146000544
 20
20.60927658742217
 30
0.0
 10
27.30861817009793
 20
20.69538328303538
 30
0.0
 10
27.82073641260208
 20
20.85177441272668
 30
0.0
 10
28.09522886453994
 20
20.92207791598399
 30
0.0
 10
28.67077507073219
 20
21.04139516704253
 30
0.0
 10
28.97181782466581
 20
21.09042198202983
 30
0.0
 10
29.58967251021899
 20
21.16382632535427
 30
0.0
 10
29.90647822812215
 20
21.18821100349522
 30
0.0
 10
30.54486142503989
 20
21.21077805287269
 30
0.0
 10
30.86643436932182
 20
21.20896247933343
 30
0.0
 10
31.18486726882393
 20
21.1941049274408
 30
0.0
  0
SPLINE
  5
DD03
330
DC4F
100
AcDbEntity
  8
0
100
AcDbSpline
210
0.0
220
0.0
230
1.0
 70
     8
 71
     3
 72
    11
 73
     7
 74
     0
 42
0.000000001
 43
0.0000000001
 40
-1.0
 40
-1.0
 40
-1.0
 40
-1.0
 40
-0.8649350770690309
 40
-0.8649350770690309
 40
-0.8649350770690309
 40
0.0
 40
0.0
 40
0.0
 40
0.0
 10
28.28427124746193
 20
10.42896349364173
 30
0.0
 10
28.34862965117108
 20
10.53708613518696
 30
0.0
 10
28.42318411104444
 20
10.63600547650971
 30
0.0
 10
28.50734586624009
 20
10.72224283447497
 30
0.0
 10
29.04630485453068
 20
11.27449366495916
 30
0.0
 10
29.99345023215316
 20
11.12136432776255
 30
0.0
 10
30.40559159102155
 20
10.42896349364172
 30
0.0
  0
ELLIPSE
  5
DD04
330
DC4F
100
AcDbEntity
  8
0
100
AcDbEllipse
 10
29.34493141924163
 20
9.40834276748211
 30
0.0
 11
-1.250000000000004
 21
-2.165063509461094
 31
0.0
210
0.0
220
0.0
230
1.0
 40
0.5773502691896249
 41
4.570491925780512
 42
6.425082361783767
  0
ELLIPSE
  5
DD05
330
DC4F
100
AcDbEntity
  8
0
100
AcDbEllipse
 10
29.34493141924172
 20
9.408342767482086
 30
0.0
 11
1.25
 21
-2.165063509461096
 31
0.0
210
0.0
220
0.0
230
1.0
 40
0.5773502691896259
 41
6.141288252575432
 42
7.995878688578635
  0
LINE
  5
DD06
330
DC4F
100
AcDbEntity
  8
0
100
AcDbLine
 10
38.53024850685496
 20
-2.835023463529191
 30
0.0
 11
38.53024850685498
 21
-0.0749061926195749
 31
0.0
  0
ELLIPSE
  5
DD07
330
DC4F
100
AcDbEntity
  8
0
100
AcDbEllipse
 10
39.95153313703994
 20
3.284618410524107
 30
0.0
 11
-2.749999999999718
 21
4.763139720814576
 31
0.0
210
0.0
220
0.0
230
1.0
 40
0.5773502691896261
 41
2.730315569650136
 42
8.265258717914431
  0
LINE
  5
DD08
330
DC4F
100
AcDbEntity
  8
0
100
AcDbLine
 10
41.37281776722488
 20
-1.716064320284313
 30
0.0
 11
41.37281776722488
 21
-4.47618159119393
 31
0.0
  0
LINE
  5
DD09
330
DC4F
100
AcDbEntity
  8
0
100
AcDbLine
 10
41.37281776722488
 20
-4.47618159119393
 30
0.0
 11
41.36933880186144
 21
-4.474173009604847
 31
0.0
  0
LINE
  5
DD0A
330
DC4F
100
AcDbEntity
  8
0
100
AcDbLine
 10
38.53372747221841
 20
-2.83703204511827
 30
0.0
 11
38.53024850685496
 21
-2.835023463529191
 31
0.0
  0
LINE
  5
DD0B
330
DC4F
100
AcDbEntity
  8
0
100
AcDbLine
 10
38.53024850685496
 20
-2.835023463529191
 30
0.0
 11
38.53733135981259
 21
-2.830934176467474
 31
0.0
  0
LINE
  5
DD0C
330
DC4F
100
AcDbEntity
  8
0
100
AcDbLine
 10
39.5909086786348
 20
0.537466243076219
 30
0.0
 11
39.5909086786348
 21
-0.1142306933693327
 31
0.0
  0
LINE
  5
DD0D
330
DC4F
100
AcDbEntity
  8
0
100
AcDbLine
 10
38.53024850685498
 20
-0.0749061926195749
 30
0.0
 11
39.5909086786348
 21
0.537466243076219
 31
0.0
  0
ELLIPSE
  5
DD0E
330
DC4F
100
AcDbEntity
  8
0
100
AcDbEllipse
 10
41.01219330881976
 20
3.896990846219905
 30
0.0
 11
2.750000000000002
 21
-4.763139720814413
 31
0.0
210
0.0
220
0.0
230
1.0
 40
0.577350269189626
 41
5.87190822323969
 42
6.08912220976102
  0
ELLIPSE
  5
DD0F
330
DC4F
100
AcDbEntity
  8
0
100
AcDbEllipse
 10
41.01219330881976
 20
3.896990846219905
 30
0.0
 11
-2.750000000000002
 21
4.763139720814412
 31
0.0
210
0.0
220
0.0
230
1.0
 40
0.5773502691896261
 41
0.1940630974185664
 42
1.98207341073479
  0
LINE
  5
DD10
330
DC4F
100
AcDbEntity
  8
0
100
AcDbLine
 10
28.28427124746191
 20
7.162977169930799
 30
0.0
 11
27.99445685779194
 21
7.330301585821792
 31
0.0
  0
LINE
  5
DD11
330
DC4F
100
AcDbEntity
  8
0
100
AcDbLine
 10
27.99445685779194
 20
7.330301585821792
 30
0.0
 11
27.93071785686854
 21
7.367101315162791
 31
0.0
  0
SPLINE
  5
DD12
330
DC4F
100
AcDbEntity
  8
0
100
AcDbSpline
210
0.0
220
0.0
230
1.0
 70
     8
 71
     3
 72
    11
 73
     7
 74
     0
 42
0.000000001
 43
0.0000000001
 40
-1.0
 40
-1.0
 40
-1.0
 40
-1.0
 40
-0.8649350770683268
 40
-0.8649350770683268
 40
-0.8649350770683268
 40
0.0
 40
0.0
 40
0.0
 40
0.0
 10
30.40559159102155
 20
7.162977169930835
 30
0.0
 10
30.34123318731206
 20
7.129169211797639
 30
0.0
 10
30.26667872743826
 20
7.102649030702932
 30
0.0
 10
30.18251697224207
 20
7.081824764283162
 30
0.0
 10
29.6435579839513
 20
6.948469352013861
 30
0.0
 10
28.69641260632996
 20
6.946476184784109
 30
0.0
 10
28.28427124746191
 20
7.162977169930808
 30
0.0
  0
LINE
  5
DD13
330
DC4F
100
AcDbEntity
  8
0
100
AcDbLine
 10
30.40559159102155
 20
7.162977169930844
 30
0.0
 11
30.69540598069146
 21
7.330301585821796
 31
0.0
  0
LINE
  5
DD14
330
DC4F
100
AcDbEntity
  8
0
100
AcDbLine
 10
30.69540598069146
 20
7.330301585821796
 30
0.0
 11
30.75914498161481
 21
7.367101315162769
 31
0.0
  0
SPLINE
  5
DD15
330
DC4F
100
AcDbEntity
  8
0
100
AcDbSpline
210
0.0
220
0.0
230
1.0
 70
     8
 71
     3
 72
    11
 73
     7
 74
     0
 42
0.000000001
 43
0.0000000001
 40
0.1340645268891855
 40
0.1340645268891855
 40
0.1340645268891855
 40
0.1340645268891855
 40
0.8649350770683268
 40
0.8649350770683268
 40
0.8649350770683268
 40
0.8659354731107866
 40
0.8659354731107866
 40
0.8659354731107866
 40
0.8659354731107866
 10
27.67699714270856
 20
7.788715279616735
 30
0.0
 10
28.6155088953906
 20
7.81772095007855
 30
0.0
 10
30.10926132400169
 20
7.864558694474639
 30
0.0
 10
31.0201025252424
 20
7.800260667572413
 30
0.0
 10
31.02134926029391
 20
7.800172658154562
 30
0.0
 10
31.02259494122576
 20
7.800084769587543
 30
0.0
 10
31.02383956755947
 20
7.799997003548386
 30
0.0
  0
LINE
  5
DD16
330
DC4F
100
AcDbEntity
  8
0
100
AcDbLine
 10
41.37281776722488
 20
-1.716064320284313
 30
0.0
 11
42.43347793900471
 21
-1.103691884588515
 31
0.0
  0
LINE
  5
DD17
330
DC4F
100
AcDbEntity
  8
0
100
AcDbLine
 10
43.64483034216497
 20
2.559206512853307
 30
0.0
 11
40.65863991822648
 21
0.8351286677409408
 31
0.0
  0
LINE
  5
DD18
330
DC4F
100
AcDbEntity
  8
0
100
AcDbLine
 10
-0.7071067811866172
 20
57.37751689698601
 30
0.0
 11
-14.84924240491759
 21
65.5424827062633
 31
0.0
  0
LINE
  5
DD19
330
DC4F
100
AcDbEntity
  8
0
100
AcDbLine
 10
-19.09188309203688
 20
63.0929929634801
 30
0.0
 11
-19.09188309203687
 21
45.53831647353399
 31
0.0
  0
LINE
  5
DD1A
330
DC4F
100
AcDbEntity
  8
0
100
AcDbLine
 10
-19.09188309203687
 20
39.82284040703989
 30
0.0
 11
-19.09188309203686
 21
37.37335066425673
 31
0.0
  0
LINE
  5
DD1B
330
DC4F
100
AcDbEntity
  8
0
100
AcDbLine
 10
48.79036790187178
 20
-13.50213228368539
 30
0.0
 11
48.79036790187185
 21
23.90115707894917
 31
0.0
  0
LINE
  5
DD1C
330
DC4F
100
AcDbEntity
  8
0
100
AcDbLine
 10
49.8510280736516
 20
-12.88975984798959
 30
0.0
 11
49.85102807365166
 21
24.51352951464496
 31
0.0
  0
LINE
  5
DD1D
330
DC4F
100
AcDbEntity
  8
0
100
AcDbLine
 10
30.40559159102161
 20
39.41459211657599
 30
0.0
 11
44.54772721475258
 21
31.24962630729861
 31
0.0
  0
LINE
  5
DD1E
330
DC4F
100
AcDbEntity
  8
0
100
AcDbLine
 10
0.3535533905932042
 20
57.98988933268183
 30
0.0
 11
-13.78858223313777
 21
66.15485514195909
 31
0.0
  0
LINE
  5
DD1F
330
DC4F
100
AcDbEntity
  8
0
100
AcDbLine
 10
45.6083873865324
 20
31.8619987429944
 30
0.0
 11
31.46625176280143
 21
40.02696455227177
 31
0.0
  0
LINE
  5
DD20
330
DC4F
100
AcDbEntity
  8
0
100
AcDbLine
 10
30.40559159102151
 20
-22.41642527062869
 30
0.0
 11
45.04999565605992
 21
-19.46550348211827
 31
0.0
  0
SPLINE
  5
DD21
330
DC4F
100
AcDbEntity
  8
0
100
AcDbSpline
210
0.0
220
0.0
230
1.0
 70
     8
 71
     3
 72
     8
 73
     4
 74
     0
 42
0.000000001
 43
0.0000000001
 40
-1.0
 40
-1.0
 40
-1.0
 40
-1.0
 40
0.0
 40
0.0
 40
0.0
 40
0.0
 10
28.28427124746188
 20
-24.0686269640541
 30
0.0
 10
28.83963161473168
 20
-23.19725560870526
 30
0.0
 10
29.85023122375169
 20
-22.64652171089714
 30
0.0
 10
30.40559159102151
 20
-22.41642527062866
 30
0.0
  0
ELLIPSE
  5
DD22
330
DC4F
100
AcDbEntity
  8
0
100
AcDbEllipse
 10
42.4264068711929
 20
18.18568101245509
 30
0.0
 11
1.25
 21
-2.165063509461096
 31
0.0
210
0.0
220
0.0
230
1.0
 40
0.577350269189626
 41
0.0
 42
6.283185307179586
  0
ELLIPSE
  5
DD23
330
DC4F
100
AcDbEntity
  8
0
100
AcDbEllipse
 10
35.35533905932743
 20
30.43312972637098
 30
0.0
 11
1.25
 21
-2.165063509461096
 31
0.0
210
0.0
220
0.0
230
1.0
 40
0.577350269189626
 41
0.0
 42
6.283185307179586
  0
ELLIPSE
  5
DD24
330
DC4F
100
AcDbEntity
  8
0
100
AcDbEllipse
 10
35.35533905932741
 20
14.10319810781648
 30
0.0
 11
1.25
 21
-2.165063509461096
 31
0.0
210
0.0
220
0.0
230
1.0
 40
0.577350269189626
 41
0.0
 42
6.283185307179586
  0
ELLIPSE
  5
DD25
330
DC4F
100
AcDbEntity
  8
0
100
AcDbEllipse
 10
35.35533905932735
 20
-13.65768564372618
 30
0.0
 11
1.25
 21
-2.165063509461096
 31
0.0
210
0.0
220
0.0
230
1.0
 40
0.577350269189626
 41
0.0
 42
6.283185307179586
  0
ELLIPSE
  5
DD26
330
DC4F
100
AcDbEntity
  8
0
100
AcDbEllipse
 10
35.35533905932737
 20
-2.226733510738023
 30
0.0
 11
1.25
 21
-2.165063509461096
 31
0.0
210
0.0
220
0.0
230
1.0
 40
0.577350269189626
 41
0.0
 42
6.283185307179586
  0
ELLIPSE
  5
DD27
330
DC4F
100
AcDbEntity
  8
0
100
AcDbEllipse
 10
42.42640687119283
 20
-12.02469248187075
 30
0.0
 11
1.25
 21
-2.165063509461096
 31
0.0
210
0.0
220
0.0
230
1.0
 40
0.577350269189626
 41
0.0
 42
6.283185307179586
  0
ELLIPSE
  5
DD28
330
DC4F
100
AcDbEntity
  8
0
100
AcDbEllipse
 10
43.48706704297265
 20
-11.41232004617495
 30
0.0
 11
1.25000000000013
 21
-2.165063509461022
 31
0.0
210
0.0
220
0.0
230
1.0
 40
0.5773502691896261
 41
3.579741684173546
 42
5.845036276594997
  0
ELLIPSE
  5
DD29
330
DC4F
100
AcDbEntity
  8
0
100
AcDbEllipse
 10
36.41599923110723
 20
14.71557054351228
 30
0.0
 11
1.25000000000013
 21
-2.165063509461022
 31
0.0
210
0.0
220
0.0
230
1.0
 40
0.5773502691896261
 41
3.579741684173544
 42
5.845036276594996
  0
ELLIPSE
  5
DD2A
330
DC4F
100
AcDbEntity
  8
0
100
AcDbEllipse
 10
36.41599923110726
 20
31.04550216206678
 30
0.0
 11
1.25000000000013
 21
-2.165063509461022
 31
0.0
210
0.0
220
0.0
230
1.0
 40
0.5773502691896261
 41
3.579741684173548
 42
5.845036276594998
  0
ELLIPSE
  5
DD2B
330
DC4F
100
AcDbEntity
  8
0
100
AcDbEllipse
 10
43.48706704297272
 20
18.79805344815089
 30
0.0
 11
1.25000000000013
 21
-2.165063509461022
 31
0.0
210
0.0
220
0.0
230
1.0
 40
0.5773502691896261
 41
3.579741684173548
 42
5.845036276594998
  0
ELLIPSE
  5
DD2C
330
DC4F
100
AcDbEntity
  8
0
100
AcDbEllipse
 10
36.4159992311072
 20
-1.614361075042225
 30
0.0
 11
1.25000000000013
 21
-2.165063509461022
 31
0.0
210
0.0
220
0.0
230
1.0
 40
0.5773502691896261
 41
3.579741684173544
 42
5.845036276594995
  0
ELLIPSE
  5
DD2D
330
DC4F
100
AcDbEntity
  8
0
100
AcDbEllipse
 10
36.41599923110717
 20
-13.04531320803038
 30
0.0
 11
1.25000000000013
 21
-2.165063509461021
 31
0.0
210
0.0
220
0.0
230
1.0
 40
0.5773502691896261
 41
3.579741684173544
 42
5.845036276594995
  0
LINE
  5
DD2E
330
DC4F
100
AcDbEntity
  8
0
100
AcDbLine
 10
41.36933880186144
 20
-4.474173009604847
 30
0.0
 11
41.36933880186145
 21
-4.478320812235949
 31
0.0
  0
LINE
  5
DD2F
330
DC4F
100
AcDbEntity
  8
0
100
AcDbLine
 10
41.36933880186145
 20
-4.478320812235949
 30
0.0
 11
41.36574669941302
 21
-4.476246910920389
 31
0.0
  0
LINE
  5
DD30
330
DC4F
100
AcDbEntity
  8
0
100
AcDbLine
 10
41.36574669941302
 20
-4.476246910920389
 30
0.0
 11
41.36574669941302
 21
-4.472099108289286
 31
0.0
  0
LINE
  5
DD31
330
DC4F
100
AcDbEntity
  8
0
100
AcDbLine
 10
41.36574669941302
 20
-4.472099108289286
 30
0.0
 11
38.53731957466684
 21
-2.83910594643383
 31
0.0
  0
LINE
  5
DD32
330
DC4F
100
AcDbEntity
  8
0
100
AcDbLine
 10
38.53731957466684
 20
-2.83910594643383
 30
0.0
 11
38.53731957466684
 21
-2.843253749064933
 31
0.0
  0
LINE
  5
DD33
330
DC4F
100
AcDbEntity
  8
0
100
AcDbLine
 10
38.53731957466684
 20
-2.843253749064933
 30
0.0
 11
38.53372747221841
 21
-2.841179847749373
 31
0.0
  0
LINE
  5
DD34
330
DC4F
100
AcDbEntity
  8
0
100
AcDbLine
 10
38.53372747221841
 20
-2.841179847749373
 30
0.0
 11
38.53372747221841
 21
-2.83703204511827
 31
0.0
  0
ELLIPSE
  5
DD35
330
DC4F
100
AcDbEntity
  8
0
100
AcDbEllipse
 10
43.48706704297267
 20
-3.247354236897699
 30
0.0
 11
1.500000000000157
 21
2.598076211353227
 31
0.0
210
0.0
220
0.0
230
1.0
 40
0.5773502691896253
 41
2.274522134612096
 42
2.356194490192581
  0
ELLIPSE
  5
DD36
330
DC4F
100
AcDbEntity
  8
0
100
AcDbEllipse
 10
43.48706704297267
 20
-3.247354236897699
 30
0.0
 11
1.499999999999982
 21
2.598076211353326
 31
0.0
210
0.0
220
0.0
230
1.0
 40
0.577350269189623
 41
0.8625158344705923
 42
0.9940868618318736
  0
LINE
  5
DD37
330
DC4F
100
AcDbEntity
  8
0
100
AcDbLine
 10
41.36574669941302
 20
-4.472099108289286
 30
0.0
 11
41.37281776722488
 21
-4.468016625384647
 31
0.0
  0
ELLIPSE
  5
DD38
330
DC4F
100
AcDbEntity
  8
0
100
AcDbEllipse
 10
40.65863991822648
 20
-1.614361075042243
 30
0.0
 11
-1.499999999999868
 21
-2.598076211353393
 31
0.0
210
0.0
220
0.0
230
1.0
 40
0.5773502691896213
 41
3.926990816987004
 42
5.497787143781902
  0
LINE
  5
DD39
330
DC4F
100
AcDbEntity
  8
0
100
AcDbLine
 10
40.65863991822648
 20
0.8351286677409408
 30
0.0
 11
43.41563475217768
 21
-0.7566230417952058
 31
0.0
  0
LINE
  5
DD3A
330
DC4F
100
AcDbEntity
  8
0
100
AcDbLine
 10
38.53731957466684
 20
-2.839105946433817
 30
0.0
 11
38.53372747221841
 21
-2.841179847749373
 31
0.0
  0
LINE
  5
DD3B
330
DC4F
100
AcDbEntity
  8
0
100
AcDbLine
 10
38.53372747221841
 20
-2.83703204511827
 30
0.0
 11
38.53732261598242
 21
-2.834956387898337
 31
0.0
  0
LINE
  5
DD3C
330
DC4F
100
AcDbEntity
  8
0
100
AcDbLine
 10
41.36933880186143
 20
-4.474173009604838
 30
0.0
 11
41.36574669941302
 21
-4.476246910920389
 31
0.0
  0
LINE
  5
DD3D
330
DC4F
100
AcDbEntity
  8
0
100
AcDbLine
 10
41.37281776722488
 20
-4.472164428015763
 30
0.0
 11
41.36933880186144
 21
-4.474173009604847
 31
0.0
  0
SPLINE
  5
DD3E
330
DC4F
100
AcDbEntity
  8
0
100
AcDbSpline
210
0.0
220
0.0
230
1.0
 70
     8
 71
     3
 72
     8
 73
     4
 74
     0
 42
0.000000001
 43
0.0000000001
 40
0.9751938025434267
 40
0.9751938025434267
 40
0.9751938025434267
 40
0.9751938025434267
 40
1.0
 40
1.0
 40
1.0
 40
1.0
 10
1.514642964004293
 20
-23.46495042855653
 30
0.0
 10
1.481201934077627
 20
-23.46218171835374
 30
0.0
 10
1.447723150544708
 20
-23.45908379244278
 30
0.0
 10
1.414213562373041
 20
-23.45564461485887
 30
0.0
  0
LINE
  5
DD3F
330
DC4F
100
AcDbEntity
  8
0
100
AcDbLine
 10
1.495337330839892
 20
-23.50248144442088
 30
0.0
 11
1.414213562373043
 21
-23.45564461485887
 31
0.0
  0
ENDBLK
  5
DC51
330
DC4F
100
AcDbEntity
  8
0
100
AcDbBlockEnd
  0
ENDSEC
  0
SECTION
  2
ENTITIES
  0
INSERT
  5
DD40
330
1F
100
AcDbEntity
  8
0
100
AcDbBlockReference
  2
SBE38_96-F-Front
 10
0.0
 20
0.0
 30
0.0
  0
INSERT
  5
DD41
330
1F
100
AcDbEntity
  8
0
100
AcDbBlockReference
  2
SBE38_96-F-Left
 10
86.25000000000014
 20
0.0
 30
0.0
  0
INSERT
  5
DD42
330
1F
100
AcDbEntity
  8
0
100
AcDbBlockReference
  2
SBE38_96-F-Right
 10
-86.25000000000005
 20
0.0
 30
0.0
  0
INSERT
  5
DD43
330
1F
100
AcDbEntity
  8
0
100
AcDbBlockReference
  2
SBE38_96-F-Top
 10
0.0
 20
-39.75
 30
0.0
  0
INSERT
  5
DD44
330
1F
100
AcDbEntity
  8
0
100
AcDbBlockReference
  2
SBE38_96-F-Bottom
 10
0.0
 20
134.25
 30
0.0
  0
INSERT
  5
DD45
330
1F
100
AcDbEntity
  8
0
100
AcDbBlockReference
  2
SBE38_96-F-ISO
 10
114.0195526217007
 20
-96.90485514195907
 30
0.0
  0
MTEXT
  5
DD46
330
1F
100
AcDbEntity
  8
0
100
AcDbMText
 10
0.0
 20
-123.0
 30
0.0
 40
9.750000000000001
 41
0.0
 71
     5
 72
     5
  1
SBE38/96
 73
     1
 44
1.0
1001
ACAD
1000
MTEXTBEGIN
1070
    73
1070
     1
1070
    44
1040
1.0
1070
    74
1070
     0
1000
MTEXTEND
  0
ENDSEC
  0
SECTION
  2
OBJECTS
  0
DICTIONARY
  5
C
330
0
100
AcDbDictionary
281
     1
  3
ACAD_CIP_PREVIOUS_PRODUCT_INFO
350
216
  3
ACAD_COLOR
350
6B
  3
ACAD_DETAILVIEWSTYLE
350
21B
  3
ACAD_GROUP
350
D
  3
ACAD_LAYOUT
350
1A
  3
ACAD_MATERIAL
350
6A
  3
ACAD_MLEADERSTYLE
350
12D
  3
ACAD_MLINESTYLE
350
17
  3
ACAD_PLOTSETTINGS
350
19
  3
ACAD_PLOTSTYLENAME
350
E
  3
ACAD_SCALELIST
350
10C
  3
ACAD_SECTIONVIEWSTYLE
350
219
  3
ACAD_TABLESTYLE
350
7E
  3
ACAD_VISUALSTYLE
350
EF
  3
ACDB_RECOMPOSE_DATA
350
DE47
  3
AcDbVariableDictionary
350
5E
  3
DWGPROPS
350
DE48
  0
DICTIONARY
  5
DD97
330
8
100
AcDbDictionary
280
     1
281
     1
  0
DICTIONARY
  5
1FF
330
2
100
AcDbDictionary
280
     1
281
     1
  3
ACAD_LAYERSTATES
360
200
  0
DICTIONARY
  5
13C
330
10
100
AcDbDictionary
280
     1
281
     1
  0
DICTIONARY
  5
1CE
330
1F
100
AcDbDictionary
280
     1
281
     1
  3
ACAD_LAYOUTSELFREF
360
DD9F
  0
DICTIONARY
  5
DD4A
330
D2
100
AcDbDictionary
280
     1
281
     1
  3
ACAD_LAYOUTSELFREF
360
DDA8
  0
DICTIONARY
  5
DD4C
330
D6
100
AcDbDictionary
280
     1
281
     1
  3
ACAD_LAYOUTSELFREF
360
DDAB
  0
XRECORD
  5
216
102
{ACAD_REACTORS
330
C
102
}
330
C
100
AcDbXrecord
280
     1
300
ACD
300
2021
300

  0
DICTIONARY
  5
6B
102
{ACAD_REACTORS
330
C
102
}
330
C
100
AcDbDictionary
281
     1
  0
DICTIONARY
  5
21B
102
{ACAD_REACTORS
330
C
102
}
330
C
100
AcDbDictionary
281
     1
  3
Metric50
350
21C
  0
DICTIONARY
  5
D
102
{ACAD_REACTORS
330
C
102
}
330
C
100
AcDbDictionary
281
     1
  0
DICTIONARY
  5
1A
102
{ACAD_REACTORS
330
C
102
}
330
C
100
AcDbDictionary
281
     1
  3
Layout1
350
D3
  3
Layout2
350
D7
  3
Model
350
22
  0
DICTIONARY
  5
6A
102
{ACAD_REACTORS
330
C
102
}
330
C
100
AcDbDictionary
281
     1
  3
ByBlock
350
ED
  3
ByLayer
350
EC
  3
Global
350
EE
  0
DICTIONARY
  5
12D
102
{ACAD_REACTORS
330
C
102
}
330
C
100
AcDbDictionary
281
     1
  3
Standard
350
12E
  0
DICTIONARY
  5
17
102
{ACAD_REACTORS
330
C
102
}
330
C
100
AcDbDictionary
281
     1
  3
Standard
350
18
  0
DICTIONARY
  5
19
102
{ACAD_REACTORS
330
C
102
}
330
C
100
AcDbDictionary
281
     1
  0
ACDBDICTIONARYWDFLT
  5
E
102
{ACAD_REACTORS
330
C
102
}
330
C
100
AcDbDictionary
281
     1
  3
Normal
350
F
100
AcDbDictionaryWithDefault
340
F
  0
DICTIONARY
  5
10C
102
{ACAD_REACTORS
330
C
102
}
330
C
100
AcDbDictionary
281
     1
  3
A0
350
10D
  3
A1
350
1BE
  3
A2
350
1BF
  3
A3
350
1C0
  3
A4
350
1C1
  3
A5
350
1C2
  3
A6
350
1C3
  3
A7
350
1C4
  3
A8
350
1C5
  3
A9
350
1C6
  3
B0
350
1C7
  3
B1
350
1C8
  3
B2
350
1C9
  3
B3
350
1CA
  3
B4
350
1CB
  3
B5
350
1CC
  3
B6
350
1CD
  0
DICTIONARY
  5
219
102
{ACAD_REACTORS
330
C
102
}
330
C
100
AcDbDictionary
281
     1
  3
Metric50
350
21A
  0
DICTIONARY
  5
7E
102
{ACAD_REACTORS
330
C
102
}
330
C
100
AcDbDictionary
281
     1
  3
Standard
350
7F
  0
DICTIONARY
  5
EF
102
{ACAD_REACTORS
330
C
102
}
330
C
100
AcDbDictionary
281
     1
  3
2dWireframe
350
F5
  3
Basic
350
F4
  3
Brighten
350
FB
  3
ColorChange
350
FF
  3
Conceptual
350
F8
  3
Dim
350
FA
  3
EdgeColorOff
350
1E6
  3
Facepattern
350
FE
  3
Flat
350
F0
  3
FlatWithEdges
350
F1
  3
Gouraud
350
F2
  3
GouraudWithEdges
350
F3
  3
Hidden
350
F7
  3
JitterOff
350
1E4
  3
Linepattern
350
FD
  3
OverhangOff
350
1E5
  3
Realistic
350
F9
  3
Shaded
350
1F3
  3
Shaded with edges
350
1F2
  3
Shades of Gray
350
1EF
  3
Sketchy
350
1F0
  3
Thicken
350
FC
  3
Wireframe
350
F6
  3
X-Ray
350
1F1
  0
XRECORD
  5
DE47
102
{ACAD_REACTORS
330
C
102
}
330
C
100
AcDbXrecord
280
     1
 90
        1
330
7F
  0
DICTIONARY
  5
5E
102
{ACAD_REACTORS
330
C
102
}
330
C
100
AcDbDictionary
281
     1
  3
CANNOSCALE
350
146
  3
CENTEREXE
350
259
  3
CENTERLTYPEFILE
350
25A
  3
CMLEADERSTYLE
350
145
  3
CTABLESTYLE
350
84
  3
CVIEWDETAILSTYLE
350
227
  3
CVIEWSECTIONSTYLE
350
228
  3
DIMASSOC
350
5F
  3
HIDETEXT
350
63
  3
INDEXCTL
350
DDF4
  3
LAYEREVAL
350
1AE
  3
LAYERNOTIFY
350
1AF
  3
LIGHTINGUNITS
350
DDF2
  3
MSLTSCALE
350
DDF1
  3
PSOLHEIGHT
350
DE44
  3
PSOLWIDTH
350
DE43
  3
SORTENTS
350
DDF3
  3
XCLIPFRAME
350
DE45
  0
XRECORD
  5
DE48
102
{ACAD_REACTORS
330
C
102
}
330
C
100
AcDbXrecord
280
     1
  1
DWGPROPS COOKIE
  2

  3

  4

  6

  7

  8
tronnguyen
  9

300
=
301
=
302
=
303
=
304
=
305
=
306
=
307
=
308
=
309
=
 40
0.0049189814814815
 41
2460286.6225
 42
2460286.638946759
  1

 90
        0
  0
DICTIONARY
  5
200
102
{ACAD_REACTORS
330
1FF
102
}
330
1FF
100
AcDbDictionary
281
     1
  0
XRECORD
  5
DD9F
102
{ACAD_REACTORS
330
1CE
102
}
330
1CE
100
AcDbXrecord
280
     1
340
1F
  0
XRECORD
  5
DDA8
102
{ACAD_REACTORS
330
DD4A
102
}
330
DD4A
100
AcDbXrecord
280
     1
340
D2
  0
XRECORD
  5
DDAB
102
{ACAD_REACTORS
330
DD4C
102
}
330
DD4C
100
AcDbXrecord
280
     1
340
D6
  0
ACDBDETAILVIEWSTYLE
  5
21C
102
{ACAD_XDICTIONARY
360
DE87
102
}
102
{ACAD_REACTORS
330
21B
102
}
330
21B
100
AcDbModelDocViewStyle
 70
     0
  3
Metric50
290
     0
100
AcDbDetailViewStyle
 70
     0
 71
     0
 90
        3
 71
     1
340
11
 40
5.0
340
0
 40
5.0
300

 40
0.0
280
     1
 71
     2
340
16
 90
       25
 71
     3
340
11
 40
5.0
 90
        0
 40
15.0
 90
        1
300
%<\AcVar ViewDetailId>% (%<\AcVar ViewScale \f "%sn">%)
 71
     4
340
16
 90
       25
340
16
 90
       25
280
     0
  0
LAYOUT
  5
D3
102
{ACAD_XDICTIONARY
360
DE4C
102
}
102
{ACAD_REACTORS
330
1A
102
}
330
1A
100
AcDbPlotSettings
  1

  2
C:\Documents and Settings\basas\Application Data\Autodesk\AutoCAD 2005\R16.1\enu\plotters\Default Windows System Printer.pc3
  4

  6

 40
0.0
 41
0.0
 42
0.0
 43
0.0
 44
0.0
 45
0.0
 46
0.0
 47
0.0
 48
0.0
 49
0.0
140
0.0
141
0.0
142
1.0
143
1.0
 70
   688
 72
     0
 73
     0
 74
     5
  7

 75
    16
147
1.0
148
0.0
149
0.0
100
AcDbLayout
  1
Layout1
 70
     1
 71
     1
 10
0.0
 20
0.0
 11
12.0
 21
9.0
 12
0.0
 22
0.0
 32
0.0
 14
0.0
 24
0.0
 34
0.0
 15
0.0
 25
0.0
 35
0.0
146
0.0
 13
0.0
 23
0.0
 33
0.0
 16
1.0
 26
0.0
 36
0.0
 17
0.0
 27
1.0
 37
0.0
 76
     0
330
D2
  0
LAYOUT
  5
D7
102
{ACAD_XDICTIONARY
360
DE4E
102
}
102
{ACAD_REACTORS
330
1A
102
}
330
1A
100
AcDbPlotSettings
  1

  2
C:\Documents and Settings\basas\Application Data\Autodesk\AutoCAD 2005\R16.1\enu\plotters\Default Windows System Printer.pc3
  4

  6

 40
0.0
 41
0.0
 42
0.0
 43
0.0
 44
0.0
 45
0.0
 46
0.0
 47
0.0
 48
0.0
 49
0.0
140
0.0
141
0.0
142
1.0
143
1.0
 70
   688
 72
     0
 73
     0
 74
     5
  7

 75
    16
147
1.0
148
0.0
149
0.0
100
AcDbLayout
  1
Layout2
 70
     1
 71
     2
 10
0.0
 20
0.0
 11
12.0
 21
9.0
 12
0.0
 22
0.0
 32
0.0
 14
0.0
 24
0.0
 34
0.0
 15
0.0
 25
0.0
 35
0.0
146
0.0
 13
0.0
 23
0.0
 33
0.0
 16
1.0
 26
0.0
 36
0.0
 17
0.0
 27
1.0
 37
0.0
 76
     0
330
D6
  0
LAYOUT
  5
22
102
{ACAD_XDICTIONARY
360
DE49
102
}
102
{ACAD_REACTORS
330
1A
102
}
330
1A
100
AcDbPlotSettings
  1

  2
none_device
  4
ISO_A4_(210.00_x_297.00_MM)
  6

 40
7.5
 41
20.0
 42
7.5
 43
20.0
 44
210.0
 45
297.0
 46
11.54999923706054
 47
-13.65000009536743
 48
0.0
 49
0.0
140
0.0
141
0.0
142
1.0
143
8.704084754739808
 70
 11952
 72
     1
 73
     0
 74
     0
  7

 75
     0
147
0.1148885871608098
148
0.0
149
0.0
100
AcDbLayout
  1
Model
 70
     1
 71
     0
 10
0.0
 20
0.0
 11
12.0
 21
9.0
 12
0.0
 22
0.0
 32
0.0
 14
0.0
 24
0.0
 34
0.0
 15
0.0
 25
0.0
 35
0.0
146
0.0
 13
0.0
 23
0.0
 33
0.0
 16
1.0
 26
0.0
 36
0.0
 17
0.0
 27
1.0
 37
0.0
 76
     0
330
1F
331
EA
1001
ACAD_PSEXT
1000
None
1000
None
1000
Not applicable
1000
The layout will not be plotted unless a new plotter configuration name is selected.
1070
     0
  0
MATERIAL
  5
ED
102
{ACAD_XDICTIONARY
360
1F9
102
}
102
{ACAD_REACTORS
330
6A
102
}
330
6A
100
AcDbMaterial
  1
ByBlock
  0
MATERIAL
  5
EC
102
{ACAD_XDICTIONARY
360
1F7
102
}
102
{ACAD_REACTORS
330
6A
102
}
330
6A
100
AcDbMaterial
  1
ByLayer
  0
MATERIAL
  5
EE
102
{ACAD_XDICTIONARY
360
173
102
}
102
{ACAD_REACTORS
330
6A
102
}
330
6A
100
AcDbMaterial
  1
Global
 43
0.0007999999797903
 43
0.0
 43
0.0
 43
0.0
 43
0.0
 43
0.0007999999797903
 43
0.0
 43
0.0
 43
0.0
 43
0.0
 43
1.0
 43
0.0
 43
0.0
 43
0.0
 43
0.0
 43
1.0
 49
0.0007999999797903
 49
0.0
 49
0.0
 49
0.0
 49
0.0
 49
0.0007999999797903
 49
0.0
 49
0.0
 49
0.0
 49
0.0
 49
1.0
 49
0.0
 49
0.0
 49
0.0
 49
0.0
 49
1.0
142
0.0007999999797903
142
0.0
142
0.0
142
0.0
142
0.0
142
0.0007999999797903
142
0.0
142
0.0
142
0.0
142
0.0
142
1.0
142
0.0
142
0.0
142
0.0
142
0.0
142
1.0
144
0.0007999999797903
144
0.0
144
0.0
144
0.0
144
0.0
144
0.0007999999797903
144
0.0
144
0.0
144
0.0
144
0.0
144
1.0
144
0.0
144
0.0
144
0.0
144
0.0
144
1.0
1001
ACAD
1070
    -1
1070
     3
1070
     0
1000

1071
        0
1070
     0
  0
MLEADERSTYLE
  5
12E
102
{ACAD_XDICTIONARY
360
DE73
102
}
102
{ACAD_REACTORS
330
12D
102
}
330
12D
100
AcDbMLeaderStyle
170
     2
171
     1
172
     0
 90
        2
 40
0.0
 41
0.0
173
     1
 91
-1056964608
340
14
 92
       -2
290
     1
 42
2.0
291
     1
 43
8.0
  3
Standard
 44
4.0
300

342
11
174
     1
178
     1
175
     1
176
     0
 93
-1056964608
 45
4.0
292
     0
297
     0
 46
4.0
 94
-1056964608
 47
1.0
 49
1.0
140
1.0
293
     1
141
0.0
294
     1
177
     0
142
1.0
295
     0
296
     0
143
3.75
1001
ACAD_MLEADERVER
1070
     2
  0
MLINESTYLE
  5
18
102
{ACAD_REACTORS
330
17
102
}
330
17
100
AcDbMlineStyle
  2
STANDARD
 70
     0
  3

 62
   256
 51
90.0
 52
90.0
 71
     2
 49
0.5
 62
   256
  6
BYLAYER
 49
-0.5
 62
   256
  6
BYLAYER
  0
ACDBPLACEHOLDER
  5
F
102
{ACAD_REACTORS
330
E
102
}
330
E
  0
SCALE
  5
10D
102
{ACAD_REACTORS
330
10C
102
}
330
10C
100
AcDbScale
 70
     0
300
1:1
140
1.0
141
1.0
290
     1
  0
SCALE
  5
1BE
102
{ACAD_REACTORS
330
10C
102
}
330
10C
100
AcDbScale
 70
     0
300
1:2
140
1.0
141
2.0
290
     0
  0
SCALE
  5
1BF
102
{ACAD_REACTORS
330
10C
102
}
330
10C
100
AcDbScale
 70
     0
300
1:4
140
1.0
141
4.0
290
     0
  0
SCALE
  5
1C0
102
{ACAD_REACTORS
330
10C
102
}
330
10C
100
AcDbScale
 70
     0
300
1:5
140
1.0
141
5.0
290
     0
  0
SCALE
  5
1C1
102
{ACAD_REACTORS
330
10C
102
}
330
10C
100
AcDbScale
 70
     0
300
1:8
140
1.0
141
8.0
290
     0
  0
SCALE
  5
1C2
102
{ACAD_REACTORS
330
10C
102
}
330
10C
100
AcDbScale
 70
     0
300
1:10
140
1.0
141
10.0
290
     0
  0
SCALE
  5
1C3
102
{ACAD_REACTORS
330
10C
102
}
330
10C
100
AcDbScale
 70
     0
300
1:16
140
1.0
141
16.0
290
     0
  0
SCALE
  5
1C4
102
{ACAD_REACTORS
330
10C
102
}
330
10C
100
AcDbScale
 70
     0
300
1:20
140
1.0
141
20.0
290
     0
  0
SCALE
  5
1C5
102
{ACAD_REACTORS
330
10C
102
}
330
10C
100
AcDbScale
 70
     0
300
1:30
140
1.0
141
30.0
290
     0
  0
SCALE
  5
1C6
102
{ACAD_REACTORS
330
10C
102
}
330
10C
100
AcDbScale
 70
     0
300
1:40
140
1.0
141
40.0
290
     0
  0
SCALE
  5
1C7
102
{ACAD_REACTORS
330
10C
102
}
330
10C
100
AcDbScale
 70
     0
300
1:50
140
1.0
141
50.0
290
     0
  0
SCALE
  5
1C8
102
{ACAD_REACTORS
330
10C
102
}
330
10C
100
AcDbScale
 70
     0
300
1:100
140
1.0
141
100.0
290
     0
  0
SCALE
  5
1C9
102
{ACAD_REACTORS
330
10C
102
}
330
10C
100
AcDbScale
 70
     0
300
2:1
140
2.0
141
1.0
290
     0
  0
SCALE
  5
1CA
102
{ACAD_REACTORS
330
10C
102
}
330
10C
100
AcDbScale
 70
     0
300
4:1
140
4.0
141
1.0
290
     0
  0
SCALE
  5
1CB
102
{ACAD_REACTORS
330
10C
102
}
330
10C
100
AcDbScale
 70
     0
300
8:1
140
8.0
141
1.0
290
     0
  0
SCALE
  5
1CC
102
{ACAD_REACTORS
330
10C
102
}
330
10C
100
AcDbScale
 70
     0
300
10:1
140
10.0
141
1.0
290
     0
  0
SCALE
  5
1CD
102
{ACAD_REACTORS
330
10C
102
}
330
10C
100
AcDbScale
 70
     0
300
100:1
140
100.0
141
1.0
290
     0
  0
ACDBSECTIONVIEWSTYLE
  5
21A
102
{ACAD_XDICTIONARY
360
DE85
102
}
102
{ACAD_REACTORS
330
219
102
}
330
219
100
AcDbModelDocViewStyle
 70
     0
  3
Metric50
290
     0
100
AcDbSectionViewStyle
 70
     0
 71
     0
 90
      102
 71
     1
340
11
 40
5.0
340
0
340
0
 40
5.0
300
I, O, Q, S, X, Z
 40
10.0
 90
        0
 40
2.5
 90
        0
 71
     2
340
16
 90
       25
340
16
 90
       50
 40
5.0
 40
2.5
 40
5.0
 71
     3
340
11
 40
5.0
 90
        0
 40
15.0
 90
        1
300
%<\AcVar ViewSectionStartId>%-%<\AcVar ViewSectionEndId>% (%<\AcVar ViewScale \f "%sn">%)
 71
     4
300
ANSI31
 40
1.0
 90
        0
290
     0
290
     0
 90
        6
 40
0.0
 40
1.570796326794896
 40
0.2617993877991494
 40
1.308996938995747
 40
-0.2617993877991494
 40
1.832595714594046
  0
TABLESTYLE
  5
7F
102
{ACAD_XDICTIONARY
360
162
102
}
102
{ACAD_REACTORS
330
7E
102
}
330
7E
100
AcDbTableStyle
  3
Standard
 70
     0
 71
     0
 40
1.5
 41
1.5
280
     0
281
     0
  7
Standard
140
4.5
170
     2
 62
     0
 63
     7
283
     0
274
    -2
284
     1
 64
     0
275
    -2
285
     1
 65
     0
276
    -2
286
     1
 66
     0
277
    -2
287
     1
 67
     0
278
    -2
288
     1
 68
     0
279
    -2
289
     1
 69
     0
  7
Standard
140
6.0
170
     5
 62
     0
 63
     7
283
     0
274
    -2
284
     1
 64
     0
275
    -2
285
     1
 65
     0
276
    -2
286
     1
 66
     0
277
    -2
287
     1
 67
     0
278
    -2
288
     1
 68
     0
279
    -2
289
     1
 69
     0
  7
Standard
140
4.5
170
     5
 62
     0
 63
     7
283
     0
274
    -2
284
     1
 64
     0
275
    -2
285
     1
 65
     0
276
    -2
286
     1
 66
     0
277
    -2
287
     1
 67
     0
278
    -2
288
     1
 68
     0
279
    -2
289
     1
 69
     0
  0
VISUALSTYLE
  5
F5
102
{ACAD_XDICTIONARY
360
DE5D
102
}
102
{ACAD_REACTORS
330
EF
102
}
330
EF
100
AcDbVisualStyle
  2
2dWireframe
 70
     4
 71
     0
 72
     2
 73
     1
 90
        0
 40
-0.6
 41
-30.0
 62
     5
 63
     7
 74
     1
 91
        4
 64
     7
 65
   257
 75
     1
175
     1
 42
1.0
 92
        0
 66
   257
 43
1.0
 76
     1
 77
     6
 78
     2
 67
     7
 79
     5
170
     0
171
     0
290
     0
174
     0
 93
        1
 44
0.0
173
     0
291
     0
 45
0.0
1001
ACAD
1000
AcDbSavedByObjectVersion
1070
     0
  0
VISUALSTYLE
  5
F4
102
{ACAD_XDICTIONARY
360
DE5B
102
}
102
{ACAD_REACTORS
330
EF
102
}
330
EF
100
AcDbVisualStyle
  2
Basic
 70
     7
 71
     1
 72
     0
 73
     1
 90
        0
 40
-0.6
 41
-30.0
 62
     5
 63
     7
 74
     0
 91
        4
 64
     7
 65
   257
 75
     1
175
     1
 42
1.0
 92
        8
 66
     7
 43
1.0
 76
     1
 77
     6
 78
     2
 67
     7
 79
     5
170
     0
171
     0
290
     0
174
     0
 93
        1
 44
0.0
173
     0
291
     1
 45
0.0
1001
ACAD
1000
AcDbSavedByObjectVersion
1070
     0
  0
VISUALSTYLE
  5
FB
102
{ACAD_XDICTIONARY
360
DE69
102
}
102
{ACAD_REACTORS
330
EF
102
}
330
EF
100
AcDbVisualStyle
  2
Brighten
 70
    12
 71
     2
 72
     2
 73
     1
 90
        0
 40
-0.6
 41
-30.0
 62
     5
 63
     7
 74
     1
 91
        4
 64
     7
 65
   257
 75
     1
175
     1
 42
1.0
 92
        8
 66
     7
 43
1.0
 76
     1
 77
     6
 78
     2
 67
     7
 79
     5
170
     0
171
     0
290
     0
174
     0
 93
        1
 44
50.0
173
     0
291
     1
 45
0.0
1001
ACAD
1000
AcDbSavedByObjectVersion
1070
     0
  0
VISUALSTYLE
  5
FF
102
{ACAD_XDICTIONARY
360
DE71
102
}
102
{ACAD_REACTORS
330
EF
102
}
330
EF
100
AcDbVisualStyle
  2
ColorChange
 70
    16
 71
     2
 72
     2
 73
     3
 90
        0
 40
-0.6
 41
-30.0
 62
     5
 63
     8
 74
     1
 91
        4
 64
     7
 65
   257
 75
     1
175
     1
 42
1.0
 92
        8
 66
     8
 43
1.0
 76
     1
 77
     6
 78
     2
 67
     7
 79
     5
170
     0
171
     0
290
     0
174
     0
 93
        1
 44
0.0
173
     0
291
     1
 45
0.0
1001
ACAD
1000
AcDbSavedByObjectVersion
1070
     0
  0
VISUALSTYLE
  5
F8
102
{ACAD_XDICTIONARY
360
DE63
102
}
102
{ACAD_REACTORS
330
EF
102
}
330
EF
100
AcDbVisualStyle
  2
Conceptual
 70
     9
 71
     3
 72
     2
 73
     1
 90
        0
 40
-0.6
 41
-30.0
 62
     5
 63
     7
 74
     2
 91
        2
 64
     7
 65
   257
 75
     1
175
     1
 42
40.0
 92
        8
 66
     7
 43
1.0
 76
     1
 77
     6
 78
     2
 67
     7
 79
     3
170
     0
171
     0
290
     0
174
     0
 93
        1
 44
0.0
173
     0
291
     0
 45
0.0
1001
ACAD
1000
AcDbSavedByObjectVersion
1070
     0
  0
VISUALSTYLE
  5
FA
102
{ACAD_XDICTIONARY
360
DE67
102
}
102
{ACAD_REACTORS
330
EF
102
}
330
EF
100
AcDbVisualStyle
  2
Dim
 70
    11
 71
     2
 72
     2
 73
     1
 90
        0
 40
-0.6
 41
-30.0
 62
     5
 63
     7
 74
     1
 91
        4
 64
     7
 65
   257
 75
     1
175
     1
 42
1.0
 92
        8
 66
     7
 43
1.0
 76
     1
 77
     6
 78
     2
 67
     7
 79
     5
170
     0
171
     0
290
     0
174
     0
 93
        1
 44
-50.0
173
     0
291
     1
 45
0.0
1001
ACAD
1000
AcDbSavedByObjectVersion
1070
     0
  0
VISUALSTYLE
  5
1E6
102
{ACAD_XDICTIONARY
360
DE79
102
}
102
{ACAD_REACTORS
330
EF
102
}
330
EF
100
AcDbVisualStyle
  2
EdgeColorOff
 70
    22
 71
     2
 72
     2
 73
     0
 90
        0
 40
-0.6
 41
-30.0
 62
     5
 63
     7
 74
     1
 91
        4
 64
     7
 65
   257
 75
     1
175
     1
 42
1.0
 92
        8
 66
     7
 43
1.0
 76
     1
 77
     6
 78
     2
 67
     7
 79
     5
170
     0
171
     0
290
     0
174
     0
 93
        1
 44
0.0
173
     0
291
     1
 45
0.0
1001
ACAD
1000
AcDbSavedByObjectVersion
1070
     0
  0
VISUALSTYLE
  5
FE
102
{ACAD_XDICTIONARY
360
DE6F
102
}
102
{ACAD_REACTORS
330
EF
102
}
330
EF
100
AcDbVisualStyle
  2
Facepattern
 70
    15
 71
     2
 72
     2
 73
     1
 90
        0
 40
-0.6
 41
-30.0
 62
     5
 63
     7
 74
     1
 91
        4
 64
     7
 65
   257
 75
     1
175
     1
 42
1.0
 92
        8
 66
     7
 43
1.0
 76
     1
 77
     6
 78
     2
 67
     7
 79
     5
170
     0
171
     0
290
     0
174
     0
 93
        1
 44
0.0
173
     0
291
     1
 45
0.0
1001
ACAD
1000
AcDbSavedByObjectVersion
1070
     0
  0
VISUALSTYLE
  5
F0
102
{ACAD_XDICTIONARY
360
DE53
102
}
102
{ACAD_REACTORS
330
EF
102
}
330
EF
100
AcDbVisualStyle
  2
Flat
 70
     0
 71
     2
 72
     1
 73
     1
 90
        2
 40
-0.6
 41
30.0
 62
     5
 63
     7
 74
     0
 91
        0
 64
     7
 65
   257
 75
     1
175
     1
 42
1.0
 92
        8
 66
     7
 43
1.0
 76
     1
 77
     6
 78
     2
 67
     7
 79
     5
170
     0
171
     0
290
     0
174
     0
 93
       13
 44
0.0
173
     0
291
     1
 45
0.0
1001
ACAD
1000
AcDbSavedByObjectVersion
1070
     0
  0
VISUALSTYLE
  5
F1
102
{ACAD_XDICTIONARY
360
DE55
102
}
102
{ACAD_REACTORS
330
EF
102
}
330
EF
100
AcDbVisualStyle
  2
FlatWithEdges
 70
     1
 71
     2
 72
     1
 73
     1
 90
        2
 40
-0.6
 41
30.0
 62
     5
 63
     7
 74
     1
 91
        0
 64
     7
 65
   257
 75
     1
175
     1
 42
1.0
 92
        0
 66
   257
 43
1.0
 76
     1
 77
     6
 78
     2
 67
     7
 79
     5
170
     0
171
     0
290
     0
174
     0
 93
       13
 44
0.0
173
     0
291
     1
 45
0.0
1001
ACAD
1000
AcDbSavedByObjectVersion
1070
     0
  0
VISUALSTYLE
  5
F2
102
{ACAD_XDICTIONARY
360
DE57
102
}
102
{ACAD_REACTORS
330
EF
102
}
330
EF
100
AcDbVisualStyle
  2
Gouraud
 70
     2
 71
     2
 72
     2
 73
     1
 90
        2
 40
-0.6
 41
30.0
 62
     5
 63
     7
 74
     0
 91
        0
 64
     7
 65
   257
 75
     1
175
     1
 42
1.0
 92
        0
 66
     7
 43
1.0
 76
     1
 77
     6
 78
     2
 67
     7
 79
     5
170
     0
171
     0
290
     0
174
     0
 93
       13
 44
0.0
173
     0
291
     1
 45
0.0
1001
ACAD
1000
AcDbSavedByObjectVersion
1070
     0
  0
VISUALSTYLE
  5
F3
102
{ACAD_XDICTIONARY
360
DE59
102
}
102
{ACAD_REACTORS
330
EF
102
}
330
EF
100
AcDbVisualStyle
  2
GouraudWithEdges
 70
     3
 71
     2
 72
     2
 73
     1
 90
        2
 40
-0.6
 41
30.0
 62
     5
 63
     7
 74
     1
 91
        0
 64
     7
 65
   257
 75
     1
175
     1
 42
1.0
 92
        0
 66
   257
 43
1.0
 76
     1
 77
     6
 78
     2
 67
     7
 79
     5
170
     0
171
     0
290
     0
174
     0
 93
       13
 44
0.0
173
     0
291
     1
 45
0.0
1001
ACAD
1000
AcDbSavedByObjectVersion
1070
     0
  0
VISUALSTYLE
  5
F7
102
{ACAD_XDICTIONARY
360
DE61
102
}
102
{ACAD_REACTORS
330
EF
102
}
330
EF
100
AcDbVisualStyle
  2
Hidden
 70
     6
 71
     1
 72
     2
 73
     2
 90
        0
 40
-0.6
 41
-30.0
 62
     5
 63
     7
 74
     2
 91
        2
 64
     7
 65
   257
 75
     2
175
     1
 42
40.0
 92
        0
 66
   257
 43
1.0
 76
     1
 77
     6
 78
     2
 67
     7
 79
     3
170
     0
171
     0
290
     0
174
     0
 93
        1
 44
0.0
173
     0
291
     0
 45
0.0
1001
ACAD
1000
AcDbSavedByObjectVersion
1070
     0
  0
VISUALSTYLE
  5
1E4
102
{ACAD_XDICTIONARY
360
DE75
102
}
102
{ACAD_REACTORS
330
EF
102
}
330
EF
100
AcDbVisualStyle
  2
JitterOff
 70
    20
 71
     2
 72
     2
 73
     0
 90
        0
 40
-0.6
 41
-30.0
 62
     5
 63
     7
 74
     1
 91
        4
 64
     7
 65
   257
 75
     1
175
     1
 42
1.0
 92
       10
 66
     7
 43
1.0
 76
     1
 77
     6
 78
     2
 67
     7
 79
     5
170
     0
171
     0
290
     0
174
     0
 93
        1
 44
0.0
173
     0
291
     1
 45
0.0
1001
ACAD
1000
AcDbSavedByObjectVersion
1070
     0
  0
VISUALSTYLE
  5
FD
102
{ACAD_XDICTIONARY
360
DE6D
102
}
102
{ACAD_REACTORS
330
EF
102
}
330
EF
100
AcDbVisualStyle
  2
Linepattern
 70
    14
 71
     2
 72
     2
 73
     1
 90
        0
 40
-0.6
 41
-30.0
 62
     5
 63
     7
 74
     1
 91
        4
 64
     7
 65
   257
 75
     7
175
     7
 42
1.0
 92
        8
 66
     7
 43
1.0
 76
     1
 77
     6
 78
     2
 67
     7
 79
     5
170
     0
171
     0
290
     0
174
     0
 93
        1
 44
0.0
173
     0
291
     1
 45
0.0
1001
ACAD
1000
AcDbSavedByObjectVersion
1070
     0
  0
VISUALSTYLE
  5
1E5
102
{ACAD_XDICTIONARY
360
DE77
102
}
102
{ACAD_REACTORS
330
EF
102
}
330
EF
100
AcDbVisualStyle
  2
OverhangOff
 70
    21
 71
     2
 72
     2
 73
     0
 90
        0
 40
-0.6
 41
-30.0
 62
     5
 63
     7
 74
     1
 91
        4
 64
     7
 65
   257
 75
     1
175
     1
 42
1.0
 92
        9
 66
     7
 43
1.0
 76
     1
 77
     6
 78
     2
 67
     7
 79
     5
170
     0
171
     0
290
     0
174
     0
 93
        1
 44
0.0
173
     0
291
     1
 45
0.0
1001
ACAD
1000
AcDbSavedByObjectVersion
1070
     0
  0
VISUALSTYLE
  5
F9
102
{ACAD_XDICTIONARY
360
DE65
102
}
102
{ACAD_REACTORS
330
EF
102
}
330
EF
100
AcDbVisualStyle
  2
Realistic
 70
     8
 71
     2
 72
     2
 73
     0
 90
        2
 40
-0.6
 41
30.0
 62
     5
 63
     7
 74
     0
 91
        0
 64
     7
 65
   257
 75
     1
175
     1
 42
1.0
 92
        8
 66
   257
 43
1.0
 76
     1
 77
     6
 78
     2
 67
     7
 79
     3
170
     0
171
     0
290
     0
174
     0
 93
       13
 44
0.0
173
     0
291
     0
 45
0.0
1001
ACAD
1000
AcDbSavedByObjectVersion
1070
     0
  0
VISUALSTYLE
  5
1F3
102
{ACAD_XDICTIONARY
360
DE83
102
}
102
{ACAD_REACTORS
330
EF
102
}
330
EF
100
AcDbVisualStyle
  2
Shaded
 70
    27
 71
     2
 72
     2
 73
     1
 90
        2
 40
-0.6
 41
30.0
 62
     5
 63
     7
 74
     0
 91
        4
 64
     7
 65
   257
 75
     1
175
     1
 42
1.0
 92
        8
 66
   257
 43
1.0
 76
     1
 77
     6
 78
     2
 67
     8
 79
     3
170
     0
171
     0
290
     0
174
     0
 93
        5
 44
0.0
173
     0
291
     0
 45
0.0
1001
ACAD
1000
AcDbSavedByObjectVersion
1070
     0
  0
VISUALSTYLE
  5
1F2
102
{ACAD_XDICTIONARY
360
DE81
102
}
102
{ACAD_REACTORS
330
EF
102
}
330
EF
100
AcDbVisualStyle
  2
Shaded with edges
 70
    26
 71
     2
 72
     2
 73
     1
 90
        2
 40
-0.6
 41
30.0
 62
     5
 63
     7
 74
     1
 91
        2
 64
     7
 65
   257
 75
     2
175
     1
 42
1.0
 92
        8
 66
   257
 43
1.0
 76
     1
 77
     6
 78
     2
 67
     7
 79
     3
170
     0
171
     0
290
     0
174
     0
 93
        5
 44
0.0
173
     0
291
     0
 45
0.0
1001
ACAD
1000
AcDbSavedByObjectVersion
1070
     0
  0
VISUALSTYLE
  5
1EF
102
{ACAD_XDICTIONARY
360
DE7B
102
}
102
{ACAD_REACTORS
330
EF
102
}
330
EF
100
AcDbVisualStyle
  2
Shades of Gray
 70
    23
 71
     2
 72
     2
 73
     3
 90
        0
 40
-0.6
 41
-30.0
 62
     5
 63
     7
 74
     2
 91
        2
 64
     7
 65
     7
 75
     1
175
     1
 42
40.0
 92
        8
 66
     7
 43
1.0
 76
     1
 77
     6
 78
     2
 67
     7
 79
     3
170
     0
171
     0
290
     0
174
     0
 93
        1
 44
0.0
173
     0
291
     0
 45
0.0
1001
ACAD
1000
AcDbSavedByObjectVersion
1070
     0
  0
VISUALSTYLE
  5
1F0
102
{ACAD_XDICTIONARY
360
DE7D
102
}
102
{ACAD_REACTORS
330
EF
102
}
330
EF
100
AcDbVisualStyle
  2
Sketchy
 70
    24
 71
     1
 72
     2
 73
     2
 90
        0
 40
-0.6
 41
-30.0
 62
     5
 63
     7
 74
     2
 91
        2
 64
     7
 65
     7
 75
     1
175
     1
 42
40.0
 92
       11
 66
     7
 43
1.0
 76
     1
 77
     6
 78
     2
 67
     7
 79
     6
170
     0
171
     0
290
     0
174
     0
 93
        1
 44
0.0
173
     0
291
     0
 45
0.0
1001
ACAD
1000
AcDbSavedByObjectVersion
1070
     0
  0
VISUALSTYLE
  5
FC
102
{ACAD_XDICTIONARY
360
DE6B
102
}
102
{ACAD_REACTORS
330
EF
102
}
330
EF
100
AcDbVisualStyle
  2
Thicken
 70
    13
 71
     2
 72
     2
 73
     1
 90
        0
 40
-0.6
 41
-30.0
 62
     5
 63
     7
 74
     1
 91
        4
 64
     7
 65
   257
 75
     1
175
     1
 42
1.0
 92
       12
 66
     7
 43
1.0
 76
     1
 77
     6
 78
     2
 67
     7
 79
     5
170
     0
171
     0
290
     0
174
     0
 93
        1
 44
0.0
173
     0
291
     1
 45
0.0
1001
ACAD
1000
AcDbSavedByObjectVersion
1070
     0
  0
VISUALSTYLE
  5
F6
102
{ACAD_XDICTIONARY
360
DE5F
102
}
102
{ACAD_REACTORS
330
EF
102
}
330
EF
100
AcDbVisualStyle
  2
Wireframe
 70
     5
 71
     0
 72
     2
 73
     0
 90
        0
 40
-0.6
 41
-30.0
 62
     5
 63
     7
 74
     1
 91
        4
 64
     7
 65
   257
 75
     1
175
     1
 42
1.0
 92
        0
 66
   257
 43
1.0
 76
     1
 77
     6
 78
     2
 67
     7
 79
     3
170
     0
171
     0
290
     0
174
     0
 93
        1
 44
0.0
173
     0
291
     0
 45
0.0
1001
ACAD
1000
AcDbSavedByObjectVersion
1070
     0
  0
VISUALSTYLE
  5
1F1
102
{ACAD_XDICTIONARY
360
DE7F
102
}
102
{ACAD_REACTORS
330
EF
102
}
330
EF
100
AcDbVisualStyle
  2
X-Ray
 70
    25
 71
     2
 72
     2
 73
     1
 90
        1
 40
0.5
 41
-30.0
 62
     5
 63
     7
 74
     1
 91
        0
 64
     7
 65
   257
 75
     1
175
     1
 42
1.0
 92
        8
 66
     7
 43
1.0
 76
     1
 77
     6
 78
     2
 67
     7
 79
     3
170
     0
171
     0
290
     0
174
     0
 93
       13
 44
0.0
173
     0
291
     0
 45
0.0
1001
ACAD
1000
AcDbSavedByObjectVersion
1070
     0
  0
DICTIONARYVAR
  5
146
102
{ACAD_REACTORS
330
5E
102
}
330
5E
100
DictionaryVariables
280
     0
  1
1:1
  0
DICTIONARYVAR
  5
259
102
{ACAD_REACTORS
330
5E
102
}
330
5E
100
DictionaryVariables
280
     0
  1
3.500000
  0
DICTIONARYVAR
  5
25A
102
{ACAD_REACTORS
330
5E
102
}
330
5E
100
DictionaryVariables
280
     0
  1
acadiso.lin
  0
DICTIONARYVAR
  5
145
102
{ACAD_REACTORS
330
5E
102
}
330
5E
100
DictionaryVariables
280
     0
  1
STANDARD
  0
DICTIONARYVAR
  5
84
102
{ACAD_REACTORS
330
5E
102
}
330
5E
100
DictionaryVariables
280
     0
  1
STANDARD
  0
DICTIONARYVAR
  5
227
102
{ACAD_REACTORS
330
5E
102
}
330
5E
100
DictionaryVariables
280
     0
  1
Metric50
  0
DICTIONARYVAR
  5
228
102
{ACAD_REACTORS
330
5E
102
}
330
5E
100
DictionaryVariables
280
     0
  1
Metric50
  0
DICTIONARYVAR
  5
5F
102
{ACAD_REACTORS
330
5E
102
}
330
5E
100
DictionaryVariables
280
     0
  1
2
  0
DICTIONARYVAR
  5
63
102
{ACAD_REACTORS
330
5E
102
}
330
5E
100
DictionaryVariables
280
     0
  1
1
  0
DICTIONARYVAR
  5
DDF4
102
{ACAD_REACTORS
330
5E
102
}
330
5E
100
DictionaryVariables
280
     0
  1
0
  0
DICTIONARYVAR
  5
1AE
102
{ACAD_REACTORS
330
5E
102
}
330
5E
100
DictionaryVariables
280
     0
  1
0
  0
DICTIONARYVAR
  5
1AF
102
{ACAD_REACTORS
330
5E
102
}
330
5E
100
DictionaryVariables
280
     0
  1
0
  0
DICTIONARYVAR
  5
DDF2
102
{ACAD_REACTORS
330
5E
102
}
330
5E
100
DictionaryVariables
280
     0
  1
2
  0
DICTIONARYVAR
  5
DDF1
102
{ACAD_REACTORS
330
5E
102
}
330
5E
100
DictionaryVariables
280
     0
  1
1
  0
DICTIONARYVAR
  5
DE44
102
{ACAD_REACTORS
330
5E
102
}
330
5E
100
DictionaryVariables
280
     0
  1
80.000000
  0
DICTIONARYVAR
  5
DE43
102
{ACAD_REACTORS
330
5E
102
}
330
5E
100
DictionaryVariables
280
     0
  1
5.000000
  0
DICTIONARYVAR
  5
DDF3
102
{ACAD_REACTORS
330
5E
102
}
330
5E
100
DictionaryVariables
280
     0
  1
127
  0
DICTIONARYVAR
  5
DE45
102
{ACAD_REACTORS
330
5E
102
}
330
5E
100
DictionaryVariables
280
     0
  1
2
  0
DICTIONARY
  5
DE87
330
21C
100
AcDbDictionary
280
     1
281
     1
  3
ACAD_XREC_ROUNDTRIP
360
DE88
  0
DICTIONARY
  5
DE4C
330
D3
100
AcDbDictionary
280
     1
281
     1
  3
ACAD_XREC_ROUNDTRIP
360
DE4D
  0
DICTIONARY
  5
DE4E
330
D7
100
AcDbDictionary
280
     1
281
     1
  3
ACAD_XREC_ROUNDTRIP
360
DE4F
  0
DICTIONARY
  5
DE49
330
22
100
AcDbDictionary
280
     1
281
     1
  3
ACAD_XREC_ROUNDTRIP
360
DE4A
  0
DICTIONARY
  5
1F9
330
ED
100
AcDbDictionary
280
     1
281
     1
  3
ACAD_XREC_ROUNDTRIP
360
DE51
  3
FBXASSET
360
1FA
  0
DICTIONARY
  5
1F7
330
EC
100
AcDbDictionary
280
     1
281
     1
  3
ACAD_XREC_ROUNDTRIP
360
DE50
  3
FBXASSET
360
1F8
  0
DICTIONARY
  5
173
330
EE
100
AcDbDictionary
280
     1
281
     1
  3
ACAD_XREC_ROUNDTRIP
360
DE52
  3
BUMPTILE
360
175
  3
DIFFUSETILE
360
174
  3
FBXASSET
360
1FB
  3
OPACITYTILE
360
176
  3
REFLECTIONTILE
360
177
  0
DICTIONARY
  5
DE73
330
12E
100
AcDbDictionary
280
     1
281
     1
  3
ACAD_XREC_ROUNDTRIP
360
DE74
  0
DICTIONARY
  5
DE85
330
21A
100
AcDbDictionary
280
     1
281
     1
  3
ACAD_XREC_ROUNDTRIP
360
DE86
  0
DICTIONARY
  5
162
330
7F
100
AcDbDictionary
280
     1
281
     1
  3
ACAD_ROUNDTRIP_2008_TABLESTYLE_CELLSTYLEMAP
360
DE46
  3
ACAD_XREC_ROUNDTRIP
360
DE4B
  0
DICTIONARY
  5
DE5D
330
F5
100
AcDbDictionary
280
     1
281
     1
  3
ACAD_XREC_ROUNDTRIP
360
DE5E
  0
DICTIONARY
  5
DE5B
330
F4
100
AcDbDictionary
280
     1
281
     1
  3
ACAD_XREC_ROUNDTRIP
360
DE5C
  0
DICTIONARY
  5
DE69
330
FB
100
AcDbDictionary
280
     1
281
     1
  3
ACAD_XREC_ROUNDTRIP
360
DE6A
  0
DICTIONARY
  5
DE71
330
FF
100
AcDbDictionary
280
     1
281
     1
  3
ACAD_XREC_ROUNDTRIP
360
DE72
  0
DICTIONARY
  5
DE63
330
F8
100
AcDbDictionary
280
     1
281
     1
  3
ACAD_XREC_ROUNDTRIP
360
DE64
  0
DICTIONARY
  5
DE67
330
FA
100
AcDbDictionary
280
     1
281
     1
  3
ACAD_XREC_ROUNDTRIP
360
DE68
  0
DICTIONARY
  5
DE79
330
1E6
100
AcDbDictionary
280
     1
281
     1
  3
ACAD_XREC_ROUNDTRIP
360
DE7A
  0
DICTIONARY
  5
DE6F
330
FE
100
AcDbDictionary
280
     1
281
     1
  3
ACAD_XREC_ROUNDTRIP
360
DE70
  0
DICTIONARY
  5
DE53
330
F0
100
AcDbDictionary
280
     1
281
     1
  3
ACAD_XREC_ROUNDTRIP
360
DE54
  0
DICTIONARY
  5
DE55
330
F1
100
AcDbDictionary
280
     1
281
     1
  3
ACAD_XREC_ROUNDTRIP
360
DE56
  0
DICTIONARY
  5
DE57
330
F2
100
AcDbDictionary
280
     1
281
     1
  3
ACAD_XREC_ROUNDTRIP
360
DE58
  0
DICTIONARY
  5
DE59
330
F3
100
AcDbDictionary
280
     1
281
     1
  3
ACAD_XREC_ROUNDTRIP
360
DE5A
  0
DICTIONARY
  5
DE61
330
F7
100
AcDbDictionary
280
     1
281
     1
  3
ACAD_XREC_ROUNDTRIP
360
DE62
  0
DICTIONARY
  5
DE75
330
1E4
100
AcDbDictionary
280
     1
281
     1
  3
ACAD_XREC_ROUNDTRIP
360
DE76
  0
DICTIONARY
  5
DE6D
330
FD
100
AcDbDictionary
280
     1
281
     1
  3
ACAD_XREC_ROUNDTRIP
360
DE6E
  0
DICTIONARY
  5
DE77
330
1E5
100
AcDbDictionary
280
     1
281
     1
  3
ACAD_XREC_ROUNDTRIP
360
DE78
  0
DICTIONARY
  5
DE65
330
F9
100
AcDbDictionary
280
     1
281
     1
  3
ACAD_XREC_ROUNDTRIP
360
DE66
  0
DICTIONARY
  5
DE83
330
1F3
100
AcDbDictionary
280
     1
281
     1
  3
ACAD_XREC_ROUNDTRIP
360
DE84
  0
DICTIONARY
  5
DE81
330
1F2
100
AcDbDictionary
280
     1
281
     1
  3
ACAD_XREC_ROUNDTRIP
360
DE82
  0
DICTIONARY
  5
DE7B
330
1EF
100
AcDbDictionary
280
     1
281
     1
  3
ACAD_XREC_ROUNDTRIP
360
DE7C
  0
DICTIONARY
  5
DE7D
330
1F0
100
AcDbDictionary
280
     1
281
     1
  3
ACAD_XREC_ROUNDTRIP
360
DE7E
  0
DICTIONARY
  5
DE6B
330
FC
100
AcDbDictionary
280
     1
281
     1
  3
ACAD_XREC_ROUNDTRIP
360
DE6C
  0
DICTIONARY
  5
DE5F
330
F6
100
AcDbDictionary
280
     1
281
     1
  3
ACAD_XREC_ROUNDTRIP
360
DE60
  0
DICTIONARY
  5
DE7F
330
1F1
100
AcDbDictionary
280
     1
281
     1
  3
ACAD_XREC_ROUNDTRIP
360
DE80
  0
XRECORD
  5
DE88
102
{ACAD_REACTORS
330
DE87
102
}
330
DE87
100
AcDbXrecord
280
     1
102
DISPLAYNAME
  1
Metric50
102
FLAGS
 90
        0
  0
XRECORD
  5
DE4D
102
{ACAD_REACTORS
330
DE4C
102
}
330
DE4C
100
AcDbXrecord
280
     1
102
SHADEPLOT
 70
     0
102
SHADEPLOTRESLEVEL
 70
     2
102
SHADEPLOTCUSTOMDPI
 70
   300
  0
XRECORD
  5
DE4F
102
{ACAD_REACTORS
330
DE4E
102
}
330
DE4E
100
AcDbXrecord
280
     1
102
SHADEPLOT
 70
     0
102
SHADEPLOTRESLEVEL
 70
     2
102
SHADEPLOTCUSTOMDPI
 70
   300
  0
XRECORD
  5
DE4A
102
{ACAD_REACTORS
330
DE49
102
}
330
DE49
100
AcDbXrecord
280
     1
102
SHADEPLOT
 70
     0
102
SHADEPLOTRESLEVEL
 70
     2
102
SHADEPLOTCUSTOMDPI
 70
   300
  0
XRECORD
  5
DE51
102
{ACAD_REACTORS
330
1F9
102
}
330
1F9
100
AcDbXrecord
280
     1
102
MATERIAL
148
0.0
149
0.0
149
0.0
 93
        0
 94
       63
282
     0
 72
     1
 77
     1
171
     1
175
     1
179
     1
273
     0
  0
XRECORD
  5
1FA
102
{ACAD_REACTORS
330
1F9
102
}
330
1F9
100
AcDbXrecord
280
     1
 70
     1
 90
429727718
  1
D62C5603-E3A1-4AEA-B7FB-FE5D8D0755AF
310
504B03040A0000080000CC70623B3DEE336E79000000790000001B0000006175746F6465736B2D64657369676E2D7061636B6167652E786D6C3C3F786D6C2076657273696F6E3D22312E302220656E636F64696E673D227574662D3822203F3E3C666F726D6174733E3C666F726D61743E687474703A2F2F736368656D612E
310
6175746F6465736B2E636F6D2F64657369676E2D7061636B6167652F323030393C2F666F726D61743E3C2F666F726D6174733E504B0304140006080800CC70623BD486FD9CA0000000F4000000130000005B436F6E74656E745F54797065735D2E786D6C7D8EC10E82300C865F65E91D8A1E8C310C0EEA1BF002731658846E
310
D98AC1B77784ABF1D8FE5FBFBF75BBCE937A534CCEB38643598122B6FEE978D0B0485F9C41B54DDD7D022595594E1A469170414C76A4D9A4D207E29CF43ECE46F218070CC6BECC4078ACAA135ACF422C856C0E68EA1BF5669944DDD7BCDE7B1F8E415D77AECB980613C2E4AC91FC167A2B244592486606FC29C8FD7F045B9A
310
EF7053A7E60B504B0304140006080800CC70623B853B8169EB0000007C01000008000000636F72652E786D6C8D90416EC3201045AF62CDB6C206821CC7C244919D9CA01740401C94182C03558F5F9C3852BBEB6A467FFE9B197D7EFC9E1EC5975982F5AE035262288C535E5B377690E21535501C055FBC8FBF6C503839990E
310
5619041F179FE64D52DE45E362569DD7661365082642A11EB9E920A89B99642953CC8E702F67A9EE7234257977194EC9EAE275C4EABCCF5EAD5940D4AC6F0E35A568B8F43562CD7046CD199FD07E60174276A7BE677B5EADB0E0D14EEFFB6A31321A0D82627C4084204C3F096B71DD52F6819B16635EADF63F509AF53FA164
310
5DDCD1EDDD17164090FCC8732078B56691CB33A85CD7DCC40F504B0304140006080800CC70623B55019EA25F0000007C00000007000000636E782E786D6C4DCB3B0E80201045D1AD90E915ED2CF8AC45050C11660C8261F98AB1B07AC9C97D42D718D865D3E909258CFD00CCE24AC6E326A164D74DC0B4128928FF32603847
310
2BA13128B1252AC747C6BAB984FC68F0B87FE8960A5C09FE86CFB69FBA01504B0304140006080800CC70623BDBABAAF470010000D40300000C0000006662782F636F72652E786D6CC553D16E823014FD95A6AF4B694182CC941A83FA05FB810A9511A125A5257EFE2E82712ECEB8A7F100CD39F7F69E734AF9FADC366850B6
310
AF8DCE7018308C942E4C59EB2AC3DE1D498AD15A706B8CFB56869196ADCAF00863C12B6B7C374385D14E6907A836A59A41D9F7CA615434B0C8705F7CAA5606D23BA8E84F41278B93AC54100640439DE0BDB320004D43C63716C7C399D30917DCFBBA9CD9BA8469F5B156168B24CED3F7248AC8769F27244EB73B92EED8862C
310
B7F13E0C179B3C8F979C8ECD82BBBABDAA2BAC924E9558448CBD9330242CFA08E3154B5651FCC6D215639C8EE5774DBE2B5F6CF2B5768B68963BB5F5588420E442FC700B1139D4CB01F450C1E918227C2E09DF070D8140C84E1E9AAB8F1340832A9CB13130A5F1376A908D57309505ECF2A0DF179C4E9D30F5B239B87E3823
310
7A79C6F31DE1A8A5AEC08474B03C7837EAE4938639B44E5932B833D2C6B6B279CDC613877FA26EE21F4A2A4C63EC7F29A2F301D1F9F7A0E37D145F504B0304140006080800CC70623B9C113CC27E0000009D0000000B0000006662782F636E782E786D6C4DCCDF0A83201C86E15B91DFB94BFB330DD428C8FB886521330DA7
310
6397BF1A1DECE883878F57749FCDA1B7892F1BBC047A23808C7F84D9FA55424E0BE6803A256208E9EF06C84F9B91703228B1C690F78B66B34CD9A5439DF5CF0BFBF65E35BCA1B8D6A5C6F540381E886698B5741C695F9503EBA150A2F8958E3DC3EA0B504B0304140006080800CC70623B7DF2F77C2A010000120200003100
310
00006662782F41393633353835312D344632462D344230382D423046372D3739314545314133324237412F636F72652E786D6C8D51DB8EC22014FC15C2939B0D2DB4B45643319AE817EC0F6041255A68B86CFCFC856D4D76DF7CE190393373060EDB3DC707F856CE6B6B7A480A0C81328395DA5C7B18C3057510EC3873D686
310
3F34088C18550F330C39BB3A1BA7051AAC09CA84841A2BD5020AEF55806078A44B0FFD7053A328440C89E1EFC52486BBB8AA8214A99D789CF9E05200300FC927E4FB4D5B375D43103D5527440FB843077C5AA3F5861C8F645F5787F59E95B390B318B55CE45AA638FAA2957BD7248B390B7A7CC51F9C124149C82B8C378810
310
84AB2F42B7B8DD56F413775B8C5999E9FF4471926F8AA236A1AE96B8B3CC434E5839373893369E1FAF30EA395917409EB7F26AF8801C171837A4A6AC9C89E9F9C9B1A58BA30FD6A5EF5DDDCF894B9AD9B6A59C957943A9FCAE2FD5BC4DFE03504B0304140006080800CC70623BAD7543B64E01000033030000300000006662
310
782F41393633353835312D344632462D344230382D423046372D3739314545314133324237412F636E782E786D6CD593CD6EC32010845F0571AD6CE3D48AD20813A9873E410FBD12D82434182C7EAAE6EDBB2424CD25871E7B41D6EC30B3FA84F9E67BB2E40B4234DE8DB46F1925E094D7C6ED479AD3AE5951B2113C789FEE
310
6C943839C1488B4C05DF079FE72A69D8C96C13AAD6B8631503449F83828872B949AC57D26200B826A308D316B4064D6E46FCDA41C05550DC9E483A00797BFD207EFB092A45DE9514C1BBD22178396BD39D891265658C238DEA00936C654E5E433CB65A26D9F6EDB5EBC14EBF49A45CB856E66048291F6939A9A81BB5C89177
310
38143CA680F4AA299D66A042CEB3354A2684DC9D8D178FE0D9B8B41CAAD720F880EE7EF93C0C18769E099ECC04D5A102C8049A8A05632F4DDF376CF1DE0F6BB65C2F8627B65A33C6BB62177CEBBDAD973006829F89F22E814B54F4BC2BE347F8AA8F681390B50FA73F804400B5F542E796F19FF974E7F78DB802FE05E20750
310
4B0304140006080800CC70623BE75B7789680500003C100000340000006662782F41393633353835312D344632462D344230382D423046372D3739314545314133324237412F6F626A656374732E786D6CAD575B8F9B3818FD2B887D06C22499CB8AA1CA655245D5B455A356FB305264C061D8018C6C3393D95FBFC7600890
310
A4CD5EF210B0B1BFEBF98E3F7B1FF6596ABC522E1296DF9BAE3D320D9A872C4AF2F8DE2CE5CEBA358D0FBEC719939D65A691938CDE9B6ADAF4BD98B3B2D05311DD91329583D9D5FC0F438434A7A611A644887B5384CF34233629258BA878B12322891DEFF6B66BD70BFB62634E8AE781D082709A4B588AF91C528CDA28B73F
310
1C998EEF39EABBEFA97FBD6A7C7E9553F9D3D79FE442923C3C523610337627CB87ABE99D359D4CC6D6E4FACAB5E6ABF9D2726FC6A3C5F56271377BB88362213924694B38DD99FE47C48627A1E7D49F5A8BB5E1A74C0A599ED3B0F21F1E56366B89112D681E218F0915D0D6F17AD41FBA2A369DCF6335D62ABBD39779D5DDD1
310
11D4D8DE3CBB96B2E04FB8202E41051754A1AA8E8F76B4C6DFE810B580B1547F4B84911149794252234D024EF8BBE963A95AE27B3D310A9D5C215C7960FAEE415ED75694C6AFB17BCACA5D99A60A9AA65F217B0BFC53292ACB92BF283FAD0D3621576592CB5BED907C2FA8E9DF794E35E97BEA31BED21FEB401ABB94C44839
310
DCACBF0E1C5DA8DA5B2F4DFFD32AD86F543D9E565E7056502E157C00AD2671CD534549AB752FCA9CDA00677A313F04E51B22FF19E57B300579E3C97EB29F682D92935CEC18CF901B7B54FD8C51F362B56FC72FE0B3C1EAE335EDCCBF5AEC39ADB17DC238973F804BA5E6F6BFE7AF1FB32E523BE9F3BD571418E3631DCA4D48
310
5250CF639223210A9446CA30052EDF057BD35F8329C1ECD84552BF0DC8D18BE7BCE23BFE6BD960AB4A7DE79923A103BEBD80F911CBAA2C60DB19B01CF164A5583B772EE6D3FFA56666CBCDA74DC97724A48F9A58967497E489C4D979006FD7A05E227A1EBDD0F737C623387A9C844D3709995625106D157315F8B8392CD4E0
310
A0B9A720C4BE9829CEF37EA1E13111214D53925356365ADA634861B52519DD27A00AEB808EAF0628E6F435519D446F45CF2C9CF5214F0A15B2F6D06B79DA3EE3CBF7F56780D2F4E7EF73A0F5E5B02A38D07DC852C6B7C1FBB6664213E0C39E3EBA7FF4E1AD23EA2829407C85E586727488B751B2DB9502BC7B228A3FD68B6E
310
A65A22397E690AA8D158D7E404EC8CDA235CC3B7D1898680131CEC2CDF2638C65196279577750F15884AEE19F94199155B92B13297978469D4F8D358DF0AEF7631E28DC8F0D9F437D5D39A83B2231A1D52D543813A824EF8D44BCFF2FA6A31BD1E8DAD87F1CCB526B3879935BF59CDADD5C37479BB1CDD4CA7B3556B516589
310
EF352754B706114D9C885EC9131DE6EFEB43D99AFE2391C2F958179413D7CFEF6B1B6DB1E7600F00DE6E5C67454A339A4BA2E0FBA85ED26F045D454F463DBFCE484C2F90F2E5E3666003662ED8F755951A7D1BECD5B30B550B2785C8E7320B7292A4838DDA71BBC863ED7613CAF659337A3354231D4FF4A182A54904C2898C
310
98B28C4AD0CE056CCF332A80986E571EE9DBC305BB5FEB7E509220A58D25CF042D712A806AC0AD0C657FDEF80D2D9CEAA2EE4D1C76F60BFE74219A06527D6F82DF6412526107381E55E353090704D085B52408A8913C4ED159D79BDA71BB4BC506F4831350EB6F975CD22D69BF7AC49B91A2C0A9DDA3D5CA36AD20FC478E37
310
E61844E2352865EBCB61A275A65283CAAA9DD27703B4102F5AF51EF5F573B75CBB5AD38BC845F7A49F82A0966A49C2E3EA5EA0ECD326CD965F1DB402C6FA8B51A4658C5C5E2EC9E214602E55810345408596591009A82E7E7FFACA19EEA299B14A0081A705CB3296EBC14CDF658DCD336EA6D1136881AAEB87B81AB9EE53D5
310
F5EB8BC8362082DA24122F98680A4E7930C01A0079749CEA14382A0783E5EBA5A10F8C098456A03D6A4AEB6BB881E2513747552A5DB22C7EDAF83BD5528081A365F7FF06504B0304140006080000CC70623B000000000000000000000000350000006662782F41393633353835312D344632462D344230382D423046372D37
310
39314545314133324237412F76657274696365732E62696E504B0304140006080800CC70623BF270F1330600000004000000360000006662782F41393633353835312D344632462D344230382D423046372D3739314545314133324237412F747269616E676C65732E62696E636660600000504B0304140006080000CC7062
310
3B000000000000000000000000370000006662782F41393633353835312D344632462D344230382D423046372D3739314545314133324237412F617474726962757465732E62696E504B0304140006080800CC70623B08DA0BD19000000041010000360000006662782F41393633353835312D344632462D344230382D4230
310
46372D3739314545314133324237412F6469726563746F72792E786D6C858F410AC3201045AF22B36F53E9A60B35CBEEBAE80D244E44489C6234F4F835464A48035D0DF398FF9F8AF63D0E6CC63039F212F8F9020C7D47C6792B21C5FE7403D62A1188E2E60C98D7234A5830286103A55745067B9D86B8A3CF9C7F90C11DE6
310
07FB144396D7B6A82D282E9A152AD114D5EF2CB866EEE831B8EEA07A7BB5A8D7D61A2BAAEB7FD5F70921FF497D00504B0304140006080800CC70623BEDD1DC58FD000000A00100003B0000006662782F41393633353835312D344632462D344230382D423046372D3739314545314133324237412F7265736F75726365732F
310
636F72652E786D6C8D504B6E833010BD0A9A6D65B00922041947112427E8052C33A156828DFCA97AFC9A40A576D7CDCCE87D344F8F9FBFE667F689CE6B6B3A6039850C8DB2A336530731DC4903D95970676DF82583CCC8193B5861107C72362E3BA4AC096842428D1D7107A5F7182053CF7474E0D507CE32973124857FE48B
310
540F3961CEF244279DE03EB81420DB9EAC1384436FA353E879B1B182C7A8C75DA3C7F453DF353A1075D537A7BA6464B8F535A99AE14A9A2BBD90E350DD183B5CFABE3AF262350B1EF4FC9351399401471025A527C218A1E53BAB5A5AB765F5469B96525EACF23FA6B88CFF34456DC2A1DCE36E360F82A5202F42F062ED2BAD
310
579969AFDD8A6F504B010214000A0000080000CC70623B3DEE336E79000000790000001B00000000000000000000000000000000006175746F6465736B2D64657369676E2D7061636B6167652E786D6C504B01021400140006080800CC70623BD486FD9CA0000000F40000001300000000000000000000000000B20000005B
310
436F6E74656E745F54797065735D2E786D6C504B01021400140006080800CC70623B853B8169EB0000007C010000080000000000000000000000000083010000636F72652E786D6C504B01021400140006080800CC70623B55019EA25F0000007C000000070000000000000000000000000094020000636E782E786D6C504B
310
01021400140006080800CC70623BDBABAAF470010000D40300000C00000000000000000000000000180300006662782F636F72652E786D6C504B01021400140006080800CC70623B9C113CC27E0000009D0000000B00000000000000000000000000B20400006662782F636E782E786D6C504B01021400140006080800CC70
310
623B7DF2F77C2A010000120200003100000000000000000000000000590500006662782F41393633353835312D344632462D344230382D423046372D3739314545314133324237412F636F72652E786D6C504B01021400140006080800CC70623BAD7543B64E010000330300003000000000000000000000000000D2060000
310
6662782F41393633353835312D344632462D344230382D423046372D3739314545314133324237412F636E782E786D6C504B01021400140006080800CC70623BE75B7789680500003C10000034000000000000000000000000006E0800006662782F41393633353835312D344632462D344230382D423046372D3739314545
310
314133324237412F6F626A656374732E786D6C504B01021400140006080000CC70623B0000000000000000000000003500000000000000000000000000280E00006662782F41393633353835312D344632462D344230382D423046372D3739314545314133324237412F76657274696365732E62696E504B01021400140006
310
080800CC70623BF270F133060000000400000036000000000000000000000000007B0E00006662782F41393633353835312D344632462D344230382D423046372D3739314545314133324237412F747269616E676C65732E62696E504B01021400140006080000CC70623B0000000000000000000000003700000000000000
310
000000000000D50E00006662782F41393633353835312D344632462D344230382D423046372D3739314545314133324237412F617474726962757465732E62696E504B01021400140006080800CC70623B08DA0BD1900000004101000036000000000000000000000000002A0F00006662782F41393633353835312D344632
310
462D344230382D423046372D3739314545314133324237412F6469726563746F72792E786D6C504B01021400140006080800CC70623BEDD1DC58FD000000A00100003B000000000000000000000000000E1000006662782F41393633353835312D344632462D344230382D423046372D3739314545314133324237412F7265
310
736F75726365732F636F72652E786D6C504B0506000000000E000E0080040000641100000000
  0
XRECORD
  5
DE50
102
{ACAD_REACTORS
330
1F7
102
}
330
1F7
100
AcDbXrecord
280
     1
102
MATERIAL
148
0.0
149
0.0
149
0.0
 93
        0
 94
       63
282
     0
 72
     1
 77
     1
171
     1
175
     1
179
     1
273
     0
  0
XRECORD
  5
1F8
102
{ACAD_REACTORS
330
1F7
102
}
330
1F7
100
AcDbXrecord
280
     1
 70
     1
 90
429727718
  1
30362254-06B7-45E0-A893-8CFA70E3D6BC
310
504B03040A0000080000CC70623B3DEE336E79000000790000001B0000006175746F6465736B2D64657369676E2D7061636B6167652E786D6C3C3F786D6C2076657273696F6E3D22312E302220656E636F64696E673D227574662D3822203F3E3C666F726D6174733E3C666F726D61743E687474703A2F2F736368656D612E
310
6175746F6465736B2E636F6D2F64657369676E2D7061636B6167652F323030393C2F666F726D61743E3C2F666F726D6174733E504B0304140006080800CC70623BD486FD9CA0000000F4000000130000005B436F6E74656E745F54797065735D2E786D6C7D8EC10E82300C865F65E91D8A1E8C310C0EEA1BF002731658846E
310
D98AC1B77784ABF1D8FE5FBFBF75BBCE937A534CCEB38643598122B6FEE978D0B0485F9C41B54DDD7D022595594E1A469170414C76A4D9A4D207E29CF43ECE46F218070CC6BECC4078ACAA135ACF422C856C0E68EA1BF5669944DDD7BCDE7B1F8E415D77AECB980613C2E4AC91FC167A2B244592486606FC29C8FD7F045B9A
310
EF7053A7E60B504B0304140006080800CC70623B1EC5D7A3EB0000007C01000008000000636F72652E786D6C8D90416EC3201045AF82665B6103C6756C6122AB4D4ED00B204C5C94182C03558F5F9C3852BBEB6A467FFE9B197D71FC9E6FE8CBACC17AD7032D0820E3B41FAD9B7A48F1820F808E52ACDEC75F36404ECDA687
310
4D0629A6D5A76597B477D1B89855E747B38B2A041301E95B6E7A08FAD3CCAA50296647B8168BD2573599823EBB0CA76447F43862C7BCCF5EAC59410E4DDD9C7973C2755553CCCFA4C603E3040F1565ED3B1FDE4E432BCA0D9622DAF9795FAF464533826484B498524CD807E51D79ED187F21878E10516EF63F505AC67F42C9
310
BA58B1FDDD071640D2FCC87D2045B96591CB3DA85CB7DCE40F504B0304140006080800CC70623B55019EA25F0000007C00000007000000636E782E786D6C4DCB3B0E80201045D1AD90E915ED2CF8AC45050C11660C8261F98AB1B07AC9C97D42D718D865D3E909258CFD00CCE24AC6E326A164D74DC0B4128928FF32603847
310
2BA13128B1252AC747C6BAB984FC68F0B87FE8960A5C09FE86CFB69FBA01504B0304140006080800CC70623B8C9102E971010000D40300000C0000006662782F636F72652E786D6CC5535B6E833010BC8AE5DF0A6C08340F1947A84D4ED00B38C6A128602363A31CBFCB234A53A551FA553EC09AD9F5CE8C31DB9E9B1AF5CA
310
7695D1198E428A91D2D214952E33ECDD315861B4E5CC1AE3BE9561A445A3323CC098B3D21ADFCE9034DA29ED00D5A6503328BA4E398C640D8B0C77F253352214DE4145770A5B214FA2546114020D759C75CE8200340D19DE981F0F6746269C33EFAB6266AB02A655C74A59CCF365BADC27CB5D902ED22848F6340DF238A141
310
BE88E2F57B92BFEDF23523433367AE6A2EEAA455C2A902F398D2751045018D3FA264435F3771F242571B4A1919CA6F9A7C5B3CD9E42BED16F12C776AEB308F40C848FC700B1139D4891EF410CEC810227CC6846F8386402064270EF5C5C709A05E49676C024C61FC95EA45ED154CA5211D1FF4FB8291A913A68E9B83EBBB33
310
E2A7673CDE118E5AE8124C0807CB8377834E366998436B950D7A7746DAD846D4CFD978E0F04FD455FC5D49D2D4C6FE9722321F10997F0F32DC47FE05504B0304140006080800CC70623BFFEA85907E0000009D0000000B0000006662782F636E782E786D6C4DCCD10A83201886E15B91FFDC95D95A811AB6F23E625948A6C3
310
E9D8E5AF46073BFAE0E1E365ED67B3E8ADC3CB78C7815C7240DA3DFC64DCC221C519D7805AC182F7F1EF06C88D9BE6703008B6049F9E274D7A1E938DBB5AE3D6131B2589BA0D3D965551E0B2EA732C9B9A624AAEB41E3A557677029960D9AFB4EF11165F504B0304140006080800CC70623B4FEEA4082C0100001202000031
310
0000006662782F39464131463745442D413632322D343644302D413938332D3331353338454246344243312F636F72652E786D6C8D515B6EC32010BC0AE2AB55850DD871ED0813254D72825EC00192A2C460F1A872FC42ED48ED5F7E00CDCECCCEB26C731F6FE05B39AFADE921293004CA082BB5B9F43086336A21D870E6AC
310
0D7F68109861543DCC30E4ECE26C9C164858139409093556AA051CBC570102714B8F1E7AF1A5C6A11862480C7F2DA6415C878B2A4891CA89C7990F2E050073937C42DE1DB7E4F87ED8A36D4329AA9B3D46DBAEAD504556557BD81DEBDD0761E52CE42C462D17B996298E3E6BE59E35C962CE821E1FF18553435012728A7187
310
0841987E927A8D9B35ADDF70BBC6989599FE4F1427F9A4286A132ABAC49D651EF234CD5CE04CDA78BA3DC2A8FB645D00B9DF8B57E215725C60BCA2A463E54C4CE327C7A65E1C7DB02E7DEFCBF594B864C5CA6CDBD49C957943E9FA5D5FBAF336F90F504B0304140006080800CC70623BAD7543B64E01000033030000300000
310
006662782F39464131463745442D413632322D343644302D413938332D3331353338454246344243312F636E782E786D6CD593CD6EC32010845F0571AD6CE3D48AD20813A9873E410FBD12D82434182C7EAAE6EDBB2424CD25871E7B41D6EC30B3FA84F9E67BB2E40B4234DE8DB46F1925E094D7C6ED479AD3AE5951B2113C
310
789FEE6C943839C1488B4C05DF079FE72A69D8C96C13AAD6B8631503449F83828872B949AC57D26200B826A308D316B4064D6E46FCDA41C05550DC9E483A00797BFD207EFB092A45DE9514C1BBD22178396BD39D891265658C238DEA00936C654E5E433CB65A26D9F6EDB5EBC14EBF49A45CB856E66048291F6939A9A81BB5
310
C8917738143CA680F4AA299D66A042CEB3354A2684DC9D8D178FE0D9B8B41CAAD720F880EE7EF93C0C18769E099ECC04D5A102C8049A8A05632F4DDF376CF1DE0F6BB65C2F8627B65A33C6BB62177CEBBDAD973006829F89F22E814B54F4BC2BE347F8AA8F681390B50FA73F804400B5F542E796F19FF974E7F78DB802FE05
310
E207504B0304140006080800CC70623B16AB87BA640500003C100000340000006662782F39464131463745442D413632322D343644302D413938332D3331353338454246344243312F6F626A656374732E786D6CAD575B6FA33818FD2B887DE6924B3BED8A326A92B68A663B534DD4D13E548A0C38942D60649B369D5FBFC7
310
600890A493BDE42160637FD7F31D7FF63E6FB3D478A55C242CBF3247B66B1A340F5994E4F19559CA8D75611A9F7D8F33263BCB4C232719BD32D5B4E97B316765A1A722BA21652A07B3B7B33F0D11D29C9A46981221AE4C113ED38CD8A4942CA2E2C58E882476BCD9DA23BB5ED8171B73523C0F841684D35CC252CCE79062D4
310
468DFA43D7747CCF51DF7D4FFDEB5593E3AB9CCA9FBEFE241792E4E19EB28198C968BAB8199F5D5A67D3E9C49A9E8F47D6EC76B6B0469F26EEFC7C3EBFBCBEB98462213924694B38DD98FE1D62C393D073EA4FADC5DAF04326852CCF6958F90F0F2B9BB5C48816348F90C7840A68EB78EDF68723159BCEE7891A6B95DDE9D3
310
BCEAEEE8086A6C6F9E5D4B59F0175C10A7A0820BAA5055C7473B5AE3CFDD452D602CD5DF12616444529E90D448938013FE6EFA58AA96F85E4F8C42275708571E98FE6827AF6B2B4AE3D7D83D64E5A64C53054DD3AF90BD06FEA9149565C94FCA0F6B834DC85599E4F2423B24DF0B6AFA979E534DFA9E7A4CC6FA631D486393
310
921829879BF5D781A373557BCB85E97FB90DB62B558F8795179C15944B051F40AB495CF35451D26A4727654E6D8033BD98EF82F21D91FF8AF2DD9982BCF1643BDD4EB516C9492E368C67C88DED563FC36D5EACF66DFF057C3658BDBFA69DF9578B3DA735B64F18C7F20770A9D45CFCF7FCF563D6456A277DBEF78A02637CA2
310
43B90A490AEAB94F72244481D24819A6C0E59B606BFA4B3025981DBB48EAB701D97BF19C577CC77F2D1B6C55A9EF3C732474C0B727303F625995056C3B02963D9EAC146BE78EC5FCEC7FA999EBC5EACBAAE41B12D27B4D2C0BBA49F244E2ECDC81B76B502F113D8F5EE8FB1BE3111CDD4FC2AA9B844CAB1288B68AB90A7CDC
310
1C166AB0D3DC5310625FCC14E779BFD0709F8890A629C9292B1B2DED31A4B0DA928CEE135085754027E3018A397D4D5427D15BD1330B677DC8934285AC3DF45A9EB68FF8F2B8FC0A509AFEECFD0FF2DE25CC6047F7214B195F07EFEB9A094D800F7BFAE8FED187B78EA8A3A400F115961BCAD1215E47C966530AF0EE8128FE
310
58CEBB996A8964FFA529A046635D9353B0336A8F700DDF46271A024E70B0B37C9DE01847591E54DED53D54202AB947E4076556AC49C6CA5C9E1226B7F1A7B1BE15DEED62C41B91E1B3E9AFAAA735036547343A925075041DF0A9979E893B391F8FCFA6967B3EFB644DCF6E5CEBFAE272625DCC6FAF3FB93793C5F90CE1EF57
310
407342756B10D1C489E8953CD1617E5CEECAD6F4EF8914CE5D5D504E5C3F1F9736DA62CFC11E00BCDDB8CC8A9466349744C1F75EBDA4DF09BA8A9E8C7A7E9991989E20E5DBDD6A6003664ED8F7A04A8DBE0DF6EAD9B9AA858342E47399053949D2C146EDB85DE4B176BB0965FBAC19BD19AA918E27FA50C1D22402E144464C
310
59462568E704B6E71915404CB72B8FF4EDE184DDAF753F284990D2C6926782963815403548A70C657FDEF80D2D9CEAA2AE4C1C76F60BFE74219A06527D6582DF6412526107381E55E353090704D085B52408D0933C4ED159D79BDA71BB4BC506F4831350EB6F979CD22D69BF7AC49B91A2C0A9DDA3D5CA36AD20FC478E37E6
310
1844E2352865EBCB6EA275A652E3836BE04EFB400BF1A2556F515F1FBB35B2AB35BD889C744FFA1004B5544B121E57F70215746DD2F5E2C1412B602CBF19455AC6C8E5E9922C4E01E65215385004546899059180EAFCF7A707CE7017CD8CDB0410789AB32C63B91E5CEBBBACB17AC6CD347A022D5075FD106377347AAABA7E
310
7D11590744509B44E205134DC1290F06580320F78E537D3D73540E06CB970B431F185308AD40BBD794D6D77003C5A36E8EAA54BA64597CD8F83BD552A080A365F7FF06504B0304140006080000CC70623B000000000000000000000000350000006662782F39464131463745442D413632322D343644302D413938332D3331
310
353338454246344243312F76657274696365732E62696E504B0304140006080800CC70623BF270F1330600000004000000360000006662782F39464131463745442D413632322D343644302D413938332D3331353338454246344243312F747269616E676C65732E62696E636660600000504B0304140006080000CC70623B
310
000000000000000000000000370000006662782F39464131463745442D413632322D343644302D413938332D3331353338454246344243312F617474726962757465732E62696E504B0304140006080800CC70623B08DA0BD19000000041010000360000006662782F39464131463745442D413632322D343644302D413938
310
332D3331353338454246344243312F6469726563746F72792E786D6C858F410AC3201045AF22B36F53E9A60B35CBEEBAE80D244E44489C6234F4F835464A48035D0DF398FF9F8AF63D0E6CC63039F212F8F9020C7D47C6792B21C5FE7403D62A1188E2E60C98D7234A5830286103A55745067B9D86B8A3CF9C7F90C11DE607
310
FB144396D7B6A82D282E9A152AD114D5EF2CB866EEE831B8EEA07A7BB5A8D7D61A2BAAEB7FD5F70921FF497D00504B0304140006080800CC70623B0D6EF93BFE000000A00100003B0000006662782F39464131463745442D413632322D343644302D413938332D3331353338454246344243312F7265736F75726365732F63
310
6F72652E786D6C8D50596E833010BD0A9ADFCA60B334011947A8694ED00B586642AC041B79A97AFC9A40A5F6AF3F33A3B7689E1E3F7DCD8FEC139DD7D6F4C0720A191A65476DA61E62B892236427C19DB5E1970C322367EC618541F0C9D9B8EC90B226A009093576C41D94DE63804C3DD2D18357379C652E63480A7FCF17A9
310
EE72C29CE5894E3AC17D702940B63D59270887DE46A7D0F36263058F518FBB468FE9A7BE6A7420864373B8D4873369AA8691FA421B3294352543C5CAF65C0F6FEF43CB8BD52C78D0F34F46E550061C419494B6843142CB0F5677F4B52BEB177AEC28E5C52AFF638ACBF84F53D42654E51E77B379102C05791282176B5F693D
310
CB4C7BED567C03504B010214000A0000080000CC70623B3DEE336E79000000790000001B00000000000000000000000000000000006175746F6465736B2D64657369676E2D7061636B6167652E786D6C504B01021400140006080800CC70623BD486FD9CA0000000F40000001300000000000000000000000000B20000005B
310
436F6E74656E745F54797065735D2E786D6C504B01021400140006080800CC70623B1EC5D7A3EB0000007C010000080000000000000000000000000083010000636F72652E786D6C504B01021400140006080800CC70623B55019EA25F0000007C000000070000000000000000000000000094020000636E782E786D6C504B
310
01021400140006080800CC70623B8C9102E971010000D40300000C00000000000000000000000000180300006662782F636F72652E786D6C504B01021400140006080800CC70623BFFEA85907E0000009D0000000B00000000000000000000000000B30400006662782F636E782E786D6C504B01021400140006080800CC70
310
623B4FEEA4082C0100001202000031000000000000000000000000005A0500006662782F39464131463745442D413632322D343644302D413938332D3331353338454246344243312F636F72652E786D6C504B01021400140006080800CC70623BAD7543B64E010000330300003000000000000000000000000000D5060000
310
6662782F39464131463745442D413632322D343644302D413938332D3331353338454246344243312F636E782E786D6C504B01021400140006080800CC70623B16AB87BA640500003C1000003400000000000000000000000000710800006662782F39464131463745442D413632322D343644302D413938332D3331353338
310
454246344243312F6F626A656374732E786D6C504B01021400140006080000CC70623B0000000000000000000000003500000000000000000000000000270E00006662782F39464131463745442D413632322D343644302D413938332D3331353338454246344243312F76657274696365732E62696E504B01021400140006
310
080800CC70623BF270F133060000000400000036000000000000000000000000007A0E00006662782F39464131463745442D413632322D343644302D413938332D3331353338454246344243312F747269616E676C65732E62696E504B01021400140006080000CC70623B0000000000000000000000003700000000000000
310
000000000000D40E00006662782F39464131463745442D413632322D343644302D413938332D3331353338454246344243312F617474726962757465732E62696E504B01021400140006080800CC70623B08DA0BD190000000410100003600000000000000000000000000290F00006662782F39464131463745442D413632
310
322D343644302D413938332D3331353338454246344243312F6469726563746F72792E786D6C504B01021400140006080800CC70623B0D6EF93BFE000000A00100003B000000000000000000000000000D1000006662782F39464131463745442D413632322D343644302D413938332D3331353338454246344243312F7265
310
736F75726365732F636F72652E786D6C504B0506000000000E000E0080040000641100000000
  0
XRECORD
  5
DE52
102
{ACAD_REACTORS
330
173
102
}
330
173
100
AcDbXrecord
280
     1
102
MATERIAL
148
0.0
149
0.0
149
0.0
 93
        0
 94
       63
282
     0
 72
     1
 77
     1
171
     1
175
     1
179
     1
273
     0
  0
XRECORD
  5
175
102
{ACAD_REACTORS
330
173
102
}
330
173
100
AcDbXrecord
280
     1
270
     1
271
     1
  0
XRECORD
  5
174
102
{ACAD_REACTORS
330
173
102
}
330
173
100
AcDbXrecord
280
     1
270
     1
271
     1
  0
XRECORD
  5
1FB
102
{ACAD_REACTORS
330
173
102
}
330
173
100
AcDbXrecord
280
     1
 70
     0
 90
1673772943
  1
ECE7A1D2-D628-4531-984C-D00F80459256
310
504B03040A0000080000CC70623B3DEE336E79000000790000001B0000006175746F6465736B2D64657369676E2D7061636B6167652E786D6C3C3F786D6C2076657273696F6E3D22312E302220656E636F64696E673D227574662D3822203F3E3C666F726D6174733E3C666F726D61743E687474703A2F2F736368656D612E
310
6175746F6465736B2E636F6D2F64657369676E2D7061636B6167652F323030393C2F666F726D61743E3C2F666F726D6174733E504B0304140006080800CC70623BD486FD9CA0000000F4000000130000005B436F6E74656E745F54797065735D2E786D6C7D8EC10E82300C865F65E91D8A1E8C310C0EEA1BF002731658846E
310
D98AC1B77784ABF1D8FE5FBFBF75BBCE937A534CCEB38643598122B6FEE978D0B0485F9C41B54DDD7D022595594E1A469170414C76A4D9A4D207E29CF43ECE46F218070CC6BECC4078ACAA135ACF422C856C0E68EA1BF5669944DDD7BCDE7B1F8E415D77AECB980613C2E4AC91FC167A2B244592486606FC29C8FD7F045B9A
310
EF7053A7E60B504B0304140006080800CC70623BD9DDAED0EC0000007C01000008000000636F72652E786D6C8D90416EC3201045AF82665B61836D9CD8C2444DD39CA01740405C94182C03558F5F9C3852BBEB6A467FFE9B197D7EF89E6EE8CB2CC17A37002D0820E394D7D68D03A478C17B4007C117EFE32F1B20272733C0
310
2A83E0E3E2D3BC49CABB685CCCAAF3DA6CA20CC14440EA969B0182FA34932C648AD911AEC52CD5558EA6A0CF2EC329598D1E47ACCEFBECC59A050463A7EA5833865FEBDD0E37353BE3EE8DBDE3F6786A48D375FBF6CC78B9C282473B3DEFABC5C86834888A900E538A49F5419B9EB47DD5BC907D4F082F57FB1F28CDFA9F50
310
B22ED6D5F6EE030B20687EE43E10BC5CB3C8E51E54AE6B6EE207504B0304140006080800CC70623B55019EA25F0000007C00000007000000636E782E786D6C4DCB3B0E80201045D1AD90E915ED2CF8AC45050C11660C8261F98AB1B07AC9C97D42D718D865D3E909258CFD00CCE24AC6E326A164D74DC0B4128928FF326038
310
472BA13128B1252AC747C6BAB984FC68F0B87FE8960A5C09FE86CFB69FBA01504B0304140006080800CC70623BA24EB22D72010000D40300000C0000006662782F636F72652E786D6CC5535B6E833010BC8AE5DF0A6C5E49888CA3A6694ED00B38E05014B091B1518EDFE511A5A9D228FD2A1F60CDEC7A67C6986DCE4D8D7A
310
69BA4AAB0C073EC548AA5C17952A33ECECD15B61B4E1CC686DBF9561A44423333CC098B3D268D7CE50AE9595CA02AA74216750749DB418E5352C32DCE59FB211BE70162ABA93DF8AFC244AE9073ED050C759670D0840D390E18DF9F1706664C23973AE2A66B62A605A75ACA4C13C4976E1364A12EF355A2EBD384AF65EFA96
310
BC7B8BED2EA6719AAE16FB8491A199335B351775B991C2CA02F390D2D40B028F861F41BCA68B7518BFD0D59A524686F29B26D7164F36B94AD9289CE54E6D1DE6010819891F6E21228B3AD1831EC219194284CF98F06DD01008846CC5A1BEF83801D4CBDC6A1303536877A57A513B0953A94FC707FDBE6064EA84A9E3E6E0FA
310
EE8CF0E9198F7784A316AA0413C2C2F2E0ECA0934D1AE6D05A69BCDE9E91D2A611F573361E38FC1375157F5752AE6B6DFE4B11990F88CCBF0719EE23FF02504B0304140006080800CC70623B408A7D3B7C0000009D0000000B0000006662782F636E782E786D6C4DCCD10A83201886E15B91FFDC552A92A0064DBC8F581632
310
D3703A76F9ABD1C18E3E78F878E5F0D9027ABBFCF2292AE86E2D20171F69F6715550CB827B40839639A5F2770314A7CD293819B45C73AAFB45B35BA61ACAA1C1C7E7855C58C15BC331339661262CC762340413D68D77DA5B42298546CBE6573AF60CEB2F504B0304140006080800CC70623B449FB9BD290100001202000031
310
0000006662782F36394639363044362D344446342D343946362D394244322D3234314243333846323333332F636F72652E786D6C8D515B6EC32010BC0AE22B55850D98B871848994463E412FE002495162B07854397EA176A4F62F3F2C9A9D991D587EB84F37F0AD7D30CEF6905418026DA553C65E7A98E219ED203808EE9D
310
8B7F6810D871D23D2C3014FCE25D9A57483A1BB58D19B54EE9151C43D0110279CB971E06F9A5A7B11A53CC8C70ADE6515EC78BAE4895DB992778883E0700CB907242D17643D7E2538BD869608875438BBAE38922CAC8F1BDD90DB4691A5E2F42C153326A951B95E398B3D1FE599322163C9AE9115F7A3D46ADA0A018778810
310
84E907617BDCEE297BC5BB3DC6BC2EF47FA234AB2745C9D8D8D035EE220B50105E2F0DC1954B9FB747187D9F9D8FA0CCDB042D5FA0C015C65B42DF78BD10F3F3B363CB56C7109DCFDFBBB97E662ED92EB62D13BC2E1BCAE5777DB9966D8A1F504B0304140006080800CC70623BAD7543B64E01000033030000300000006662
310
782F36394639363044362D344446342D343946362D394244322D3234314243333846323333332F636E782E786D6CD593CD6EC32010845F0571AD6CE3D48AD20813A9873E410FBD12D82434182C7EAAE6EDBB2424CD25871E7B41D6EC30B3FA84F9E67BB2E40B4234DE8DB46F1925E094D7C6ED479AD3AE5951B2113C789FEE
310
6C943839C1488B4C05DF079FE72A69D8C96C13AAD6B8631503449F83828872B949AC57D26200B826A308D316B4064D6E46FCDA41C05550DC9E483A00797BFD207EFB092A45DE9514C1BBD22178396BD39D891265658C238DEA00936C654E5E433CB65A26D9F6EDB5EBC14EBF49A45CB856E66048291F6939A9A81BB5C89177
310
38143CA680F4AA299D66A042CEB3354A2684DC9D8D178FE0D9B8B41CAAD720F880EE7EF93C0C18769E099ECC04D5A102C8049A8A05632F4DDF376CF1DE0F6BB65C2F8627B65A33C6BB62177CEBBDAD973006829F89F22E814B54F4BC2BE347F8AA8F681390B50FA73F804400B5F542E796F19FF974E7F78DB802FE05E20750
310
4B0304140006080800CC70623B8D05915C650500003B100000340000006662782F36394639363044362D344446342D343946362D394244322D3234314243333846323333332F6F626A656374732E786D6CAD575B6FA33814FE2B887D06429276DA1565D4266D158D3A339A6846FB502932E050B66023DB74D2FDF5FB190C01
310
9276B2973C046C8ECFF53B17071F77456EBD502133CEAE6CDF9DD81665314F32965ED995DA3A17B6F5310C04E7AA47665B8C14F4CAD6DB7618A48257A5D94AE89654B91AEDDEDDFC61C998326A5B714EA4BCB265FC440BE2924AF184CA6737218AB8E976E7FA6E4338649B0A523E8D98964450A6A029F619B8588D52FE7039
310
B1BD30F0F4F730D0FF866AF6369557DB33949F31A9088B0F848DD8CCFCF9F2767A76E99CCDE733677E3EF59D9BBB9BA5E37F984D16E78BC5E5F5ED25044B25C0C96822E8D60EEFE11B91C581D77CEA34368A1F5329E68CD1B8B61F16D63A1B8E092D294B10C78C4A48EB593D192E7DED9BDEE7995E1B91FDEDD3ACEA9FE831
310
6A756F9F7D4D79F4274C90A7A04248AA51D5F8C718DAE06FB2F75AC4796EBE65D22A88A22223B995679120E2D50E41AA49C260C046A35368846B0BECD0DFF3EBEB8AD4F835768F69B9ADF25C43D30E6B646F807FAA64AD59F61715C7A54127C4AACA98BA3006A9D792DAE165E0D59B61A01FB3A9F9D838D2DAE62445C86166
310
F37564E842E7DE6A69879FEEA2DD5AE7E371E1A5E025154AC307D06A03D73EB5978C58FFA4C8E9033066E0F3BD53BEC1F39F91BE7B55103791EDE6BBB991A2046172CB4581D8B893FA674DDA17A77B3B7C413D1B511FD2743BFF8A38F03A658705E3ADF8015C3A3417FF3D7E439FF591DA0B5F18BC20C1B8981957AE6392A3
310
F43C640C01D1A0B4728E2DD4F26DB4B3C3152A252A3B4E913CEC1C72F012782FF88EFF8637AA552DBEF76408E8A8DE9E50F9E1CB3A2DA0DB1B6039A893B56063DC5B3E3FFB5F72E67AB9FEB4AEC496C4F4C1149625DD662C53E89D7BF0F6151A046260D1337DFDC94502430F83B0EE07A130A224BCAD7DAE1D9FB6CD422FF6
310
920702629C4BB9AE79C12F243C6432A6794E18E5552BA56B431AAB5D91317302B2B071E86C3A42B1A02F999E24061403B5D0EB639195DA655DD3EBEAB4FB862DDF579F014AD0E73C22F99E28DA57FB98E75C6CA2D74D53086D600F4786E0FE3144B771A8A7B900F03594DB8A633CBC49B2EDB69228BB479CF863B5E807AAAB
310
23872F6DFEB4129B949CA33823F58830E86D65621E10047D9DB34D862E8EAC3C2ABC2F7B2C40D67CDFE01F5545B92105AF983AC54D93D69E56FB8E797F88913F898A9FEC705D3F9D1B54EC8426FB500D40A03BD0119B06E1B95DDC7EB8F6975367793EBD70E66733DFB9BC982F9CE564727731999F5D4ECFCE3B8D6A4DC2A0
310
6D50FD148437D110834A64C6CDDF57FBACB5C307A2A477DFE4939736CFEF2B175371E0E10CF0DD1D5C15654E0BCA14D1E87DD02FF93782A162C0A3D95F1524A52770F972BF1EE9809D13CE7DD599467F8ECE9ADD85CE85A34CD45355448C64F9E8A031DC2D596ACC6E5DD93D9B82DE2EF5CAF81363A8E47996A0DE24564A79
310
4115AACE09C55E14540231FDA13C319787134EBF34E3A022514E5B4D9E0826E25C02D5805B15ABE1BEF51B26383D445DD9E875EE33FE4C22DA16427D65A3BCA92CA6D28DD01DF5DC53330704308475351050232CCD31583787BA75774AFB06E5070DD0C8EF484E19968C5D83BA5B90B244D31E54D55A372320FE4786B7EA58
310
44E135AA5467CB7EA333A61683CC6A8C3257034C10CF46F40EF9F5BE59BE5BD30C3C72D235E95D10345C1D45445A5F0BB47E46A5EBE5570F9380B5FA629579952296A773720405982B9DE04011506178964401AA8BDF1FBF0A8EAB6861DD6580C0E38217056766716DAEB2D6FA0917D3E4116581EADB879C4E7CFFB11EFACD
310
3D641311495D92C8676CB409A72D18610D803CE8A626049E8EC1887CB5B44CC39883690DDA8399B4B9855B481E7D71D4A9D22F96E5BB73BF5793020C02137BF837504B0304140006080000CC70623B000000000000000000000000350000006662782F36394639363044362D344446342D343946362D394244322D32343142
310
43333846323333332F76657274696365732E62696E504B0304140006080800CC70623BF270F1330600000004000000360000006662782F36394639363044362D344446342D343946362D394244322D3234314243333846323333332F747269616E676C65732E62696E636660600000504B0304140006080000CC70623B0000
310
00000000000000000000370000006662782F36394639363044362D344446342D343946362D394244322D3234314243333846323333332F617474726962757465732E62696E504B0304140006080800CC70623B08DA0BD19000000041010000360000006662782F36394639363044362D344446342D343946362D394244322D
310
3234314243333846323333332F6469726563746F72792E786D6C858F410AC3201045AF22B36F53E9A60B35CBEEBAE80D244E44489C6234F4F835464A48035D0DF398FF9F8AF63D0E6CC63039F212F8F9020C7D47C6792B21C5FE7403D62A1188E2E60C98D7234A5830286103A55745067B9D86B8A3CF9C7F90C11DE607FB14
310
4396D7B6A82D282E9A152AD114D5EF2CB866EEE831B8EEA07A7BB5A8D7D61A2BAAEB7FD5F70921FF497D00504B0304140006080800CC70623BCA768048FE000000A00100003B0000006662782F36394639363044362D344446342D343946362D394244322D3234314243333846323333332F7265736F75726365732F636F72
310
652E786D6C8D50596E833010BD0A9ADFCA60D600328E9AA639412F609909B1126CE4A5EAF16B0295DABFFECC8CDEA2797AECF8353F924FB44E193D409E5248504B332A3D0D10FC95B4901C39B3C6F85F3248B49871801506CE266BC2B243D2688FDA47549B11775038871E12F988C7004EDE7016A9083E2ADC3D5D84BC8B09
310
D33C8D74D471E6BC8D0192EDC93A815B742658898E651BCB59086ADC356A8C3FD555A1055ED7E7E254D615792D0F075295F585746FF53B694EE78A565DD736979A65AB9933AFE69F8CD2A2F038022F28ED489E135A7CE4554F9BBEA85E68DB53CAB255FEC71496F19FA6A0B42F8B3DEE6673C0F318E4497096AD7DC5F52C33
310
EEB55BFE0D504B010214000A0000080000CC70623B3DEE336E79000000790000001B00000000000000000000000000000000006175746F6465736B2D64657369676E2D7061636B6167652E786D6C504B01021400140006080800CC70623BD486FD9CA0000000F40000001300000000000000000000000000B20000005B436F
310
6E74656E745F54797065735D2E786D6C504B01021400140006080800CC70623BD9DDAED0EC0000007C010000080000000000000000000000000083010000636F72652E786D6C504B01021400140006080800CC70623B55019EA25F0000007C000000070000000000000000000000000095020000636E782E786D6C504B0102
310
1400140006080800CC70623BA24EB22D72010000D40300000C00000000000000000000000000190300006662782F636F72652E786D6C504B01021400140006080800CC70623B408A7D3B7C0000009D0000000B00000000000000000000000000B50400006662782F636E782E786D6C504B01021400140006080800CC70623B
310
449FB9BD290100001202000031000000000000000000000000005A0500006662782F36394639363044362D344446342D343946362D394244322D3234314243333846323333332F636F72652E786D6C504B01021400140006080800CC70623BAD7543B64E010000330300003000000000000000000000000000D20600006662
310
782F36394639363044362D344446342D343946362D394244322D3234314243333846323333332F636E782E786D6C504B01021400140006080800CC70623B8D05915C650500003B10000034000000000000000000000000006E0800006662782F36394639363044362D344446342D343946362D394244322D32343142433338
310
46323333332F6F626A656374732E786D6C504B01021400140006080000CC70623B0000000000000000000000003500000000000000000000000000250E00006662782F36394639363044362D344446342D343946362D394244322D3234314243333846323333332F76657274696365732E62696E504B010214001400060808
310
00CC70623BF270F13306000000040000003600000000000000000000000000780E00006662782F36394639363044362D344446342D343946362D394244322D3234314243333846323333332F747269616E676C65732E62696E504B01021400140006080000CC70623B00000000000000000000000037000000000000000000
310
00000000D20E00006662782F36394639363044362D344446342D343946362D394244322D3234314243333846323333332F617474726962757465732E62696E504B01021400140006080800CC70623B08DA0BD190000000410100003600000000000000000000000000270F00006662782F36394639363044362D344446342D
310
343946362D394244322D3234314243333846323333332F6469726563746F72792E786D6C504B01021400140006080800CC70623BCA768048FE000000A00100003B000000000000000000000000000B1000006662782F36394639363044362D344446342D343946362D394244322D3234314243333846323333332F7265736F
310
75726365732F636F72652E786D6C504B0506000000000E000E0080040000621100000000
  0
XRECORD
  5
176
102
{ACAD_REACTORS
330
173
102
}
330
173
100
AcDbXrecord
280
     1
270
     1
271
     1
  0
XRECORD
  5
177
102
{ACAD_REACTORS
330
173
102
}
330
173
100
AcDbXrecord
280
     1
270
     1
271
     1
  0
XRECORD
  5
DE74
102
{ACAD_REACTORS
330
DE73
102
}
330
DE73
100
AcDbXrecord
280
     1
102
ACAD_ROUNDTRIP_2012_MLEADER_STYLE
298
     1
  0
XRECORD
  5
DE86
102
{ACAD_REACTORS
330
DE85
102
}
330
DE85
100
AcDbXrecord
280
     1
102
DISPLAYNAME
  1
Metric50
102
FLAGS
 90
        0
  0
CELLSTYLEMAP
  5
DE46
102
{ACAD_REACTORS
330
162
102
}
330
162
100
AcDbCellStyleMap
 90
        3
300
CELLSTYLE
  1
TABLEFORMAT_BEGIN
 90
        5
170
     1
 91
        0
 92
    32768
 62
   257
 93
        1
300
CONTENTFORMAT
  1
CONTENTFORMAT_BEGIN
 90
        0
 91
        0
 92
      512
 93
        0
300

 40
0.0
140
1.0
 94
        5
 62
     0
340
11
144
6.0
309
CONTENTFORMAT_END
171
     1
301
MARGIN
  1
CELLMARGIN_BEGIN
 40
1.5
 40
1.5
 40
1.5
 40
1.5
 40
4.5
 40
4.5
309
CELLMARGIN_END
 94
        6
 95
        1
302
GRIDFORMAT
  1
GRIDFORMAT_BEGIN
 90
        0
 91
        1
 62
     0
 92
       -2
340
14
 93
        0
 40
1.125
309
GRIDFORMAT_END
 95
        2
302
GRIDFORMAT
  1
GRIDFORMAT_BEGIN
 90
        0
 91
        1
 62
     0
 92
       -2
340
14
 93
        0
 40
1.125
309
GRIDFORMAT_END
 95
        4
302
GRIDFORMAT
  1
GRIDFORMAT_BEGIN
 90
        0
 91
        1
 62
     0
 92
       -2
340
14
 93
        0
 40
1.125
309
GRIDFORMAT_END
 95
        8
302
GRIDFORMAT
  1
GRIDFORMAT_BEGIN
 90
        0
 91
        1
 62
     0
 92
       -2
340
14
 93
        0
 40
1.125
309
GRIDFORMAT_END
 95
       16
302
GRIDFORMAT
  1
GRIDFORMAT_BEGIN
 90
        0
 91
        1
 62
     0
 92
       -2
340
14
 93
        0
 40
1.125
309
GRIDFORMAT_END
 95
       32
302
GRIDFORMAT
  1
GRIDFORMAT_BEGIN
 90
        0
 91
        1
 62
     0
 92
       -2
340
14
 93
        0
 40
1.125
309
GRIDFORMAT_END
309
TABLEFORMAT_END
  1
CELLSTYLE_BEGIN
 90
        1
 91
        1
300
_TITLE
309
CELLSTYLE_END
300
CELLSTYLE
  1
TABLEFORMAT_BEGIN
 90
        5
170
     1
 91
        0
 92
        0
 62
   257
 93
        1
300
CONTENTFORMAT
  1
CONTENTFORMAT_BEGIN
 90
        0
 91
        0
 92
      512
 93
        0
300

 40
0.0
140
1.0
 94
        5
 62
     0
340
11
144
4.5
309
CONTENTFORMAT_END
171
     1
301
MARGIN
  1
CELLMARGIN_BEGIN
 40
1.5
 40
1.5
 40
1.5
 40
1.5
 40
4.5
 40
4.5
309
CELLMARGIN_END
 94
        6
 95
        1
302
GRIDFORMAT
  1
GRIDFORMAT_BEGIN
 90
        0
 91
        1
 62
     0
 92
       -2
340
14
 93
        0
 40
1.125
309
GRIDFORMAT_END
 95
        2
302
GRIDFORMAT
  1
GRIDFORMAT_BEGIN
 90
        0
 91
        1
 62
     0
 92
       -2
340
14
 93
        0
 40
1.125
309
GRIDFORMAT_END
 95
        4
302
GRIDFORMAT
  1
GRIDFORMAT_BEGIN
 90
        0
 91
        1
 62
     0
 92
       -2
340
14
 93
        0
 40
1.125
309
GRIDFORMAT_END
 95
        8
302
GRIDFORMAT
  1
GRIDFORMAT_BEGIN
 90
        0
 91
        1
 62
     0
 92
       -2
340
14
 93
        0
 40
1.125
309
GRIDFORMAT_END
 95
       16
302
GRIDFORMAT
  1
GRIDFORMAT_BEGIN
 90
        0
 91
        1
 62
     0
 92
       -2
340
14
 93
        0
 40
1.125
309
GRIDFORMAT_END
 95
       32
302
GRIDFORMAT
  1
GRIDFORMAT_BEGIN
 90
        0
 91
        1
 62
     0
 92
       -2
340
14
 93
        0
 40
1.125
309
GRIDFORMAT_END
309
TABLEFORMAT_END
  1
CELLSTYLE_BEGIN
 90
        2
 91
        1
300
_HEADER
309
CELLSTYLE_END
300
CELLSTYLE
  1
TABLEFORMAT_BEGIN
 90
        5
170
     1
 91
        0
 92
        0
 62
   257
 93
        1
300
CONTENTFORMAT
  1
CONTENTFORMAT_BEGIN
 90
        0
 91
        0
 92
      512
 93
        0
300

 40
0.0
140
1.0
 94
        2
 62
     0
340
11
144
4.5
309
CONTENTFORMAT_END
171
     1
301
MARGIN
  1
CELLMARGIN_BEGIN
 40
1.5
 40
1.5
 40
1.5
 40
1.5
 40
4.5
 40
4.5
309
CELLMARGIN_END
 94
        6
 95
        1
302
GRIDFORMAT
  1
GRIDFORMAT_BEGIN
 90
        0
 91
        1
 62
     0
 92
       -2
340
14
 93
        0
 40
1.125
309
GRIDFORMAT_END
 95
        2
302
GRIDFORMAT
  1
GRIDFORMAT_BEGIN
 90
        0
 91
        1
 62
     0
 92
       -2
340
14
 93
        0
 40
1.125
309
GRIDFORMAT_END
 95
        4
302
GRIDFORMAT
  1
GRIDFORMAT_BEGIN
 90
        0
 91
        1
 62
     0
 92
       -2
340
14
 93
        0
 40
1.125
309
GRIDFORMAT_END
 95
        8
302
GRIDFORMAT
  1
GRIDFORMAT_BEGIN
 90
        0
 91
        1
 62
     0
 92
       -2
340
14
 93
        0
 40
1.125
309
GRIDFORMAT_END
 95
       16
302
GRIDFORMAT
  1
GRIDFORMAT_BEGIN
 90
        0
 91
        1
 62
     0
 92
       -2
340
14
 93
        0
 40
1.125
309
GRIDFORMAT_END
 95
       32
302
GRIDFORMAT
  1
GRIDFORMAT_BEGIN
 90
        0
 91
        1
 62
     0
 92
       -2
340
14
 93
        0
 40
1.125
309
GRIDFORMAT_END
309
TABLEFORMAT_END
  1
CELLSTYLE_BEGIN
 90
        3
 91
        2
300
_DATA
309
CELLSTYLE_END
  0
XRECORD
  5
DE4B
102
{ACAD_REACTORS
330
162
102
}
330
162
100
AcDbXrecord
280
     1
102
ACAD_ROUNDTRIP_PRE2007_TABLESTYLE
 90
      512
 91
        0
  1

 92
      512
 93
        0
  2

 94
      512
 95
        0
  3

  0
XRECORD
  5
DE5E
102
{ACAD_REACTORS
330
DE5D
102
}
330
DE5D
100
AcDbXrecord
280
     1
102
RTVSPost2010Prop28
280
     1
102
RTVSPost2010PropOp28
 70
     1
102
RTVSPost2010Prop29
280
     1
102
RTVSPost2010PropOp29
 70
     1
102
RTVSPost2010Prop30
280
     0
102
RTVSPost2010PropOp30
 70
     1
102
RTVSPost2010Prop31
280
     0
102
RTVSPost2010PropOp31
 70
     1
102
RTVSPost2010Prop32
280
     0
102
RTVSPost2010PropOp32
 70
     1
102
RTVSPost2010Prop33
280
     0
102
RTVSPost2010PropOp33
 70
     1
102
RTVSPost2010Prop34
280
     0
102
RTVSPost2010PropOp34
 70
     1
102
RTVSPost2010Prop35
280
     0
102
RTVSPost2010PropOp35
 70
     1
102
RTVSPost2010Prop36
280
     0
102
RTVSPost2010PropOp36
 70
     1
102
RTVSPost2010Prop37
 90
       50
102
RTVSPost2010PropOp37
 70
     1
102
RTVSPost2010Prop38
140
0.0
102
RTVSPost2010PropOp38
 70
     1
102
RTVSPost2010Prop39
140
1.0
102
RTVSPost2010PropOp39
 70
     1
102
RTVSPost2010Prop40
 90
        0
102
RTVSPost2010PropOp40
 70
     1
102
RTVSPost2010Prop41ColorIndex
 90
       18
102
RTVSPost2010Prop41ColorRGB
 90
        0
102
RTVSPost2010PropOp41
 70
     1
102
RTVSPost2010Prop42
 90
       50
102
RTVSPost2010PropOp42
 70
     1
102
RTVSPost2010Prop43
 90
        3
102
RTVSPost2010PropOp43
 70
     1
102
RTVSPost2010Prop44ColorIndex
 90
        5
102
RTVSPost2010Prop44ColorRGB
 90
      255
102
RTVSPost2010PropOp44
 70
     1
102
RTVSPost2010Prop45
280
     0
102
RTVSPost2010PropOp45
 70
     1
102
RTVSPost2010Prop46
 90
       50
102
RTVSPost2010PropOp46
 70
     1
102
RTVSPost2010Prop47
 90
       50
102
RTVSPost2010PropOp47
 70
     1
102
RTVSPost2010Prop48
 90
       50
102
RTVSPost2010PropOp48
 70
     1
102
RTVSPost2010Prop49
280
     0
102
RTVSPost2010PropOp49
 70
     1
102
RTVSPost2010Prop50
 90
       50
102
RTVSPost2010PropOp50
 70
     1
102
RTVSPost2010Prop51ColorIndex
 90
      256
102
RTVSPost2010Prop51ColorRGB
 90
-16777216
102
RTVSPost2010PropOp51
 70
     0
102
RTVSPost2010Prop52
140
1.0
102
RTVSPost2010PropOp52
 70
     0
102
RTVSPost2010Prop53
 90
        2
102
RTVSPost2010PropOp53
 70
     1
102
RTVSPost2010Prop54
  1
strokes_ogs.tif
102
RTVSPost2010PropOp54
 70
     1
102
RTVSPost2010Prop55
280
     0
102
RTVSPost2010PropOp55
 70
     1
102
RTVSPost2010Prop56
140
1.0
102
RTVSPost2010PropOp56
 70
     1
102
RTVSPost2010Prop57
140
1.0
102
RTVSPost2010PropOp57
 70
     1
102
RTVSPropertyOp0
 70
     1
102
RTVSPropertyOp1
 70
     1
102
RTVSPropertyOp2
 70
     1
102
RTVSPropertyOp3
 70
     1
102
RTVSPropertyOp4
 70
     1
102
RTVSPropertyOp5
 70
     1
102
RTVSPropertyOp6
 70
     1
102
RTVSPropertyOp7
 70
     1
102
RTVSPropertyOp8
 70
     1
102
RTVSPropertyOp9
 70
     1
102
RTVSPropertyOp10
 70
     1
102
RTVSPropertyOp11
 70
     1
102
RTVSPropertyOp12
 70
     1
102
RTVSPropertyOp13
 70
     1
102
RTVSPropertyOp14
 70
     1
102
RTVSPropertyOp15
 70
     1
102
RTVSPropertyOp16
 70
     1
102
RTVSPropertyOp17
 70
     1
102
RTVSPropertyOp18
 70
     1
102
RTVSPropertyOp19
 70
     1
102
RTVSPropertyOp20
 70
     1
102
RTVSPropertyOp21
 70
     1
102
RTVSPropertyOp22
 70
     1
102
RTVSPropertyOp23
 70
     1
102
RTVSPropertyOp24
 70
     1
102
RTVSPropertyOp25
 70
     1
102
RTVSPropertyOp26
 70
     1
102
RTVSPropertyOp27
 70
     1
102
RTVSPropertyOp28
 70
     1
102
RTVSPropertyOp29
 70
     1
102
RTVSPropertyOp30
 70
     1
102
RTVSPropertyOp31
 70
     1
102
RTVSPropertyOp32
 70
     1
102
RTVSPropertyOp33
 70
     1
102
RTVSPropertyOp34
 70
     1
102
RTVSPropertyOp35
 70
     1
102
RTVSPropertyOp36
 70
     1
102
RTVSPropertyOp37
 70
     1
102
RTVSPropertyOp38
 70
     1
102
RTVSPropertyOp39
 70
     1
102
RTVSPropertyOp40
 70
     1
102
RTVSPropertyOp41
 70
     1
102
RTVSPropertyOp42
 70
     1
102
RTVSPropertyOp43
 70
     1
102
RTVSPropertyOp44
 70
     1
102
RTVSPropertyOp45
 70
     1
102
RTVSPropertyOp46
 70
     1
102
RTVSPropertyOp47
 70
     1
102
RTVSPropertyOp48
 70
     1
102
RTVSPropertyOp49
 70
     1
102
RTVSPropertyOp50
 70
     1
102
RTVSPropertyOp51
 70
     0
102
RTVSPropertyOp52
 70
     0
102
RTVSPropertyOp53
 70
     1
102
RTVSPropertyOp54
 70
     1
102
RTVSPropertyOp55
 70
     1
102
RTVSPropertyOp56
 70
     1
102
RTVSPropertyOp57
 70
     1
102
RTVSPropertyOp58
 70
     1
102
RTVSPropertyOp59
 70
     1
102
RTVSPropertyOp60
 70
     1
102
RTVSPropertyOp61
 70
     1
102
RTVSPropertyOp62
 70
     1
  0
XRECORD
  5
DE5C
102
{ACAD_REACTORS
330
DE5B
102
}
330
DE5B
100
AcDbXrecord
280
     1
102
RTVSPost2010Prop28
280
     0
102
RTVSPost2010PropOp28
 70
     1
102
RTVSPost2010Prop29
280
     1
102
RTVSPost2010PropOp29
 70
     1
102
RTVSPost2010Prop30
280
     1
102
RTVSPost2010PropOp30
 70
     1
102
RTVSPost2010Prop31
280
     0
102
RTVSPost2010PropOp31
 70
     1
102
RTVSPost2010Prop32
280
     0
102
RTVSPost2010PropOp32
 70
     1
102
RTVSPost2010Prop33
280
     0
102
RTVSPost2010PropOp33
 70
     1
102
RTVSPost2010Prop34
280
     0
102
RTVSPost2010PropOp34
 70
     1
102
RTVSPost2010Prop35
280
     0
102
RTVSPost2010PropOp35
 70
     1
102
RTVSPost2010Prop36
280
     0
102
RTVSPost2010PropOp36
 70
     1
102
RTVSPost2010Prop37
 90
       50
102
RTVSPost2010PropOp37
 70
     1
102
RTVSPost2010Prop38
140
0.0
102
RTVSPost2010PropOp38
 70
     1
102
RTVSPost2010Prop39
140
1.0
102
RTVSPost2010PropOp39
 70
     1
102
RTVSPost2010Prop40
 90
        0
102
RTVSPost2010PropOp40
 70
     1
102
RTVSPost2010Prop41ColorIndex
 90
       18
102
RTVSPost2010Prop41ColorRGB
 90
        0
102
RTVSPost2010PropOp41
 70
     1
102
RTVSPost2010Prop42
 90
       50
102
RTVSPost2010PropOp42
 70
     1
102
RTVSPost2010Prop43
 90
        3
102
RTVSPost2010PropOp43
 70
     1
102
RTVSPost2010Prop44ColorIndex
 90
        5
102
RTVSPost2010Prop44ColorRGB
 90
      255
102
RTVSPost2010PropOp44
 70
     1
102
RTVSPost2010Prop45
280
     0
102
RTVSPost2010PropOp45
 70
     1
102
RTVSPost2010Prop46
 90
       50
102
RTVSPost2010PropOp46
 70
     1
102
RTVSPost2010Prop47
 90
       50
102
RTVSPost2010PropOp47
 70
     1
102
RTVSPost2010Prop48
 90
       50
102
RTVSPost2010PropOp48
 70
     1
102
RTVSPost2010Prop49
280
     0
102
RTVSPost2010PropOp49
 70
     1
102
RTVSPost2010Prop50
 90
       50
102
RTVSPost2010PropOp50
 70
     1
102
RTVSPost2010Prop51ColorIndex
 90
      256
102
RTVSPost2010Prop51ColorRGB
 90
-16777216
102
RTVSPost2010PropOp51
 70
     0
102
RTVSPost2010Prop52
140
1.0
102
RTVSPost2010PropOp52
 70
     0
102
RTVSPost2010Prop53
 90
        2
102
RTVSPost2010PropOp53
 70
     1
102
RTVSPost2010Prop54
  1
strokes_ogs.tif
102
RTVSPost2010PropOp54
 70
     1
102
RTVSPost2010Prop55
280
     0
102
RTVSPost2010PropOp55
 70
     1
102
RTVSPost2010Prop56
140
1.0
102
RTVSPost2010PropOp56
 70
     1
102
RTVSPost2010Prop57
140
1.0
102
RTVSPost2010PropOp57
 70
     1
102
RTVSPropertyOp0
 70
     1
102
RTVSPropertyOp1
 70
     1
102
RTVSPropertyOp2
 70
     1
102
RTVSPropertyOp3
 70
     1
102
RTVSPropertyOp4
 70
     1
102
RTVSPropertyOp5
 70
     1
102
RTVSPropertyOp6
 70
     1
102
RTVSPropertyOp7
 70
     1
102
RTVSPropertyOp8
 70
     1
102
RTVSPropertyOp9
 70
     1
102
RTVSPropertyOp10
 70
     1
102
RTVSPropertyOp11
 70
     1
102
RTVSPropertyOp12
 70
     1
102
RTVSPropertyOp13
 70
     1
102
RTVSPropertyOp14
 70
     1
102
RTVSPropertyOp15
 70
     1
102
RTVSPropertyOp16
 70
     1
102
RTVSPropertyOp17
 70
     1
102
RTVSPropertyOp18
 70
     1
102
RTVSPropertyOp19
 70
     1
102
RTVSPropertyOp20
 70
     1
102
RTVSPropertyOp21
 70
     1
102
RTVSPropertyOp22
 70
     1
102
RTVSPropertyOp23
 70
     1
102
RTVSPropertyOp24
 70
     1
102
RTVSPropertyOp25
 70
     1
102
RTVSPropertyOp26
 70
     1
102
RTVSPropertyOp27
 70
     1
102
RTVSPropertyOp28
 70
     1
102
RTVSPropertyOp29
 70
     1
102
RTVSPropertyOp30
 70
     1
102
RTVSPropertyOp31
 70
     1
102
RTVSPropertyOp32
 70
     1
102
RTVSPropertyOp33
 70
     1
102
RTVSPropertyOp34
 70
     1
102
RTVSPropertyOp35
 70
     1
102
RTVSPropertyOp36
 70
     1
102
RTVSPropertyOp37
 70
     1
102
RTVSPropertyOp38
 70
     1
102
RTVSPropertyOp39
 70
     1
102
RTVSPropertyOp40
 70
     1
102
RTVSPropertyOp41
 70
     1
102
RTVSPropertyOp42
 70
     1
102
RTVSPropertyOp43
 70
     1
102
RTVSPropertyOp44
 70
     1
102
RTVSPropertyOp45
 70
     1
102
RTVSPropertyOp46
 70
     1
102
RTVSPropertyOp47
 70
     1
102
RTVSPropertyOp48
 70
     1
102
RTVSPropertyOp49
 70
     1
102
RTVSPropertyOp50
 70
     1
102
RTVSPropertyOp51
 70
     0
102
RTVSPropertyOp52
 70
     0
102
RTVSPropertyOp53
 70
     1
102
RTVSPropertyOp54
 70
     1
102
RTVSPropertyOp55
 70
     1
102
RTVSPropertyOp56
 70
     1
102
RTVSPropertyOp57
 70
     1
102
RTVSPropertyOp58
 70
     1
102
RTVSPropertyOp59
 70
     1
102
RTVSPropertyOp60
 70
     1
102
RTVSPropertyOp61
 70
     1
102
RTVSPropertyOp62
 70
     1
  0
XRECORD
  5
DE6A
102
{ACAD_REACTORS
330
DE69
102
}
330
DE69
100
AcDbXrecord
280
     1
102
RTVSPost2010Prop28
280
     0
102
RTVSPost2010PropOp28
 70
     1
102
RTVSPost2010Prop29
280
     1
102
RTVSPost2010PropOp29
 70
     1
102
RTVSPost2010Prop30
280
     1
102
RTVSPost2010PropOp30
 70
     1
102
RTVSPost2010Prop31
280
     0
102
RTVSPost2010PropOp31
 70
     1
102
RTVSPost2010Prop32
280
     0
102
RTVSPost2010PropOp32
 70
     1
102
RTVSPost2010Prop33
280
     0
102
RTVSPost2010PropOp33
 70
     1
102
RTVSPost2010Prop34
280
     0
102
RTVSPost2010PropOp34
 70
     1
102
RTVSPost2010Prop35
280
     0
102
RTVSPost2010PropOp35
 70
     1
102
RTVSPost2010Prop36
280
     0
102
RTVSPost2010PropOp36
 70
     1
102
RTVSPost2010Prop37
 90
       50
102
RTVSPost2010PropOp37
 70
     1
102
RTVSPost2010Prop38
140
0.0
102
RTVSPost2010PropOp38
 70
     1
102
RTVSPost2010Prop39
140
1.0
102
RTVSPost2010PropOp39
 70
     1
102
RTVSPost2010Prop40
 90
        0
102
RTVSPost2010PropOp40
 70
     1
102
RTVSPost2010Prop41ColorIndex
 90
       18
102
RTVSPost2010Prop41ColorRGB
 90
        0
102
RTVSPost2010PropOp41
 70
     1
102
RTVSPost2010Prop42
 90
       50
102
RTVSPost2010PropOp42
 70
     1
102
RTVSPost2010Prop43
 90
        3
102
RTVSPost2010PropOp43
 70
     1
102
RTVSPost2010Prop44ColorIndex
 90
        5
102
RTVSPost2010Prop44ColorRGB
 90
      255
102
RTVSPost2010PropOp44
 70
     1
102
RTVSPost2010Prop45
280
     0
102
RTVSPost2010PropOp45
 70
     1
102
RTVSPost2010Prop46
 90
       50
102
RTVSPost2010PropOp46
 70
     1
102
RTVSPost2010Prop47
 90
       50
102
RTVSPost2010PropOp47
 70
     1
102
RTVSPost2010Prop48
 90
       50
102
RTVSPost2010PropOp48
 70
     1
102
RTVSPost2010Prop49
280
     0
102
RTVSPost2010PropOp49
 70
     1
102
RTVSPost2010Prop50
 90
       50
102
RTVSPost2010PropOp50
 70
     1
102
RTVSPost2010Prop51ColorIndex
 90
      256
102
RTVSPost2010Prop51ColorRGB
 90
-16777216
102
RTVSPost2010PropOp51
 70
     0
102
RTVSPost2010Prop52
140
1.0
102
RTVSPost2010PropOp52
 70
     0
102
RTVSPost2010Prop53
 90
        2
102
RTVSPost2010PropOp53
 70
     1
102
RTVSPost2010Prop54
  1
strokes_ogs.tif
102
RTVSPost2010PropOp54
 70
     1
102
RTVSPost2010Prop55
280
     0
102
RTVSPost2010PropOp55
 70
     1
102
RTVSPost2010Prop56
140
1.0
102
RTVSPost2010PropOp56
 70
     1
102
RTVSPost2010Prop57
140
1.0
102
RTVSPost2010PropOp57
 70
     1
102
RTVSPropertyOp0
 70
     1
102
RTVSPropertyOp1
 70
     1
102
RTVSPropertyOp2
 70
     1
102
RTVSPropertyOp3
 70
     1
102
RTVSPropertyOp4
 70
     1
102
RTVSPropertyOp5
 70
     1
102
RTVSPropertyOp6
 70
     1
102
RTVSPropertyOp7
 70
     1
102
RTVSPropertyOp8
 70
     1
102
RTVSPropertyOp9
 70
     1
102
RTVSPropertyOp10
 70
     1
102
RTVSPropertyOp11
 70
     1
102
RTVSPropertyOp12
 70
     1
102
RTVSPropertyOp13
 70
     1
102
RTVSPropertyOp14
 70
     1
102
RTVSPropertyOp15
 70
     1
102
RTVSPropertyOp16
 70
     1
102
RTVSPropertyOp17
 70
     1
102
RTVSPropertyOp18
 70
     1
102
RTVSPropertyOp19
 70
     1
102
RTVSPropertyOp20
 70
     1
102
RTVSPropertyOp21
 70
     1
102
RTVSPropertyOp22
 70
     1
102
RTVSPropertyOp23
 70
     1
102
RTVSPropertyOp24
 70
     1
102
RTVSPropertyOp25
 70
     1
102
RTVSPropertyOp26
 70
     1
102
RTVSPropertyOp27
 70
     1
102
RTVSPropertyOp28
 70
     1
102
RTVSPropertyOp29
 70
     1
102
RTVSPropertyOp30
 70
     1
102
RTVSPropertyOp31
 70
     1
102
RTVSPropertyOp32
 70
     1
102
RTVSPropertyOp33
 70
     1
102
RTVSPropertyOp34
 70
     1
102
RTVSPropertyOp35
 70
     1
102
RTVSPropertyOp36
 70
     1
102
RTVSPropertyOp37
 70
     1
102
RTVSPropertyOp38
 70
     1
102
RTVSPropertyOp39
 70
     1
102
RTVSPropertyOp40
 70
     1
102
RTVSPropertyOp41
 70
     1
102
RTVSPropertyOp42
 70
     1
102
RTVSPropertyOp43
 70
     1
102
RTVSPropertyOp44
 70
     1
102
RTVSPropertyOp45
 70
     1
102
RTVSPropertyOp46
 70
     1
102
RTVSPropertyOp47
 70
     1
102
RTVSPropertyOp48
 70
     1
102
RTVSPropertyOp49
 70
     1
102
RTVSPropertyOp50
 70
     1
102
RTVSPropertyOp51
 70
     0
102
RTVSPropertyOp52
 70
     0
102
RTVSPropertyOp53
 70
     1
102
RTVSPropertyOp54
 70
     1
102
RTVSPropertyOp55
 70
     1
102
RTVSPropertyOp56
 70
     1
102
RTVSPropertyOp57
 70
     1
102
RTVSPropertyOp58
 70
     1
102
RTVSPropertyOp59
 70
     1
102
RTVSPropertyOp60
 70
     1
102
RTVSPropertyOp61
 70
     1
102
RTVSPropertyOp62
 70
     1
  0
XRECORD
  5
DE72
102
{ACAD_REACTORS
330
DE71
102
}
330
DE71
100
AcDbXrecord
280
     1
102
RTVSPost2010Prop28
280
     0
102
RTVSPost2010PropOp28
 70
     1
102
RTVSPost2010Prop29
280
     1
102
RTVSPost2010PropOp29
 70
     1
102
RTVSPost2010Prop30
280
     1
102
RTVSPost2010PropOp30
 70
     1
102
RTVSPost2010Prop31
280
     0
102
RTVSPost2010PropOp31
 70
     1
102
RTVSPost2010Prop32
280
     0
102
RTVSPost2010PropOp32
 70
     1
102
RTVSPost2010Prop33
280
     0
102
RTVSPost2010PropOp33
 70
     1
102
RTVSPost2010Prop34
280
     0
102
RTVSPost2010PropOp34
 70
     1
102
RTVSPost2010Prop35
280
     0
102
RTVSPost2010PropOp35
 70
     1
102
RTVSPost2010Prop36
280
     0
102
RTVSPost2010PropOp36
 70
     1
102
RTVSPost2010Prop37
 90
       50
102
RTVSPost2010PropOp37
 70
     1
102
RTVSPost2010Prop38
140
0.0
102
RTVSPost2010PropOp38
 70
     1
102
RTVSPost2010Prop39
140
1.0
102
RTVSPost2010PropOp39
 70
     1
102
RTVSPost2010Prop40
 90
        0
102
RTVSPost2010PropOp40
 70
     1
102
RTVSPost2010Prop41ColorIndex
 90
       18
102
RTVSPost2010Prop41ColorRGB
 90
        0
102
RTVSPost2010PropOp41
 70
     1
102
RTVSPost2010Prop42
 90
       50
102
RTVSPost2010PropOp42
 70
     1
102
RTVSPost2010Prop43
 90
        3
102
RTVSPost2010PropOp43
 70
     1
102
RTVSPost2010Prop44ColorIndex
 90
        5
102
RTVSPost2010Prop44ColorRGB
 90
      255
102
RTVSPost2010PropOp44
 70
     1
102
RTVSPost2010Prop45
280
     0
102
RTVSPost2010PropOp45
 70
     1
102
RTVSPost2010Prop46
 90
       50
102
RTVSPost2010PropOp46
 70
     1
102
RTVSPost2010Prop47
 90
       50
102
RTVSPost2010PropOp47
 70
     1
102
RTVSPost2010Prop48
 90
       50
102
RTVSPost2010PropOp48
 70
     1
102
RTVSPost2010Prop49
280
     0
102
RTVSPost2010PropOp49
 70
     1
102
RTVSPost2010Prop50
 90
       50
102
RTVSPost2010PropOp50
 70
     1
102
RTVSPost2010Prop51ColorIndex
 90
      256
102
RTVSPost2010Prop51ColorRGB
 90
-16777216
102
RTVSPost2010PropOp51
 70
     0
102
RTVSPost2010Prop52
140
1.0
102
RTVSPost2010PropOp52
 70
     0
102
RTVSPost2010Prop53
 90
        2
102
RTVSPost2010PropOp53
 70
     1
102
RTVSPost2010Prop54
  1
strokes_ogs.tif
102
RTVSPost2010PropOp54
 70
     1
102
RTVSPost2010Prop55
280
     0
102
RTVSPost2010PropOp55
 70
     1
102
RTVSPost2010Prop56
140
1.0
102
RTVSPost2010PropOp56
 70
     1
102
RTVSPost2010Prop57
140
1.0
102
RTVSPost2010PropOp57
 70
     1
102
RTVSPropertyOp0
 70
     1
102
RTVSPropertyOp1
 70
     1
102
RTVSPropertyOp2
 70
     1
102
RTVSPropertyOp3
 70
     1
102
RTVSPropertyOp4
 70
     1
102
RTVSPropertyOp5
 70
     1
102
RTVSPropertyOp6
 70
     1
102
RTVSPropertyOp7
 70
     1
102
RTVSPropertyOp8
 70
     1
102
RTVSPropertyOp9
 70
     1
102
RTVSPropertyOp10
 70
     1
102
RTVSPropertyOp11
 70
     1
102
RTVSPropertyOp12
 70
     1
102
RTVSPropertyOp13
 70
     1
102
RTVSPropertyOp14
 70
     1
102
RTVSPropertyOp15
 70
     1
102
RTVSPropertyOp16
 70
     1
102
RTVSPropertyOp17
 70
     1
102
RTVSPropertyOp18
 70
     1
102
RTVSPropertyOp19
 70
     1
102
RTVSPropertyOp20
 70
     1
102
RTVSPropertyOp21
 70
     1
102
RTVSPropertyOp22
 70
     1
102
RTVSPropertyOp23
 70
     1
102
RTVSPropertyOp24
 70
     1
102
RTVSPropertyOp25
 70
     1
102
RTVSPropertyOp26
 70
     1
102
RTVSPropertyOp27
 70
     1
102
RTVSPropertyOp28
 70
     1
102
RTVSPropertyOp29
 70
     1
102
RTVSPropertyOp30
 70
     1
102
RTVSPropertyOp31
 70
     1
102
RTVSPropertyOp32
 70
     1
102
RTVSPropertyOp33
 70
     1
102
RTVSPropertyOp34
 70
     1
102
RTVSPropertyOp35
 70
     1
102
RTVSPropertyOp36
 70
     1
102
RTVSPropertyOp37
 70
     1
102
RTVSPropertyOp38
 70
     1
102
RTVSPropertyOp39
 70
     1
102
RTVSPropertyOp40
 70
     1
102
RTVSPropertyOp41
 70
     1
102
RTVSPropertyOp42
 70
     1
102
RTVSPropertyOp43
 70
     1
102
RTVSPropertyOp44
 70
     1
102
RTVSPropertyOp45
 70
     1
102
RTVSPropertyOp46
 70
     1
102
RTVSPropertyOp47
 70
     1
102
RTVSPropertyOp48
 70
     1
102
RTVSPropertyOp49
 70
     1
102
RTVSPropertyOp50
 70
     1
102
RTVSPropertyOp51
 70
     0
102
RTVSPropertyOp52
 70
     0
102
RTVSPropertyOp53
 70
     1
102
RTVSPropertyOp54
 70
     1
102
RTVSPropertyOp55
 70
     1
102
RTVSPropertyOp56
 70
     1
102
RTVSPropertyOp57
 70
     1
102
RTVSPropertyOp58
 70
     1
102
RTVSPropertyOp59
 70
     1
102
RTVSPropertyOp60
 70
     1
102
RTVSPropertyOp61
 70
     1
102
RTVSPropertyOp62
 70
     1
  0
XRECORD
  5
DE64
102
{ACAD_REACTORS
330
DE63
102
}
330
DE63
100
AcDbXrecord
280
     1
102
RTVSPost2010Prop28
280
     0
102
RTVSPost2010PropOp28
 70
     1
102
RTVSPost2010Prop29
280
     1
102
RTVSPost2010PropOp29
 70
     1
102
RTVSPost2010Prop30
280
     1
102
RTVSPost2010PropOp30
 70
     1
102
RTVSPost2010Prop31
280
     0
102
RTVSPost2010PropOp31
 70
     1
102
RTVSPost2010Prop32
280
     0
102
RTVSPost2010PropOp32
 70
     1
102
RTVSPost2010Prop33
280
     0
102
RTVSPost2010PropOp33
 70
     1
102
RTVSPost2010Prop34
280
     0
102
RTVSPost2010PropOp34
 70
     1
102
RTVSPost2010Prop35
280
     0
102
RTVSPost2010PropOp35
 70
     1
102
RTVSPost2010Prop36
280
     0
102
RTVSPost2010PropOp36
 70
     1
102
RTVSPost2010Prop37
 90
       50
102
RTVSPost2010PropOp37
 70
     1
102
RTVSPost2010Prop38
140
0.0
102
RTVSPost2010PropOp38
 70
     1
102
RTVSPost2010Prop39
140
1.0
102
RTVSPost2010PropOp39
 70
     1
102
RTVSPost2010Prop40
 90
        0
102
RTVSPost2010PropOp40
 70
     1
102
RTVSPost2010Prop41ColorIndex
 90
       18
102
RTVSPost2010Prop41ColorRGB
 90
        0
102
RTVSPost2010PropOp41
 70
     1
102
RTVSPost2010Prop42
 90
       50
102
RTVSPost2010PropOp42
 70
     1
102
RTVSPost2010Prop43
 90
        3
102
RTVSPost2010PropOp43
 70
     1
102
RTVSPost2010Prop44ColorIndex
 90
        5
102
RTVSPost2010Prop44ColorRGB
 90
      255
102
RTVSPost2010PropOp44
 70
     1
102
RTVSPost2010Prop45
280
     0
102
RTVSPost2010PropOp45
 70
     1
102
RTVSPost2010Prop46
 90
       50
102
RTVSPost2010PropOp46
 70
     1
102
RTVSPost2010Prop47
 90
       50
102
RTVSPost2010PropOp47
 70
     1
102
RTVSPost2010Prop48
 90
       50
102
RTVSPost2010PropOp48
 70
     1
102
RTVSPost2010Prop49
280
     0
102
RTVSPost2010PropOp49
 70
     1
102
RTVSPost2010Prop50
 90
       50
102
RTVSPost2010PropOp50
 70
     1
102
RTVSPost2010Prop51ColorIndex
 90
      256
102
RTVSPost2010Prop51ColorRGB
 90
-16777216
102
RTVSPost2010PropOp51
 70
     0
102
RTVSPost2010Prop52
140
1.0
102
RTVSPost2010PropOp52
 70
     0
102
RTVSPost2010Prop53
 90
        2
102
RTVSPost2010PropOp53
 70
     1
102
RTVSPost2010Prop54
  1
strokes_ogs.tif
102
RTVSPost2010PropOp54
 70
     1
102
RTVSPost2010Prop55
280
     0
102
RTVSPost2010PropOp55
 70
     1
102
RTVSPost2010Prop56
140
1.0
102
RTVSPost2010PropOp56
 70
     1
102
RTVSPost2010Prop57
140
1.0
102
RTVSPost2010PropOp57
 70
     1
102
RTVSPropertyOp0
 70
     1
102
RTVSPropertyOp1
 70
     1
102
RTVSPropertyOp2
 70
     1
102
RTVSPropertyOp3
 70
     1
102
RTVSPropertyOp4
 70
     1
102
RTVSPropertyOp5
 70
     1
102
RTVSPropertyOp6
 70
     1
102
RTVSPropertyOp7
 70
     1
102
RTVSPropertyOp8
 70
     1
102
RTVSPropertyOp9
 70
     1
102
RTVSPropertyOp10
 70
     1
102
RTVSPropertyOp11
 70
     1
102
RTVSPropertyOp12
 70
     1
102
RTVSPropertyOp13
 70
     1
102
RTVSPropertyOp14
 70
     1
102
RTVSPropertyOp15
 70
     1
102
RTVSPropertyOp16
 70
     1
102
RTVSPropertyOp17
 70
     1
102
RTVSPropertyOp18
 70
     1
102
RTVSPropertyOp19
 70
     1
102
RTVSPropertyOp20
 70
     1
102
RTVSPropertyOp21
 70
     1
102
RTVSPropertyOp22
 70
     1
102
RTVSPropertyOp23
 70
     1
102
RTVSPropertyOp24
 70
     1
102
RTVSPropertyOp25
 70
     1
102
RTVSPropertyOp26
 70
     1
102
RTVSPropertyOp27
 70
     1
102
RTVSPropertyOp28
 70
     1
102
RTVSPropertyOp29
 70
     1
102
RTVSPropertyOp30
 70
     1
102
RTVSPropertyOp31
 70
     1
102
RTVSPropertyOp32
 70
     1
102
RTVSPropertyOp33
 70
     1
102
RTVSPropertyOp34
 70
     1
102
RTVSPropertyOp35
 70
     1
102
RTVSPropertyOp36
 70
     1
102
RTVSPropertyOp37
 70
     1
102
RTVSPropertyOp38
 70
     1
102
RTVSPropertyOp39
 70
     1
102
RTVSPropertyOp40
 70
     1
102
RTVSPropertyOp41
 70
     1
102
RTVSPropertyOp42
 70
     1
102
RTVSPropertyOp43
 70
     1
102
RTVSPropertyOp44
 70
     1
102
RTVSPropertyOp45
 70
     1
102
RTVSPropertyOp46
 70
     1
102
RTVSPropertyOp47
 70
     1
102
RTVSPropertyOp48
 70
     1
102
RTVSPropertyOp49
 70
     1
102
RTVSPropertyOp50
 70
     1
102
RTVSPropertyOp51
 70
     0
102
RTVSPropertyOp52
 70
     0
102
RTVSPropertyOp53
 70
     1
102
RTVSPropertyOp54
 70
     1
102
RTVSPropertyOp55
 70
     1
102
RTVSPropertyOp56
 70
     1
102
RTVSPropertyOp57
 70
     1
102
RTVSPropertyOp58
 70
     1
102
RTVSPropertyOp59
 70
     1
102
RTVSPropertyOp60
 70
     1
102
RTVSPropertyOp61
 70
     1
102
RTVSPropertyOp62
 70
     1
  0
XRECORD
  5
DE68
102
{ACAD_REACTORS
330
DE67
102
}
330
DE67
100
AcDbXrecord
280
     1
102
RTVSPost2010Prop28
280
     0
102
RTVSPost2010PropOp28
 70
     1
102
RTVSPost2010Prop29
280
     1
102
RTVSPost2010PropOp29
 70
     1
102
RTVSPost2010Prop30
280
     1
102
RTVSPost2010PropOp30
 70
     1
102
RTVSPost2010Prop31
280
     0
102
RTVSPost2010PropOp31
 70
     1
102
RTVSPost2010Prop32
280
     0
102
RTVSPost2010PropOp32
 70
     1
102
RTVSPost2010Prop33
280
     0
102
RTVSPost2010PropOp33
 70
     1
102
RTVSPost2010Prop34
280
     0
102
RTVSPost2010PropOp34
 70
     1
102
RTVSPost2010Prop35
280
     0
102
RTVSPost2010PropOp35
 70
     1
102
RTVSPost2010Prop36
280
     0
102
RTVSPost2010PropOp36
 70
     1
102
RTVSPost2010Prop37
 90
       50
102
RTVSPost2010PropOp37
 70
     1
102
RTVSPost2010Prop38
140
0.0
102
RTVSPost2010PropOp38
 70
     1
102
RTVSPost2010Prop39
140
1.0
102
RTVSPost2010PropOp39
 70
     1
102
RTVSPost2010Prop40
 90
        0
102
RTVSPost2010PropOp40
 70
     1
102
RTVSPost2010Prop41ColorIndex
 90
       18
102
RTVSPost2010Prop41ColorRGB
 90
        0
102
RTVSPost2010PropOp41
 70
     1
102
RTVSPost2010Prop42
 90
       50
102
RTVSPost2010PropOp42
 70
     1
102
RTVSPost2010Prop43
 90
        3
102
RTVSPost2010PropOp43
 70
     1
102
RTVSPost2010Prop44ColorIndex
 90
        5
102
RTVSPost2010Prop44ColorRGB
 90
      255
102
RTVSPost2010PropOp44
 70
     1
102
RTVSPost2010Prop45
280
     0
102
RTVSPost2010PropOp45
 70
     1
102
RTVSPost2010Prop46
 90
       50
102
RTVSPost2010PropOp46
 70
     1
102
RTVSPost2010Prop47
 90
       50
102
RTVSPost2010PropOp47
 70
     1
102
RTVSPost2010Prop48
 90
       50
102
RTVSPost2010PropOp48
 70
     1
102
RTVSPost2010Prop49
280
     0
102
RTVSPost2010PropOp49
 70
     1
102
RTVSPost2010Prop50
 90
       50
102
RTVSPost2010PropOp50
 70
     1
102
RTVSPost2010Prop51ColorIndex
 90
      256
102
RTVSPost2010Prop51ColorRGB
 90
-16777216
102
RTVSPost2010PropOp51
 70
     0
102
RTVSPost2010Prop52
140
1.0
102
RTVSPost2010PropOp52
 70
     0
102
RTVSPost2010Prop53
 90
        2
102
RTVSPost2010PropOp53
 70
     1
102
RTVSPost2010Prop54
  1
strokes_ogs.tif
102
RTVSPost2010PropOp54
 70
     1
102
RTVSPost2010Prop55
280
     0
102
RTVSPost2010PropOp55
 70
     1
102
RTVSPost2010Prop56
140
1.0
102
RTVSPost2010PropOp56
 70
     1
102
RTVSPost2010Prop57
140
1.0
102
RTVSPost2010PropOp57
 70
     1
102
RTVSPropertyOp0
 70
     1
102
RTVSPropertyOp1
 70
     1
102
RTVSPropertyOp2
 70
     1
102
RTVSPropertyOp3
 70
     1
102
RTVSPropertyOp4
 70
     1
102
RTVSPropertyOp5
 70
     1
102
RTVSPropertyOp6
 70
     1
102
RTVSPropertyOp7
 70
     1
102
RTVSPropertyOp8
 70
     1
102
RTVSPropertyOp9
 70
     1
102
RTVSPropertyOp10
 70
     1
102
RTVSPropertyOp11
 70
     1
102
RTVSPropertyOp12
 70
     1
102
RTVSPropertyOp13
 70
     1
102
RTVSPropertyOp14
 70
     1
102
RTVSPropertyOp15
 70
     1
102
RTVSPropertyOp16
 70
     1
102
RTVSPropertyOp17
 70
     1
102
RTVSPropertyOp18
 70
     1
102
RTVSPropertyOp19
 70
     1
102
RTVSPropertyOp20
 70
     1
102
RTVSPropertyOp21
 70
     1
102
RTVSPropertyOp22
 70
     1
102
RTVSPropertyOp23
 70
     1
102
RTVSPropertyOp24
 70
     1
102
RTVSPropertyOp25
 70
     1
102
RTVSPropertyOp26
 70
     1
102
RTVSPropertyOp27
 70
     1
102
RTVSPropertyOp28
 70
     1
102
RTVSPropertyOp29
 70
     1
102
RTVSPropertyOp30
 70
     1
102
RTVSPropertyOp31
 70
     1
102
RTVSPropertyOp32
 70
     1
102
RTVSPropertyOp33
 70
     1
102
RTVSPropertyOp34
 70
     1
102
RTVSPropertyOp35
 70
     1
102
RTVSPropertyOp36
 70
     1
102
RTVSPropertyOp37
 70
     1
102
RTVSPropertyOp38
 70
     1
102
RTVSPropertyOp39
 70
     1
102
RTVSPropertyOp40
 70
     1
102
RTVSPropertyOp41
 70
     1
102
RTVSPropertyOp42
 70
     1
102
RTVSPropertyOp43
 70
     1
102
RTVSPropertyOp44
 70
     1
102
RTVSPropertyOp45
 70
     1
102
RTVSPropertyOp46
 70
     1
102
RTVSPropertyOp47
 70
     1
102
RTVSPropertyOp48
 70
     1
102
RTVSPropertyOp49
 70
     1
102
RTVSPropertyOp50
 70
     1
102
RTVSPropertyOp51
 70
     0
102
RTVSPropertyOp52
 70
     0
102
RTVSPropertyOp53
 70
     1
102
RTVSPropertyOp54
 70
     1
102
RTVSPropertyOp55
 70
     1
102
RTVSPropertyOp56
 70
     1
102
RTVSPropertyOp57
 70
     1
102
RTVSPropertyOp58
 70
     1
102
RTVSPropertyOp59
 70
     1
102
RTVSPropertyOp60
 70
     1
102
RTVSPropertyOp61
 70
     1
102
RTVSPropertyOp62
 70
     1
  0
XRECORD
  5
DE7A
102
{ACAD_REACTORS
330
DE79
102
}
330
DE79
100
AcDbXrecord
280
     1
102
RTVSPost2010Prop28
280
     0
102
RTVSPost2010PropOp28
 70
     1
102
RTVSPost2010Prop29
280
     1
102
RTVSPost2010PropOp29
 70
     1
102
RTVSPost2010Prop30
280
     1
102
RTVSPost2010PropOp30
 70
     1
102
RTVSPost2010Prop31
280
     0
102
RTVSPost2010PropOp31
 70
     1
102
RTVSPost2010Prop32
280
     0
102
RTVSPost2010PropOp32
 70
     1
102
RTVSPost2010Prop33
280
     0
102
RTVSPost2010PropOp33
 70
     1
102
RTVSPost2010Prop34
280
     0
102
RTVSPost2010PropOp34
 70
     1
102
RTVSPost2010Prop35
280
     0
102
RTVSPost2010PropOp35
 70
     1
102
RTVSPost2010Prop36
280
     0
102
RTVSPost2010PropOp36
 70
     1
102
RTVSPost2010Prop37
 90
       50
102
RTVSPost2010PropOp37
 70
     1
102
RTVSPost2010Prop38
140
0.0
102
RTVSPost2010PropOp38
 70
     1
102
RTVSPost2010Prop39
140
1.0
102
RTVSPost2010PropOp39
 70
     1
102
RTVSPost2010Prop40
 90
        0
102
RTVSPost2010PropOp40
 70
     1
102
RTVSPost2010Prop41ColorIndex
 90
       18
102
RTVSPost2010Prop41ColorRGB
 90
        0
102
RTVSPost2010PropOp41
 70
     1
102
RTVSPost2010Prop42
 90
       50
102
RTVSPost2010PropOp42
 70
     1
102
RTVSPost2010Prop43
 90
        3
102
RTVSPost2010PropOp43
 70
     1
102
RTVSPost2010Prop44ColorIndex
 90
        5
102
RTVSPost2010Prop44ColorRGB
 90
      255
102
RTVSPost2010PropOp44
 70
     1
102
RTVSPost2010Prop45
280
     0
102
RTVSPost2010PropOp45
 70
     1
102
RTVSPost2010Prop46
 90
       50
102
RTVSPost2010PropOp46
 70
     1
102
RTVSPost2010Prop47
 90
       50
102
RTVSPost2010PropOp47
 70
     1
102
RTVSPost2010Prop48
 90
       50
102
RTVSPost2010PropOp48
 70
     1
102
RTVSPost2010Prop49
280
     0
102
RTVSPost2010PropOp49
 70
     1
102
RTVSPost2010Prop50
 90
       50
102
RTVSPost2010PropOp50
 70
     1
102
RTVSPost2010Prop51ColorIndex
 90
      256
102
RTVSPost2010Prop51ColorRGB
 90
-16777216
102
RTVSPost2010PropOp51
 70
     0
102
RTVSPost2010Prop52
140
1.0
102
RTVSPost2010PropOp52
 70
     0
102
RTVSPost2010Prop53
 90
        2
102
RTVSPost2010PropOp53
 70
     1
102
RTVSPost2010Prop54
  1
strokes_ogs.tif
102
RTVSPost2010PropOp54
 70
     1
102
RTVSPost2010Prop55
280
     0
102
RTVSPost2010PropOp55
 70
     1
102
RTVSPost2010Prop56
140
1.0
102
RTVSPost2010PropOp56
 70
     1
102
RTVSPost2010Prop57
140
1.0
102
RTVSPost2010PropOp57
 70
     1
102
RTVSPropertyOp0
 70
     0
102
RTVSPropertyOp1
 70
     0
102
RTVSPropertyOp2
 70
     0
102
RTVSPropertyOp3
 70
     0
102
RTVSPropertyOp4
 70
     0
102
RTVSPropertyOp5
 70
     0
102
RTVSPropertyOp6
 70
     0
102
RTVSPropertyOp7
 70
     0
102
RTVSPropertyOp8
 70
     0
102
RTVSPropertyOp9
 70
     0
102
RTVSPropertyOp10
 70
     0
102
RTVSPropertyOp11
 70
     0
102
RTVSPropertyOp12
 70
     0
102
RTVSPropertyOp13
 70
     0
102
RTVSPropertyOp14
 70
     2
102
RTVSPropertyOp15
 70
     0
102
RTVSPropertyOp16
 70
     0
102
RTVSPropertyOp17
 70
     0
102
RTVSPropertyOp18
 70
     0
102
RTVSPropertyOp19
 70
     0
102
RTVSPropertyOp20
 70
     0
102
RTVSPropertyOp21
 70
     0
102
RTVSPropertyOp22
 70
     0
102
RTVSPropertyOp23
 70
     0
102
RTVSPropertyOp24
 70
     0
102
RTVSPropertyOp25
 70
     0
102
RTVSPropertyOp26
 70
     0
102
RTVSPropertyOp27
 70
     0
102
RTVSPropertyOp28
 70
     1
102
RTVSPropertyOp29
 70
     1
102
RTVSPropertyOp30
 70
     1
102
RTVSPropertyOp31
 70
     1
102
RTVSPropertyOp32
 70
     1
102
RTVSPropertyOp33
 70
     1
102
RTVSPropertyOp34
 70
     1
102
RTVSPropertyOp35
 70
     1
102
RTVSPropertyOp36
 70
     1
102
RTVSPropertyOp37
 70
     1
102
RTVSPropertyOp38
 70
     1
102
RTVSPropertyOp39
 70
     1
102
RTVSPropertyOp40
 70
     1
102
RTVSPropertyOp41
 70
     1
102
RTVSPropertyOp42
 70
     1
102
RTVSPropertyOp43
 70
     1
102
RTVSPropertyOp44
 70
     1
102
RTVSPropertyOp45
 70
     1
102
RTVSPropertyOp46
 70
     1
102
RTVSPropertyOp47
 70
     1
102
RTVSPropertyOp48
 70
     1
102
RTVSPropertyOp49
 70
     1
102
RTVSPropertyOp50
 70
     1
102
RTVSPropertyOp51
 70
     0
102
RTVSPropertyOp52
 70
     0
102
RTVSPropertyOp53
 70
     1
102
RTVSPropertyOp54
 70
     1
102
RTVSPropertyOp55
 70
     1
102
RTVSPropertyOp56
 70
     1
102
RTVSPropertyOp57
 70
     1
102
RTVSPropertyOp58
 70
     1
102
RTVSPropertyOp59
 70
     1
102
RTVSPropertyOp60
 70
     1
102
RTVSPropertyOp61
 70
     1
102
RTVSPropertyOp62
 70
     1
  0
XRECORD
  5
DE70
102
{ACAD_REACTORS
330
DE6F
102
}
330
DE6F
100
AcDbXrecord
280
     1
102
RTVSPost2010Prop28
280
     0
102
RTVSPost2010PropOp28
 70
     1
102
RTVSPost2010Prop29
280
     1
102
RTVSPost2010PropOp29
 70
     1
102
RTVSPost2010Prop30
280
     1
102
RTVSPost2010PropOp30
 70
     1
102
RTVSPost2010Prop31
280
     0
102
RTVSPost2010PropOp31
 70
     1
102
RTVSPost2010Prop32
280
     0
102
RTVSPost2010PropOp32
 70
     1
102
RTVSPost2010Prop33
280
     0
102
RTVSPost2010PropOp33
 70
     1
102
RTVSPost2010Prop34
280
     0
102
RTVSPost2010PropOp34
 70
     1
102
RTVSPost2010Prop35
280
     0
102
RTVSPost2010PropOp35
 70
     1
102
RTVSPost2010Prop36
280
     0
102
RTVSPost2010PropOp36
 70
     1
102
RTVSPost2010Prop37
 90
       50
102
RTVSPost2010PropOp37
 70
     1
102
RTVSPost2010Prop38
140
0.0
102
RTVSPost2010PropOp38
 70
     1
102
RTVSPost2010Prop39
140
1.0
102
RTVSPost2010PropOp39
 70
     1
102
RTVSPost2010Prop40
 90
        0
102
RTVSPost2010PropOp40
 70
     1
102
RTVSPost2010Prop41ColorIndex
 90
       18
102
RTVSPost2010Prop41ColorRGB
 90
        0
102
RTVSPost2010PropOp41
 70
     1
102
RTVSPost2010Prop42
 90
       50
102
RTVSPost2010PropOp42
 70
     1
102
RTVSPost2010Prop43
 90
        3
102
RTVSPost2010PropOp43
 70
     1
102
RTVSPost2010Prop44ColorIndex
 90
        5
102
RTVSPost2010Prop44ColorRGB
 90
      255
102
RTVSPost2010PropOp44
 70
     1
102
RTVSPost2010Prop45
280
     0
102
RTVSPost2010PropOp45
 70
     1
102
RTVSPost2010Prop46
 90
       50
102
RTVSPost2010PropOp46
 70
     1
102
RTVSPost2010Prop47
 90
       50
102
RTVSPost2010PropOp47
 70
     1
102
RTVSPost2010Prop48
 90
       50
102
RTVSPost2010PropOp48
 70
     1
102
RTVSPost2010Prop49
280
     0
102
RTVSPost2010PropOp49
 70
     1
102
RTVSPost2010Prop50
 90
       50
102
RTVSPost2010PropOp50
 70
     1
102
RTVSPost2010Prop51ColorIndex
 90
      256
102
RTVSPost2010Prop51ColorRGB
 90
-16777216
102
RTVSPost2010PropOp51
 70
     0
102
RTVSPost2010Prop52
140
1.0
102
RTVSPost2010PropOp52
 70
     0
102
RTVSPost2010Prop53
 90
        2
102
RTVSPost2010PropOp53
 70
     1
102
RTVSPost2010Prop54
  1
strokes_ogs.tif
102
RTVSPost2010PropOp54
 70
     1
102
RTVSPost2010Prop55
280
     0
102
RTVSPost2010PropOp55
 70
     1
102
RTVSPost2010Prop56
140
1.0
102
RTVSPost2010PropOp56
 70
     1
102
RTVSPost2010Prop57
140
1.0
102
RTVSPost2010PropOp57
 70
     1
102
RTVSPropertyOp0
 70
     1
102
RTVSPropertyOp1
 70
     1
102
RTVSPropertyOp2
 70
     1
102
RTVSPropertyOp3
 70
     1
102
RTVSPropertyOp4
 70
     1
102
RTVSPropertyOp5
 70
     1
102
RTVSPropertyOp6
 70
     1
102
RTVSPropertyOp7
 70
     1
102
RTVSPropertyOp8
 70
     1
102
RTVSPropertyOp9
 70
     1
102
RTVSPropertyOp10
 70
     1
102
RTVSPropertyOp11
 70
     1
102
RTVSPropertyOp12
 70
     1
102
RTVSPropertyOp13
 70
     1
102
RTVSPropertyOp14
 70
     1
102
RTVSPropertyOp15
 70
     1
102
RTVSPropertyOp16
 70
     1
102
RTVSPropertyOp17
 70
     1
102
RTVSPropertyOp18
 70
     1
102
RTVSPropertyOp19
 70
     1
102
RTVSPropertyOp20
 70
     1
102
RTVSPropertyOp21
 70
     1
102
RTVSPropertyOp22
 70
     1
102
RTVSPropertyOp23
 70
     1
102
RTVSPropertyOp24
 70
     1
102
RTVSPropertyOp25
 70
     1
102
RTVSPropertyOp26
 70
     1
102
RTVSPropertyOp27
 70
     1
102
RTVSPropertyOp28
 70
     1
102
RTVSPropertyOp29
 70
     1
102
RTVSPropertyOp30
 70
     1
102
RTVSPropertyOp31
 70
     1
102
RTVSPropertyOp32
 70
     1
102
RTVSPropertyOp33
 70
     1
102
RTVSPropertyOp34
 70
     1
102
RTVSPropertyOp35
 70
     1
102
RTVSPropertyOp36
 70
     1
102
RTVSPropertyOp37
 70
     1
102
RTVSPropertyOp38
 70
     1
102
RTVSPropertyOp39
 70
     1
102
RTVSPropertyOp40
 70
     1
102
RTVSPropertyOp41
 70
     1
102
RTVSPropertyOp42
 70
     1
102
RTVSPropertyOp43
 70
     1
102
RTVSPropertyOp44
 70
     1
102
RTVSPropertyOp45
 70
     1
102
RTVSPropertyOp46
 70
     1
102
RTVSPropertyOp47
 70
     1
102
RTVSPropertyOp48
 70
     1
102
RTVSPropertyOp49
 70
     1
102
RTVSPropertyOp50
 70
     1
102
RTVSPropertyOp51
 70
     0
102
RTVSPropertyOp52
 70
     0
102
RTVSPropertyOp53
 70
     1
102
RTVSPropertyOp54
 70
     1
102
RTVSPropertyOp55
 70
     1
102
RTVSPropertyOp56
 70
     1
102
RTVSPropertyOp57
 70
     1
102
RTVSPropertyOp58
 70
     1
102
RTVSPropertyOp59
 70
     1
102
RTVSPropertyOp60
 70
     1
102
RTVSPropertyOp61
 70
     1
102
RTVSPropertyOp62
 70
     1
  0
XRECORD
  5
DE54
102
{ACAD_REACTORS
330
DE53
102
}
330
DE53
100
AcDbXrecord
280
     1
102
RTVSPost2010Prop28
280
     0
102
RTVSPost2010PropOp28
 70
     1
102
RTVSPost2010Prop29
280
     1
102
RTVSPost2010PropOp29
 70
     1
102
RTVSPost2010Prop30
280
     1
102
RTVSPost2010PropOp30
 70
     1
102
RTVSPost2010Prop31
280
     0
102
RTVSPost2010PropOp31
 70
     1
102
RTVSPost2010Prop32
280
     0
102
RTVSPost2010PropOp32
 70
     1
102
RTVSPost2010Prop33
280
     0
102
RTVSPost2010PropOp33
 70
     1
102
RTVSPost2010Prop34
280
     0
102
RTVSPost2010PropOp34
 70
     1
102
RTVSPost2010Prop35
280
     0
102
RTVSPost2010PropOp35
 70
     1
102
RTVSPost2010Prop36
280
     0
102
RTVSPost2010PropOp36
 70
     1
102
RTVSPost2010Prop37
 90
       50
102
RTVSPost2010PropOp37
 70
     1
102
RTVSPost2010Prop38
140
0.0
102
RTVSPost2010PropOp38
 70
     1
102
RTVSPost2010Prop39
140
1.0
102
RTVSPost2010PropOp39
 70
     1
102
RTVSPost2010Prop40
 90
        0
102
RTVSPost2010PropOp40
 70
     1
102
RTVSPost2010Prop41ColorIndex
 90
       18
102
RTVSPost2010Prop41ColorRGB
 90
        0
102
RTVSPost2010PropOp41
 70
     1
102
RTVSPost2010Prop42
 90
       50
102
RTVSPost2010PropOp42
 70
     1
102
RTVSPost2010Prop43
 90
        3
102
RTVSPost2010PropOp43
 70
     1
102
RTVSPost2010Prop44ColorIndex
 90
        5
102
RTVSPost2010Prop44ColorRGB
 90
      255
102
RTVSPost2010PropOp44
 70
     1
102
RTVSPost2010Prop45
280
     0
102
RTVSPost2010PropOp45
 70
     1
102
RTVSPost2010Prop46
 90
       50
102
RTVSPost2010PropOp46
 70
     1
102
RTVSPost2010Prop47
 90
       50
102
RTVSPost2010PropOp47
 70
     1
102
RTVSPost2010Prop48
 90
       50
102
RTVSPost2010PropOp48
 70
     1
102
RTVSPost2010Prop49
280
     0
102
RTVSPost2010PropOp49
 70
     1
102
RTVSPost2010Prop50
 90
       50
102
RTVSPost2010PropOp50
 70
     1
102
RTVSPost2010Prop51ColorIndex
 90
      256
102
RTVSPost2010Prop51ColorRGB
 90
-16777216
102
RTVSPost2010PropOp51
 70
     0
102
RTVSPost2010Prop52
140
1.0
102
RTVSPost2010PropOp52
 70
     0
102
RTVSPost2010Prop53
 90
        2
102
RTVSPost2010PropOp53
 70
     1
102
RTVSPost2010Prop54
  1
strokes_ogs.tif
102
RTVSPost2010PropOp54
 70
     1
102
RTVSPost2010Prop55
280
     0
102
RTVSPost2010PropOp55
 70
     1
102
RTVSPost2010Prop56
140
1.0
102
RTVSPost2010PropOp56
 70
     1
102
RTVSPost2010Prop57
140
1.0
102
RTVSPost2010PropOp57
 70
     1
102
RTVSPropertyOp0
 70
     1
102
RTVSPropertyOp1
 70
     1
102
RTVSPropertyOp2
 70
     1
102
RTVSPropertyOp3
 70
     1
102
RTVSPropertyOp4
 70
     1
102
RTVSPropertyOp5
 70
     1
102
RTVSPropertyOp6
 70
     1
102
RTVSPropertyOp7
 70
     1
102
RTVSPropertyOp8
 70
     1
102
RTVSPropertyOp9
 70
     1
102
RTVSPropertyOp10
 70
     1
102
RTVSPropertyOp11
 70
     1
102
RTVSPropertyOp12
 70
     1
102
RTVSPropertyOp13
 70
     1
102
RTVSPropertyOp14
 70
     1
102
RTVSPropertyOp15
 70
     1
102
RTVSPropertyOp16
 70
     1
102
RTVSPropertyOp17
 70
     1
102
RTVSPropertyOp18
 70
     1
102
RTVSPropertyOp19
 70
     1
102
RTVSPropertyOp20
 70
     1
102
RTVSPropertyOp21
 70
     1
102
RTVSPropertyOp22
 70
     1
102
RTVSPropertyOp23
 70
     1
102
RTVSPropertyOp24
 70
     1
102
RTVSPropertyOp25
 70
     1
102
RTVSPropertyOp26
 70
     1
102
RTVSPropertyOp27
 70
     1
102
RTVSPropertyOp28
 70
     1
102
RTVSPropertyOp29
 70
     1
102
RTVSPropertyOp30
 70
     1
102
RTVSPropertyOp31
 70
     1
102
RTVSPropertyOp32
 70
     1
102
RTVSPropertyOp33
 70
     1
102
RTVSPropertyOp34
 70
     1
102
RTVSPropertyOp35
 70
     1
102
RTVSPropertyOp36
 70
     1
102
RTVSPropertyOp37
 70
     1
102
RTVSPropertyOp38
 70
     1
102
RTVSPropertyOp39
 70
     1
102
RTVSPropertyOp40
 70
     1
102
RTVSPropertyOp41
 70
     1
102
RTVSPropertyOp42
 70
     1
102
RTVSPropertyOp43
 70
     1
102
RTVSPropertyOp44
 70
     1
102
RTVSPropertyOp45
 70
     1
102
RTVSPropertyOp46
 70
     1
102
RTVSPropertyOp47
 70
     1
102
RTVSPropertyOp48
 70
     1
102
RTVSPropertyOp49
 70
     1
102
RTVSPropertyOp50
 70
     1
102
RTVSPropertyOp51
 70
     0
102
RTVSPropertyOp52
 70
     0
102
RTVSPropertyOp53
 70
     1
102
RTVSPropertyOp54
 70
     1
102
RTVSPropertyOp55
 70
     1
102
RTVSPropertyOp56
 70
     1
102
RTVSPropertyOp57
 70
     1
102
RTVSPropertyOp58
 70
     1
102
RTVSPropertyOp59
 70
     1
102
RTVSPropertyOp60
 70
     1
102
RTVSPropertyOp61
 70
     1
102
RTVSPropertyOp62
 70
     1
  0
XRECORD
  5
DE56
102
{ACAD_REACTORS
330
DE55
102
}
330
DE55
100
AcDbXrecord
280
     1
102
RTVSPost2010Prop28
280
     0
102
RTVSPost2010PropOp28
 70
     1
102
RTVSPost2010Prop29
280
     1
102
RTVSPost2010PropOp29
 70
     1
102
RTVSPost2010Prop30
280
     1
102
RTVSPost2010PropOp30
 70
     1
102
RTVSPost2010Prop31
280
     0
102
RTVSPost2010PropOp31
 70
     1
102
RTVSPost2010Prop32
280
     0
102
RTVSPost2010PropOp32
 70
     1
102
RTVSPost2010Prop33
280
     0
102
RTVSPost2010PropOp33
 70
     1
102
RTVSPost2010Prop34
280
     0
102
RTVSPost2010PropOp34
 70
     1
102
RTVSPost2010Prop35
280
     0
102
RTVSPost2010PropOp35
 70
     1
102
RTVSPost2010Prop36
280
     0
102
RTVSPost2010PropOp36
 70
     1
102
RTVSPost2010Prop37
 90
       50
102
RTVSPost2010PropOp37
 70
     1
102
RTVSPost2010Prop38
140
0.0
102
RTVSPost2010PropOp38
 70
     1
102
RTVSPost2010Prop39
140
1.0
102
RTVSPost2010PropOp39
 70
     1
102
RTVSPost2010Prop40
 90
        0
102
RTVSPost2010PropOp40
 70
     1
102
RTVSPost2010Prop41ColorIndex
 90
       18
102
RTVSPost2010Prop41ColorRGB
 90
        0
102
RTVSPost2010PropOp41
 70
     1
102
RTVSPost2010Prop42
 90
       50
102
RTVSPost2010PropOp42
 70
     1
102
RTVSPost2010Prop43
 90
        3
102
RTVSPost2010PropOp43
 70
     1
102
RTVSPost2010Prop44ColorIndex
 90
        5
102
RTVSPost2010Prop44ColorRGB
 90
      255
102
RTVSPost2010PropOp44
 70
     1
102
RTVSPost2010Prop45
280
     0
102
RTVSPost2010PropOp45
 70
     1
102
RTVSPost2010Prop46
 90
       50
102
RTVSPost2010PropOp46
 70
     1
102
RTVSPost2010Prop47
 90
       50
102
RTVSPost2010PropOp47
 70
     1
102
RTVSPost2010Prop48
 90
       50
102
RTVSPost2010PropOp48
 70
     1
102
RTVSPost2010Prop49
280
     0
102
RTVSPost2010PropOp49
 70
     1
102
RTVSPost2010Prop50
 90
       50
102
RTVSPost2010PropOp50
 70
     1
102
RTVSPost2010Prop51ColorIndex
 90
      256
102
RTVSPost2010Prop51ColorRGB
 90
-16777216
102
RTVSPost2010PropOp51
 70
     0
102
RTVSPost2010Prop52
140
1.0
102
RTVSPost2010PropOp52
 70
     0
102
RTVSPost2010Prop53
 90
        2
102
RTVSPost2010PropOp53
 70
     1
102
RTVSPost2010Prop54
  1
strokes_ogs.tif
102
RTVSPost2010PropOp54
 70
     1
102
RTVSPost2010Prop55
280
     0
102
RTVSPost2010PropOp55
 70
     1
102
RTVSPost2010Prop56
140
1.0
102
RTVSPost2010PropOp56
 70
     1
102
RTVSPost2010Prop57
140
1.0
102
RTVSPost2010PropOp57
 70
     1
102
RTVSPropertyOp0
 70
     1
102
RTVSPropertyOp1
 70
     1
102
RTVSPropertyOp2
 70
     1
102
RTVSPropertyOp3
 70
     1
102
RTVSPropertyOp4
 70
     1
102
RTVSPropertyOp5
 70
     1
102
RTVSPropertyOp6
 70
     1
102
RTVSPropertyOp7
 70
     1
102
RTVSPropertyOp8
 70
     1
102
RTVSPropertyOp9
 70
     1
102
RTVSPropertyOp10
 70
     1
102
RTVSPropertyOp11
 70
     1
102
RTVSPropertyOp12
 70
     1
102
RTVSPropertyOp13
 70
     1
102
RTVSPropertyOp14
 70
     1
102
RTVSPropertyOp15
 70
     1
102
RTVSPropertyOp16
 70
     1
102
RTVSPropertyOp17
 70
     1
102
RTVSPropertyOp18
 70
     1
102
RTVSPropertyOp19
 70
     1
102
RTVSPropertyOp20
 70
     1
102
RTVSPropertyOp21
 70
     1
102
RTVSPropertyOp22
 70
     1
102
RTVSPropertyOp23
 70
     1
102
RTVSPropertyOp24
 70
     1
102
RTVSPropertyOp25
 70
     1
102
RTVSPropertyOp26
 70
     1
102
RTVSPropertyOp27
 70
     1
102
RTVSPropertyOp28
 70
     1
102
RTVSPropertyOp29
 70
     1
102
RTVSPropertyOp30
 70
     1
102
RTVSPropertyOp31
 70
     1
102
RTVSPropertyOp32
 70
     1
102
RTVSPropertyOp33
 70
     1
102
RTVSPropertyOp34
 70
     1
102
RTVSPropertyOp35
 70
     1
102
RTVSPropertyOp36
 70
     1
102
RTVSPropertyOp37
 70
     1
102
RTVSPropertyOp38
 70
     1
102
RTVSPropertyOp39
 70
     1
102
RTVSPropertyOp40
 70
     1
102
RTVSPropertyOp41
 70
     1
102
RTVSPropertyOp42
 70
     1
102
RTVSPropertyOp43
 70
     1
102
RTVSPropertyOp44
 70
     1
102
RTVSPropertyOp45
 70
     1
102
RTVSPropertyOp46
 70
     1
102
RTVSPropertyOp47
 70
     1
102
RTVSPropertyOp48
 70
     1
102
RTVSPropertyOp49
 70
     1
102
RTVSPropertyOp50
 70
     1
102
RTVSPropertyOp51
 70
     0
102
RTVSPropertyOp52
 70
     0
102
RTVSPropertyOp53
 70
     1
102
RTVSPropertyOp54
 70
     1
102
RTVSPropertyOp55
 70
     1
102
RTVSPropertyOp56
 70
     1
102
RTVSPropertyOp57
 70
     1
102
RTVSPropertyOp58
 70
     1
102
RTVSPropertyOp59
 70
     1
102
RTVSPropertyOp60
 70
     1
102
RTVSPropertyOp61
 70
     1
102
RTVSPropertyOp62
 70
     1
  0
XRECORD
  5
DE58
102
{ACAD_REACTORS
330
DE57
102
}
330
DE57
100
AcDbXrecord
280
     1
102
RTVSPost2010Prop28
280
     0
102
RTVSPost2010PropOp28
 70
     1
102
RTVSPost2010Prop29
280
     1
102
RTVSPost2010PropOp29
 70
     1
102
RTVSPost2010Prop30
280
     1
102
RTVSPost2010PropOp30
 70
     1
102
RTVSPost2010Prop31
280
     0
102
RTVSPost2010PropOp31
 70
     1
102
RTVSPost2010Prop32
280
     0
102
RTVSPost2010PropOp32
 70
     1
102
RTVSPost2010Prop33
280
     0
102
RTVSPost2010PropOp33
 70
     1
102
RTVSPost2010Prop34
280
     0
102
RTVSPost2010PropOp34
 70
     1
102
RTVSPost2010Prop35
280
     0
102
RTVSPost2010PropOp35
 70
     1
102
RTVSPost2010Prop36
280
     0
102
RTVSPost2010PropOp36
 70
     1
102
RTVSPost2010Prop37
 90
       50
102
RTVSPost2010PropOp37
 70
     1
102
RTVSPost2010Prop38
140
0.0
102
RTVSPost2010PropOp38
 70
     1
102
RTVSPost2010Prop39
140
1.0
102
RTVSPost2010PropOp39
 70
     1
102
RTVSPost2010Prop40
 90
        0
102
RTVSPost2010PropOp40
 70
     1
102
RTVSPost2010Prop41ColorIndex
 90
       18
102
RTVSPost2010Prop41ColorRGB
 90
        0
102
RTVSPost2010PropOp41
 70
     1
102
RTVSPost2010Prop42
 90
       50
102
RTVSPost2010PropOp42
 70
     1
102
RTVSPost2010Prop43
 90
        3
102
RTVSPost2010PropOp43
 70
     1
102
RTVSPost2010Prop44ColorIndex
 90
        5
102
RTVSPost2010Prop44ColorRGB
 90
      255
102
RTVSPost2010PropOp44
 70
     1
102
RTVSPost2010Prop45
280
     0
102
RTVSPost2010PropOp45
 70
     1
102
RTVSPost2010Prop46
 90
       50
102
RTVSPost2010PropOp46
 70
     1
102
RTVSPost2010Prop47
 90
       50
102
RTVSPost2010PropOp47
 70
     1
102
RTVSPost2010Prop48
 90
       50
102
RTVSPost2010PropOp48
 70
     1
102
RTVSPost2010Prop49
280
     0
102
RTVSPost2010PropOp49
 70
     1
102
RTVSPost2010Prop50
 90
       50
102
RTVSPost2010PropOp50
 70
     1
102
RTVSPost2010Prop51ColorIndex
 90
      256
102
RTVSPost2010Prop51ColorRGB
 90
-16777216
102
RTVSPost2010PropOp51
 70
     0
102
RTVSPost2010Prop52
140
1.0
102
RTVSPost2010PropOp52
 70
     0
102
RTVSPost2010Prop53
 90
        2
102
RTVSPost2010PropOp53
 70
     1
102
RTVSPost2010Prop54
  1
strokes_ogs.tif
102
RTVSPost2010PropOp54
 70
     1
102
RTVSPost2010Prop55
280
     0
102
RTVSPost2010PropOp55
 70
     1
102
RTVSPost2010Prop56
140
1.0
102
RTVSPost2010PropOp56
 70
     1
102
RTVSPost2010Prop57
140
1.0
102
RTVSPost2010PropOp57
 70
     1
102
RTVSPropertyOp0
 70
     1
102
RTVSPropertyOp1
 70
     1
102
RTVSPropertyOp2
 70
     1
102
RTVSPropertyOp3
 70
     1
102
RTVSPropertyOp4
 70
     1
102
RTVSPropertyOp5
 70
     1
102
RTVSPropertyOp6
 70
     1
102
RTVSPropertyOp7
 70
     1
102
RTVSPropertyOp8
 70
     1
102
RTVSPropertyOp9
 70
     1
102
RTVSPropertyOp10
 70
     1
102
RTVSPropertyOp11
 70
     1
102
RTVSPropertyOp12
 70
     1
102
RTVSPropertyOp13
 70
     1
102
RTVSPropertyOp14
 70
     1
102
RTVSPropertyOp15
 70
     1
102
RTVSPropertyOp16
 70
     1
102
RTVSPropertyOp17
 70
     1
102
RTVSPropertyOp18
 70
     1
102
RTVSPropertyOp19
 70
     1
102
RTVSPropertyOp20
 70
     1
102
RTVSPropertyOp21
 70
     1
102
RTVSPropertyOp22
 70
     1
102
RTVSPropertyOp23
 70
     1
102
RTVSPropertyOp24
 70
     1
102
RTVSPropertyOp25
 70
     1
102
RTVSPropertyOp26
 70
     1
102
RTVSPropertyOp27
 70
     1
102
RTVSPropertyOp28
 70
     1
102
RTVSPropertyOp29
 70
     1
102
RTVSPropertyOp30
 70
     1
102
RTVSPropertyOp31
 70
     1
102
RTVSPropertyOp32
 70
     1
102
RTVSPropertyOp33
 70
     1
102
RTVSPropertyOp34
 70
     1
102
RTVSPropertyOp35
 70
     1
102
RTVSPropertyOp36
 70
     1
102
RTVSPropertyOp37
 70
     1
102
RTVSPropertyOp38
 70
     1
102
RTVSPropertyOp39
 70
     1
102
RTVSPropertyOp40
 70
     1
102
RTVSPropertyOp41
 70
     1
102
RTVSPropertyOp42
 70
     1
102
RTVSPropertyOp43
 70
     1
102
RTVSPropertyOp44
 70
     1
102
RTVSPropertyOp45
 70
     1
102
RTVSPropertyOp46
 70
     1
102
RTVSPropertyOp47
 70
     1
102
RTVSPropertyOp48
 70
     1
102
RTVSPropertyOp49
 70
     1
102
RTVSPropertyOp50
 70
     1
102
RTVSPropertyOp51
 70
     0
102
RTVSPropertyOp52
 70
     0
102
RTVSPropertyOp53
 70
     1
102
RTVSPropertyOp54
 70
     1
102
RTVSPropertyOp55
 70
     1
102
RTVSPropertyOp56
 70
     1
102
RTVSPropertyOp57
 70
     1
102
RTVSPropertyOp58
 70
     1
102
RTVSPropertyOp59
 70
     1
102
RTVSPropertyOp60
 70
     1
102
RTVSPropertyOp61
 70
     1
102
RTVSPropertyOp62
 70
     1
  0
XRECORD
  5
DE5A
102
{ACAD_REACTORS
330
DE59
102
}
330
DE59
100
AcDbXrecord
280
     1
102
RTVSPost2010Prop28
280
     0
102
RTVSPost2010PropOp28
 70
     1
102
RTVSPost2010Prop29
280
     1
102
RTVSPost2010PropOp29
 70
     1
102
RTVSPost2010Prop30
280
     1
102
RTVSPost2010PropOp30
 70
     1
102
RTVSPost2010Prop31
280
     0
102
RTVSPost2010PropOp31
 70
     1
102
RTVSPost2010Prop32
280
     0
102
RTVSPost2010PropOp32
 70
     1
102
RTVSPost2010Prop33
280
     0
102
RTVSPost2010PropOp33
 70
     1
102
RTVSPost2010Prop34
280
     0
102
RTVSPost2010PropOp34
 70
     1
102
RTVSPost2010Prop35
280
     0
102
RTVSPost2010PropOp35
 70
     1
102
RTVSPost2010Prop36
280
     0
102
RTVSPost2010PropOp36
 70
     1
102
RTVSPost2010Prop37
 90
       50
102
RTVSPost2010PropOp37
 70
     1
102
RTVSPost2010Prop38
140
0.0
102
RTVSPost2010PropOp38
 70
     1
102
RTVSPost2010Prop39
140
1.0
102
RTVSPost2010PropOp39
 70
     1
102
RTVSPost2010Prop40
 90
        0
102
RTVSPost2010PropOp40
 70
     1
102
RTVSPost2010Prop41ColorIndex
 90
       18
102
RTVSPost2010Prop41ColorRGB
 90
        0
102
RTVSPost2010PropOp41
 70
     1
102
RTVSPost2010Prop42
 90
       50
102
RTVSPost2010PropOp42
 70
     1
102
RTVSPost2010Prop43
 90
        3
102
RTVSPost2010PropOp43
 70
     1
102
RTVSPost2010Prop44ColorIndex
 90
        5
102
RTVSPost2010Prop44ColorRGB
 90
      255
102
RTVSPost2010PropOp44
 70
     1
102
RTVSPost2010Prop45
280
     0
102
RTVSPost2010PropOp45
 70
     1
102
RTVSPost2010Prop46
 90
       50
102
RTVSPost2010PropOp46
 70
     1
102
RTVSPost2010Prop47
 90
       50
102
RTVSPost2010PropOp47
 70
     1
102
RTVSPost2010Prop48
 90
       50
102
RTVSPost2010PropOp48
 70
     1
102
RTVSPost2010Prop49
280
     0
102
RTVSPost2010PropOp49
 70
     1
102
RTVSPost2010Prop50
 90
       50
102
RTVSPost2010PropOp50
 70
     1
102
RTVSPost2010Prop51ColorIndex
 90
      256
102
RTVSPost2010Prop51ColorRGB
 90
-16777216
102
RTVSPost2010PropOp51
 70
     0
102
RTVSPost2010Prop52
140
1.0
102
RTVSPost2010PropOp52
 70
     0
102
RTVSPost2010Prop53
 90
        2
102
RTVSPost2010PropOp53
 70
     1
102
RTVSPost2010Prop54
  1
strokes_ogs.tif
102
RTVSPost2010PropOp54
 70
     1
102
RTVSPost2010Prop55
280
     0
102
RTVSPost2010PropOp55
 70
     1
102
RTVSPost2010Prop56
140
1.0
102
RTVSPost2010PropOp56
 70
     1
102
RTVSPost2010Prop57
140
1.0
102
RTVSPost2010PropOp57
 70
     1
102
RTVSPropertyOp0
 70
     1
102
RTVSPropertyOp1
 70
     1
102
RTVSPropertyOp2
 70
     1
102
RTVSPropertyOp3
 70
     1
102
RTVSPropertyOp4
 70
     1
102
RTVSPropertyOp5
 70
     1
102
RTVSPropertyOp6
 70
     1
102
RTVSPropertyOp7
 70
     1
102
RTVSPropertyOp8
 70
     1
102
RTVSPropertyOp9
 70
     1
102
RTVSPropertyOp10
 70
     1
102
RTVSPropertyOp11
 70
     1
102
RTVSPropertyOp12
 70
     1
102
RTVSPropertyOp13
 70
     1
102
RTVSPropertyOp14
 70
     1
102
RTVSPropertyOp15
 70
     1
102
RTVSPropertyOp16
 70
     1
102
RTVSPropertyOp17
 70
     1
102
RTVSPropertyOp18
 70
     1
102
RTVSPropertyOp19
 70
     1
102
RTVSPropertyOp20
 70
     1
102
RTVSPropertyOp21
 70
     1
102
RTVSPropertyOp22
 70
     1
102
RTVSPropertyOp23
 70
     1
102
RTVSPropertyOp24
 70
     1
102
RTVSPropertyOp25
 70
     1
102
RTVSPropertyOp26
 70
     1
102
RTVSPropertyOp27
 70
     1
102
RTVSPropertyOp28
 70
     1
102
RTVSPropertyOp29
 70
     1
102
RTVSPropertyOp30
 70
     1
102
RTVSPropertyOp31
 70
     1
102
RTVSPropertyOp32
 70
     1
102
RTVSPropertyOp33
 70
     1
102
RTVSPropertyOp34
 70
     1
102
RTVSPropertyOp35
 70
     1
102
RTVSPropertyOp36
 70
     1
102
RTVSPropertyOp37
 70
     1
102
RTVSPropertyOp38
 70
     1
102
RTVSPropertyOp39
 70
     1
102
RTVSPropertyOp40
 70
     1
102
RTVSPropertyOp41
 70
     1
102
RTVSPropertyOp42
 70
     1
102
RTVSPropertyOp43
 70
     1
102
RTVSPropertyOp44
 70
     1
102
RTVSPropertyOp45
 70
     1
102
RTVSPropertyOp46
 70
     1
102
RTVSPropertyOp47
 70
     1
102
RTVSPropertyOp48
 70
     1
102
RTVSPropertyOp49
 70
     1
102
RTVSPropertyOp50
 70
     1
102
RTVSPropertyOp51
 70
     0
102
RTVSPropertyOp52
 70
     0
102
RTVSPropertyOp53
 70
     1
102
RTVSPropertyOp54
 70
     1
102
RTVSPropertyOp55
 70
     1
102
RTVSPropertyOp56
 70
     1
102
RTVSPropertyOp57
 70
     1
102
RTVSPropertyOp58
 70
     1
102
RTVSPropertyOp59
 70
     1
102
RTVSPropertyOp60
 70
     1
102
RTVSPropertyOp61
 70
     1
102
RTVSPropertyOp62
 70
     1
  0
XRECORD
  5
DE62
102
{ACAD_REACTORS
330
DE61
102
}
330
DE61
100
AcDbXrecord
280
     1
102
RTVSPost2010Prop28
280
     0
102
RTVSPost2010PropOp28
 70
     1
102
RTVSPost2010Prop29
280
     1
102
RTVSPost2010PropOp29
 70
     1
102
RTVSPost2010Prop30
280
     1
102
RTVSPost2010PropOp30
 70
     1
102
RTVSPost2010Prop31
280
     0
102
RTVSPost2010PropOp31
 70
     1
102
RTVSPost2010Prop32
280
     0
102
RTVSPost2010PropOp32
 70
     1
102
RTVSPost2010Prop33
280
     0
102
RTVSPost2010PropOp33
 70
     1
102
RTVSPost2010Prop34
280
     0
102
RTVSPost2010PropOp34
 70
     1
102
RTVSPost2010Prop35
280
     0
102
RTVSPost2010PropOp35
 70
     1
102
RTVSPost2010Prop36
280
     0
102
RTVSPost2010PropOp36
 70
     1
102
RTVSPost2010Prop37
 90
       50
102
RTVSPost2010PropOp37
 70
     1
102
RTVSPost2010Prop38
140
0.0
102
RTVSPost2010PropOp38
 70
     1
102
RTVSPost2010Prop39
140
1.0
102
RTVSPost2010PropOp39
 70
     1
102
RTVSPost2010Prop40
 90
        0
102
RTVSPost2010PropOp40
 70
     1
102
RTVSPost2010Prop41ColorIndex
 90
       18
102
RTVSPost2010Prop41ColorRGB
 90
        0
102
RTVSPost2010PropOp41
 70
     1
102
RTVSPost2010Prop42
 90
       50
102
RTVSPost2010PropOp42
 70
     1
102
RTVSPost2010Prop43
 90
        3
102
RTVSPost2010PropOp43
 70
     1
102
RTVSPost2010Prop44ColorIndex
 90
        5
102
RTVSPost2010Prop44ColorRGB
 90
      255
102
RTVSPost2010PropOp44
 70
     1
102
RTVSPost2010Prop45
280
     0
102
RTVSPost2010PropOp45
 70
     1
102
RTVSPost2010Prop46
 90
       50
102
RTVSPost2010PropOp46
 70
     1
102
RTVSPost2010Prop47
 90
       50
102
RTVSPost2010PropOp47
 70
     1
102
RTVSPost2010Prop48
 90
       50
102
RTVSPost2010PropOp48
 70
     1
102
RTVSPost2010Prop49
280
     0
102
RTVSPost2010PropOp49
 70
     1
102
RTVSPost2010Prop50
 90
       50
102
RTVSPost2010PropOp50
 70
     1
102
RTVSPost2010Prop51ColorIndex
 90
      256
102
RTVSPost2010Prop51ColorRGB
 90
-16777216
102
RTVSPost2010PropOp51
 70
     0
102
RTVSPost2010Prop52
140
1.0
102
RTVSPost2010PropOp52
 70
     0
102
RTVSPost2010Prop53
 90
        2
102
RTVSPost2010PropOp53
 70
     1
102
RTVSPost2010Prop54
  1
strokes_ogs.tif
102
RTVSPost2010PropOp54
 70
     1
102
RTVSPost2010Prop55
280
     0
102
RTVSPost2010PropOp55
 70
     1
102
RTVSPost2010Prop56
140
1.0
102
RTVSPost2010PropOp56
 70
     1
102
RTVSPost2010Prop57
140
1.0
102
RTVSPost2010PropOp57
 70
     1
102
RTVSPropertyOp0
 70
     1
102
RTVSPropertyOp1
 70
     1
102
RTVSPropertyOp2
 70
     1
102
RTVSPropertyOp3
 70
     1
102
RTVSPropertyOp4
 70
     1
102
RTVSPropertyOp5
 70
     1
102
RTVSPropertyOp6
 70
     1
102
RTVSPropertyOp7
 70
     1
102
RTVSPropertyOp8
 70
     1
102
RTVSPropertyOp9
 70
     1
102
RTVSPropertyOp10
 70
     1
102
RTVSPropertyOp11
 70
     1
102
RTVSPropertyOp12
 70
     1
102
RTVSPropertyOp13
 70
     1
102
RTVSPropertyOp14
 70
     1
102
RTVSPropertyOp15
 70
     1
102
RTVSPropertyOp16
 70
     1
102
RTVSPropertyOp17
 70
     1
102
RTVSPropertyOp18
 70
     1
102
RTVSPropertyOp19
 70
     1
102
RTVSPropertyOp20
 70
     1
102
RTVSPropertyOp21
 70
     1
102
RTVSPropertyOp22
 70
     1
102
RTVSPropertyOp23
 70
     1
102
RTVSPropertyOp24
 70
     1
102
RTVSPropertyOp25
 70
     1
102
RTVSPropertyOp26
 70
     1
102
RTVSPropertyOp27
 70
     1
102
RTVSPropertyOp28
 70
     1
102
RTVSPropertyOp29
 70
     1
102
RTVSPropertyOp30
 70
     1
102
RTVSPropertyOp31
 70
     1
102
RTVSPropertyOp32
 70
     1
102
RTVSPropertyOp33
 70
     1
102
RTVSPropertyOp34
 70
     1
102
RTVSPropertyOp35
 70
     1
102
RTVSPropertyOp36
 70
     1
102
RTVSPropertyOp37
 70
     1
102
RTVSPropertyOp38
 70
     1
102
RTVSPropertyOp39
 70
     1
102
RTVSPropertyOp40
 70
     1
102
RTVSPropertyOp41
 70
     1
102
RTVSPropertyOp42
 70
     1
102
RTVSPropertyOp43
 70
     1
102
RTVSPropertyOp44
 70
     1
102
RTVSPropertyOp45
 70
     1
102
RTVSPropertyOp46
 70
     1
102
RTVSPropertyOp47
 70
     1
102
RTVSPropertyOp48
 70
     1
102
RTVSPropertyOp49
 70
     1
102
RTVSPropertyOp50
 70
     1
102
RTVSPropertyOp51
 70
     0
102
RTVSPropertyOp52
 70
     0
102
RTVSPropertyOp53
 70
     1
102
RTVSPropertyOp54
 70
     1
102
RTVSPropertyOp55
 70
     1
102
RTVSPropertyOp56
 70
     1
102
RTVSPropertyOp57
 70
     1
102
RTVSPropertyOp58
 70
     1
102
RTVSPropertyOp59
 70
     1
102
RTVSPropertyOp60
 70
     1
102
RTVSPropertyOp61
 70
     1
102
RTVSPropertyOp62
 70
     1
  0
XRECORD
  5
DE76
102
{ACAD_REACTORS
330
DE75
102
}
330
DE75
100
AcDbXrecord
280
     1
102
RTVSPost2010Prop28
280
     0
102
RTVSPost2010PropOp28
 70
     1
102
RTVSPost2010Prop29
280
     1
102
RTVSPost2010PropOp29
 70
     1
102
RTVSPost2010Prop30
280
     1
102
RTVSPost2010PropOp30
 70
     1
102
RTVSPost2010Prop31
280
     0
102
RTVSPost2010PropOp31
 70
     1
102
RTVSPost2010Prop32
280
     0
102
RTVSPost2010PropOp32
 70
     1
102
RTVSPost2010Prop33
280
     0
102
RTVSPost2010PropOp33
 70
     1
102
RTVSPost2010Prop34
280
     0
102
RTVSPost2010PropOp34
 70
     1
102
RTVSPost2010Prop35
280
     0
102
RTVSPost2010PropOp35
 70
     1
102
RTVSPost2010Prop36
280
     0
102
RTVSPost2010PropOp36
 70
     1
102
RTVSPost2010Prop37
 90
       50
102
RTVSPost2010PropOp37
 70
     1
102
RTVSPost2010Prop38
140
0.0
102
RTVSPost2010PropOp38
 70
     1
102
RTVSPost2010Prop39
140
1.0
102
RTVSPost2010PropOp39
 70
     1
102
RTVSPost2010Prop40
 90
        0
102
RTVSPost2010PropOp40
 70
     1
102
RTVSPost2010Prop41ColorIndex
 90
       18
102
RTVSPost2010Prop41ColorRGB
 90
        0
102
RTVSPost2010PropOp41
 70
     1
102
RTVSPost2010Prop42
 90
       50
102
RTVSPost2010PropOp42
 70
     1
102
RTVSPost2010Prop43
 90
        3
102
RTVSPost2010PropOp43
 70
     1
102
RTVSPost2010Prop44ColorIndex
 90
        5
102
RTVSPost2010Prop44ColorRGB
 90
      255
102
RTVSPost2010PropOp44
 70
     1
102
RTVSPost2010Prop45
280
     0
102
RTVSPost2010PropOp45
 70
     1
102
RTVSPost2010Prop46
 90
       50
102
RTVSPost2010PropOp46
 70
     1
102
RTVSPost2010Prop47
 90
       50
102
RTVSPost2010PropOp47
 70
     1
102
RTVSPost2010Prop48
 90
       50
102
RTVSPost2010PropOp48
 70
     1
102
RTVSPost2010Prop49
280
     0
102
RTVSPost2010PropOp49
 70
     1
102
RTVSPost2010Prop50
 90
       50
102
RTVSPost2010PropOp50
 70
     1
102
RTVSPost2010Prop51ColorIndex
 90
      256
102
RTVSPost2010Prop51ColorRGB
 90
-16777216
102
RTVSPost2010PropOp51
 70
     0
102
RTVSPost2010Prop52
140
1.0
102
RTVSPost2010PropOp52
 70
     0
102
RTVSPost2010Prop53
 90
        2
102
RTVSPost2010PropOp53
 70
     1
102
RTVSPost2010Prop54
  1
strokes_ogs.tif
102
RTVSPost2010PropOp54
 70
     1
102
RTVSPost2010Prop55
280
     0
102
RTVSPost2010PropOp55
 70
     1
102
RTVSPost2010Prop56
140
1.0
102
RTVSPost2010PropOp56
 70
     1
102
RTVSPost2010Prop57
140
1.0
102
RTVSPost2010PropOp57
 70
     1
102
RTVSPropertyOp0
 70
     0
102
RTVSPropertyOp1
 70
     0
102
RTVSPropertyOp2
 70
     0
102
RTVSPropertyOp3
 70
     0
102
RTVSPropertyOp4
 70
     0
102
RTVSPropertyOp5
 70
     0
102
RTVSPropertyOp6
 70
     0
102
RTVSPropertyOp7
 70
     0
102
RTVSPropertyOp8
 70
     0
102
RTVSPropertyOp9
 70
     0
102
RTVSPropertyOp10
 70
     0
102
RTVSPropertyOp11
 70
     0
102
RTVSPropertyOp12
 70
     0
102
RTVSPropertyOp13
 70
     0
102
RTVSPropertyOp14
 70
     2
102
RTVSPropertyOp15
 70
     0
102
RTVSPropertyOp16
 70
     0
102
RTVSPropertyOp17
 70
     0
102
RTVSPropertyOp18
 70
     0
102
RTVSPropertyOp19
 70
     0
102
RTVSPropertyOp20
 70
     0
102
RTVSPropertyOp21
 70
     0
102
RTVSPropertyOp22
 70
     0
102
RTVSPropertyOp23
 70
     0
102
RTVSPropertyOp24
 70
     0
102
RTVSPropertyOp25
 70
     0
102
RTVSPropertyOp26
 70
     0
102
RTVSPropertyOp27
 70
     0
102
RTVSPropertyOp28
 70
     1
102
RTVSPropertyOp29
 70
     1
102
RTVSPropertyOp30
 70
     1
102
RTVSPropertyOp31
 70
     1
102
RTVSPropertyOp32
 70
     1
102
RTVSPropertyOp33
 70
     1
102
RTVSPropertyOp34
 70
     1
102
RTVSPropertyOp35
 70
     1
102
RTVSPropertyOp36
 70
     1
102
RTVSPropertyOp37
 70
     1
102
RTVSPropertyOp38
 70
     1
102
RTVSPropertyOp39
 70
     1
102
RTVSPropertyOp40
 70
     1
102
RTVSPropertyOp41
 70
     1
102
RTVSPropertyOp42
 70
     1
102
RTVSPropertyOp43
 70
     1
102
RTVSPropertyOp44
 70
     1
102
RTVSPropertyOp45
 70
     1
102
RTVSPropertyOp46
 70
     1
102
RTVSPropertyOp47
 70
     1
102
RTVSPropertyOp48
 70
     1
102
RTVSPropertyOp49
 70
     1
102
RTVSPropertyOp50
 70
     1
102
RTVSPropertyOp51
 70
     0
102
RTVSPropertyOp52
 70
     0
102
RTVSPropertyOp53
 70
     1
102
RTVSPropertyOp54
 70
     1
102
RTVSPropertyOp55
 70
     1
102
RTVSPropertyOp56
 70
     1
102
RTVSPropertyOp57
 70
     1
102
RTVSPropertyOp58
 70
     1
102
RTVSPropertyOp59
 70
     1
102
RTVSPropertyOp60
 70
     1
102
RTVSPropertyOp61
 70
     1
102
RTVSPropertyOp62
 70
     1
  0
XRECORD
  5
DE6E
102
{ACAD_REACTORS
330
DE6D
102
}
330
DE6D
100
AcDbXrecord
280
     1
102
RTVSPost2010Prop28
280
     0
102
RTVSPost2010PropOp28
 70
     1
102
RTVSPost2010Prop29
280
     1
102
RTVSPost2010PropOp29
 70
     1
102
RTVSPost2010Prop30
280
     1
102
RTVSPost2010PropOp30
 70
     1
102
RTVSPost2010Prop31
280
     0
102
RTVSPost2010PropOp31
 70
     1
102
RTVSPost2010Prop32
280
     0
102
RTVSPost2010PropOp32
 70
     1
102
RTVSPost2010Prop33
280
     0
102
RTVSPost2010PropOp33
 70
     1
102
RTVSPost2010Prop34
280
     0
102
RTVSPost2010PropOp34
 70
     1
102
RTVSPost2010Prop35
280
     0
102
RTVSPost2010PropOp35
 70
     1
102
RTVSPost2010Prop36
280
     0
102
RTVSPost2010PropOp36
 70
     1
102
RTVSPost2010Prop37
 90
       50
102
RTVSPost2010PropOp37
 70
     1
102
RTVSPost2010Prop38
140
0.0
102
RTVSPost2010PropOp38
 70
     1
102
RTVSPost2010Prop39
140
1.0
102
RTVSPost2010PropOp39
 70
     1
102
RTVSPost2010Prop40
 90
        0
102
RTVSPost2010PropOp40
 70
     1
102
RTVSPost2010Prop41ColorIndex
 90
       18
102
RTVSPost2010Prop41ColorRGB
 90
        0
102
RTVSPost2010PropOp41
 70
     1
102
RTVSPost2010Prop42
 90
       50
102
RTVSPost2010PropOp42
 70
     1
102
RTVSPost2010Prop43
 90
        3
102
RTVSPost2010PropOp43
 70
     1
102
RTVSPost2010Prop44ColorIndex
 90
        5
102
RTVSPost2010Prop44ColorRGB
 90
      255
102
RTVSPost2010PropOp44
 70
     1
102
RTVSPost2010Prop45
280
     0
102
RTVSPost2010PropOp45
 70
     1
102
RTVSPost2010Prop46
 90
       50
102
RTVSPost2010PropOp46
 70
     1
102
RTVSPost2010Prop47
 90
       50
102
RTVSPost2010PropOp47
 70
     1
102
RTVSPost2010Prop48
 90
       50
102
RTVSPost2010PropOp48
 70
     1
102
RTVSPost2010Prop49
280
     0
102
RTVSPost2010PropOp49
 70
     1
102
RTVSPost2010Prop50
 90
       50
102
RTVSPost2010PropOp50
 70
     1
102
RTVSPost2010Prop51ColorIndex
 90
      256
102
RTVSPost2010Prop51ColorRGB
 90
-16777216
102
RTVSPost2010PropOp51
 70
     0
102
RTVSPost2010Prop52
140
1.0
102
RTVSPost2010PropOp52
 70
     0
102
RTVSPost2010Prop53
 90
        2
102
RTVSPost2010PropOp53
 70
     1
102
RTVSPost2010Prop54
  1
strokes_ogs.tif
102
RTVSPost2010PropOp54
 70
     1
102
RTVSPost2010Prop55
280
     0
102
RTVSPost2010PropOp55
 70
     1
102
RTVSPost2010Prop56
140
1.0
102
RTVSPost2010PropOp56
 70
     1
102
RTVSPost2010Prop57
140
1.0
102
RTVSPost2010PropOp57
 70
     1
102
RTVSPropertyOp0
 70
     1
102
RTVSPropertyOp1
 70
     1
102
RTVSPropertyOp2
 70
     1
102
RTVSPropertyOp3
 70
     1
102
RTVSPropertyOp4
 70
     1
102
RTVSPropertyOp5
 70
     1
102
RTVSPropertyOp6
 70
     1
102
RTVSPropertyOp7
 70
     1
102
RTVSPropertyOp8
 70
     1
102
RTVSPropertyOp9
 70
     1
102
RTVSPropertyOp10
 70
     1
102
RTVSPropertyOp11
 70
     1
102
RTVSPropertyOp12
 70
     1
102
RTVSPropertyOp13
 70
     1
102
RTVSPropertyOp14
 70
     1
102
RTVSPropertyOp15
 70
     1
102
RTVSPropertyOp16
 70
     1
102
RTVSPropertyOp17
 70
     1
102
RTVSPropertyOp18
 70
     1
102
RTVSPropertyOp19
 70
     1
102
RTVSPropertyOp20
 70
     1
102
RTVSPropertyOp21
 70
     1
102
RTVSPropertyOp22
 70
     1
102
RTVSPropertyOp23
 70
     1
102
RTVSPropertyOp24
 70
     1
102
RTVSPropertyOp25
 70
     1
102
RTVSPropertyOp26
 70
     1
102
RTVSPropertyOp27
 70
     1
102
RTVSPropertyOp28
 70
     1
102
RTVSPropertyOp29
 70
     1
102
RTVSPropertyOp30
 70
     1
102
RTVSPropertyOp31
 70
     1
102
RTVSPropertyOp32
 70
     1
102
RTVSPropertyOp33
 70
     1
102
RTVSPropertyOp34
 70
     1
102
RTVSPropertyOp35
 70
     1
102
RTVSPropertyOp36
 70
     1
102
RTVSPropertyOp37
 70
     1
102
RTVSPropertyOp38
 70
     1
102
RTVSPropertyOp39
 70
     1
102
RTVSPropertyOp40
 70
     1
102
RTVSPropertyOp41
 70
     1
102
RTVSPropertyOp42
 70
     1
102
RTVSPropertyOp43
 70
     1
102
RTVSPropertyOp44
 70
     1
102
RTVSPropertyOp45
 70
     1
102
RTVSPropertyOp46
 70
     1
102
RTVSPropertyOp47
 70
     1
102
RTVSPropertyOp48
 70
     1
102
RTVSPropertyOp49
 70
     1
102
RTVSPropertyOp50
 70
     1
102
RTVSPropertyOp51
 70
     0
102
RTVSPropertyOp52
 70
     0
102
RTVSPropertyOp53
 70
     1
102
RTVSPropertyOp54
 70
     1
102
RTVSPropertyOp55
 70
     1
102
RTVSPropertyOp56
 70
     1
102
RTVSPropertyOp57
 70
     1
102
RTVSPropertyOp58
 70
     1
102
RTVSPropertyOp59
 70
     1
102
RTVSPropertyOp60
 70
     1
102
RTVSPropertyOp61
 70
     1
102
RTVSPropertyOp62
 70
     1
  0
XRECORD
  5
DE78
102
{ACAD_REACTORS
330
DE77
102
}
330
DE77
100
AcDbXrecord
280
     1
102
RTVSPost2010Prop28
280
     0
102
RTVSPost2010PropOp28
 70
     1
102
RTVSPost2010Prop29
280
     1
102
RTVSPost2010PropOp29
 70
     1
102
RTVSPost2010Prop30
280
     1
102
RTVSPost2010PropOp30
 70
     1
102
RTVSPost2010Prop31
280
     0
102
RTVSPost2010PropOp31
 70
     1
102
RTVSPost2010Prop32
280
     0
102
RTVSPost2010PropOp32
 70
     1
102
RTVSPost2010Prop33
280
     0
102
RTVSPost2010PropOp33
 70
     1
102
RTVSPost2010Prop34
280
     0
102
RTVSPost2010PropOp34
 70
     1
102
RTVSPost2010Prop35
280
     0
102
RTVSPost2010PropOp35
 70
     1
102
RTVSPost2010Prop36
280
     0
102
RTVSPost2010PropOp36
 70
     1
102
RTVSPost2010Prop37
 90
       50
102
RTVSPost2010PropOp37
 70
     1
102
RTVSPost2010Prop38
140
0.0
102
RTVSPost2010PropOp38
 70
     1
102
RTVSPost2010Prop39
140
1.0
102
RTVSPost2010PropOp39
 70
     1
102
RTVSPost2010Prop40
 90
        0
102
RTVSPost2010PropOp40
 70
     1
102
RTVSPost2010Prop41ColorIndex
 90
       18
102
RTVSPost2010Prop41ColorRGB
 90
        0
102
RTVSPost2010PropOp41
 70
     1
102
RTVSPost2010Prop42
 90
       50
102
RTVSPost2010PropOp42
 70
     1
102
RTVSPost2010Prop43
 90
        3
102
RTVSPost2010PropOp43
 70
     1
102
RTVSPost2010Prop44ColorIndex
 90
        5
102
RTVSPost2010Prop44ColorRGB
 90
      255
102
RTVSPost2010PropOp44
 70
     1
102
RTVSPost2010Prop45
280
     0
102
RTVSPost2010PropOp45
 70
     1
102
RTVSPost2010Prop46
 90
       50
102
RTVSPost2010PropOp46
 70
     1
102
RTVSPost2010Prop47
 90
       50
102
RTVSPost2010PropOp47
 70
     1
102
RTVSPost2010Prop48
 90
       50
102
RTVSPost2010PropOp48
 70
     1
102
RTVSPost2010Prop49
280
     0
102
RTVSPost2010PropOp49
 70
     1
102
RTVSPost2010Prop50
 90
       50
102
RTVSPost2010PropOp50
 70
     1
102
RTVSPost2010Prop51ColorIndex
 90
      256
102
RTVSPost2010Prop51ColorRGB
 90
-16777216
102
RTVSPost2010PropOp51
 70
     0
102
RTVSPost2010Prop52
140
1.0
102
RTVSPost2010PropOp52
 70
     0
102
RTVSPost2010Prop53
 90
        2
102
RTVSPost2010PropOp53
 70
     1
102
RTVSPost2010Prop54
  1
strokes_ogs.tif
102
RTVSPost2010PropOp54
 70
     1
102
RTVSPost2010Prop55
280
     0
102
RTVSPost2010PropOp55
 70
     1
102
RTVSPost2010Prop56
140
1.0
102
RTVSPost2010PropOp56
 70
     1
102
RTVSPost2010Prop57
140
1.0
102
RTVSPost2010PropOp57
 70
     1
102
RTVSPropertyOp0
 70
     0
102
RTVSPropertyOp1
 70
     0
102
RTVSPropertyOp2
 70
     0
102
RTVSPropertyOp3
 70
     0
102
RTVSPropertyOp4
 70
     0
102
RTVSPropertyOp5
 70
     0
102
RTVSPropertyOp6
 70
     0
102
RTVSPropertyOp7
 70
     0
102
RTVSPropertyOp8
 70
     0
102
RTVSPropertyOp9
 70
     0
102
RTVSPropertyOp10
 70
     0
102
RTVSPropertyOp11
 70
     0
102
RTVSPropertyOp12
 70
     0
102
RTVSPropertyOp13
 70
     0
102
RTVSPropertyOp14
 70
     2
102
RTVSPropertyOp15
 70
     0
102
RTVSPropertyOp16
 70
     0
102
RTVSPropertyOp17
 70
     0
102
RTVSPropertyOp18
 70
     0
102
RTVSPropertyOp19
 70
     0
102
RTVSPropertyOp20
 70
     0
102
RTVSPropertyOp21
 70
     0
102
RTVSPropertyOp22
 70
     0
102
RTVSPropertyOp23
 70
     0
102
RTVSPropertyOp24
 70
     0
102
RTVSPropertyOp25
 70
     0
102
RTVSPropertyOp26
 70
     0
102
RTVSPropertyOp27
 70
     0
102
RTVSPropertyOp28
 70
     1
102
RTVSPropertyOp29
 70
     1
102
RTVSPropertyOp30
 70
     1
102
RTVSPropertyOp31
 70
     1
102
RTVSPropertyOp32
 70
     1
102
RTVSPropertyOp33
 70
     1
102
RTVSPropertyOp34
 70
     1
102
RTVSPropertyOp35
 70
     1
102
RTVSPropertyOp36
 70
     1
102
RTVSPropertyOp37
 70
     1
102
RTVSPropertyOp38
 70
     1
102
RTVSPropertyOp39
 70
     1
102
RTVSPropertyOp40
 70
     1
102
RTVSPropertyOp41
 70
     1
102
RTVSPropertyOp42
 70
     1
102
RTVSPropertyOp43
 70
     1
102
RTVSPropertyOp44
 70
     1
102
RTVSPropertyOp45
 70
     1
102
RTVSPropertyOp46
 70
     1
102
RTVSPropertyOp47
 70
     1
102
RTVSPropertyOp48
 70
     1
102
RTVSPropertyOp49
 70
     1
102
RTVSPropertyOp50
 70
     1
102
RTVSPropertyOp51
 70
     0
102
RTVSPropertyOp52
 70
     0
102
RTVSPropertyOp53
 70
     1
102
RTVSPropertyOp54
 70
     1
102
RTVSPropertyOp55
 70
     1
102
RTVSPropertyOp56
 70
     1
102
RTVSPropertyOp57
 70
     1
102
RTVSPropertyOp58
 70
     1
102
RTVSPropertyOp59
 70
     1
102
RTVSPropertyOp60
 70
     1
102
RTVSPropertyOp61
 70
     1
102
RTVSPropertyOp62
 70
     1
  0
XRECORD
  5
DE66
102
{ACAD_REACTORS
330
DE65
102
}
330
DE65
100
AcDbXrecord
280
     1
102
RTVSPost2010Prop28
280
     0
102
RTVSPost2010PropOp28
 70
     1
102
RTVSPost2010Prop29
280
     1
102
RTVSPost2010PropOp29
 70
     1
102
RTVSPost2010Prop30
280
     1
102
RTVSPost2010PropOp30
 70
     1
102
RTVSPost2010Prop31
280
     0
102
RTVSPost2010PropOp31
 70
     1
102
RTVSPost2010Prop32
280
     0
102
RTVSPost2010PropOp32
 70
     1
102
RTVSPost2010Prop33
280
     0
102
RTVSPost2010PropOp33
 70
     1
102
RTVSPost2010Prop34
280
     0
102
RTVSPost2010PropOp34
 70
     1
102
RTVSPost2010Prop35
280
     0
102
RTVSPost2010PropOp35
 70
     1
102
RTVSPost2010Prop36
280
     0
102
RTVSPost2010PropOp36
 70
     1
102
RTVSPost2010Prop37
 90
       50
102
RTVSPost2010PropOp37
 70
     1
102
RTVSPost2010Prop38
140
0.0
102
RTVSPost2010PropOp38
 70
     1
102
RTVSPost2010Prop39
140
1.0
102
RTVSPost2010PropOp39
 70
     1
102
RTVSPost2010Prop40
 90
        0
102
RTVSPost2010PropOp40
 70
     1
102
RTVSPost2010Prop41ColorIndex
 90
       18
102
RTVSPost2010Prop41ColorRGB
 90
        0
102
RTVSPost2010PropOp41
 70
     1
102
RTVSPost2010Prop42
 90
       50
102
RTVSPost2010PropOp42
 70
     1
102
RTVSPost2010Prop43
 90
        3
102
RTVSPost2010PropOp43
 70
     1
102
RTVSPost2010Prop44ColorIndex
 90
        5
102
RTVSPost2010Prop44ColorRGB
 90
      255
102
RTVSPost2010PropOp44
 70
     1
102
RTVSPost2010Prop45
280
     0
102
RTVSPost2010PropOp45
 70
     1
102
RTVSPost2010Prop46
 90
       50
102
RTVSPost2010PropOp46
 70
     1
102
RTVSPost2010Prop47
 90
       50
102
RTVSPost2010PropOp47
 70
     1
102
RTVSPost2010Prop48
 90
       50
102
RTVSPost2010PropOp48
 70
     1
102
RTVSPost2010Prop49
280
     0
102
RTVSPost2010PropOp49
 70
     1
102
RTVSPost2010Prop50
 90
       50
102
RTVSPost2010PropOp50
 70
     1
102
RTVSPost2010Prop51ColorIndex
 90
      256
102
RTVSPost2010Prop51ColorRGB
 90
-16777216
102
RTVSPost2010PropOp51
 70
     0
102
RTVSPost2010Prop52
140
1.0
102
RTVSPost2010PropOp52
 70
     0
102
RTVSPost2010Prop53
 90
        2
102
RTVSPost2010PropOp53
 70
     1
102
RTVSPost2010Prop54
  1
strokes_ogs.tif
102
RTVSPost2010PropOp54
 70
     1
102
RTVSPost2010Prop55
280
     0
102
RTVSPost2010PropOp55
 70
     1
102
RTVSPost2010Prop56
140
1.0
102
RTVSPost2010PropOp56
 70
     1
102
RTVSPost2010Prop57
140
1.0
102
RTVSPost2010PropOp57
 70
     1
102
RTVSPropertyOp0
 70
     1
102
RTVSPropertyOp1
 70
     1
102
RTVSPropertyOp2
 70
     1
102
RTVSPropertyOp3
 70
     1
102
RTVSPropertyOp4
 70
     1
102
RTVSPropertyOp5
 70
     1
102
RTVSPropertyOp6
 70
     1
102
RTVSPropertyOp7
 70
     1
102
RTVSPropertyOp8
 70
     1
102
RTVSPropertyOp9
 70
     1
102
RTVSPropertyOp10
 70
     1
102
RTVSPropertyOp11
 70
     1
102
RTVSPropertyOp12
 70
     1
102
RTVSPropertyOp13
 70
     1
102
RTVSPropertyOp14
 70
     1
102
RTVSPropertyOp15
 70
     1
102
RTVSPropertyOp16
 70
     1
102
RTVSPropertyOp17
 70
     1
102
RTVSPropertyOp18
 70
     1
102
RTVSPropertyOp19
 70
     1
102
RTVSPropertyOp20
 70
     1
102
RTVSPropertyOp21
 70
     1
102
RTVSPropertyOp22
 70
     1
102
RTVSPropertyOp23
 70
     1
102
RTVSPropertyOp24
 70
     1
102
RTVSPropertyOp25
 70
     1
102
RTVSPropertyOp26
 70
     1
102
RTVSPropertyOp27
 70
     1
102
RTVSPropertyOp28
 70
     1
102
RTVSPropertyOp29
 70
     1
102
RTVSPropertyOp30
 70
     1
102
RTVSPropertyOp31
 70
     1
102
RTVSPropertyOp32
 70
     1
102
RTVSPropertyOp33
 70
     1
102
RTVSPropertyOp34
 70
     1
102
RTVSPropertyOp35
 70
     1
102
RTVSPropertyOp36
 70
     1
102
RTVSPropertyOp37
 70
     1
102
RTVSPropertyOp38
 70
     1
102
RTVSPropertyOp39
 70
     1
102
RTVSPropertyOp40
 70
     1
102
RTVSPropertyOp41
 70
     1
102
RTVSPropertyOp42
 70
     1
102
RTVSPropertyOp43
 70
     1
102
RTVSPropertyOp44
 70
     1
102
RTVSPropertyOp45
 70
     1
102
RTVSPropertyOp46
 70
     1
102
RTVSPropertyOp47
 70
     1
102
RTVSPropertyOp48
 70
     1
102
RTVSPropertyOp49
 70
     1
102
RTVSPropertyOp50
 70
     1
102
RTVSPropertyOp51
 70
     0
102
RTVSPropertyOp52
 70
     0
102
RTVSPropertyOp53
 70
     1
102
RTVSPropertyOp54
 70
     1
102
RTVSPropertyOp55
 70
     1
102
RTVSPropertyOp56
 70
     1
102
RTVSPropertyOp57
 70
     1
102
RTVSPropertyOp58
 70
     1
102
RTVSPropertyOp59
 70
     1
102
RTVSPropertyOp60
 70
     1
102
RTVSPropertyOp61
 70
     1
102
RTVSPropertyOp62
 70
     1
  0
XRECORD
  5
DE84
102
{ACAD_REACTORS
330
DE83
102
}
330
DE83
100
AcDbXrecord
280
     1
102
RTVSPost2010Prop28
280
     0
102
RTVSPost2010PropOp28
 70
     1
102
RTVSPost2010Prop29
280
     1
102
RTVSPost2010PropOp29
 70
     1
102
RTVSPost2010Prop30
280
     1
102
RTVSPost2010PropOp30
 70
     1
102
RTVSPost2010Prop31
280
     0
102
RTVSPost2010PropOp31
 70
     1
102
RTVSPost2010Prop32
280
     0
102
RTVSPost2010PropOp32
 70
     1
102
RTVSPost2010Prop33
280
     0
102
RTVSPost2010PropOp33
 70
     1
102
RTVSPost2010Prop34
280
     0
102
RTVSPost2010PropOp34
 70
     1
102
RTVSPost2010Prop35
280
     0
102
RTVSPost2010PropOp35
 70
     1
102
RTVSPost2010Prop36
280
     0
102
RTVSPost2010PropOp36
 70
     1
102
RTVSPost2010Prop37
 90
       50
102
RTVSPost2010PropOp37
 70
     1
102
RTVSPost2010Prop38
140
0.0
102
RTVSPost2010PropOp38
 70
     1
102
RTVSPost2010Prop39
140
1.0
102
RTVSPost2010PropOp39
 70
     1
102
RTVSPost2010Prop40
 90
        0
102
RTVSPost2010PropOp40
 70
     1
102
RTVSPost2010Prop41ColorIndex
 90
       18
102
RTVSPost2010Prop41ColorRGB
 90
        0
102
RTVSPost2010PropOp41
 70
     1
102
RTVSPost2010Prop42
 90
       50
102
RTVSPost2010PropOp42
 70
     1
102
RTVSPost2010Prop43
 90
        3
102
RTVSPost2010PropOp43
 70
     1
102
RTVSPost2010Prop44ColorIndex
 90
        5
102
RTVSPost2010Prop44ColorRGB
 90
      255
102
RTVSPost2010PropOp44
 70
     1
102
RTVSPost2010Prop45
280
     0
102
RTVSPost2010PropOp45
 70
     1
102
RTVSPost2010Prop46
 90
       50
102
RTVSPost2010PropOp46
 70
     1
102
RTVSPost2010Prop47
 90
       50
102
RTVSPost2010PropOp47
 70
     1
102
RTVSPost2010Prop48
 90
       50
102
RTVSPost2010PropOp48
 70
     1
102
RTVSPost2010Prop49
280
     0
102
RTVSPost2010PropOp49
 70
     1
102
RTVSPost2010Prop50
 90
       50
102
RTVSPost2010PropOp50
 70
     1
102
RTVSPost2010Prop51ColorIndex
 90
      256
102
RTVSPost2010Prop51ColorRGB
 90
-16777216
102
RTVSPost2010PropOp51
 70
     0
102
RTVSPost2010Prop52
140
1.0
102
RTVSPost2010PropOp52
 70
     0
102
RTVSPost2010Prop53
 90
        2
102
RTVSPost2010PropOp53
 70
     1
102
RTVSPost2010Prop54
  1
strokes_ogs.tif
102
RTVSPost2010PropOp54
 70
     1
102
RTVSPost2010Prop55
280
     0
102
RTVSPost2010PropOp55
 70
     1
102
RTVSPost2010Prop56
140
1.0
102
RTVSPost2010PropOp56
 70
     1
102
RTVSPost2010Prop57
140
1.0
102
RTVSPost2010PropOp57
 70
     1
102
RTVSPropertyOp0
 70
     1
102
RTVSPropertyOp1
 70
     1
102
RTVSPropertyOp2
 70
     1
102
RTVSPropertyOp3
 70
     1
102
RTVSPropertyOp4
 70
     1
102
RTVSPropertyOp5
 70
     1
102
RTVSPropertyOp6
 70
     1
102
RTVSPropertyOp7
 70
     1
102
RTVSPropertyOp8
 70
     1
102
RTVSPropertyOp9
 70
     1
102
RTVSPropertyOp10
 70
     1
102
RTVSPropertyOp11
 70
     1
102
RTVSPropertyOp12
 70
     1
102
RTVSPropertyOp13
 70
     1
102
RTVSPropertyOp14
 70
     1
102
RTVSPropertyOp15
 70
     1
102
RTVSPropertyOp16
 70
     1
102
RTVSPropertyOp17
 70
     1
102
RTVSPropertyOp18
 70
     1
102
RTVSPropertyOp19
 70
     1
102
RTVSPropertyOp20
 70
     1
102
RTVSPropertyOp21
 70
     1
102
RTVSPropertyOp22
 70
     1
102
RTVSPropertyOp23
 70
     1
102
RTVSPropertyOp24
 70
     1
102
RTVSPropertyOp25
 70
     1
102
RTVSPropertyOp26
 70
     1
102
RTVSPropertyOp27
 70
     1
102
RTVSPropertyOp28
 70
     1
102
RTVSPropertyOp29
 70
     1
102
RTVSPropertyOp30
 70
     1
102
RTVSPropertyOp31
 70
     1
102
RTVSPropertyOp32
 70
     1
102
RTVSPropertyOp33
 70
     1
102
RTVSPropertyOp34
 70
     1
102
RTVSPropertyOp35
 70
     1
102
RTVSPropertyOp36
 70
     1
102
RTVSPropertyOp37
 70
     1
102
RTVSPropertyOp38
 70
     1
102
RTVSPropertyOp39
 70
     1
102
RTVSPropertyOp40
 70
     1
102
RTVSPropertyOp41
 70
     1
102
RTVSPropertyOp42
 70
     1
102
RTVSPropertyOp43
 70
     1
102
RTVSPropertyOp44
 70
     1
102
RTVSPropertyOp45
 70
     1
102
RTVSPropertyOp46
 70
     1
102
RTVSPropertyOp47
 70
     1
102
RTVSPropertyOp48
 70
     1
102
RTVSPropertyOp49
 70
     1
102
RTVSPropertyOp50
 70
     1
102
RTVSPropertyOp51
 70
     0
102
RTVSPropertyOp52
 70
     0
102
RTVSPropertyOp53
 70
     1
102
RTVSPropertyOp54
 70
     1
102
RTVSPropertyOp55
 70
     1
102
RTVSPropertyOp56
 70
     1
102
RTVSPropertyOp57
 70
     1
102
RTVSPropertyOp58
 70
     1
102
RTVSPropertyOp59
 70
     1
102
RTVSPropertyOp60
 70
     1
102
RTVSPropertyOp61
 70
     1
102
RTVSPropertyOp62
 70
     1
  0
XRECORD
  5
DE82
102
{ACAD_REACTORS
330
DE81
102
}
330
DE81
100
AcDbXrecord
280
     1
102
RTVSPost2010Prop28
280
     0
102
RTVSPost2010PropOp28
 70
     1
102
RTVSPost2010Prop29
280
     1
102
RTVSPost2010PropOp29
 70
     1
102
RTVSPost2010Prop30
280
     1
102
RTVSPost2010PropOp30
 70
     1
102
RTVSPost2010Prop31
280
     0
102
RTVSPost2010PropOp31
 70
     1
102
RTVSPost2010Prop32
280
     0
102
RTVSPost2010PropOp32
 70
     1
102
RTVSPost2010Prop33
280
     0
102
RTVSPost2010PropOp33
 70
     1
102
RTVSPost2010Prop34
280
     0
102
RTVSPost2010PropOp34
 70
     1
102
RTVSPost2010Prop35
280
     0
102
RTVSPost2010PropOp35
 70
     1
102
RTVSPost2010Prop36
280
     0
102
RTVSPost2010PropOp36
 70
     1
102
RTVSPost2010Prop37
 90
       50
102
RTVSPost2010PropOp37
 70
     1
102
RTVSPost2010Prop38
140
0.0
102
RTVSPost2010PropOp38
 70
     1
102
RTVSPost2010Prop39
140
1.0
102
RTVSPost2010PropOp39
 70
     1
102
RTVSPost2010Prop40
 90
        0
102
RTVSPost2010PropOp40
 70
     1
102
RTVSPost2010Prop41ColorIndex
 90
       18
102
RTVSPost2010Prop41ColorRGB
 90
        0
102
RTVSPost2010PropOp41
 70
     1
102
RTVSPost2010Prop42
 90
       50
102
RTVSPost2010PropOp42
 70
     1
102
RTVSPost2010Prop43
 90
        3
102
RTVSPost2010PropOp43
 70
     1
102
RTVSPost2010Prop44ColorIndex
 90
        5
102
RTVSPost2010Prop44ColorRGB
 90
      255
102
RTVSPost2010PropOp44
 70
     1
102
RTVSPost2010Prop45
280
     0
102
RTVSPost2010PropOp45
 70
     1
102
RTVSPost2010Prop46
 90
       50
102
RTVSPost2010PropOp46
 70
     1
102
RTVSPost2010Prop47
 90
       50
102
RTVSPost2010PropOp47
 70
     1
102
RTVSPost2010Prop48
 90
       50
102
RTVSPost2010PropOp48
 70
     1
102
RTVSPost2010Prop49
280
     0
102
RTVSPost2010PropOp49
 70
     1
102
RTVSPost2010Prop50
 90
       50
102
RTVSPost2010PropOp50
 70
     1
102
RTVSPost2010Prop51ColorIndex
 90
      256
102
RTVSPost2010Prop51ColorRGB
 90
-16777216
102
RTVSPost2010PropOp51
 70
     0
102
RTVSPost2010Prop52
140
1.0
102
RTVSPost2010PropOp52
 70
     0
102
RTVSPost2010Prop53
 90
        2
102
RTVSPost2010PropOp53
 70
     1
102
RTVSPost2010Prop54
  1
strokes_ogs.tif
102
RTVSPost2010PropOp54
 70
     1
102
RTVSPost2010Prop55
280
     0
102
RTVSPost2010PropOp55
 70
     1
102
RTVSPost2010Prop56
140
1.0
102
RTVSPost2010PropOp56
 70
     1
102
RTVSPost2010Prop57
140
1.0
102
RTVSPost2010PropOp57
 70
     1
102
RTVSPropertyOp0
 70
     1
102
RTVSPropertyOp1
 70
     1
102
RTVSPropertyOp2
 70
     1
102
RTVSPropertyOp3
 70
     1
102
RTVSPropertyOp4
 70
     1
102
RTVSPropertyOp5
 70
     1
102
RTVSPropertyOp6
 70
     1
102
RTVSPropertyOp7
 70
     1
102
RTVSPropertyOp8
 70
     1
102
RTVSPropertyOp9
 70
     1
102
RTVSPropertyOp10
 70
     1
102
RTVSPropertyOp11
 70
     1
102
RTVSPropertyOp12
 70
     1
102
RTVSPropertyOp13
 70
     1
102
RTVSPropertyOp14
 70
     1
102
RTVSPropertyOp15
 70
     1
102
RTVSPropertyOp16
 70
     1
102
RTVSPropertyOp17
 70
     1
102
RTVSPropertyOp18
 70
     1
102
RTVSPropertyOp19
 70
     1
102
RTVSPropertyOp20
 70
     1
102
RTVSPropertyOp21
 70
     1
102
RTVSPropertyOp22
 70
     1
102
RTVSPropertyOp23
 70
     1
102
RTVSPropertyOp24
 70
     1
102
RTVSPropertyOp25
 70
     1
102
RTVSPropertyOp26
 70
     1
102
RTVSPropertyOp27
 70
     1
102
RTVSPropertyOp28
 70
     1
102
RTVSPropertyOp29
 70
     1
102
RTVSPropertyOp30
 70
     1
102
RTVSPropertyOp31
 70
     1
102
RTVSPropertyOp32
 70
     1
102
RTVSPropertyOp33
 70
     1
102
RTVSPropertyOp34
 70
     1
102
RTVSPropertyOp35
 70
     1
102
RTVSPropertyOp36
 70
     1
102
RTVSPropertyOp37
 70
     1
102
RTVSPropertyOp38
 70
     1
102
RTVSPropertyOp39
 70
     1
102
RTVSPropertyOp40
 70
     1
102
RTVSPropertyOp41
 70
     1
102
RTVSPropertyOp42
 70
     1
102
RTVSPropertyOp43
 70
     1
102
RTVSPropertyOp44
 70
     1
102
RTVSPropertyOp45
 70
     1
102
RTVSPropertyOp46
 70
     1
102
RTVSPropertyOp47
 70
     1
102
RTVSPropertyOp48
 70
     1
102
RTVSPropertyOp49
 70
     1
102
RTVSPropertyOp50
 70
     1
102
RTVSPropertyOp51
 70
     0
102
RTVSPropertyOp52
 70
     0
102
RTVSPropertyOp53
 70
     1
102
RTVSPropertyOp54
 70
     1
102
RTVSPropertyOp55
 70
     1
102
RTVSPropertyOp56
 70
     1
102
RTVSPropertyOp57
 70
     1
102
RTVSPropertyOp58
 70
     1
102
RTVSPropertyOp59
 70
     1
102
RTVSPropertyOp60
 70
     1
102
RTVSPropertyOp61
 70
     1
102
RTVSPropertyOp62
 70
     1
  0
XRECORD
  5
DE7C
102
{ACAD_REACTORS
330
DE7B
102
}
330
DE7B
100
AcDbXrecord
280
     1
102
RTVSPost2010Prop28
280
     0
102
RTVSPost2010PropOp28
 70
     1
102
RTVSPost2010Prop29
280
     1
102
RTVSPost2010PropOp29
 70
     1
102
RTVSPost2010Prop30
280
     1
102
RTVSPost2010PropOp30
 70
     1
102
RTVSPost2010Prop31
280
     0
102
RTVSPost2010PropOp31
 70
     1
102
RTVSPost2010Prop32
280
     0
102
RTVSPost2010PropOp32
 70
     1
102
RTVSPost2010Prop33
280
     0
102
RTVSPost2010PropOp33
 70
     1
102
RTVSPost2010Prop34
280
     0
102
RTVSPost2010PropOp34
 70
     1
102
RTVSPost2010Prop35
280
     0
102
RTVSPost2010PropOp35
 70
     1
102
RTVSPost2010Prop36
280
     0
102
RTVSPost2010PropOp36
 70
     1
102
RTVSPost2010Prop37
 90
       50
102
RTVSPost2010PropOp37
 70
     1
102
RTVSPost2010Prop38
140
0.0
102
RTVSPost2010PropOp38
 70
     1
102
RTVSPost2010Prop39
140
1.0
102
RTVSPost2010PropOp39
 70
     1
102
RTVSPost2010Prop40
 90
        0
102
RTVSPost2010PropOp40
 70
     1
102
RTVSPost2010Prop41ColorIndex
 90
       18
102
RTVSPost2010Prop41ColorRGB
 90
        0
102
RTVSPost2010PropOp41
 70
     1
102
RTVSPost2010Prop42
 90
       50
102
RTVSPost2010PropOp42
 70
     1
102
RTVSPost2010Prop43
 90
        3
102
RTVSPost2010PropOp43
 70
     1
102
RTVSPost2010Prop44ColorIndex
 90
        5
102
RTVSPost2010Prop44ColorRGB
 90
      255
102
RTVSPost2010PropOp44
 70
     1
102
RTVSPost2010Prop45
280
     0
102
RTVSPost2010PropOp45
 70
     1
102
RTVSPost2010Prop46
 90
       50
102
RTVSPost2010PropOp46
 70
     1
102
RTVSPost2010Prop47
 90
       50
102
RTVSPost2010PropOp47
 70
     1
102
RTVSPost2010Prop48
 90
       50
102
RTVSPost2010PropOp48
 70
     1
102
RTVSPost2010Prop49
280
     0
102
RTVSPost2010PropOp49
 70
     1
102
RTVSPost2010Prop50
 90
       50
102
RTVSPost2010PropOp50
 70
     1
102
RTVSPost2010Prop51ColorIndex
 90
      256
102
RTVSPost2010Prop51ColorRGB
 90
-16777216
102
RTVSPost2010PropOp51
 70
     0
102
RTVSPost2010Prop52
140
1.0
102
RTVSPost2010PropOp52
 70
     0
102
RTVSPost2010Prop53
 90
        2
102
RTVSPost2010PropOp53
 70
     1
102
RTVSPost2010Prop54
  1
strokes_ogs.tif
102
RTVSPost2010PropOp54
 70
     1
102
RTVSPost2010Prop55
280
     0
102
RTVSPost2010PropOp55
 70
     1
102
RTVSPost2010Prop56
140
1.0
102
RTVSPost2010PropOp56
 70
     1
102
RTVSPost2010Prop57
140
1.0
102
RTVSPost2010PropOp57
 70
     1
102
RTVSPropertyOp0
 70
     1
102
RTVSPropertyOp1
 70
     1
102
RTVSPropertyOp2
 70
     1
102
RTVSPropertyOp3
 70
     1
102
RTVSPropertyOp4
 70
     1
102
RTVSPropertyOp5
 70
     1
102
RTVSPropertyOp6
 70
     1
102
RTVSPropertyOp7
 70
     1
102
RTVSPropertyOp8
 70
     1
102
RTVSPropertyOp9
 70
     1
102
RTVSPropertyOp10
 70
     1
102
RTVSPropertyOp11
 70
     1
102
RTVSPropertyOp12
 70
     1
102
RTVSPropertyOp13
 70
     1
102
RTVSPropertyOp14
 70
     1
102
RTVSPropertyOp15
 70
     1
102
RTVSPropertyOp16
 70
     1
102
RTVSPropertyOp17
 70
     1
102
RTVSPropertyOp18
 70
     1
102
RTVSPropertyOp19
 70
     1
102
RTVSPropertyOp20
 70
     1
102
RTVSPropertyOp21
 70
     1
102
RTVSPropertyOp22
 70
     1
102
RTVSPropertyOp23
 70
     1
102
RTVSPropertyOp24
 70
     1
102
RTVSPropertyOp25
 70
     1
102
RTVSPropertyOp26
 70
     1
102
RTVSPropertyOp27
 70
     1
102
RTVSPropertyOp28
 70
     1
102
RTVSPropertyOp29
 70
     1
102
RTVSPropertyOp30
 70
     1
102
RTVSPropertyOp31
 70
     1
102
RTVSPropertyOp32
 70
     1
102
RTVSPropertyOp33
 70
     1
102
RTVSPropertyOp34
 70
     1
102
RTVSPropertyOp35
 70
     1
102
RTVSPropertyOp36
 70
     1
102
RTVSPropertyOp37
 70
     1
102
RTVSPropertyOp38
 70
     1
102
RTVSPropertyOp39
 70
     1
102
RTVSPropertyOp40
 70
     1
102
RTVSPropertyOp41
 70
     1
102
RTVSPropertyOp42
 70
     1
102
RTVSPropertyOp43
 70
     1
102
RTVSPropertyOp44
 70
     1
102
RTVSPropertyOp45
 70
     1
102
RTVSPropertyOp46
 70
     1
102
RTVSPropertyOp47
 70
     1
102
RTVSPropertyOp48
 70
     1
102
RTVSPropertyOp49
 70
     1
102
RTVSPropertyOp50
 70
     1
102
RTVSPropertyOp51
 70
     0
102
RTVSPropertyOp52
 70
     0
102
RTVSPropertyOp53
 70
     1
102
RTVSPropertyOp54
 70
     1
102
RTVSPropertyOp55
 70
     1
102
RTVSPropertyOp56
 70
     1
102
RTVSPropertyOp57
 70
     1
102
RTVSPropertyOp58
 70
     1
102
RTVSPropertyOp59
 70
     1
102
RTVSPropertyOp60
 70
     1
102
RTVSPropertyOp61
 70
     1
102
RTVSPropertyOp62
 70
     1
  0
XRECORD
  5
DE7E
102
{ACAD_REACTORS
330
DE7D
102
}
330
DE7D
100
AcDbXrecord
280
     1
102
RTVSPost2010Prop28
280
     0
102
RTVSPost2010PropOp28
 70
     1
102
RTVSPost2010Prop29
280
     1
102
RTVSPost2010PropOp29
 70
     1
102
RTVSPost2010Prop30
280
     1
102
RTVSPost2010PropOp30
 70
     1
102
RTVSPost2010Prop31
280
     0
102
RTVSPost2010PropOp31
 70
     1
102
RTVSPost2010Prop32
280
     0
102
RTVSPost2010PropOp32
 70
     1
102
RTVSPost2010Prop33
280
     0
102
RTVSPost2010PropOp33
 70
     1
102
RTVSPost2010Prop34
280
     0
102
RTVSPost2010PropOp34
 70
     1
102
RTVSPost2010Prop35
280
     0
102
RTVSPost2010PropOp35
 70
     1
102
RTVSPost2010Prop36
280
     0
102
RTVSPost2010PropOp36
 70
     1
102
RTVSPost2010Prop37
 90
       50
102
RTVSPost2010PropOp37
 70
     1
102
RTVSPost2010Prop38
140
0.0
102
RTVSPost2010PropOp38
 70
     1
102
RTVSPost2010Prop39
140
1.0
102
RTVSPost2010PropOp39
 70
     1
102
RTVSPost2010Prop40
 90
        0
102
RTVSPost2010PropOp40
 70
     1
102
RTVSPost2010Prop41ColorIndex
 90
       18
102
RTVSPost2010Prop41ColorRGB
 90
        0
102
RTVSPost2010PropOp41
 70
     1
102
RTVSPost2010Prop42
 90
       50
102
RTVSPost2010PropOp42
 70
     1
102
RTVSPost2010Prop43
 90
        3
102
RTVSPost2010PropOp43
 70
     1
102
RTVSPost2010Prop44ColorIndex
 90
        5
102
RTVSPost2010Prop44ColorRGB
 90
      255
102
RTVSPost2010PropOp44
 70
     1
102
RTVSPost2010Prop45
280
     0
102
RTVSPost2010PropOp45
 70
     1
102
RTVSPost2010Prop46
 90
       50
102
RTVSPost2010PropOp46
 70
     1
102
RTVSPost2010Prop47
 90
       50
102
RTVSPost2010PropOp47
 70
     1
102
RTVSPost2010Prop48
 90
       50
102
RTVSPost2010PropOp48
 70
     1
102
RTVSPost2010Prop49
280
     0
102
RTVSPost2010PropOp49
 70
     1
102
RTVSPost2010Prop50
 90
       50
102
RTVSPost2010PropOp50
 70
     1
102
RTVSPost2010Prop51ColorIndex
 90
      256
102
RTVSPost2010Prop51ColorRGB
 90
-16777216
102
RTVSPost2010PropOp51
 70
     0
102
RTVSPost2010Prop52
140
1.0
102
RTVSPost2010PropOp52
 70
     0
102
RTVSPost2010Prop53
 90
        2
102
RTVSPost2010PropOp53
 70
     1
102
RTVSPost2010Prop54
  1
strokes_ogs.tif
102
RTVSPost2010PropOp54
 70
     1
102
RTVSPost2010Prop55
280
     0
102
RTVSPost2010PropOp55
 70
     1
102
RTVSPost2010Prop56
140
1.0
102
RTVSPost2010PropOp56
 70
     1
102
RTVSPost2010Prop57
140
1.0
102
RTVSPost2010PropOp57
 70
     1
102
RTVSPropertyOp0
 70
     1
102
RTVSPropertyOp1
 70
     1
102
RTVSPropertyOp2
 70
     1
102
RTVSPropertyOp3
 70
     1
102
RTVSPropertyOp4
 70
     1
102
RTVSPropertyOp5
 70
     1
102
RTVSPropertyOp6
 70
     1
102
RTVSPropertyOp7
 70
     1
102
RTVSPropertyOp8
 70
     1
102
RTVSPropertyOp9
 70
     1
102
RTVSPropertyOp10
 70
     1
102
RTVSPropertyOp11
 70
     1
102
RTVSPropertyOp12
 70
     1
102
RTVSPropertyOp13
 70
     1
102
RTVSPropertyOp14
 70
     1
102
RTVSPropertyOp15
 70
     1
102
RTVSPropertyOp16
 70
     1
102
RTVSPropertyOp17
 70
     1
102
RTVSPropertyOp18
 70
     1
102
RTVSPropertyOp19
 70
     1
102
RTVSPropertyOp20
 70
     1
102
RTVSPropertyOp21
 70
     1
102
RTVSPropertyOp22
 70
     1
102
RTVSPropertyOp23
 70
     1
102
RTVSPropertyOp24
 70
     1
102
RTVSPropertyOp25
 70
     1
102
RTVSPropertyOp26
 70
     1
102
RTVSPropertyOp27
 70
     1
102
RTVSPropertyOp28
 70
     1
102
RTVSPropertyOp29
 70
     1
102
RTVSPropertyOp30
 70
     1
102
RTVSPropertyOp31
 70
     1
102
RTVSPropertyOp32
 70
     1
102
RTVSPropertyOp33
 70
     1
102
RTVSPropertyOp34
 70
     1
102
RTVSPropertyOp35
 70
     1
102
RTVSPropertyOp36
 70
     1
102
RTVSPropertyOp37
 70
     1
102
RTVSPropertyOp38
 70
     1
102
RTVSPropertyOp39
 70
     1
102
RTVSPropertyOp40
 70
     1
102
RTVSPropertyOp41
 70
     1
102
RTVSPropertyOp42
 70
     1
102
RTVSPropertyOp43
 70
     1
102
RTVSPropertyOp44
 70
     1
102
RTVSPropertyOp45
 70
     1
102
RTVSPropertyOp46
 70
     1
102
RTVSPropertyOp47
 70
     1
102
RTVSPropertyOp48
 70
     1
102
RTVSPropertyOp49
 70
     1
102
RTVSPropertyOp50
 70
     1
102
RTVSPropertyOp51
 70
     0
102
RTVSPropertyOp52
 70
     0
102
RTVSPropertyOp53
 70
     1
102
RTVSPropertyOp54
 70
     1
102
RTVSPropertyOp55
 70
     1
102
RTVSPropertyOp56
 70
     1
102
RTVSPropertyOp57
 70
     1
102
RTVSPropertyOp58
 70
     1
102
RTVSPropertyOp59
 70
     1
102
RTVSPropertyOp60
 70
     1
102
RTVSPropertyOp61
 70
     1
102
RTVSPropertyOp62
 70
     1
  0
XRECORD
  5
DE6C
102
{ACAD_REACTORS
330
DE6B
102
}
330
DE6B
100
AcDbXrecord
280
     1
102
RTVSPost2010Prop28
280
     0
102
RTVSPost2010PropOp28
 70
     1
102
RTVSPost2010Prop29
280
     1
102
RTVSPost2010PropOp29
 70
     1
102
RTVSPost2010Prop30
280
     1
102
RTVSPost2010PropOp30
 70
     1
102
RTVSPost2010Prop31
280
     0
102
RTVSPost2010PropOp31
 70
     1
102
RTVSPost2010Prop32
280
     0
102
RTVSPost2010PropOp32
 70
     1
102
RTVSPost2010Prop33
280
     0
102
RTVSPost2010PropOp33
 70
     1
102
RTVSPost2010Prop34
280
     0
102
RTVSPost2010PropOp34
 70
     1
102
RTVSPost2010Prop35
280
     0
102
RTVSPost2010PropOp35
 70
     1
102
RTVSPost2010Prop36
280
     0
102
RTVSPost2010PropOp36
 70
     1
102
RTVSPost2010Prop37
 90
       50
102
RTVSPost2010PropOp37
 70
     1
102
RTVSPost2010Prop38
140
0.0
102
RTVSPost2010PropOp38
 70
     1
102
RTVSPost2010Prop39
140
1.0
102
RTVSPost2010PropOp39
 70
     1
102
RTVSPost2010Prop40
 90
        0
102
RTVSPost2010PropOp40
 70
     1
102
RTVSPost2010Prop41ColorIndex
 90
       18
102
RTVSPost2010Prop41ColorRGB
 90
        0
102
RTVSPost2010PropOp41
 70
     1
102
RTVSPost2010Prop42
 90
       50
102
RTVSPost2010PropOp42
 70
     1
102
RTVSPost2010Prop43
 90
        3
102
RTVSPost2010PropOp43
 70
     1
102
RTVSPost2010Prop44ColorIndex
 90
        5
102
RTVSPost2010Prop44ColorRGB
 90
      255
102
RTVSPost2010PropOp44
 70
     1
102
RTVSPost2010Prop45
280
     0
102
RTVSPost2010PropOp45
 70
     1
102
RTVSPost2010Prop46
 90
       50
102
RTVSPost2010PropOp46
 70
     1
102
RTVSPost2010Prop47
 90
       50
102
RTVSPost2010PropOp47
 70
     1
102
RTVSPost2010Prop48
 90
       50
102
RTVSPost2010PropOp48
 70
     1
102
RTVSPost2010Prop49
280
     0
102
RTVSPost2010PropOp49
 70
     1
102
RTVSPost2010Prop50
 90
       50
102
RTVSPost2010PropOp50
 70
     1
102
RTVSPost2010Prop51ColorIndex
 90
      256
102
RTVSPost2010Prop51ColorRGB
 90
-16777216
102
RTVSPost2010PropOp51
 70
     0
102
RTVSPost2010Prop52
140
1.0
102
RTVSPost2010PropOp52
 70
     0
102
RTVSPost2010Prop53
 90
        2
102
RTVSPost2010PropOp53
 70
     1
102
RTVSPost2010Prop54
  1
strokes_ogs.tif
102
RTVSPost2010PropOp54
 70
     1
102
RTVSPost2010Prop55
280
     0
102
RTVSPost2010PropOp55
 70
     1
102
RTVSPost2010Prop56
140
1.0
102
RTVSPost2010PropOp56
 70
     1
102
RTVSPost2010Prop57
140
1.0
102
RTVSPost2010PropOp57
 70
     1
102
RTVSPropertyOp0
 70
     1
102
RTVSPropertyOp1
 70
     1
102
RTVSPropertyOp2
 70
     1
102
RTVSPropertyOp3
 70
     1
102
RTVSPropertyOp4
 70
     1
102
RTVSPropertyOp5
 70
     1
102
RTVSPropertyOp6
 70
     1
102
RTVSPropertyOp7
 70
     1
102
RTVSPropertyOp8
 70
     1
102
RTVSPropertyOp9
 70
     1
102
RTVSPropertyOp10
 70
     1
102
RTVSPropertyOp11
 70
     1
102
RTVSPropertyOp12
 70
     1
102
RTVSPropertyOp13
 70
     1
102
RTVSPropertyOp14
 70
     1
102
RTVSPropertyOp15
 70
     1
102
RTVSPropertyOp16
 70
     1
102
RTVSPropertyOp17
 70
     1
102
RTVSPropertyOp18
 70
     1
102
RTVSPropertyOp19
 70
     1
102
RTVSPropertyOp20
 70
     1
102
RTVSPropertyOp21
 70
     1
102
RTVSPropertyOp22
 70
     1
102
RTVSPropertyOp23
 70
     1
102
RTVSPropertyOp24
 70
     1
102
RTVSPropertyOp25
 70
     1
102
RTVSPropertyOp26
 70
     1
102
RTVSPropertyOp27
 70
     1
102
RTVSPropertyOp28
 70
     1
102
RTVSPropertyOp29
 70
     1
102
RTVSPropertyOp30
 70
     1
102
RTVSPropertyOp31
 70
     1
102
RTVSPropertyOp32
 70
     1
102
RTVSPropertyOp33
 70
     1
102
RTVSPropertyOp34
 70
     1
102
RTVSPropertyOp35
 70
     1
102
RTVSPropertyOp36
 70
     1
102
RTVSPropertyOp37
 70
     1
102
RTVSPropertyOp38
 70
     1
102
RTVSPropertyOp39
 70
     1
102
RTVSPropertyOp40
 70
     1
102
RTVSPropertyOp41
 70
     1
102
RTVSPropertyOp42
 70
     1
102
RTVSPropertyOp43
 70
     1
102
RTVSPropertyOp44
 70
     1
102
RTVSPropertyOp45
 70
     1
102
RTVSPropertyOp46
 70
     1
102
RTVSPropertyOp47
 70
     1
102
RTVSPropertyOp48
 70
     1
102
RTVSPropertyOp49
 70
     1
102
RTVSPropertyOp50
 70
     1
102
RTVSPropertyOp51
 70
     0
102
RTVSPropertyOp52
 70
     0
102
RTVSPropertyOp53
 70
     1
102
RTVSPropertyOp54
 70
     1
102
RTVSPropertyOp55
 70
     1
102
RTVSPropertyOp56
 70
     1
102
RTVSPropertyOp57
 70
     1
102
RTVSPropertyOp58
 70
     1
102
RTVSPropertyOp59
 70
     1
102
RTVSPropertyOp60
 70
     1
102
RTVSPropertyOp61
 70
     1
102
RTVSPropertyOp62
 70
     1
  0
XRECORD
  5
DE60
102
{ACAD_REACTORS
330
DE5F
102
}
330
DE5F
100
AcDbXrecord
280
     1
102
RTVSPost2010Prop28
280
     0
102
RTVSPost2010PropOp28
 70
     1
102
RTVSPost2010Prop29
280
     1
102
RTVSPost2010PropOp29
 70
     1
102
RTVSPost2010Prop30
280
     1
102
RTVSPost2010PropOp30
 70
     1
102
RTVSPost2010Prop31
280
     0
102
RTVSPost2010PropOp31
 70
     1
102
RTVSPost2010Prop32
280
     0
102
RTVSPost2010PropOp32
 70
     1
102
RTVSPost2010Prop33
280
     0
102
RTVSPost2010PropOp33
 70
     1
102
RTVSPost2010Prop34
280
     0
102
RTVSPost2010PropOp34
 70
     1
102
RTVSPost2010Prop35
280
     0
102
RTVSPost2010PropOp35
 70
     1
102
RTVSPost2010Prop36
280
     0
102
RTVSPost2010PropOp36
 70
     1
102
RTVSPost2010Prop37
 90
       50
102
RTVSPost2010PropOp37
 70
     1
102
RTVSPost2010Prop38
140
0.0
102
RTVSPost2010PropOp38
 70
     1
102
RTVSPost2010Prop39
140
1.0
102
RTVSPost2010PropOp39
 70
     1
102
RTVSPost2010Prop40
 90
        0
102
RTVSPost2010PropOp40
 70
     1
102
RTVSPost2010Prop41ColorIndex
 90
       18
102
RTVSPost2010Prop41ColorRGB
 90
        0
102
RTVSPost2010PropOp41
 70
     1
102
RTVSPost2010Prop42
 90
       50
102
RTVSPost2010PropOp42
 70
     1
102
RTVSPost2010Prop43
 90
        3
102
RTVSPost2010PropOp43
 70
     1
102
RTVSPost2010Prop44ColorIndex
 90
        5
102
RTVSPost2010Prop44ColorRGB
 90
      255
102
RTVSPost2010PropOp44
 70
     1
102
RTVSPost2010Prop45
280
     0
102
RTVSPost2010PropOp45
 70
     1
102
RTVSPost2010Prop46
 90
       50
102
RTVSPost2010PropOp46
 70
     1
102
RTVSPost2010Prop47
 90
       50
102
RTVSPost2010PropOp47
 70
     1
102
RTVSPost2010Prop48
 90
       50
102
RTVSPost2010PropOp48
 70
     1
102
RTVSPost2010Prop49
280
     0
102
RTVSPost2010PropOp49
 70
     1
102
RTVSPost2010Prop50
 90
       50
102
RTVSPost2010PropOp50
 70
     1
102
RTVSPost2010Prop51ColorIndex
 90
      256
102
RTVSPost2010Prop51ColorRGB
 90
-16777216
102
RTVSPost2010PropOp51
 70
     0
102
RTVSPost2010Prop52
140
1.0
102
RTVSPost2010PropOp52
 70
     0
102
RTVSPost2010Prop53
 90
        2
102
RTVSPost2010PropOp53
 70
     1
102
RTVSPost2010Prop54
  1
strokes_ogs.tif
102
RTVSPost2010PropOp54
 70
     1
102
RTVSPost2010Prop55
280
     0
102
RTVSPost2010PropOp55
 70
     1
102
RTVSPost2010Prop56
140
1.0
102
RTVSPost2010PropOp56
 70
     1
102
RTVSPost2010Prop57
140
1.0
102
RTVSPost2010PropOp57
 70
     1
102
RTVSPropertyOp0
 70
     1
102
RTVSPropertyOp1
 70
     1
102
RTVSPropertyOp2
 70
     1
102
RTVSPropertyOp3
 70
     1
102
RTVSPropertyOp4
 70
     1
102
RTVSPropertyOp5
 70
     1
102
RTVSPropertyOp6
 70
     1
102
RTVSPropertyOp7
 70
     1
102
RTVSPropertyOp8
 70
     1
102
RTVSPropertyOp9
 70
     1
102
RTVSPropertyOp10
 70
     1
102
RTVSPropertyOp11
 70
     1
102
RTVSPropertyOp12
 70
     1
102
RTVSPropertyOp13
 70
     1
102
RTVSPropertyOp14
 70
     1
102
RTVSPropertyOp15
 70
     1
102
RTVSPropertyOp16
 70
     1
102
RTVSPropertyOp17
 70
     1
102
RTVSPropertyOp18
 70
     1
102
RTVSPropertyOp19
 70
     1
102
RTVSPropertyOp20
 70
     1
102
RTVSPropertyOp21
 70
     1
102
RTVSPropertyOp22
 70
     1
102
RTVSPropertyOp23
 70
     1
102
RTVSPropertyOp24
 70
     1
102
RTVSPropertyOp25
 70
     1
102
RTVSPropertyOp26
 70
     1
102
RTVSPropertyOp27
 70
     1
102
RTVSPropertyOp28
 70
     1
102
RTVSPropertyOp29
 70
     1
102
RTVSPropertyOp30
 70
     1
102
RTVSPropertyOp31
 70
     1
102
RTVSPropertyOp32
 70
     1
102
RTVSPropertyOp33
 70
     1
102
RTVSPropertyOp34
 70
     1
102
RTVSPropertyOp35
 70
     1
102
RTVSPropertyOp36
 70
     1
102
RTVSPropertyOp37
 70
     1
102
RTVSPropertyOp38
 70
     1
102
RTVSPropertyOp39
 70
     1
102
RTVSPropertyOp40
 70
     1
102
RTVSPropertyOp41
 70
     1
102
RTVSPropertyOp42
 70
     1
102
RTVSPropertyOp43
 70
     1
102
RTVSPropertyOp44
 70
     1
102
RTVSPropertyOp45
 70
     1
102
RTVSPropertyOp46
 70
     1
102
RTVSPropertyOp47
 70
     1
102
RTVSPropertyOp48
 70
     1
102
RTVSPropertyOp49
 70
     1
102
RTVSPropertyOp50
 70
     1
102
RTVSPropertyOp51
 70
     0
102
RTVSPropertyOp52
 70
     0
102
RTVSPropertyOp53
 70
     1
102
RTVSPropertyOp54
 70
     1
102
RTVSPropertyOp55
 70
     1
102
RTVSPropertyOp56
 70
     1
102
RTVSPropertyOp57
 70
     1
102
RTVSPropertyOp58
 70
     1
102
RTVSPropertyOp59
 70
     1
102
RTVSPropertyOp60
 70
     1
102
RTVSPropertyOp61
 70
     1
102
RTVSPropertyOp62
 70
     1
  0
XRECORD
  5
DE80
102
{ACAD_REACTORS
330
DE7F
102
}
330
DE7F
100
AcDbXrecord
280
     1
102
RTVSPost2010Prop28
280
     0
102
RTVSPost2010PropOp28
 70
     1
102
RTVSPost2010Prop29
280
     1
102
RTVSPost2010PropOp29
 70
     1
102
RTVSPost2010Prop30
280
     1
102
RTVSPost2010PropOp30
 70
     1
102
RTVSPost2010Prop31
280
     0
102
RTVSPost2010PropOp31
 70
     1
102
RTVSPost2010Prop32
280
     0
102
RTVSPost2010PropOp32
 70
     1
102
RTVSPost2010Prop33
280
     0
102
RTVSPost2010PropOp33
 70
     1
102
RTVSPost2010Prop34
280
     0
102
RTVSPost2010PropOp34
 70
     1
102
RTVSPost2010Prop35
280
     0
102
RTVSPost2010PropOp35
 70
     1
102
RTVSPost2010Prop36
280
     0
102
RTVSPost2010PropOp36
 70
     1
102
RTVSPost2010Prop37
 90
       50
102
RTVSPost2010PropOp37
 70
     1
102
RTVSPost2010Prop38
140
0.0
102
RTVSPost2010PropOp38
 70
     1
102
RTVSPost2010Prop39
140
1.0
102
RTVSPost2010PropOp39
 70
     1
102
RTVSPost2010Prop40
 90
        0
102
RTVSPost2010PropOp40
 70
     1
102
RTVSPost2010Prop41ColorIndex
 90
       18
102
RTVSPost2010Prop41ColorRGB
 90
        0
102
RTVSPost2010PropOp41
 70
     1
102
RTVSPost2010Prop42
 90
       50
102
RTVSPost2010PropOp42
 70
     1
102
RTVSPost2010Prop43
 90
        3
102
RTVSPost2010PropOp43
 70
     1
102
RTVSPost2010Prop44ColorIndex
 90
        5
102
RTVSPost2010Prop44ColorRGB
 90
      255
102
RTVSPost2010PropOp44
 70
     1
102
RTVSPost2010Prop45
280
     0
102
RTVSPost2010PropOp45
 70
     1
102
RTVSPost2010Prop46
 90
       50
102
RTVSPost2010PropOp46
 70
     1
102
RTVSPost2010Prop47
 90
       50
102
RTVSPost2010PropOp47
 70
     1
102
RTVSPost2010Prop48
 90
       50
102
RTVSPost2010PropOp48
 70
     1
102
RTVSPost2010Prop49
280
     0
102
RTVSPost2010PropOp49
 70
     1
102
RTVSPost2010Prop50
 90
       50
102
RTVSPost2010PropOp50
 70
     1
102
RTVSPost2010Prop51ColorIndex
 90
      256
102
RTVSPost2010Prop51ColorRGB
 90
-16777216
102
RTVSPost2010PropOp51
 70
     0
102
RTVSPost2010Prop52
140
1.0
102
RTVSPost2010PropOp52
 70
     0
102
RTVSPost2010Prop53
 90
        2
102
RTVSPost2010PropOp53
 70
     1
102
RTVSPost2010Prop54
  1
strokes_ogs.tif
102
RTVSPost2010PropOp54
 70
     1
102
RTVSPost2010Prop55
280
     0
102
RTVSPost2010PropOp55
 70
     1
102
RTVSPost2010Prop56
140
1.0
102
RTVSPost2010PropOp56
 70
     1
102
RTVSPost2010Prop57
140
1.0
102
RTVSPost2010PropOp57
 70
     1
102
RTVSPropertyOp0
 70
     1
102
RTVSPropertyOp1
 70
     1
102
RTVSPropertyOp2
 70
     1
102
RTVSPropertyOp3
 70
     1
102
RTVSPropertyOp4
 70
     1
102
RTVSPropertyOp5
 70
     1
102
RTVSPropertyOp6
 70
     1
102
RTVSPropertyOp7
 70
     1
102
RTVSPropertyOp8
 70
     1
102
RTVSPropertyOp9
 70
     1
102
RTVSPropertyOp10
 70
     1
102
RTVSPropertyOp11
 70
     1
102
RTVSPropertyOp12
 70
     1
102
RTVSPropertyOp13
 70
     1
102
RTVSPropertyOp14
 70
     1
102
RTVSPropertyOp15
 70
     1
102
RTVSPropertyOp16
 70
     1
102
RTVSPropertyOp17
 70
     1
102
RTVSPropertyOp18
 70
     1
102
RTVSPropertyOp19
 70
     1
102
RTVSPropertyOp20
 70
     1
102
RTVSPropertyOp21
 70
     1
102
RTVSPropertyOp22
 70
     1
102
RTVSPropertyOp23
 70
     1
102
RTVSPropertyOp24
 70
     1
102
RTVSPropertyOp25
 70
     1
102
RTVSPropertyOp26
 70
     1
102
RTVSPropertyOp27
 70
     1
102
RTVSPropertyOp28
 70
     1
102
RTVSPropertyOp29
 70
     1
102
RTVSPropertyOp30
 70
     1
102
RTVSPropertyOp31
 70
     1
102
RTVSPropertyOp32
 70
     1
102
RTVSPropertyOp33
 70
     1
102
RTVSPropertyOp34
 70
     1
102
RTVSPropertyOp35
 70
     1
102
RTVSPropertyOp36
 70
     1
102
RTVSPropertyOp37
 70
     1
102
RTVSPropertyOp38
 70
     1
102
RTVSPropertyOp39
 70
     1
102
RTVSPropertyOp40
 70
     1
102
RTVSPropertyOp41
 70
     1
102
RTVSPropertyOp42
 70
     1
102
RTVSPropertyOp43
 70
     1
102
RTVSPropertyOp44
 70
     1
102
RTVSPropertyOp45
 70
     1
102
RTVSPropertyOp46
 70
     1
102
RTVSPropertyOp47
 70
     1
102
RTVSPropertyOp48
 70
     1
102
RTVSPropertyOp49
 70
     1
102
RTVSPropertyOp50
 70
     1
102
RTVSPropertyOp51
 70
     0
102
RTVSPropertyOp52
 70
     0
102
RTVSPropertyOp53
 70
     1
102
RTVSPropertyOp54
 70
     1
102
RTVSPropertyOp55
 70
     1
102
RTVSPropertyOp56
 70
     1
102
RTVSPropertyOp57
 70
     1
102
RTVSPropertyOp58
 70
     1
102
RTVSPropertyOp59
 70
     1
102
RTVSPropertyOp60
 70
     1
102
RTVSPropertyOp61
 70
     1
102
RTVSPropertyOp62
 70
     1
  0
ENDSEC
  0
EOF
