  0
SECTION
  2
HEADER
  9
$ACADVER
  1
AC1015
  9
$ACADMAINTVER
 70
    18
  9
$DWGCODEPAGE
  3
ANSI_1252
  9
$INSBASE
 10
0.0
 20
0.0
 30
0.0
  9
$EXTMIN
 10
-142.7023307312074
 20
-155.9503779080119
 30
-0.0015258207003583
  9
$EXTMAX
 10
171.2915045946039
 20
183.7125554912637
 30
0.0000000349246037
  9
$LIMMIN
 10
0.0
 20
0.0
  9
$LIMMAX
 10
420.0
 20
297.0
  9
$ORTHOMODE
 70
     0
  9
$REGENMODE
 70
     1
  9
$FILLMODE
 70
     1
  9
$QTEXTMODE
 70
     0
  9
$MIRRTEXT
 70
     0
  9
$LTSCALE
 40
1.0
  9
$ATTMODE
 70
     1
  9
$TEXTSIZE
 40
2.5
  9
$TRACEWID
 40
1.0
  9
$TEXTSTYLE
  7
Standard
  9
$CLAYER
  8
0
  9
$CELTYPE
  6
ByLayer
  9
$CECOLOR
 62
   256
  9
$CELTSCALE
 40
1.0
  9
$DISPSILH
 70
     0
  9
$DIMSCALE
 40
1.0
  9
$DIMASZ
 40
2.5
  9
$DIMEXO
 40
0.625
  9
$DIMDLI
 40
3.75
  9
$DIMRND
 40
0.0
  9
$DIMDLE
 40
0.0
  9
$DIMEXE
 40
1.25
  9
$DIMTP
 40
0.0
  9
$DIMTM
 40
0.0
  9
$DIMTXT
 40
2.5
  9
$DIMCEN
 40
2.5
  9
$DIMTSZ
 40
0.0
  9
$DIMTOL
 70
     0
  9
$DIMLIM
 70
     0
  9
$DIMTIH
 70
     0
  9
$DIMTOH
 70
     0
  9
$DIMSE1
 70
     0
  9
$DIMSE2
 70
     0
  9
$DIMTAD
 70
     1
  9
$DIMZIN
 70
     8
  9
$DIMBLK
  1

  9
$DIMASO
 70
     1
  9
$DIMSHO
 70
     1
  9
$DIMPOST
  1

  9
$DIMAPOST
  1

  9
$DIMALT
 70
     0
  9
$DIMALTD
 70
     3
  9
$DIMALTF
 40
0.03937007874016
  9
$DIMLFAC
 40
1.0
  9
$DIMTOFL
 70
     1
  9
$DIMTVP
 40
0.0
  9
$DIMTIX
 70
     0
  9
$DIMSOXD
 70
     0
  9
$DIMSAH
 70
     0
  9
$DIMBLK1
  1

  9
$DIMBLK2
  1

  9
$DIMSTYLE
  2
ISO-25
  9
$DIMCLRD
 70
     0
  9
$DIMCLRE
 70
     0
  9
$DIMCLRT
 70
     0
  9
$DIMTFAC
 40
1.0
  9
$DIMGAP
 40
0.625
  9
$DIMJUST
 70
     0
  9
$DIMSD1
 70
     0
  9
$DIMSD2
 70
     0
  9
$DIMTOLJ
 70
     0
  9
$DIMTZIN
 70
     8
  9
$DIMALTZ
 70
     0
  9
$DIMALTTZ
 70
     0
  9
$DIMUPT
 70
     0
  9
$DIMDEC
 70
     2
  9
$DIMTDEC
 70
     2
  9
$DIMALTU
 70
     2
  9
$DIMALTTD
 70
     3
  9
$DIMTXSTY
  7
Standard
  9
$DIMAUNIT
 70
     0
  9
$DIMADEC
 70
     0
  9
$DIMALTRND
 40
0.0
  9
$DIMAZIN
 70
     0
  9
$DIMDSEP
 70
    44
  9
$DIMATFIT
 70
     3
  9
$DIMFRAC
 70
     0
  9
$DIMLDRBLK
  1

  9
$DIMLUNIT
 70
     2
  9
$DIMLWD
 70
    -2
  9
$DIMLWE
 70
    -2
  9
$DIMTMOVE
 70
     0
  9
$LUNITS
 70
     2
  9
$LUPREC
 70
     4
  9
$SKETCHINC
 40
1.0
  9
$FILLETRAD
 40
0.0
  9
$AUNITS
 70
     0
  9
$AUPREC
 70
     0
  9
$MENU
  1
.
  9
$ELEVATION
 40
0.0
  9
$PELEVATION
 40
0.0
  9
$THICKNESS
 40
0.0
  9
$LIMCHECK
 70
     0
  9
$CHAMFERA
 40
0.0
  9
$CHAMFERB
 40
0.0
  9
$CHAMFERC
 40
0.0
  9
$CHAMFERD
 40
0.0
  9
$SKPOLY
 70
     0
  9
$TDCREATE
 40
2460286.622500000
  9
$TDUCREATE
 40
2460286.330833334
  9
$TDUPDATE
 40
2460286.639479167
  9
$TDUUPDATE
 40
2460286.347812500
  9
$TDINDWG
 40
0.0049537037
  9
$TDUSRTIMER
 40
0.0049537037
  9
$USRTIMER
 70
     1
  9
$ANGBASE
 50
0.0
  9
$ANGDIR
 70
     0
  9
$PDMODE
 70
     0
  9
$PDSIZE
 40
0.0
  9
$PLINEWID
 40
0.0
  9
$SPLFRAME
 70
     0
  9
$SPLINETYPE
 70
     6
  9
$SPLINESEGS
 70
     8
  9
$HANDSEED
  5
F2B2
  9
$SURFTAB1
 70
     6
  9
$SURFTAB2
 70
     6
  9
$SURFTYPE
 70
     6
  9
$SURFU
 70
     6
  9
$SURFV
 70
     6
  9
$UCSBASE
  2

  9
$UCSNAME
  2

  9
$UCSORG
 10
0.0
 20
0.0
 30
0.0
  9
$UCSXDIR
 10
1.0
 20
0.0
 30
0.0
  9
$UCSYDIR
 10
0.0
 20
1.0
 30
0.0
  9
$UCSORTHOREF
  2

  9
$UCSORTHOVIEW
 70
     0
  9
$UCSORGTOP
 10
0.0
 20
0.0
 30
0.0
  9
$UCSORGBOTTOM
 10
0.0
 20
0.0
 30
0.0
  9
$UCSORGLEFT
 10
0.0
 20
0.0
 30
0.0
  9
$UCSORGRIGHT
 10
0.0
 20
0.0
 30
0.0
  9
$UCSORGFRONT
 10
0.0
 20
0.0
 30
0.0
  9
$UCSORGBACK
 10
0.0
 20
0.0
 30
0.0
  9
$PUCSBASE
  2

  9
$PUCSNAME
  2

  9
$PUCSORG
 10
0.0
 20
0.0
 30
0.0
  9
$PUCSXDIR
 10
1.0
 20
0.0
 30
0.0
  9
$PUCSYDIR
 10
0.0
 20
1.0
 30
0.0
  9
$PUCSORTHOREF
  2

  9
$PUCSORTHOVIEW
 70
     0
  9
$PUCSORGTOP
 10
0.0
 20
0.0
 30
0.0
  9
$PUCSORGBOTTOM
 10
0.0
 20
0.0
 30
0.0
  9
$PUCSORGLEFT
 10
0.0
 20
0.0
 30
0.0
  9
$PUCSORGRIGHT
 10
0.0
 20
0.0
 30
0.0
  9
$PUCSORGFRONT
 10
0.0
 20
0.0
 30
0.0
  9
$PUCSORGBACK
 10
0.0
 20
0.0
 30
0.0
  9
$USERI1
 70
     0
  9
$USERI2
 70
     0
  9
$USERI3
 70
     0
  9
$USERI4
 70
     0
  9
$USERI5
 70
     0
  9
$USERR1
 40
0.0
  9
$USERR2
 40
0.0
  9
$USERR3
 40
0.0
  9
$USERR4
 40
0.0
  9
$USERR5
 40
0.0
  9
$WORLDVIEW
 70
     1
  9
$SHADEDGE
 70
     3
  9
$SHADEDIF
 70
    70
  9
$TILEMODE
 70
     1
  9
$MAXACTVP
 70
    48
  9
$PINSBASE
 10
0.0
 20
0.0
 30
0.0
  9
$PLIMCHECK
 70
     0
  9
$PEXTMIN
 10
0.0
 20
0.0
 30
0.0
  9
$PEXTMAX
 10
0.0
 20
0.0
 30
0.0
  9
$PLIMMIN
 10
0.0
 20
0.0
  9
$PLIMMAX
 10
12.0
 20
9.0
  9
$UNITMODE
 70
     0
  9
$VISRETAIN
 70
     1
  9
$PLINEGEN
 70
     0
  9
$PSLTSCALE
 70
     1
  9
$TREEDEPTH
 70
  3020
  9
$CMLSTYLE
  2
Standard
  9
$CMLJUST
 70
     0
  9
$CMLSCALE
 40
20.0
  9
$PROXYGRAPHICS
 70
     1
  9
$MEASUREMENT
 70
     1
  9
$CELWEIGHT
370
    -1
  9
$ENDCAPS
280
     0
  9
$JOINSTYLE
280
     0
  9
$LWDISPLAY
290
     0
  9
$INSUNITS
 70
     4
  9
$HYPERLINKBASE
  1

  9
$STYLESHEET
  1

  9
$XEDIT
290
     1
  9
$CEPSNTYPE
380
     0
  9
$PSTYLEMODE
290
     1
  9
$FINGERPRINTGUID
  2
{F076C30E-3F10-754B-AD36-B589FE558AAC}
  9
$VERSIONGUID
  2
{4C0D789D-6FBF-7A4A-854D-4835CB65031E}
  9
$EXTNAMES
290
     1
  9
$PSVPSCALE
 40
0.0
  9
$OLESTARTUP
290
     0
  0
ENDSEC
  0
SECTION
  2
CLASSES
  0
CLASS
  1
ACDBDICTIONARYWDFLT
  2
AcDbDictionaryWithDefault
  3
ObjectDBX Classes
 90
        0
280
     0
281
     0
  0
CLASS
  1
ACDBPLACEHOLDER
  2
AcDbPlaceHolder
  3
ObjectDBX Classes
 90
        0
280
     0
281
     0
  0
CLASS
  1
LAYOUT
  2
AcDbLayout
  3
ObjectDBX Classes
 90
        0
280
     0
281
     0
  0
CLASS
  1
DICTIONARYVAR
  2
AcDbDictionaryVar
  3
ObjectDBX Classes
 90
        0
280
     0
281
     0
  0
CLASS
  1
TABLESTYLE
  2
AcDbTableStyle
  3
ObjectDBX Classes
 90
     4095
280
     0
281
     0
  0
CLASS
  1
MATERIAL
  2
AcDbMaterial
  3
ObjectDBX Classes
 90
     1153
280
     0
281
     0
  0
CLASS
  1
VISUALSTYLE
  2
AcDbVisualStyle
  3
ObjectDBX Classes
 90
     4095
280
     0
281
     0
  0
CLASS
  1
SCALE
  2
AcDbScale
  3
ObjectDBX Classes
 90
     1153
280
     0
281
     0
  0
CLASS
  1
MLEADERSTYLE
  2
AcDbMLeaderStyle
  3
ACDB_MLEADERSTYLE_CLASS
 90
     4095
280
     0
281
     0
  0
CLASS
  1
CELLSTYLEMAP
  2
AcDbCellStyleMap
  3
ObjectDBX Classes
 90
     1152
280
     0
281
     0
  0
CLASS
  1
EXACXREFPANELOBJECT
  2
ExAcXREFPanelObject
  3
EXAC_ESW
 90
    33793
280
     0
281
     0
  0
CLASS
  1
NPOCOLLECTION
  2
AcDbImpNonPersistentObjectsCollection
  3
ObjectDBX Classes
 90
    33921
280
     0
281
     0
  0
CLASS
  1
LAYER_INDEX
  2
AcDbLayerIndex
  3
ObjectDBX Classes
 90
    32768
280
     0
281
     0
  0
CLASS
  1
SPATIAL_INDEX
  2
AcDbSpatialIndex
  3
ObjectDBX Classes
 90
    32768
280
     0
281
     0
  0
CLASS
  1
IDBUFFER
  2
AcDbIdBuffer
  3
ObjectDBX Classes
 90
    32768
280
     0
281
     0
  0
CLASS
  1
ACDBSECTIONVIEWSTYLE
  2
AcDbSectionViewStyle
  3
ObjectDBX Classes
 90
     1025
280
     0
281
     0
  0
CLASS
  1
ACDBDETAILVIEWSTYLE
  2
AcDbDetailViewStyle
  3
ObjectDBX Classes
 90
     1025
280
     0
281
     0
  0
CLASS
  1
XRECORD
  2
AcDbXrecord
  3
ObjectDBX Classes
 90
        0
280
     0
281
     0
  0
ENDSEC
  0
SECTION
  2
TABLES
  0
TABLE
  2
VPORT
  5
8
102
{ACAD_XDICTIONARY
360
F1C0
102
}
330
0
100
AcDbSymbolTable
 70
     1
  0
VPORT
  5
EA
330
8
100
AcDbSymbolTableRecord
100
AcDbViewportTableRecord
  2
*Active
 70
     0
 10
0.0
 20
0.0
 11
1.0
 21
1.0
 12
14.29458693169824
 22
13.88108879162593
 13
0.0
 23
0.0
 14
10.0
 24
10.0
 15
10.0
 25
10.0
 16
0.0
 26
0.0
 36
1.0
 17
0.0
 27
0.0
 37
0.0
 40
361.2007482887932
 41
0.9846153846153846
 42
50.0
 43
0.0
 44
0.0
 50
0.0
 51
0.0
 71
     0
 72
  1000
 73
     1
 74
     3
 75
     0
 76
     1
 77
     0
 78
     0
281
     0
 65
     1
110
0.0
120
0.0
130
0.0
111
1.0
121
0.0
131
0.0
112
0.0
122
1.0
132
0.0
 79
     0
146
0.0
1001
ACAD_NAV_VCDISPLAY
1070
     3
  0
ENDTAB
  0
TABLE
  2
LTYPE
  5
5
330
0
100
AcDbSymbolTable
 70
     1
  0
LTYPE
  5
14
330
5
100
AcDbSymbolTableRecord
100
AcDbLinetypeTableRecord
  2
ByBlock
 70
     0
  3

 72
    65
 73
     0
 40
0.0
  0
LTYPE
  5
15
330
5
100
AcDbSymbolTableRecord
100
AcDbLinetypeTableRecord
  2
ByLayer
 70
     0
  3

 72
    65
 73
     0
 40
0.0
  0
LTYPE
  5
16
330
5
100
AcDbSymbolTableRecord
100
AcDbLinetypeTableRecord
  2
Continuous
 70
     0
  3
Solid line
 72
    65
 73
     0
 40
0.0
  0
ENDTAB
  0
TABLE
  2
LAYER
  5
2
102
{ACAD_XDICTIONARY
360
1FF
102
}
330
0
100
AcDbSymbolTable
 70
     1
  0
LAYER
  5
10
102
{ACAD_XDICTIONARY
360
13C
102
}
330
2
100
AcDbSymbolTableRecord
100
AcDbLayerTableRecord
  2
0
 70
     0
 62
     7
  6
Continuous
370
    -3
390
F
  0
ENDTAB
  0
TABLE
  2
STYLE
  5
3
330
0
100
AcDbSymbolTable
 70
     1
  0
STYLE
  5
11
330
3
100
AcDbSymbolTableRecord
100
AcDbTextStyleTableRecord
  2
Standard
 70
     0
 40
0.0
 41
1.0
 50
0.0
 71
     0
 42
2.5
  3
arial.ttf
  4

1001
ACAD
1000
Arial
1071
       34
  0
ENDTAB
  0
TABLE
  2
VIEW
  5
6
330
0
100
AcDbSymbolTable
 70
     0
  0
ENDTAB
  0
TABLE
  2
UCS
  5
7
330
0
100
AcDbSymbolTable
 70
     0
  0
ENDTAB
  0
TABLE
  2
APPID
  5
9
330
0
100
AcDbSymbolTable
 70
     8
  0
APPID
  5
12
330
9
100
AcDbSymbolTableRecord
100
AcDbRegAppTableRecord
  2
ACAD
 70
     0
  0
APPID
  5
9E
330
9
100
AcDbSymbolTableRecord
100
AcDbRegAppTableRecord
  2
ACAD_PSEXT
 70
     0
  0
APPID
  5
133
330
9
100
AcDbSymbolTableRecord
100
AcDbRegAppTableRecord
  2
AcadAnnoPO
 70
     0
  0
APPID
  5
134
330
9
100
AcDbSymbolTableRecord
100
AcDbRegAppTableRecord
  2
AcadAnnotative
 70
     0
  0
APPID
  5
135
330
9
100
AcDbSymbolTableRecord
100
AcDbRegAppTableRecord
  2
ACAD_DSTYLE_DIMJAG
 70
     0
  0
APPID
  5
136
330
9
100
AcDbSymbolTableRecord
100
AcDbRegAppTableRecord
  2
ACAD_DSTYLE_DIMTALN
 70
     0
  0
APPID
  5
165
330
9
100
AcDbSymbolTableRecord
100
AcDbRegAppTableRecord
  2
ACAD_MLEADERVER
 70
     0
  0
APPID
  5
217
330
9
100
AcDbSymbolTableRecord
100
AcDbRegAppTableRecord
  2
ACAD_NAV_VCDISPLAY
 70
     0
  0
ENDTAB
  0
TABLE
  2
DIMSTYLE
  5
A
330
0
100
AcDbSymbolTable
 70
     1
100
AcDbDimStyleTable
 71
     0
  0
DIMSTYLE
105
27
330
A
100
AcDbSymbolTableRecord
100
AcDbDimStyleTableRecord
  2
ISO-25
 70
     0
 41
2.5
 42
0.625
 43
3.75
 44
1.25
 73
     0
 74
     0
 77
     1
 78
     8
140
2.5
141
2.5
143
0.03937007874016
147
0.625
171
     3
172
     1
271
     2
272
     2
274
     3
278
    44
283
     0
284
     8
340
11
  0
ENDTAB
  0
TABLE
  2
BLOCK_RECORD
  5
1
330
0
100
AcDbSymbolTable
 70
     7
  0
BLOCK_RECORD
  5
1F
102
{ACAD_XDICTIONARY
360
1CE
102
}
330
1
100
AcDbSymbolTableRecord
100
AcDbBlockTableRecord
  2
*Model_Space
340
22
  0
BLOCK_RECORD
  5
D2
102
{ACAD_XDICTIONARY
360
F173
102
}
330
1
100
AcDbSymbolTableRecord
100
AcDbBlockTableRecord
  2
*Paper_Space
340
D3
  0
BLOCK_RECORD
  5
D6
102
{ACAD_XDICTIONARY
360
F175
102
}
330
1
100
AcDbSymbolTableRecord
100
AcDbBlockTableRecord
  2
*Paper_Space0
340
D7
  0
BLOCK_RECORD
  5
EF1A
330
1
100
AcDbSymbolTableRecord
100
AcDbBlockTableRecord
  2
SBE45_93-Front
340
0
102
{BLKREFS
331
F169
102
}
  0
BLOCK_RECORD
  5
EF82
330
1
100
AcDbSymbolTableRecord
100
AcDbBlockTableRecord
  2
SBE45_93-Left
340
0
102
{BLKREFS
331
F16A
102
}
  0
BLOCK_RECORD
  5
EFB5
330
1
100
AcDbSymbolTableRecord
100
AcDbBlockTableRecord
  2
SBE45_93-Right
340
0
102
{BLKREFS
331
F16B
102
}
  0
BLOCK_RECORD
  5
EFE8
330
1
100
AcDbSymbolTableRecord
100
AcDbBlockTableRecord
  2
SBE45_93-Top
340
0
102
{BLKREFS
331
F16C
102
}
  0
BLOCK_RECORD
  5
F03C
330
1
100
AcDbSymbolTableRecord
100
AcDbBlockTableRecord
  2
SBE45_93-Bottom
340
0
102
{BLKREFS
331
F16D
102
}
  0
BLOCK_RECORD
  5
F071
330
1
100
AcDbSymbolTableRecord
100
AcDbBlockTableRecord
  2
SBE45_93-ISO
340
0
102
{BLKREFS
331
F16E
102
}
  0
ENDTAB
  0
ENDSEC
  0
SECTION
  2
BLOCKS
  0
BLOCK
  5
20
330
1F
100
AcDbEntity
  8
0
100
AcDbBlockBegin
  2
*Model_Space
 70
     0
 10
0.0
 20
0.0
 30
0.0
  3
*Model_Space
  1

  0
ENDBLK
  5
21
330
1F
100
AcDbEntity
  8
0
100
AcDbBlockEnd
  0
BLOCK
  5
D4
330
D2
100
AcDbEntity
 67
     1
  8
0
100
AcDbBlockBegin
  2
*Paper_Space
 70
     0
 10
0.0
 20
0.0
 30
0.0
  3
*Paper_Space
  1

  0
ENDBLK
  5
D5
330
D2
100
AcDbEntity
 67
     1
  8
0
100
AcDbBlockEnd
  0
BLOCK
  5
D8
330
D6
100
AcDbEntity
 67
     1
  8
0
100
AcDbBlockBegin
  2
*Paper_Space0
 70
     0
 10
0.0
 20
0.0
 30
0.0
  3
*Paper_Space0
  1

  0
ENDBLK
  5
D9
330
D6
100
AcDbEntity
 67
     1
  8
0
100
AcDbBlockEnd
  0
BLOCK
  5
EF1B
330
EF1A
100
AcDbEntity
  8
0
100
AcDbBlockBegin
  2
SBE45_93-Front
 70
     0
 10
0.0
 20
0.0
 30
0.0
  3
SBE45_93-Front
  1

  0
LINE
  5
EF1D
330
EF1A
100
AcDbEntity
  8
0
100
AcDbLine
 10
-24.00000000000003
 20
92.49999999999998
 30
0.0
 11
-25.50000000000004
 21
92.49999999999998
 31
0.0
  0
LINE
  5
EF1E
330
EF1A
100
AcDbEntity
  8
0
100
AcDbLine
 10
24.00000000000016
 20
92.5
 30
0.0
 11
25.50000000000016
 21
92.5
 31
0.0
  0
LINE
  5
EF1F
330
EF1A
100
AcDbEntity
  8
0
100
AcDbLine
 10
-24.00000000000001
 20
22.50610095525754
 30
0.0
 11
-23.99999999999999
 21
1.499999999999985
 31
0.0
  0
LINE
  5
EF20
330
EF1A
100
AcDbEntity
  8
0
100
AcDbLine
 10
-22.5
 20
22.50610095525753
 30
0.0
 11
-22.5
 21
1.499999999999985
 31
0.0
  0
LINE
  5
EF21
330
EF1A
100
AcDbEntity
  8
0
100
AcDbLine
 10
22.50000000000001
 20
1.499999999999976
 30
0.0
 11
22.50000000000004
 21
22.50610095525754
 31
0.0
  0
LINE
  5
EF22
330
EF1A
100
AcDbEntity
  8
0
100
AcDbLine
 10
24.0
 20
1.499999999999985
 30
0.0
 11
24.00000000000004
 21
22.50610095525754
 31
0.0
  0
LINE
  5
EF23
330
EF1A
100
AcDbEntity
  8
0
100
AcDbLine
 10
-21.0
 20
-1.500000000000007
 30
0.0
 11
21.00000000000001
 21
-1.500000000000003
 31
0.0
  0
LINE
  5
EF24
330
EF1A
100
AcDbEntity
  8
0
100
AcDbLine
 10
-20.99999999999999
 20
0.0
 30
0.0
 11
21.00000000000001
 21
0.0
 31
0.0
  0
LINE
  5
EF25
330
EF1A
100
AcDbEntity
  8
0
100
AcDbLine
 10
-24.00000000000001
 20
22.50610095525754
 30
0.0
 11
-24.00000000000002
 21
30.74206230927722
 31
0.0
  0
LINE
  5
EF26
330
EF1A
100
AcDbEntity
  8
0
100
AcDbLine
 10
-24.00000000000002
 20
40.69051317993771
 30
0.0
 11
-24.00000000000003
 21
86.49999999999998
 31
0.0
  0
LINE
  5
EF27
330
EF1A
100
AcDbEntity
  8
0
100
AcDbLine
 10
-22.50000000000003
 20
86.49999999999998
 30
0.0
 11
-22.50000000000001
 21
40.69051317993771
 31
0.0
  0
LINE
  5
EF28
330
EF1A
100
AcDbEntity
  8
0
100
AcDbLine
 10
-22.50000000000001
 20
30.74206230927722
 30
0.0
 11
-22.5
 21
22.50610095525753
 31
0.0
  0
LINE
  5
EF29
330
EF1A
100
AcDbEntity
  8
0
100
AcDbLine
 10
22.50000000000004
 20
22.50610095525754
 30
0.0
 11
22.50000000000006
 21
30.74206230927722
 31
0.0
  0
LINE
  5
EF2A
330
EF1A
100
AcDbEntity
  8
0
100
AcDbLine
 10
22.50000000000007
 20
40.69051317993771
 30
0.0
 11
22.50000000000015
 21
86.50000000000003
 31
0.0
  0
LINE
  5
EF2B
330
EF1A
100
AcDbEntity
  8
0
100
AcDbLine
 10
24.00000000000015
 20
86.50000000000003
 30
0.0
 11
24.00000000000008
 21
40.69051317993771
 31
0.0
  0
LINE
  5
EF2C
330
EF1A
100
AcDbEntity
  8
0
100
AcDbLine
 10
24.00000000000006
 20
30.74206230927722
 30
0.0
 11
24.00000000000004
 21
22.50610095525754
 31
0.0
  0
LINE
  5
EF2D
330
EF1A
100
AcDbEntity
  8
0
100
AcDbLine
 10
24.00000000000004
 20
22.50610095525754
 30
0.0
 11
22.50000000000004
 21
22.50610095525754
 31
0.0
  0
LINE
  5
EF2E
330
EF1A
100
AcDbEntity
  8
0
100
AcDbLine
 10
-22.5
 20
22.50610095525753
 30
0.0
 11
-24.00000000000001
 21
22.50610095525754
 31
0.0
  0
LINE
  5
EF2F
330
EF1A
100
AcDbEntity
  8
0
100
AcDbLine
 10
-23.99999999999999
 20
40.69051317993771
 30
0.0
 11
-23.99999999999999
 21
30.74206230927722
 31
0.0
  0
LINE
  5
EF30
330
EF1A
100
AcDbEntity
  8
0
100
AcDbLine
 10
-22.5
 20
30.74206230927722
 30
0.0
 11
-22.5
 21
40.69051317993771
 31
0.0
  0
LINE
  5
EF31
330
EF1A
100
AcDbEntity
  8
0
100
AcDbLine
 10
22.49999999999998
 20
40.69051317993771
 30
0.0
 11
22.49999999999996
 21
30.74206230927722
 31
0.0
  0
LINE
  5
EF32
330
EF1A
100
AcDbEntity
  8
0
100
AcDbLine
 10
23.99999999999996
 20
30.74206230927722
 30
0.0
 11
23.99999999999998
 21
40.69051317993771
 31
0.0
  0
ARC
  5
EF33
330
EF1A
100
AcDbEntity
  8
0
100
AcDbCircle
 10
-39.50000000000001
 20
40.69051317993764
 30
0.0
 40
12.00000000000001
100
AcDbArc
 50
180.0
 51
236.0
  0
ARC
  5
EF34
330
EF1A
100
AcDbEntity
  8
0
100
AcDbCircle
 10
39.50000000000009
 20
40.69051317993769
 30
0.0
 40
12.0
100
AcDbArc
 50
304.0
 51
0.0
  0
LINE
  5
EF35
330
EF1A
100
AcDbEntity
  8
0
100
AcDbLine
 10
-24.00000000000002
 20
92.49999999999998
 30
0.0
 11
-24.00000000000003
 21
86.49999999999998
 31
0.0
  0
LINE
  5
EF36
330
EF1A
100
AcDbEntity
  8
0
100
AcDbLine
 10
-22.50000000000003
 20
86.49999999999998
 30
0.0
 11
-22.50000000000002
 21
92.49999999999998
 31
0.0
  0
LINE
  5
EF37
330
EF1A
100
AcDbEntity
  8
0
100
AcDbLine
 10
22.50000000000015
 20
92.50000000000001
 30
0.0
 11
22.50000000000015
 21
86.50000000000003
 31
0.0
  0
LINE
  5
EF38
330
EF1A
100
AcDbEntity
  8
0
100
AcDbLine
 10
24.00000000000015
 20
86.50000000000003
 30
0.0
 11
24.00000000000016
 21
92.5
 31
0.0
  0
LINE
  5
EF39
330
EF1A
100
AcDbEntity
  8
0
100
AcDbLine
 10
-51.50000000000002
 20
86.49999999999996
 30
0.0
 11
-45.50000000000003
 21
92.50000000000008
 31
0.0
  0
LINE
  5
EF3A
330
EF1A
100
AcDbEntity
  8
0
100
AcDbLine
 10
-22.50000000000002
 20
92.49999999999998
 30
0.0
 11
-24.00000000000002
 21
92.49999999999998
 31
0.0
  0
LINE
  5
EF3B
330
EF1A
100
AcDbEntity
  8
0
100
AcDbLine
 10
-24.00000000000003
 20
86.49999999999998
 30
0.0
 11
-22.50000000000003
 21
86.49999999999998
 31
0.0
  0
LINE
  5
EF3C
330
EF1A
100
AcDbEntity
  8
0
100
AcDbLine
 10
24.00000000000016
 20
92.5
 30
0.0
 11
22.50000000000015
 21
92.50000000000001
 31
0.0
  0
LINE
  5
EF3D
330
EF1A
100
AcDbEntity
  8
0
100
AcDbLine
 10
22.50000000000015
 20
86.50000000000003
 30
0.0
 11
24.00000000000015
 21
86.50000000000003
 31
0.0
  0
LINE
  5
EF3E
330
EF1A
100
AcDbEntity
  8
0
100
AcDbLine
 10
45.50000000000017
 20
92.49999999999998
 30
0.0
 11
51.50000000000016
 21
86.49999999999998
 31
0.0
  0
SPLINE
  5
EF3F
330
EF1A
100
AcDbEntity
  8
0
100
AcDbSpline
210
0.0
220
0.0
230
1.0
 70
     8
 71
     3
 72
    11
 73
     7
 74
     0
 42
0.000000001
 43
0.0000000001
 40
-1.0
 40
-1.0
 40
-1.0
 40
-1.0
 40
-0.8649350770697568
 40
-0.8649350770697568
 40
-0.8649350770697568
 40
0.0
 40
0.0
 40
0.0
 40
0.0
 10
24.00000000000011
 20
56.99999999999999
 30
0.0
 10
24.00000000000011
 20
57.0869143870242
 30
0.0
 10
24.00838271405292
 20
57.16373009289914
 30
0.0
 10
24.02783688767198
 20
57.22929168059309
 30
0.0
 10
24.15241843551927
 20
57.64913804539767
 30
0.0
 10
24.91714410067307
 20
57.55658642087327
 30
0.0
 10
25.50000000000011
 20
56.99999999999999
 30
0.0
  0
ARC
  5
EF40
330
EF1A
100
AcDbEntity
  8
0
100
AcDbCircle
 10
24.0000000000001
 20
55.0
 30
0.0
 40
2.5
100
AcDbArc
 50
306.8698976458442
 51
53.13010235415575
  0
LINE
  5
EF41
330
EF1A
100
AcDbEntity
  8
0
100
AcDbLine
 10
36.99492000000009
 20
46.49999999999998
 30
0.0
 11
36.9900000000001
 21
46.49999999999997
 31
0.0
  0
LINE
  5
EF42
330
EF1A
100
AcDbEntity
  8
0
100
AcDbLine
 10
36.9900000000001
 20
46.49999999999997
 30
0.0
 11
36.9900000000001
 21
49.88043947198588
 31
0.0
  0
ARC
  5
EF43
330
EF1A
100
AcDbEntity
  8
0
100
AcDbCircle
 10
39.00000000000011
 20
54.99999999999999
 30
0.0
 40
5.5
100
AcDbArc
 50
291.4355588797962
 51
248.5644411202037
  0
LINE
  5
EF44
330
EF1A
100
AcDbEntity
  8
0
100
AcDbLine
 10
41.01000000000009
 20
49.88043947198588
 30
0.0
 11
41.01000000000008
 21
46.49999999999997
 31
0.0
  0
LINE
  5
EF45
330
EF1A
100
AcDbEntity
  8
0
100
AcDbLine
 10
41.01000000000008
 20
46.49999999999997
 30
0.0
 11
41.00508000000008
 21
46.49999999999995
 31
0.0
  0
SPLINE
  5
EF46
330
EF1A
100
AcDbEntity
  8
0
100
AcDbSpline
210
0.0
220
0.0
230
1.0
 70
     8
 71
     3
 72
    11
 73
     7
 74
     0
 42
0.000000001
 43
0.0000000001
 40
0.6929633215164451
 40
0.6929633215164451
 40
0.6929633215164451
 40
0.6929633215164451
 40
0.8649350770705567
 40
0.8649350770705567
 40
0.8649350770705567
 40
1.0
 40
1.0
 40
1.0
 40
1.0
 10
24.18702953183088
 20
52.58066694697039
 30
0.0
 10
24.42259161675489
 20
52.62401144857991
 30
0.0
 10
24.67117172657903
 20
52.68723186165681
 30
0.0
 10
24.92472347275662
 20
52.77070831940807
 30
0.0
 10
25.12386051677735
 20
52.83626990710176
 30
0.0
 10
25.31796694524577
 20
52.91308561297627
 30
0.0
 10
25.5000000000001
 20
53.0
 30
0.0
  0
SPLINE
  5
EF47
330
EF1A
100
AcDbEntity
  8
0
100
AcDbSpline
210
0.0
220
0.0
230
1.0
 70
     8
 71
     3
 72
     8
 73
     4
 74
     0
 42
0.000000001
 43
0.0000000001
 40
0.0
 40
0.0
 40
0.0
 40
0.0
 40
0.3070366784835812
 40
0.3070366784835812
 40
0.3070366784835812
 40
0.3070366784835812
 10
25.50000000000012
 20
56.99999999999999
 30
0.0
 10
25.08619289676593
 20
57.19757835065834
 30
0.0
 10
24.62655007946424
 20
57.33668253397467
 30
0.0
 10
24.194612525151
 20
57.41514915798056
 30
0.0
  0
SPLINE
  5
EF48
330
EF1A
100
AcDbEntity
  8
0
100
AcDbSpline
210
0.0
220
0.0
230
1.0
 70
     8
 71
     3
 72
    11
 73
     7
 74
     0
 42
0.000000001
 43
0.0000000001
 40
-1.0
 40
-1.0
 40
-1.0
 40
-1.0
 40
-0.8649350770705567
 40
-0.8649350770705567
 40
-0.8649350770705567
 40
0.0
 40
0.0
 40
0.0
 40
0.0
 10
25.5000000000001
 20
53.0
 30
0.0
 10
25.40898347262293
 20
52.91308561297627
 30
0.0
 10
25.31193025838872
 20
52.83626990710176
 30
0.0
 10
25.21236173637836
 20
52.77070831940807
 30
0.0
 10
24.5747401734221
 20
52.35086195460225
 30
0.0
 10
24.0000000000001
 20
52.4434135791254
 30
0.0
 10
24.0000000000001
 20
53.0
 30
0.0
  0
LINE
  5
EF49
330
EF1A
100
AcDbEntity
  8
0
100
AcDbLine
 10
-25.50000000000003
 20
92.5
 30
0.0
 11
-45.50000000000003
 21
92.50000000000008
 31
0.0
  0
LINE
  5
EF4A
330
EF1A
100
AcDbEntity
  8
0
100
AcDbLine
 10
-51.50000000000002
 20
86.49999999999996
 30
0.0
 11
-51.50000000000002
 21
40.69051317993764
 31
0.0
  0
LINE
  5
EF4B
330
EF1A
100
AcDbEntity
  8
0
100
AcDbLine
 10
25.50000000000016
 20
92.5
 30
0.0
 11
45.50000000000017
 21
92.49999999999998
 31
0.0
  0
LINE
  5
EF4C
330
EF1A
100
AcDbEntity
  8
0
100
AcDbLine
 10
51.50000000000009
 20
40.69051317993768
 30
0.0
 11
51.50000000000016
 21
86.49999999999998
 31
0.0
  0
LINE
  5
EF4D
330
EF1A
100
AcDbEntity
  8
0
100
AcDbLine
 10
-46.21031484164896
 20
30.74206230927714
 30
0.0
 11
-25.50000000000004
 21
16.77277856209684
 31
0.0
  0
ARC
  5
EF4E
330
EF1A
100
AcDbEntity
  8
0
100
AcDbCircle
 10
-24.0000000000001
 20
55.0
 30
0.0
 40
2.5
100
AcDbArc
 50
126.8698976458443
 51
233.1301023541559
  0
CIRCLE
  5
EF4F
330
EF1A
100
AcDbEntity
  8
0
100
AcDbCircle
 10
-42.50000000000008
 20
37.99999999999997
 30
0.0
 40
2.5
  0
CIRCLE
  5
EF50
330
EF1A
100
AcDbEntity
  8
0
100
AcDbCircle
 10
-32.50000000000013
 20
64.99999999999999
 30
0.0
 40
2.5
  0
CIRCLE
  5
EF51
330
EF1A
100
AcDbEntity
  8
0
100
AcDbCircle
 10
-32.50000000000015
 20
84.99999999999998
 30
0.0
 40
2.5
  0
CIRCLE
  5
EF52
330
EF1A
100
AcDbEntity
  8
0
100
AcDbCircle
 10
-42.50000000000014
 20
74.99999999999999
 30
0.0
 40
2.5
  0
CIRCLE
  5
EF53
330
EF1A
100
AcDbEntity
  8
0
100
AcDbCircle
 10
-32.5000000000001
 20
44.99999999999999
 30
0.0
 40
2.5
  0
CIRCLE
  5
EF54
330
EF1A
100
AcDbEntity
  8
0
100
AcDbCircle
 10
-32.50000000000008
 20
30.99999999999999
 30
0.0
 40
2.5
  0
LINE
  5
EF55
330
EF1A
100
AcDbEntity
  8
0
100
AcDbLine
 10
-37.00000000000009
 20
46.49491999999999
 30
0.0
 11
-37.00000000000009
 21
46.49999999999997
 31
0.0
  0
LINE
  5
EF56
330
EF1A
100
AcDbEntity
  8
0
100
AcDbLine
 10
-41.00000000000008
 20
46.49999999999997
 30
0.0
 11
-41.00000000000008
 21
46.49491999999998
 31
0.0
  0
LINE
  5
EF57
330
EF1A
100
AcDbEntity
  8
0
100
AcDbLine
 10
-41.00000000000008
 20
46.49491999999998
 30
0.0
 11
-41.00508000000008
 21
46.49491999999998
 31
0.0
  0
LINE
  5
EF58
330
EF1A
100
AcDbEntity
  8
0
100
AcDbLine
 10
-41.00508000000008
 20
46.49491999999998
 30
0.0
 11
-41.00508000000008
 21
46.49999999999997
 31
0.0
  0
LINE
  5
EF59
330
EF1A
100
AcDbEntity
  8
0
100
AcDbLine
 10
-41.00508000000008
 20
46.49999999999997
 30
0.0
 11
-41.01000000000008
 21
46.49999999999997
 31
0.0
  0
LINE
  5
EF5A
330
EF1A
100
AcDbEntity
  8
0
100
AcDbLine
 10
-41.01000000000008
 20
46.49999999999997
 30
0.0
 11
-41.01000000000009
 21
49.88043947198588
 31
0.0
  0
ARC
  5
EF5B
330
EF1A
100
AcDbEntity
  8
0
100
AcDbCircle
 10
-39.00000000000011
 20
54.99999999999999
 30
0.0
 40
5.5
100
AcDbArc
 50
291.4355588797964
 51
248.5644411202038
  0
LINE
  5
EF5C
330
EF1A
100
AcDbEntity
  8
0
100
AcDbLine
 10
-36.9900000000001
 20
49.88043947198588
 30
0.0
 11
-36.9900000000001
 21
46.49999999999997
 31
0.0
  0
LINE
  5
EF5D
330
EF1A
100
AcDbEntity
  8
0
100
AcDbLine
 10
-36.9900000000001
 20
46.49999999999997
 30
0.0
 11
-36.99492000000009
 21
46.49999999999997
 31
0.0
  0
LINE
  5
EF5E
330
EF1A
100
AcDbEntity
  8
0
100
AcDbLine
 10
-36.99492000000009
 20
46.49999999999997
 30
0.0
 11
-36.99492000000009
 21
46.49491999999999
 31
0.0
  0
LINE
  5
EF5F
330
EF1A
100
AcDbEntity
  8
0
100
AcDbLine
 10
-36.99492000000009
 20
46.49491999999999
 30
0.0
 11
-37.00000000000009
 21
46.49491999999999
 31
0.0
  0
LINE
  5
EF60
330
EF1A
100
AcDbEntity
  8
0
100
AcDbLine
 10
-41.00000000000008
 20
46.49999999999999
 30
0.0
 11
-41.00000000000007
 21
49.49999999999999
 31
0.0
  0
LINE
  5
EF61
330
EF1A
100
AcDbEntity
  8
0
100
AcDbLine
 10
-37.00000000000009
 20
49.49999999999999
 30
0.0
 11
-37.00000000000009
 21
46.49999999999998
 31
0.0
  0
LINE
  5
EF62
330
EF1A
100
AcDbEntity
  8
0
100
AcDbLine
 10
-41.00000000000008
 20
49.49999999999999
 30
0.0
 11
-37.00000000000009
 21
49.5
 31
0.0
  0
SPLINE
  5
EF63
330
EF1A
100
AcDbEntity
  8
0
100
AcDbSpline
210
0.0
220
0.0
230
1.0
 70
     8
 71
     3
 72
     8
 73
     4
 74
     0
 42
0.000000001
 43
0.0000000001
 40
-0.3070366784835532
 40
-0.3070366784835532
 40
-0.3070366784835532
 40
-0.3070366784835532
 40
0.0
 40
0.0
 40
0.0
 40
0.0
 10
-24.19461252515111
 20
57.41514915798053
 30
0.0
 10
-24.62655007946432
 20
57.33668253397462
 30
0.0
 10
-25.08619289676597
 20
57.19757835065833
 30
0.0
 10
-25.50000000000012
 20
56.99999999999999
 30
0.0
  0
SPLINE
  5
EF64
330
EF1A
100
AcDbEntity
  8
0
100
AcDbSpline
210
0.0
220
0.0
230
1.0
 70
     8
 71
     3
 72
    11
 73
     7
 74
     0
 42
0.000000001
 43
0.0000000001
 40
0.0
 40
0.0
 40
0.0
 40
0.0
 40
0.8649350770697568
 40
0.8649350770697568
 40
0.8649350770697568
 40
1.0
 40
1.0
 40
1.0
 40
1.0
 10
-25.50000000000011
 20
56.99999999999999
 30
0.0
 10
-24.91714410067307
 20
57.55658642087327
 30
0.0
 10
-24.15241843551927
 20
57.64913804539767
 30
0.0
 10
-24.02783688767198
 20
57.22929168059309
 30
0.0
 10
-24.00838271405292
 20
57.16373009289914
 30
0.0
 10
-24.00000000000011
 20
57.0869143870242
 30
0.0
 10
-24.00000000000011
 20
56.99999999999999
 30
0.0
  0
SPLINE
  5
EF65
330
EF1A
100
AcDbEntity
  8
0
100
AcDbSpline
210
0.0
220
0.0
230
1.0
 70
     8
 71
     3
 72
    11
 73
     7
 74
     0
 42
0.000000001
 43
0.0000000001
 40
-1.0
 40
-1.0
 40
-1.0
 40
-1.0
 40
-0.8649350770705567
 40
-0.8649350770705567
 40
-0.8649350770705567
 40
-0.6929633215164211
 40
-0.6929633215164211
 40
-0.6929633215164211
 40
-0.6929633215164211
 10
-25.5000000000001
 20
53.0
 30
0.0
 10
-25.31796694524577
 20
52.91308561297627
 30
0.0
 10
-25.12386051677735
 20
52.83626990710176
 30
0.0
 10
-24.92472347275662
 20
52.77070831940807
 30
0.0
 10
-24.67117172657899
 20
52.68723186165679
 30
0.0
 10
-24.42259161675482
 20
52.62401144857989
 30
0.0
 10
-24.18702953183077
 20
52.58066694697037
 30
0.0
  0
SPLINE
  5
EF66
330
EF1A
100
AcDbEntity
  8
0
100
AcDbSpline
210
0.0
220
0.0
230
1.0
 70
     8
 71
     3
 72
    11
 73
     7
 74
     0
 42
0.000000001
 43
0.0000000001
 40
0.0
 40
0.0
 40
0.0
 40
0.0
 40
0.8649350770705567
 40
0.8649350770705567
 40
0.8649350770705567
 40
1.0
 40
1.0
 40
1.0
 40
1.0
 10
-24.0000000000001
 20
53.0
 30
0.0
 10
-24.0000000000001
 20
52.4434135791254
 30
0.0
 10
-24.5747401734221
 20
52.35086195460225
 30
0.0
 10
-25.21236173637836
 20
52.77070831940807
 30
0.0
 10
-25.31193025838872
 20
52.83626990710176
 30
0.0
 10
-25.40898347262293
 20
52.91308561297627
 30
0.0
 10
-25.5000000000001
 20
53.0
 30
0.0
  0
SPLINE
  5
EF67
330
EF1A
100
AcDbEntity
  8
0
100
AcDbSpline
210
0.0
220
0.0
230
1.0
 70
     8
 71
     3
 72
     8
 73
     4
 74
     0
 42
0.000000001
 43
0.0000000001
 40
0.0
 40
0.0
 40
0.0
 40
0.0
 40
1.0
 40
1.0
 40
1.0
 40
1.0
 10
-25.50000000000004
 20
16.77277856209683
 30
0.0
 10
-24.7146018366026
 20
16.09827004525453
 30
0.0
 10
-24.00000000000004
 20
15.4237615284122
 30
0.0
 10
-24.00000000000003
 20
14.74925301156958
 30
0.0
  0
LINE
  5
EF68
330
EF1A
100
AcDbEntity
  8
0
100
AcDbLine
 10
25.50000000000004
 20
16.77277856209684
 30
0.0
 11
46.21031484164904
 21
30.74206230927718
 31
0.0
  0
SPLINE
  5
EF69
330
EF1A
100
AcDbEntity
  8
0
100
AcDbSpline
210
0.0
220
0.0
230
1.0
 70
     8
 71
     3
 72
     8
 73
     4
 74
     0
 42
0.000000001
 43
0.0000000001
 40
-1.0
 40
-1.0
 40
-1.0
 40
-1.0
 40
0.0
 40
0.0
 40
0.0
 40
0.0
 10
24.00000000000003
 20
14.74925301156958
 30
0.0
 10
24.00000000000004
 20
15.4237615284122
 30
0.0
 10
24.7146018366026
 20
16.09827004525453
 30
0.0
 10
25.50000000000004
 20
16.77277856209683
 30
0.0
  0
CIRCLE
  5
EF6A
330
EF1A
100
AcDbEntity
  8
0
100
AcDbCircle
 10
32.50000000000008
 20
30.99999999999999
 30
0.0
 40
2.5
  0
CIRCLE
  5
EF6B
330
EF1A
100
AcDbEntity
  8
0
100
AcDbCircle
 10
42.50000000000008
 20
37.99999999999997
 30
0.0
 40
2.5
  0
CIRCLE
  5
EF6C
330
EF1A
100
AcDbEntity
  8
0
100
AcDbCircle
 10
32.5000000000001
 20
44.99999999999999
 30
0.0
 40
2.5
  0
CIRCLE
  5
EF6D
330
EF1A
100
AcDbEntity
  8
0
100
AcDbCircle
 10
42.50000000000014
 20
74.99999999999999
 30
0.0
 40
2.5
  0
CIRCLE
  5
EF6E
330
EF1A
100
AcDbEntity
  8
0
100
AcDbCircle
 10
32.50000000000015
 20
84.99999999999998
 30
0.0
 40
2.5
  0
CIRCLE
  5
EF6F
330
EF1A
100
AcDbEntity
  8
0
100
AcDbCircle
 10
32.50000000000013
 20
64.99999999999999
 30
0.0
 40
2.5
  0
LINE
  5
EF70
330
EF1A
100
AcDbEntity
  8
0
100
AcDbLine
 10
36.99492000000009
 20
46.49491999999999
 30
0.0
 11
36.99492000000009
 21
46.49999999999998
 31
0.0
  0
LINE
  5
EF71
330
EF1A
100
AcDbEntity
  8
0
100
AcDbLine
 10
41.00508000000008
 20
46.49999999999995
 30
0.0
 11
41.00508000000008
 21
46.49491999999998
 31
0.0
  0
LINE
  5
EF72
330
EF1A
100
AcDbEntity
  8
0
100
AcDbLine
 10
41.00508000000008
 20
46.49491999999998
 30
0.0
 11
41.00000000000008
 21
46.49491999999998
 31
0.0
  0
LINE
  5
EF73
330
EF1A
100
AcDbEntity
  8
0
100
AcDbLine
 10
41.00000000000008
 20
46.49491999999998
 30
0.0
 11
41.00000000000008
 21
46.49999999999995
 31
0.0
  0
LINE
  5
EF74
330
EF1A
100
AcDbEntity
  8
0
100
AcDbLine
 10
37.00000000000009
 20
46.49999999999998
 30
0.0
 11
37.00000000000009
 21
46.49491999999999
 31
0.0
  0
LINE
  5
EF75
330
EF1A
100
AcDbEntity
  8
0
100
AcDbLine
 10
37.00000000000009
 20
46.49491999999999
 30
0.0
 11
36.99492000000009
 21
46.49491999999999
 31
0.0
  0
LINE
  5
EF76
330
EF1A
100
AcDbEntity
  8
0
100
AcDbLine
 10
37.00000000000009
 20
46.5
 30
0.0
 11
37.00000000000004
 21
49.49999999999999
 31
0.0
  0
LINE
  5
EF77
330
EF1A
100
AcDbEntity
  8
0
100
AcDbLine
 10
41.00000000000007
 20
49.49999999999999
 30
0.0
 11
41.00000000000007
 21
46.49999999999997
 31
0.0
  0
LINE
  5
EF78
330
EF1A
100
AcDbEntity
  8
0
100
AcDbLine
 10
37.00000000000009
 20
49.49999999999999
 30
0.0
 11
41.00000000000008
 21
49.49999999999999
 31
0.0
  0
SPLINE
  5
EF79
330
EF1A
100
AcDbEntity
  8
0
100
AcDbSpline
210
0.0
220
0.0
230
1.0
 70
     8
 71
     3
 72
     8
 73
     4
 74
     0
 42
0.000000001
 43
0.0000000001
 40
0.0
 40
0.0
 40
0.0
 40
0.0
 40
1.0
 40
1.0
 40
1.0
 40
1.0
 10
-18.525
 20
1.499999999999979
 30
0.0
 10
-19.3500000000002
 20
0.7146018366025127
 30
0.0
 10
-20.17499999999988
 20
-0.0000000000000162
 30
0.0
 10
-21.00000000000001
 20
-0.0000000000000189
 30
0.0
  0
LINE
  5
EF7A
330
EF1A
100
AcDbEntity
  8
0
100
AcDbLine
 10
-12.74999999999999
 20
8.499999999999978
 30
0.0
 11
-18.52499999999999
 21
1.499999999999976
 31
0.0
  0
SPLINE
  5
EF7B
330
EF1A
100
AcDbEntity
  8
0
100
AcDbSpline
210
0.0
220
0.0
230
1.0
 70
     8
 71
     3
 72
     8
 73
     4
 74
     0
 42
0.000000001
 43
0.0000000001
 40
0.0
 40
0.0
 40
0.0
 40
0.0
 40
1.0
 40
1.0
 40
1.0
 40
1.0
 10
21.00000000000001
 20
-0.00000000000001
 30
0.0
 10
20.17500000000004
 20
-0.0000000000000101
 30
0.0
 10
19.34999999999994
 20
0.7146018366025542
 30
0.0
 10
18.52500000000001
 20
1.499999999999985
 30
0.0
  0
LINE
  5
EF7C
330
EF1A
100
AcDbEntity
  8
0
100
AcDbLine
 10
18.52500000000001
 20
1.499999999999984
 30
0.0
 11
12.75000000000001
 21
8.499999999999982
 31
0.0
  0
LINE
  5
EF7D
330
EF1A
100
AcDbEntity
  8
0
100
AcDbLine
 10
12.75000000000001
 20
8.499999999999982
 30
0.0
 11
-12.74999999999998
 21
8.499999999999978
 31
0.0
  0
ARC
  5
EF7E
330
EF1A
100
AcDbEntity
  8
0
100
AcDbCircle
 10
-21.0
 20
1.499999999999986
 30
0.0
 40
1.500000000000003
100
AcDbArc
 50
180.0
 51
270.0000000000003
  0
ARC
  5
EF7F
330
EF1A
100
AcDbEntity
  8
0
100
AcDbCircle
 10
21.00000000000001
 20
1.49999999999999
 30
0.0
 40
2.999999999999993
100
AcDbArc
 50
270.0
 51
0.0
  0
ARC
  5
EF80
330
EF1A
100
AcDbEntity
  8
0
100
AcDbCircle
 10
21.00000000000001
 20
1.49999999999999
 30
0.0
 40
1.500000000000003
100
AcDbArc
 50
270.0
 51
0.0
  0
ARC
  5
EF81
330
EF1A
100
AcDbEntity
  8
0
100
AcDbCircle
 10
-21.0
 20
1.499999999999986
 30
0.0
 40
2.999999999999998
100
AcDbArc
 50
180.0
 51
270.0
  0
ENDBLK
  5
EF1C
330
EF1A
100
AcDbEntity
  8
0
100
AcDbBlockEnd
  0
BLOCK
  5
EF83
330
EF82
100
AcDbEntity
  8
0
100
AcDbBlockBegin
  2
SBE45_93-Left
 70
     0
 10
0.0
 20
0.0
 30
0.0
  3
SBE45_93-Left
  1

  0
LINE
  5
EF85
330
EF82
100
AcDbEntity
  8
0
100
AcDbLine
 10
3.000000000000003
 20
92.49999999999998
 30
0.0
 11
1.500000000000011
 21
92.49999999999998
 31
0.0
  0
LINE
  5
EF86
330
EF82
100
AcDbEntity
  8
0
100
AcDbLine
 10
2.999999999999989
 20
14.74925301156957
 30
0.0
 11
3.000000000000003
 21
1.499999999999985
 31
0.0
  0
LINE
  5
EF87
330
EF82
100
AcDbEntity
  8
0
100
AcDbLine
 10
3.000000000000002
 20
-1.500000000000014
 30
0.0
 11
3.000000000000002
 21
1.499999999999985
 31
0.0
  0
CIRCLE
  5
EF88
330
EF82
100
AcDbEntity
  8
0
100
AcDbCircle
 10
29.00000000000003
 20
44.99999999999999
 30
0.0
 40
2.5
  0
CIRCLE
  5
EF89
330
EF82
100
AcDbEntity
  8
0
100
AcDbCircle
 10
29.00000000000003
 20
84.99999999999998
 30
0.0
 40
2.5
  0
CIRCLE
  5
EF8A
330
EF82
100
AcDbEntity
  8
0
100
AcDbCircle
 10
29.00000000000003
 20
64.99999999999999
 30
0.0
 40
2.5
  0
ARC
  5
EF8B
330
EF82
100
AcDbEntity
  8
0
100
AcDbCircle
 10
1.500000000000007
 20
55.0
 30
0.0
 40
2.5
100
AcDbArc
 50
306.8698976458436
 51
53.13010235415607
  0
LINE
  5
EF8C
330
EF82
100
AcDbEntity
  8
0
100
AcDbLine
 10
1.500000000000017
 20
30.74206230927714
 30
0.0
 11
1.500000000000012
 21
16.77277856209684
 31
0.0
  0
ARC
  5
EF8D
330
EF82
100
AcDbEntity
  8
0
100
AcDbCircle
 10
-1.499999999999991
 20
46.49999999999998
 30
0.0
 40
3.0
100
AcDbArc
 50
59.99999999999978
 51
90.00000000000035
  0
ARC
  5
EF8E
330
EF82
100
AcDbEntity
  8
0
100
AcDbCircle
 10
-1.499999999999991
 20
46.49999999999998
 30
0.0
 40
1.5
100
AcDbArc
 50
0.0
 51
90.00000000000033
  0
LINE
  5
EF8F
330
EF82
100
AcDbEntity
  8
0
100
AcDbLine
 10
0.0
 20
16.77277856209684
 30
0.0
 11
0.0
 21
30.74206230927714
 31
0.0
  0
SPLINE
  5
EF90
330
EF82
100
AcDbEntity
  8
0
100
AcDbSpline
210
0.0
220
0.0
230
1.0
 70
     8
 71
     3
 72
    11
 73
     7
 74
     0
 42
0.000000001
 43
0.0000000001
 40
-1.0
 40
-1.0
 40
-1.0
 40
-1.0
 40
-0.8649350770697568
 40
-0.8649350770697568
 40
-0.8649350770697568
 40
-0.6929633215164294
 40
-0.6929633215164294
 40
-0.6929633215164294
 40
-0.6929633215164294
 10
2.999999999999984
 20
56.99999999999999
 30
0.0
 10
2.817966945244558
 20
57.0869143870242
 30
0.0
 10
2.623860516774916
 20
57.16373009289914
 30
0.0
 10
2.424723472752955
 20
57.22929168059309
 30
0.0
 10
2.171171726576461
 20
57.3127681383438
 30
0.0
 10
1.922591616753454
 20
57.37598855142032
 30
0.0
 10
1.687029531830483
 20
57.41933305302957
 30
0.0
  0
SPLINE
  5
EF91
330
EF82
100
AcDbEntity
  8
0
100
AcDbSpline
210
0.0
220
0.0
230
1.0
 70
     8
 71
     3
 72
    11
 73
     7
 74
     0
 42
0.000000001
 43
0.0000000001
 40
0.0
 40
0.0
 40
0.0
 40
0.0
 40
0.8649350770697568
 40
0.8649350770697568
 40
0.8649350770697568
 40
1.0
 40
1.0
 40
1.0
 40
1.0
 10
1.50000000000001
 20
56.99999999999999
 30
0.0
 10
1.500000000000006
 20
57.55658642087327
 30
0.0
 10
2.074740173420662
 20
57.64913804539767
 30
0.0
 10
2.712361736376481
 20
57.22929168059309
 30
0.0
 10
2.811930258387461
 20
57.16373009289914
 30
0.0
 10
2.908983472622281
 20
57.0869143870242
 30
0.0
 10
2.999999999999994
 20
56.99999999999999
 30
0.0
  0
SPLINE
  5
EF92
330
EF82
100
AcDbEntity
  8
0
100
AcDbSpline
210
0.0
220
0.0
230
1.0
 70
     8
 71
     3
 72
     8
 73
     4
 74
     0
 42
0.000000001
 43
0.0000000001
 40
-0.3070366784835483
 40
-0.3070366784835483
 40
-0.3070366784835483
 40
-0.3070366784835483
 40
0.0
 40
0.0
 40
0.0
 40
0.0
 10
1.694612525151168
 20
52.58485084201914
 30
0.0
 10
2.126550079464283
 20
52.66331746602502
 30
0.0
 10
2.586192896765835
 20
52.80242164934138
 30
0.0
 10
2.999999999999987
 20
53.0
 30
0.0
  0
SPLINE
  5
EF93
330
EF82
100
AcDbEntity
  8
0
100
AcDbSpline
210
0.0
220
0.0
230
1.0
 70
     8
 71
     3
 72
    11
 73
     7
 74
     0
 42
0.000000001
 43
0.0000000001
 40
0.0
 40
0.0
 40
0.0
 40
0.0
 40
0.8649350770705567
 40
0.8649350770705567
 40
0.8649350770705567
 40
1.0
 40
1.0
 40
1.0
 40
1.0
 10
2.999999999999996
 20
53.0
 30
0.0
 10
2.417144100672398
 20
52.4434135791254
 30
0.0
 10
1.652418435518108
 20
52.35086195460225
 30
0.0
 10
1.527836887671531
 20
52.77070831940807
 30
0.0
 10
1.508382714052722
 20
52.83626990710176
 30
0.0
 10
1.500000000000009
 20
52.91308561297627
 30
0.0
 10
1.50000000000001
 20
53.0
 30
0.0
  0
SPLINE
  5
EF94
330
EF82
100
AcDbEntity
  8
0
100
AcDbSpline
210
0.0
220
0.0
230
1.0
 70
     8
 71
     3
 72
     8
 73
     4
 74
     0
 42
0.000000001
 43
0.0000000001
 40
-1.0
 40
-1.0
 40
-1.0
 40
-1.0
 40
0.0
 40
0.0
 40
0.0
 40
0.0
 10
2.999999999999975
 20
14.74925301156958
 30
0.0
 10
1.429203673205065
 20
15.4237615284122
 30
0.0
 10
0.0000000000000009
 20
16.09827004525453
 30
0.0
 10
0.0000000000000056
 20
16.77277856209683
 30
0.0
  0
SPLINE
  5
EF95
330
EF82
100
AcDbEntity
  8
0
100
AcDbSpline
210
0.0
220
0.0
230
1.0
 70
     8
 71
     3
 72
     8
 73
     4
 74
     0
 42
0.000000001
 43
0.0000000001
 40
0.0
 40
0.0
 40
0.0
 40
0.0
 40
1.0
 40
1.0
 40
1.0
 40
1.0
 10
1.500000000000005
 20
16.77277856209683
 30
0.0
 10
1.500000000000003
 20
16.09827004525453
 30
0.0
 10
2.214601836602535
 20
15.4237615284122
 30
0.0
 10
2.999999999999989
 20
14.74925301156958
 30
0.0
  0
LINE
  5
EF96
330
EF82
100
AcDbEntity
  8
0
100
AcDbLine
 10
1.500000000000012
 20
16.77277856209684
 30
0.0
 11
1.090140682897578
 21
16.77277856209684
 31
0.0
  0
LINE
  5
EF97
330
EF82
100
AcDbEntity
  8
0
100
AcDbLine
 10
1.090140682897578
 20
16.77277856209684
 30
0.0
 11
0.0
 21
16.77277856209684
 31
0.0
  0
LINE
  5
EF98
330
EF82
100
AcDbEntity
  8
0
100
AcDbLine
 10
-8.999999999999985
 20
49.49999999999999
 30
0.0
 11
-6.999999999999984
 21
49.49999999999999
 31
0.0
  0
LINE
  5
EF99
330
EF82
100
AcDbEntity
  8
0
100
AcDbLine
 10
-6.999999999999984
 20
49.49999999999999
 30
0.0
 11
-1.499999999999994
 21
49.49999999999999
 31
0.0
  0
LINE
  5
EF9A
330
EF82
100
AcDbEntity
  8
0
100
AcDbLine
 10
-8.999999999999985
 20
49.49999999999999
 30
0.0
 11
-8.999999999999985
 21
47.99999999999998
 31
0.0
  0
LINE
  5
EF9B
330
EF82
100
AcDbEntity
  8
0
100
AcDbLine
 10
-6.999999999999984
 20
49.49999999999999
 30
0.0
 11
-6.999999999999984
 21
47.99999999999998
 31
0.0
  0
LINE
  5
EF9C
330
EF82
100
AcDbEntity
  8
0
100
AcDbLine
 10
-1.499999999999994
 20
47.99999999999998
 30
0.0
 11
-6.999999999999984
 21
47.99999999999998
 31
0.0
  0
LINE
  5
EF9D
330
EF82
100
AcDbEntity
  8
0
100
AcDbLine
 10
-6.999999999999984
 20
47.99999999999998
 30
0.0
 11
-8.999999999999985
 21
47.99999999999998
 31
0.0
  0
LINE
  5
EF9E
330
EF82
100
AcDbEntity
  8
0
100
AcDbLine
 10
53.99999999999999
 20
22.50610095525754
 30
0.0
 11
54.0
 21
1.499999999999985
 31
0.0
  0
LINE
  5
EF9F
330
EF82
100
AcDbEntity
  8
0
100
AcDbLine
 10
3.000000000000003
 20
92.49999999999998
 30
0.0
 11
30.50000000000003
 21
92.49999999999998
 31
0.0
  0
LINE
  5
EFA0
330
EF82
100
AcDbEntity
  8
0
100
AcDbLine
 10
53.99999999999999
 20
22.50610095525754
 30
0.0
 11
41.78968515835106
 21
30.74206230927722
 31
0.0
  0
LINE
  5
EFA1
330
EF82
100
AcDbEntity
  8
0
100
AcDbLine
 10
36.50000000000002
 20
40.69051317993771
 30
0.0
 11
36.50000000000003
 21
86.49999999999998
 31
0.0
  0
ARC
  5
EFA2
330
EF82
100
AcDbEntity
  8
0
100
AcDbCircle
 10
48.50000000000002
 20
40.69051317993771
 30
0.0
 40
12.0
100
AcDbArc
 50
180.0
 51
236.0
  0
LINE
  5
EFA3
330
EF82
100
AcDbEntity
  8
0
100
AcDbLine
 10
1.500000000000016
 20
40.69051317993764
 30
0.0
 11
1.500000000000016
 21
30.74206230927714
 31
0.0
  0
LINE
  5
EFA4
330
EF82
100
AcDbEntity
  8
0
100
AcDbLine
 10
0.0
 20
30.74206230927714
 30
0.0
 11
0.0
 21
40.69051317993764
 31
0.0
  0
LINE
  5
EFA5
330
EF82
100
AcDbEntity
  8
0
100
AcDbLine
 10
30.50000000000003
 20
92.49999999999998
 30
0.0
 11
36.50000000000003
 21
86.49999999999998
 31
0.0
  0
LINE
  5
EFA6
330
EF82
100
AcDbEntity
  8
0
100
AcDbLine
 10
0.0
 20
92.49999999999994
 30
0.0
 11
0.0
 21
86.49999999999996
 31
0.0
  0
LINE
  5
EFA7
330
EF82
100
AcDbEntity
  8
0
100
AcDbLine
 10
0.0
 20
86.49999999999996
 30
0.0
 11
1.500000000000021
 21
86.49999999999996
 31
0.0
  0
LINE
  5
EFA8
330
EF82
100
AcDbEntity
  8
0
100
AcDbLine
 10
1.500000000000021
 20
86.49999999999996
 30
0.0
 11
1.500000000000079
 21
92.50000000000008
 31
0.0
  0
LINE
  5
EFA9
330
EF82
100
AcDbEntity
  8
0
100
AcDbLine
 10
1.500000000000079
 20
92.50000000000008
 30
0.0
 11
0.0
 21
92.49999999999994
 31
0.0
  0
LINE
  5
EFAA
330
EF82
100
AcDbEntity
  8
0
100
AcDbLine
 10
1.500000000000021
 20
86.49999999999996
 30
0.0
 11
1.50000000000002
 21
40.69051317993764
 31
0.0
  0
LINE
  5
EFAB
330
EF82
100
AcDbEntity
  8
0
100
AcDbLine
 10
0.0
 20
86.49999999999996
 30
0.0
 11
0.0
 21
40.69051317993764
 31
0.0
  0
LINE
  5
EFAC
330
EF82
100
AcDbEntity
  8
0
100
AcDbLine
 10
0.0
 20
1.499999999999976
 30
0.0
 11
1.090140682896871
 21
1.499999999999977
 31
0.0
  0
SPLINE
  5
EFAD
330
EF82
100
AcDbEntity
  8
0
100
AcDbSpline
210
0.0
220
0.0
230
1.0
 70
     8
 71
     3
 72
     8
 73
     4
 74
     0
 42
0.000000001
 43
0.0000000001
 40
-1.0
 40
-1.0
 40
-1.0
 40
-1.0
 40
0.0
 40
0.0
 40
0.0
 40
0.0
 10
2.999999999999992
 20
-1.500000000000019
 30
0.0
 10
1.429203673205121
 20
-1.500000000000014
 30
0.0
 10
0.0000000000000042
 20
-0.0707963267949546
 30
0.0
 10
0.0000000000000056
 20
1.49999999999998
 30
0.0
  0
SPLINE
  5
EFAE
330
EF82
100
AcDbEntity
  8
0
100
AcDbSpline
210
0.0
220
0.0
230
1.0
 70
     8
 71
     3
 72
     8
 73
     4
 74
     0
 42
0.000000001
 43
0.0000000001
 40
0.0
 40
0.0
 40
0.0
 40
0.0
 40
1.0
 40
1.0
 40
1.0
 40
1.0
 10
1.500000000000005
 20
1.499999999999979
 30
0.0
 10
1.500000000000005
 20
0.7146018366025127
 30
0.0
 10
2.214601836602563
 20
-0.0000000000000162
 30
0.0
 10
2.999999999999997
 20
-0.0000000000000189
 30
0.0
  0
LINE
  5
EFAF
330
EF82
100
AcDbEntity
  8
0
100
AcDbLine
 10
1.090140682896871
 20
1.499999999999977
 30
0.0
 11
1.500000000000006
 21
1.499999999999977
 31
0.0
  0
LINE
  5
EFB0
330
EF82
100
AcDbEntity
  8
0
100
AcDbLine
 10
1.500000000000004
 20
8.499999999999978
 30
0.0
 11
1.500000000000006
 21
1.499999999999976
 31
0.0
  0
LINE
  5
EFB1
330
EF82
100
AcDbEntity
  8
0
100
AcDbLine
 10
0.0
 20
8.499999999999978
 30
0.0
 11
1.500000000000004
 21
8.499999999999978
 31
0.0
  0
LINE
  5
EFB2
330
EF82
100
AcDbEntity
  8
0
100
AcDbLine
 10
0.0
 20
1.499999999999976
 30
0.0
 11
0.0
 21
8.499999999999978
 31
0.0
  0
LINE
  5
EFB3
330
EF82
100
AcDbEntity
  8
0
100
AcDbLine
 10
54.0
 20
-1.500000000000007
 30
0.0
 11
3.000000000000007
 21
-1.500000000000016
 31
0.0
  0
LINE
  5
EFB4
330
EF82
100
AcDbEntity
  8
0
100
AcDbLine
 10
54.0
 20
-1.500000000000011
 30
0.0
 11
54.0
 21
1.499999999999985
 31
0.0
  0
ENDBLK
  5
EF84
330
EF82
100
AcDbEntity
  8
0
100
AcDbBlockEnd
  0
BLOCK
  5
EFB6
330
EFB5
100
AcDbEntity
  8
0
100
AcDbBlockBegin
  2
SBE45_93-Right
 70
     0
 10
0.0
 20
0.0
 30
0.0
  3
SBE45_93-Right
  1

  0
SPLINE
  5
EFB8
330
EFB5
100
AcDbEntity
  8
0
100
AcDbSpline
210
0.0
220
0.0
230
1.0
 70
     8
 71
     3
 72
    11
 73
     7
 74
     0
 42
0.000000001
 43
0.0000000001
 40
-1.0
 40
-1.0
 40
-1.0
 40
-1.0
 40
-0.8649350770697568
 40
-0.8649350770697568
 40
-0.8649350770697568
 40
0.0
 40
0.0
 40
0.0
 40
0.0
 10
-2.999999999999994
 20
56.99999999999999
 30
0.0
 10
-2.908983472622281
 20
57.0869143870242
 30
0.0
 10
-2.811930258387461
 20
57.16373009289914
 30
0.0
 10
-2.712361736376481
 20
57.22929168059309
 30
0.0
 10
-2.074740173420662
 20
57.64913804539767
 30
0.0
 10
-1.500000000000006
 20
57.55658642087327
 30
0.0
 10
-1.50000000000001
 20
56.99999999999999
 30
0.0
  0
ARC
  5
EFB9
330
EFB5
100
AcDbEntity
  8
0
100
AcDbCircle
 10
-1.500000000000007
 20
55.0
 30
0.0
 40
2.5
100
AcDbArc
 50
126.8698976458439
 51
233.1301023541564
  0
SPLINE
  5
EFBA
330
EFB5
100
AcDbEntity
  8
0
100
AcDbSpline
210
0.0
220
0.0
230
1.0
 70
     8
 71
     3
 72
     8
 73
     4
 74
     0
 42
0.000000001
 43
0.0000000001
 40
0.0
 40
0.0
 40
0.0
 40
0.0
 40
0.3070366784835708
 40
0.3070366784835708
 40
0.3070366784835708
 40
0.3070366784835708
 10
-2.999999999999987
 20
53.0
 30
0.0
 10
-2.586192896765805
 20
52.80242164934136
 30
0.0
 10
-2.126550079464216
 20
52.66331746602499
 30
0.0
 10
-1.694612525151073
 20
52.58485084201909
 30
0.0
  0
SPLINE
  5
EFBB
330
EFB5
100
AcDbEntity
  8
0
100
AcDbSpline
210
0.0
220
0.0
230
1.0
 70
     8
 71
     3
 72
    11
 73
     7
 74
     0
 42
0.000000001
 43
0.0000000001
 40
0.6929633215164517
 40
0.6929633215164517
 40
0.6929633215164517
 40
0.6929633215164517
 40
0.8649350770697568
 40
0.8649350770697568
 40
0.8649350770697568
 40
1.0
 40
1.0
 40
1.0
 40
1.0
 10
-1.687029531830575
 20
57.41933305302954
 30
0.0
 10
-1.922591616753518
 20
57.37598855142028
 30
0.0
 10
-2.171171726576494
 20
57.31276813834378
 30
0.0
 10
-2.424723472752955
 20
57.22929168059309
 30
0.0
 10
-2.623860516774916
 20
57.16373009289914
 30
0.0
 10
-2.817966945244558
 20
57.0869143870242
 30
0.0
 10
-2.999999999999984
 20
56.99999999999999
 30
0.0
  0
SPLINE
  5
EFBC
330
EFB5
100
AcDbEntity
  8
0
100
AcDbSpline
210
0.0
220
0.0
230
1.0
 70
     8
 71
     3
 72
    11
 73
     7
 74
     0
 42
0.000000001
 43
0.0000000001
 40
-1.0
 40
-1.0
 40
-1.0
 40
-1.0
 40
-0.8649350770705567
 40
-0.8649350770705567
 40
-0.8649350770705567
 40
0.0
 40
0.0
 40
0.0
 40
0.0
 10
-1.50000000000001
 20
53.0
 30
0.0
 10
-1.500000000000009
 20
52.91308561297627
 30
0.0
 10
-1.508382714052722
 20
52.83626990710176
 30
0.0
 10
-1.527836887671531
 20
52.77070831940807
 30
0.0
 10
-1.652418435518108
 20
52.35086195460225
 30
0.0
 10
-2.417144100672398
 20
52.4434135791254
 30
0.0
 10
-2.999999999999996
 20
53.0
 30
0.0
  0
LINE
  5
EFBD
330
EFB5
100
AcDbEntity
  8
0
100
AcDbLine
 10
1.500000000000003
 20
49.49999999999999
 30
0.0
 11
6.999999999999992
 21
49.49999999999999
 31
0.0
  0
LINE
  5
EFBE
330
EFB5
100
AcDbEntity
  8
0
100
AcDbLine
 10
6.999999999999992
 20
49.49999999999999
 30
0.0
 11
8.999999999999985
 21
49.49999999999999
 31
0.0
  0
LINE
  5
EFBF
330
EFB5
100
AcDbEntity
  8
0
100
AcDbLine
 10
8.999999999999985
 20
49.49999999999999
 30
0.0
 11
8.999999999999985
 21
48.0
 31
0.0
  0
LINE
  5
EFC0
330
EFB5
100
AcDbEntity
  8
0
100
AcDbLine
 10
8.999999999999985
 20
48.0
 30
0.0
 11
6.999999999999992
 21
47.99999999999998
 31
0.0
  0
LINE
  5
EFC1
330
EFB5
100
AcDbEntity
  8
0
100
AcDbLine
 10
6.999999999999992
 20
49.49999999999999
 30
0.0
 11
6.999999999999992
 21
47.99999999999998
 31
0.0
  0
LINE
  5
EFC2
330
EFB5
100
AcDbEntity
  8
0
100
AcDbLine
 10
6.999999999999992
 20
47.99999999999998
 30
0.0
 11
1.500000000000003
 21
47.99999999999998
 31
0.0
  0
CIRCLE
  5
EFC3
330
EFB5
100
AcDbEntity
  8
0
100
AcDbCircle
 10
-29.00000000000002
 20
34.99999999999999
 30
0.0
 40
2.5
  0
CIRCLE
  5
EFC4
330
EFB5
100
AcDbEntity
  8
0
100
AcDbCircle
 10
-29.00000000000003
 20
74.99999999999999
 30
0.0
 40
2.5
  0
CIRCLE
  5
EFC5
330
EFB5
100
AcDbEntity
  8
0
100
AcDbCircle
 10
-29.00000000000003
 20
54.99999999999999
 30
0.0
 40
2.5
  0
LINE
  5
EFC6
330
EFB5
100
AcDbEntity
  8
0
100
AcDbLine
 10
-30.50000000000003
 20
92.5
 30
0.0
 11
-3.000000000000002
 21
92.5
 31
0.0
  0
LINE
  5
EFC7
330
EFB5
100
AcDbEntity
  8
0
100
AcDbLine
 10
-54.0
 20
1.499999999999985
 30
0.0
 11
-53.99999999999999
 21
22.50610095525754
 31
0.0
  0
LINE
  5
EFC8
330
EFB5
100
AcDbEntity
  8
0
100
AcDbLine
 10
-36.50000000000003
 20
86.50000000000003
 30
0.0
 11
-30.50000000000003
 21
92.5
 31
0.0
  0
LINE
  5
EFC9
330
EFB5
100
AcDbEntity
  8
0
100
AcDbLine
 10
0.0
 20
86.49999999999998
 30
0.0
 11
0.0
 21
92.49999999999998
 31
0.0
  0
LINE
  5
EFCA
330
EFB5
100
AcDbEntity
  8
0
100
AcDbLine
 10
0.0
 20
92.49999999999998
 30
0.0
 11
-1.500000000000006
 21
92.49999999999998
 31
0.0
  0
LINE
  5
EFCB
330
EFB5
100
AcDbEntity
  8
0
100
AcDbLine
 10
-1.500000000000006
 20
92.49999999999998
 30
0.0
 11
-1.500000000000006
 21
86.49999999999998
 31
0.0
  0
LINE
  5
EFCC
330
EFB5
100
AcDbEntity
  8
0
100
AcDbLine
 10
-1.500000000000006
 20
86.49999999999998
 30
0.0
 11
0.0
 21
86.49999999999998
 31
0.0
  0
LINE
  5
EFCD
330
EFB5
100
AcDbEntity
  8
0
100
AcDbLine
 10
-36.50000000000003
 20
86.50000000000003
 30
0.0
 11
-36.50000000000002
 21
40.69051317993771
 31
0.0
  0
LINE
  5
EFCE
330
EFB5
100
AcDbEntity
  8
0
100
AcDbLine
 10
-41.78968515835106
 20
30.74206230927722
 30
0.0
 11
-53.99999999999999
 21
22.50610095525754
 31
0.0
  0
ARC
  5
EFCF
330
EFB5
100
AcDbEntity
  8
0
100
AcDbCircle
 10
-48.50000000000002
 20
40.69051317993771
 30
0.0
 40
12.0
100
AcDbArc
 50
304.0
 51
0.0
  0
LINE
  5
EFD0
330
EFB5
100
AcDbEntity
  8
0
100
AcDbLine
 10
0.0
 20
40.69051317993768
 30
0.0
 11
0.0
 21
30.74206230927719
 31
0.0
  0
LINE
  5
EFD1
330
EFB5
100
AcDbEntity
  8
0
100
AcDbLine
 10
-1.500000000000011
 20
30.7420623092772
 30
0.0
 11
-1.500000000000011
 21
40.69051317993768
 31
0.0
  0
LINE
  5
EFD2
330
EFB5
100
AcDbEntity
  8
0
100
AcDbLine
 10
-3.000000000000003
 20
1.499999999999985
 30
0.0
 11
-2.999999999999989
 21
14.74925301156957
 31
0.0
  0
LINE
  5
EFD3
330
EFB5
100
AcDbEntity
  8
0
100
AcDbLine
 10
-3.000000000000003
 20
92.5
 30
0.0
 11
-1.500000000000005
 21
92.5
 31
0.0
  0
LINE
  5
EFD4
330
EFB5
100
AcDbEntity
  8
0
100
AcDbLine
 10
-3.000000000000002
 20
1.499999999999985
 30
0.0
 11
-3.000000000000002
 21
-1.500000000000014
 31
0.0
  0
LINE
  5
EFD5
330
EFB5
100
AcDbEntity
  8
0
100
AcDbLine
 10
0.0
 20
40.69051317993768
 30
0.0
 11
0.0
 21
86.49999999999998
 31
0.0
  0
LINE
  5
EFD6
330
EFB5
100
AcDbEntity
  8
0
100
AcDbLine
 10
-1.500000000000004
 20
40.69051317993768
 30
0.0
 11
-1.500000000000006
 21
86.49999999999998
 31
0.0
  0
LINE
  5
EFD7
330
EFB5
100
AcDbEntity
  8
0
100
AcDbLine
 10
0.0
 20
30.74206230927719
 30
0.0
 11
0.0
 21
16.77277856209684
 31
0.0
  0
LINE
  5
EFD8
330
EFB5
100
AcDbEntity
  8
0
100
AcDbLine
 10
-1.500000000000012
 20
16.77277856209684
 30
0.0
 11
-1.500000000000011
 21
30.74206230927718
 31
0.0
  0
LINE
  5
EFD9
330
EFB5
100
AcDbEntity
  8
0
100
AcDbLine
 10
-1.500000000000012
 20
16.77277856209684
 30
0.0
 11
-1.090140682897578
 21
16.77277856209684
 31
0.0
  0
LINE
  5
EFDA
330
EFB5
100
AcDbEntity
  8
0
100
AcDbLine
 10
-1.090140682897578
 20
16.77277856209684
 30
0.0
 11
0.0
 21
16.77277856209684
 31
0.0
  0
SPLINE
  5
EFDB
330
EFB5
100
AcDbEntity
  8
0
100
AcDbSpline
210
0.0
220
0.0
230
1.0
 70
     8
 71
     3
 72
     8
 73
     4
 74
     0
 42
0.000000001
 43
0.0000000001
 40
0.0
 40
0.0
 40
0.0
 40
0.0
 40
1.0
 40
1.0
 40
1.0
 40
1.0
 10
-0.0000000000000056
 20
16.77277856209683
 30
0.0
 10
-0.0000000000000009
 20
16.09827004525453
 30
0.0
 10
-1.429203673205065
 20
15.4237615284122
 30
0.0
 10
-2.999999999999975
 20
14.74925301156958
 30
0.0
  0
SPLINE
  5
EFDC
330
EFB5
100
AcDbEntity
  8
0
100
AcDbSpline
210
0.0
220
0.0
230
1.0
 70
     8
 71
     3
 72
     8
 73
     4
 74
     0
 42
0.000000001
 43
0.0000000001
 40
-1.0
 40
-1.0
 40
-1.0
 40
-1.0
 40
0.0
 40
0.0
 40
0.0
 40
0.0
 10
-2.999999999999989
 20
14.74925301156958
 30
0.0
 10
-2.214601836602535
 20
15.4237615284122
 30
0.0
 10
-1.500000000000003
 20
16.09827004525453
 30
0.0
 10
-1.500000000000005
 20
16.77277856209683
 30
0.0
  0
SPLINE
  5
EFDD
330
EFB5
100
AcDbEntity
  8
0
100
AcDbSpline
210
0.0
220
0.0
230
1.0
 70
     8
 71
     3
 72
     8
 73
     4
 74
     0
 42
0.000000001
 43
0.0000000001
 40
-1.0
 40
-1.0
 40
-1.0
 40
-1.0
 40
0.0
 40
0.0
 40
0.0
 40
0.0
 10
-0.0000000000000056
 20
1.499999999999984
 30
0.0
 10
-0.0000000000000063
 20
-0.07079632679488
 30
0.0
 10
-1.429203673205085
 20
-1.50000000000001
 30
0.0
 10
-3.000000000000002
 20
-1.50000000000001
 30
0.0
  0
LINE
  5
EFDE
330
EFB5
100
AcDbEntity
  8
0
100
AcDbLine
 10
0.0
 20
1.499999999999984
 30
0.0
 11
-1.090140682897383
 21
1.499999999999984
 31
0.0
  0
LINE
  5
EFDF
330
EFB5
100
AcDbEntity
  8
0
100
AcDbLine
 10
-1.090140682897383
 20
1.499999999999984
 30
0.0
 11
-1.500000000000004
 21
1.499999999999984
 31
0.0
  0
SPLINE
  5
EFE0
330
EFB5
100
AcDbEntity
  8
0
100
AcDbSpline
210
0.0
220
0.0
230
1.0
 70
     8
 71
     3
 72
     8
 73
     4
 74
     0
 42
0.000000001
 43
0.0000000001
 40
0.0
 40
0.0
 40
0.0
 40
0.0
 40
1.0
 40
1.0
 40
1.0
 40
1.0
 10
-3.000000000000002
 20
-0.00000000000001
 30
0.0
 10
-2.214601836602545
 20
-0.0000000000000101
 30
0.0
 10
-1.500000000000006
 20
0.7146018366025542
 30
0.0
 10
-1.500000000000005
 20
1.499999999999985
 30
0.0
  0
LINE
  5
EFE1
330
EFB5
100
AcDbEntity
  8
0
100
AcDbLine
 10
-1.500000000000004
 20
1.499999999999984
 30
0.0
 11
-1.500000000000003
 21
8.499999999999982
 31
0.0
  0
LINE
  5
EFE2
330
EFB5
100
AcDbEntity
  8
0
100
AcDbLine
 10
0.0
 20
8.499999999999982
 30
0.0
 11
0.0
 21
1.499999999999984
 31
0.0
  0
LINE
  5
EFE3
330
EFB5
100
AcDbEntity
  8
0
100
AcDbLine
 10
-1.500000000000003
 20
8.499999999999982
 30
0.0
 11
0.0
 21
8.499999999999982
 31
0.0
  0
LINE
  5
EFE4
330
EFB5
100
AcDbEntity
  8
0
100
AcDbLine
 10
-54.0
 20
-1.500000000000003
 30
0.0
 11
-3.000000000000007
 21
-1.500000000000012
 31
0.0
  0
LINE
  5
EFE5
330
EFB5
100
AcDbEntity
  8
0
100
AcDbLine
 10
-54.0
 20
1.499999999999985
 30
0.0
 11
-54.0
 21
-1.500000000000003
 31
0.0
  0
ARC
  5
EFE6
330
EFB5
100
AcDbEntity
  8
0
100
AcDbCircle
 10
1.499999999999991
 20
46.49999999999998
 30
0.0
 40
3.0
100
AcDbArc
 50
90.00000000000042
 51
119.9999999999999
  0
ARC
  5
EFE7
330
EFB5
100
AcDbEntity
  8
0
100
AcDbCircle
 10
1.499999999999991
 20
46.49999999999998
 30
0.0
 40
1.5
100
AcDbArc
 50
90.0000000000009
 51
180.0
  0
ENDBLK
  5
EFB7
330
EFB5
100
AcDbEntity
  8
0
100
AcDbBlockEnd
  0
BLOCK
  5
EFE9
330
EFE8
100
AcDbEntity
  8
0
100
AcDbBlockBegin
  2
SBE45_93-Top
 70
     0
 10
0.0
 20
0.0
 30
0.0
  3
SBE45_93-Top
  1

  0
ARC
  5
EFEB
330
EFE8
100
AcDbEntity
  8
0
100
AcDbCircle
 10
-25.50000000000003
 20
-3.00000000000001
 30
0.0
 40
1.499999999999999
100
AcDbArc
 50
0.0
 51
90.0
  0
ARC
  5
EFEC
330
EFE8
100
AcDbEntity
  8
0
100
AcDbCircle
 10
-25.50000000000003
 20
-3.00000000000001
 30
0.0
 40
2.999999999999989
100
AcDbArc
 50
0.0
 51
90.0
  0
ARC
  5
EFED
330
EFE8
100
AcDbEntity
  8
0
100
AcDbCircle
 10
25.50000000000016
 20
-3.000000000000004
 30
0.0
 40
2.999999999999998
100
AcDbArc
 50
90.0
 51
180.0
  0
LINE
  5
EFEE
330
EFE8
100
AcDbEntity
  8
0
100
AcDbLine
 10
-21.0
 20
-3.000000000000002
 30
0.0
 11
-22.5
 21
-3.000000000000002
 31
0.0
  0
ARC
  5
EFEF
330
EFE8
100
AcDbEntity
  8
0
100
AcDbCircle
 10
25.50000000000016
 20
-3.000000000000004
 30
0.0
 40
1.499999999999999
100
AcDbArc
 50
90.0
 51
180.0
  0
LINE
  5
EFF0
330
EFE8
100
AcDbEntity
  8
0
100
AcDbLine
 10
22.50000000000001
 20
-3.000000000000002
 30
0.0
 11
21.00000000000001
 21
-3.000000000000002
 31
0.0
  0
LINE
  5
EFF1
330
EFE8
100
AcDbEntity
  8
0
100
AcDbLine
 10
-24.00000000000001
 20
-53.99999999999999
 30
0.0
 11
-24.00000000000002
 21
-41.78968515835106
 31
0.0
  0
LINE
  5
EFF2
330
EFE8
100
AcDbEntity
  8
0
100
AcDbLine
 10
-22.50000000000001
 20
-41.78968515835106
 30
0.0
 11
-22.5
 21
-54.0
 31
0.0
  0
LINE
  5
EFF3
330
EFE8
100
AcDbEntity
  8
0
100
AcDbLine
 10
22.50000000000004
 20
-53.99999999999999
 30
0.0
 11
22.50000000000006
 21
-41.78968515835106
 31
0.0
  0
LINE
  5
EFF4
330
EFE8
100
AcDbEntity
  8
0
100
AcDbLine
 10
24.00000000000006
 20
-41.78968515835106
 30
0.0
 11
24.00000000000004
 21
-53.99999999999999
 31
0.0
  0
LINE
  5
EFF5
330
EFE8
100
AcDbEntity
  8
0
100
AcDbLine
 10
24.00000000000004
 20
-53.99999999999999
 30
0.0
 11
22.50000000000004
 21
-53.99999999999999
 31
0.0
  0
LINE
  5
EFF6
330
EFE8
100
AcDbEntity
  8
0
100
AcDbLine
 10
-22.5
 20
-54.0
 30
0.0
 11
-24.00000000000001
 21
-53.99999999999999
 31
0.0
  0
LINE
  5
EFF7
330
EFE8
100
AcDbEntity
  8
0
100
AcDbLine
 10
-23.99999999999999
 20
-36.50000000000002
 30
0.0
 11
-23.99999999999999
 21
-41.78968515835105
 31
0.0
  0
LINE
  5
EFF8
330
EFE8
100
AcDbEntity
  8
0
100
AcDbLine
 10
-22.5
 20
-41.78968515835105
 30
0.0
 11
-22.5
 21
-36.50000000000002
 31
0.0
  0
LINE
  5
EFF9
330
EFE8
100
AcDbEntity
  8
0
100
AcDbLine
 10
22.49999999999998
 20
-36.50000000000002
 30
0.0
 11
22.49999999999996
 21
-41.78968515835105
 31
0.0
  0
LINE
  5
EFFA
330
EFE8
100
AcDbEntity
  8
0
100
AcDbLine
 10
23.99999999999996
 20
-41.78968515835105
 30
0.0
 11
23.99999999999998
 21
-36.50000000000002
 31
0.0
  0
LINE
  5
EFFB
330
EFE8
100
AcDbEntity
  8
0
100
AcDbLine
 10
-24.00000000000002
 20
-30.50000000000003
 30
0.0
 11
-24.00000000000003
 21
-36.50000000000003
 31
0.0
  0
LINE
  5
EFFC
330
EFE8
100
AcDbEntity
  8
0
100
AcDbLine
 10
-22.50000000000003
 20
-36.50000000000003
 30
0.0
 11
-22.50000000000002
 21
-30.50000000000003
 31
0.0
  0
LINE
  5
EFFD
330
EFE8
100
AcDbEntity
  8
0
100
AcDbLine
 10
22.50000000000015
 20
-30.50000000000003
 30
0.0
 11
22.50000000000015
 21
-36.50000000000003
 31
0.0
  0
LINE
  5
EFFE
330
EFE8
100
AcDbEntity
  8
0
100
AcDbLine
 10
24.00000000000015
 20
-36.50000000000003
 30
0.0
 11
24.00000000000016
 21
-30.50000000000003
 31
0.0
  0
LINE
  5
EFFF
330
EFE8
100
AcDbEntity
  8
0
100
AcDbLine
 10
-45.50000000000003
 20
0.0
 30
0.0
 11
-51.50000000000002
 21
0.0
 31
0.0
  0
LINE
  5
F000
330
EFE8
100
AcDbEntity
  8
0
100
AcDbLine
 10
-51.50000000000002
 20
0.0
 30
0.0
 11
-51.50000000000002
 21
-1.500000000000021
 31
0.0
  0
LINE
  5
F001
330
EFE8
100
AcDbEntity
  8
0
100
AcDbLine
 10
-51.50000000000002
 20
-1.500000000000021
 30
0.0
 11
-45.50000000000003
 21
-1.500000000000079
 31
0.0
  0
LINE
  5
F002
330
EFE8
100
AcDbEntity
  8
0
100
AcDbLine
 10
-45.50000000000003
 20
-1.500000000000079
 30
0.0
 11
-45.50000000000003
 21
0.0
 31
0.0
  0
LINE
  5
F003
330
EFE8
100
AcDbEntity
  8
0
100
AcDbLine
 10
-22.50000000000002
 20
-30.50000000000003
 30
0.0
 11
-24.00000000000002
 21
-30.50000000000003
 31
0.0
  0
LINE
  5
F004
330
EFE8
100
AcDbEntity
  8
0
100
AcDbLine
 10
-24.00000000000003
 20
-36.50000000000003
 30
0.0
 11
-22.50000000000003
 21
-36.50000000000003
 31
0.0
  0
LINE
  5
F005
330
EFE8
100
AcDbEntity
  8
0
100
AcDbLine
 10
24.00000000000016
 20
-30.50000000000003
 30
0.0
 11
22.50000000000015
 21
-30.50000000000003
 31
0.0
  0
LINE
  5
F006
330
EFE8
100
AcDbEntity
  8
0
100
AcDbLine
 10
22.50000000000015
 20
-36.50000000000003
 30
0.0
 11
24.00000000000015
 21
-36.50000000000003
 31
0.0
  0
LINE
  5
F007
330
EFE8
100
AcDbEntity
  8
0
100
AcDbLine
 10
51.50000000000016
 20
0.0
 30
0.0
 11
45.50000000000017
 21
0.0
 31
0.0
  0
LINE
  5
F008
330
EFE8
100
AcDbEntity
  8
0
100
AcDbLine
 10
45.50000000000017
 20
0.0
 30
0.0
 11
45.50000000000017
 21
-1.500000000000006
 31
0.0
  0
LINE
  5
F009
330
EFE8
100
AcDbEntity
  8
0
100
AcDbLine
 10
45.50000000000017
 20
-1.500000000000006
 30
0.0
 11
51.50000000000016
 21
-1.500000000000006
 31
0.0
  0
LINE
  5
F00A
330
EFE8
100
AcDbEntity
  8
0
100
AcDbLine
 10
51.50000000000016
 20
-1.500000000000006
 30
0.0
 11
51.50000000000016
 21
0.0
 31
0.0
  0
LINE
  5
F00B
330
EFE8
100
AcDbEntity
  8
0
100
AcDbLine
 10
-24.00000000000003
 20
-3.000000000000003
 30
0.0
 11
-24.00000000000002
 21
-30.50000000000003
 31
0.0
  0
LINE
  5
F00C
330
EFE8
100
AcDbEntity
  8
0
100
AcDbLine
 10
-22.50000000000003
 20
-3.000000000000003
 30
0.0
 11
-22.50000000000002
 21
-30.50000000000003
 31
0.0
  0
LINE
  5
F00D
330
EFE8
100
AcDbEntity
  8
0
100
AcDbLine
 10
22.50000000000016
 20
-3.000000000000003
 30
0.0
 11
22.50000000000015
 21
-30.50000000000003
 31
0.0
  0
LINE
  5
F00E
330
EFE8
100
AcDbEntity
  8
0
100
AcDbLine
 10
24.00000000000016
 20
-30.50000000000003
 30
0.0
 11
24.00000000000016
 21
-3.000000000000002
 31
0.0
  0
LINE
  5
F00F
330
EFE8
100
AcDbEntity
  8
0
100
AcDbLine
 10
-20.99999999999999
 20
-54.0
 30
0.0
 11
21.00000000000001
 21
-54.0
 31
0.0
  0
LINE
  5
F010
330
EFE8
100
AcDbEntity
  8
0
100
AcDbLine
 10
-25.50000000000003
 20
-1.500000000000021
 30
0.0
 11
-45.50000000000003
 21
-1.500000000000079
 31
0.0
  0
LINE
  5
F011
330
EFE8
100
AcDbEntity
  8
0
100
AcDbLine
 10
45.50000000000017
 20
0.0
 30
0.0
 11
25.50000000000016
 21
0.0
 31
0.0
  0
LINE
  5
F012
330
EFE8
100
AcDbEntity
  8
0
100
AcDbLine
 10
25.50000000000016
 20
-1.500000000000007
 30
0.0
 11
45.50000000000017
 21
-1.500000000000006
 31
0.0
  0
LINE
  5
F013
330
EFE8
100
AcDbEntity
  8
0
100
AcDbLine
 10
-25.50000000000003
 20
0.0
 30
0.0
 11
-45.50000000000003
 21
0.0
 31
0.0
  0
LINE
  5
F014
330
EFE8
100
AcDbEntity
  8
0
100
AcDbLine
 10
-41.00000000000007
 20
0.0
 30
0.0
 11
-41.00000000000007
 21
1.500000000000009
 31
0.0
  0
LINE
  5
F015
330
EFE8
100
AcDbEntity
  8
0
100
AcDbLine
 10
-37.00000000000006
 20
1.499999999999932
 30
0.0
 11
-37.00000000000009
 21
0.0
 31
0.0
  0
LINE
  5
F016
330
EFE8
100
AcDbEntity
  8
0
100
AcDbLine
 10
-37.00000000000009
 20
1.499999999999994
 30
0.0
 11
-37.00000000000009
 21
6.999999999999975
 31
0.0
  0
LINE
  5
F017
330
EFE8
100
AcDbEntity
  8
0
100
AcDbLine
 10
-37.00000000000009
 20
6.999999999999975
 30
0.0
 11
-39.00000000000008
 21
8.999999999999985
 31
0.0
  0
LINE
  5
F018
330
EFE8
100
AcDbEntity
  8
0
100
AcDbLine
 10
-39.00000000000008
 20
8.999999999999985
 30
0.0
 11
-41.00000000000008
 21
6.999999999999984
 31
0.0
  0
LINE
  5
F019
330
EFE8
100
AcDbEntity
  8
0
100
AcDbLine
 10
-41.00000000000008
 20
6.999999999999984
 30
0.0
 11
-41.00000000000008
 21
1.499999999999994
 31
0.0
  0
ARC
  5
F01A
330
EFE8
100
AcDbEntity
  8
0
100
AcDbCircle
 10
-31.82677949145489
 20
-7.495925238298273
 30
0.0
 40
5.0
100
AcDbArc
 50
8.999999999999984
 51
72.0
  0
LINE
  5
F01B
330
EFE8
100
AcDbEntity
  8
0
100
AcDbLine
 10
-26.88833778847919
 20
-6.713752913097112
 30
0.0
 11
-24.01846748910732
 21
-24.83340086267725
 31
0.0
  0
LINE
  5
F01C
330
EFE8
100
AcDbEntity
  8
0
100
AcDbLine
 10
-33.8740511689245
 20
-1.573415225557286
 30
0.0
 11
-30.28169451958015
 21
-2.740642656822511
 31
0.0
  0
LINE
  5
F01D
330
EFE8
100
AcDbEntity
  8
0
100
AcDbLine
 10
-18.52499999999999
 20
0.0
 30
0.0
 11
-18.52499999999999
 21
-1.090140682896871
 31
0.0
  0
SPLINE
  5
F01E
330
EFE8
100
AcDbEntity
  8
0
100
AcDbSpline
210
0.0
220
0.0
230
1.0
 70
     8
 71
     3
 72
     8
 73
     4
 74
     0
 42
0.000000001
 43
0.0000000001
 40
-1.0
 40
-1.0
 40
-1.0
 40
-1.0
 40
0.0
 40
0.0
 40
0.0
 40
0.0
 10
-21.00000000000001
 20
-2.999999999999992
 30
0.0
 10
-20.17499999999988
 20
-1.429203673205121
 30
0.0
 10
-19.3500000000002
 20
-0.0000000000000042
 30
0.0
 10
-18.525
 20
-0.0000000000000056
 30
0.0
  0
SPLINE
  5
F01F
330
EFE8
100
AcDbEntity
  8
0
100
AcDbSpline
210
0.0
220
0.0
230
1.0
 70
     8
 71
     3
 72
     8
 73
     4
 74
     0
 42
0.000000001
 43
0.0000000001
 40
0.0
 40
0.0
 40
0.0
 40
0.0
 40
1.0
 40
1.0
 40
1.0
 40
1.0
 10
-18.525
 20
-1.500000000000005
 30
0.0
 10
-19.3500000000002
 20
-1.500000000000005
 30
0.0
 10
-20.17499999999988
 20
-2.214601836602563
 30
0.0
 10
-21.00000000000001
 20
-2.999999999999997
 30
0.0
  0
LINE
  5
F020
330
EFE8
100
AcDbEntity
  8
0
100
AcDbLine
 10
-18.52499999999999
 20
-1.090140682896871
 30
0.0
 11
-18.52499999999999
 21
-1.500000000000006
 31
0.0
  0
LINE
  5
F021
330
EFE8
100
AcDbEntity
  8
0
100
AcDbLine
 10
-12.74999999999999
 20
-1.500000000000004
 30
0.0
 11
-18.52499999999999
 21
-1.500000000000006
 31
0.0
  0
LINE
  5
F022
330
EFE8
100
AcDbEntity
  8
0
100
AcDbLine
 10
-12.74999999999999
 20
0.0
 30
0.0
 11
-12.74999999999999
 21
-1.500000000000004
 31
0.0
  0
LINE
  5
F023
330
EFE8
100
AcDbEntity
  8
0
100
AcDbLine
 10
-18.52499999999999
 20
0.0
 30
0.0
 11
-12.74999999999999
 21
0.0
 31
0.0
  0
SPLINE
  5
F024
330
EFE8
100
AcDbEntity
  8
0
100
AcDbSpline
210
0.0
220
0.0
230
1.0
 70
     8
 71
     3
 72
     8
 73
     4
 74
     0
 42
0.000000001
 43
0.0000000001
 40
-1.0
 40
-1.0
 40
-1.0
 40
-1.0
 40
0.0
 40
0.0
 40
0.0
 40
0.0
 10
18.52500000000001
 20
-0.0000000000000056
 30
0.0
 10
19.34999999999994
 20
-0.0000000000000063
 30
0.0
 10
20.17500000000004
 20
-1.429203673205085
 30
0.0
 10
21.00000000000001
 20
-3.000000000000002
 30
0.0
  0
LINE
  5
F025
330
EFE8
100
AcDbEntity
  8
0
100
AcDbLine
 10
18.52500000000001
 20
0.0
 30
0.0
 11
18.52500000000001
 21
-1.090140682897383
 31
0.0
  0
LINE
  5
F026
330
EFE8
100
AcDbEntity
  8
0
100
AcDbLine
 10
18.52500000000001
 20
-1.090140682897383
 30
0.0
 11
18.52500000000001
 21
-1.500000000000004
 31
0.0
  0
SPLINE
  5
F027
330
EFE8
100
AcDbEntity
  8
0
100
AcDbSpline
210
0.0
220
0.0
230
1.0
 70
     8
 71
     3
 72
     8
 73
     4
 74
     0
 42
0.000000001
 43
0.0000000001
 40
0.0
 40
0.0
 40
0.0
 40
0.0
 40
1.0
 40
1.0
 40
1.0
 40
1.0
 10
21.00000000000001
 20
-3.000000000000002
 30
0.0
 10
20.17500000000004
 20
-2.214601836602545
 30
0.0
 10
19.34999999999994
 20
-1.500000000000006
 30
0.0
 10
18.52500000000001
 20
-1.500000000000005
 30
0.0
  0
LINE
  5
F028
330
EFE8
100
AcDbEntity
  8
0
100
AcDbLine
 10
18.52500000000001
 20
-1.500000000000004
 30
0.0
 11
12.75000000000001
 21
-1.500000000000003
 31
0.0
  0
LINE
  5
F029
330
EFE8
100
AcDbEntity
  8
0
100
AcDbLine
 10
12.75000000000001
 20
0.0
 30
0.0
 11
18.52500000000001
 21
0.0
 31
0.0
  0
LINE
  5
F02A
330
EFE8
100
AcDbEntity
  8
0
100
AcDbLine
 10
12.75000000000001
 20
-1.500000000000003
 30
0.0
 11
12.75000000000001
 21
0.0
 31
0.0
  0
LINE
  5
F02B
330
EFE8
100
AcDbEntity
  8
0
100
AcDbLine
 10
12.75000000000001
 20
-1.500000000000003
 30
0.0
 11
-12.74999999999998
 21
-1.500000000000004
 31
0.0
  0
LINE
  5
F02C
330
EFE8
100
AcDbEntity
  8
0
100
AcDbLine
 10
12.75000000000001
 20
0.0
 30
0.0
 11
-12.74999999999998
 21
0.0
 31
0.0
  0
LINE
  5
F02D
330
EFE8
100
AcDbEntity
  8
0
100
AcDbLine
 10
37.00000000000005
 20
0.0
 30
0.0
 11
37.00000000000004
 21
1.499999999999996
 31
0.0
  0
LINE
  5
F02E
330
EFE8
100
AcDbEntity
  8
0
100
AcDbLine
 10
41.00000000000007
 20
1.499999999999969
 30
0.0
 11
41.00000000000007
 21
0.0
 31
0.0
  0
LINE
  5
F02F
330
EFE8
100
AcDbEntity
  8
0
100
AcDbLine
 10
-22.5
 20
-54.0
 30
0.0
 11
-20.99999999999999
 21
-54.0
 31
0.0
  0
LINE
  5
F030
330
EFE8
100
AcDbEntity
  8
0
100
AcDbLine
 10
21.00000000000001
 20
-54.0
 30
0.0
 11
22.50000000000001
 21
-54.0
 31
0.0
  0
LINE
  5
F031
330
EFE8
100
AcDbEntity
  8
0
100
AcDbLine
 10
41.00000000000008
 20
1.500000000000003
 30
0.0
 11
41.00000000000008
 21
6.999999999999992
 31
0.0
  0
LINE
  5
F032
330
EFE8
100
AcDbEntity
  8
0
100
AcDbLine
 10
41.00000000000008
 20
6.999999999999992
 30
0.0
 11
39.00000000000009
 21
8.999999999999985
 31
0.0
  0
LINE
  5
F033
330
EFE8
100
AcDbEntity
  8
0
100
AcDbLine
 10
39.00000000000009
 20
8.999999999999985
 30
0.0
 11
37.00000000000009
 21
6.999999999999984
 31
0.0
  0
LINE
  5
F034
330
EFE8
100
AcDbEntity
  8
0
100
AcDbLine
 10
37.00000000000009
 20
6.999999999999984
 30
0.0
 11
37.00000000000009
 21
1.500000000000003
 31
0.0
  0
ARC
  5
F035
330
EFE8
100
AcDbEntity
  8
0
100
AcDbCircle
 10
-34.33757666048692
 20
-3.000000000000016
 30
0.0
 40
1.5
100
AcDbArc
 50
72.00000000000006
 51
90.0
  0
ARC
  5
F036
330
EFE8
100
AcDbEntity
  8
0
100
AcDbCircle
 10
-25.50000000000002
 20
-25.0680525602376
 30
0.0
 40
1.5
100
AcDbArc
 50
0.0
 51
9.000000000000065
  0
ARC
  5
F037
330
EFE8
100
AcDbEntity
  8
0
100
AcDbCircle
 10
25.50000000000013
 20
-25.06805256023691
 30
0.0
 40
1.5
100
AcDbArc
 50
170.9999999999999
 51
180.0
  0
ARC
  5
F038
330
EFE8
100
AcDbEntity
  8
0
100
AcDbCircle
 10
34.33757666048693
 20
-3.000000000000014
 30
0.0
 40
1.5
100
AcDbArc
 50
89.99999999999984
 51
107.9999999999999
  0
LINE
  5
F039
330
EFE8
100
AcDbEntity
  8
0
100
AcDbLine
 10
30.28169451958015
 20
-2.740642656822511
 30
0.0
 11
33.87405116892451
 21
-1.573415225557283
 31
0.0
  0
LINE
  5
F03A
330
EFE8
100
AcDbEntity
  8
0
100
AcDbLine
 10
24.01846748910742
 20
-24.83340086267656
 30
0.0
 11
26.88833778847919
 21
-6.713752913097112
 31
0.0
  0
ARC
  5
F03B
330
EFE8
100
AcDbEntity
  8
0
100
AcDbCircle
 10
31.82677949145489
 20
-7.495925238298273
 30
0.0
 40
5.0
100
AcDbArc
 50
107.9999999999999
 51
170.9999999999999
  0
ENDBLK
  5
EFEA
330
EFE8
100
AcDbEntity
  8
0
100
AcDbBlockEnd
  0
BLOCK
  5
F03D
330
F03C
100
AcDbEntity
  8
0
100
AcDbBlockBegin
  2
SBE45_93-Bottom
 70
     0
 10
0.0
 20
0.0
 30
0.0
  3
SBE45_93-Bottom
  1

  0
LINE
  5
F03F
330
F03C
100
AcDbEntity
  8
0
100
AcDbLine
 10
-23.99999999999999
 20
54.0
 30
0.0
 11
-24.0
 21
3.000000000000007
 31
0.0
  0
LINE
  5
F040
330
F03C
100
AcDbEntity
  8
0
100
AcDbLine
 10
24.0
 20
54.0
 30
0.0
 11
24.00000000000001
 21
3.000000000000007
 31
0.0
  0
LINE
  5
F041
330
F03C
100
AcDbEntity
  8
0
100
AcDbLine
 10
24.0
 20
54.0
 30
0.0
 11
21.00000000000001
 21
54.0
 31
0.0
  0
LINE
  5
F042
330
F03C
100
AcDbEntity
  8
0
100
AcDbLine
 10
-21.0
 20
54.0
 30
0.0
 11
-23.99999999999999
 21
54.0
 31
0.0
  0
LINE
  5
F043
330
F03C
100
AcDbEntity
  8
0
100
AcDbLine
 10
-51.50000000000002
 20
1.500000000000017
 30
0.0
 11
-46.21031484164896
 21
1.500000000000016
 31
0.0
  0
LINE
  5
F044
330
F03C
100
AcDbEntity
  8
0
100
AcDbLine
 10
-51.50000000000002
 20
1.50000000000002
 30
0.0
 11
-51.50000000000002
 21
0.0
 31
0.0
  0
LINE
  5
F045
330
F03C
100
AcDbEntity
  8
0
100
AcDbLine
 10
51.50000000000009
 20
0.0
 30
0.0
 11
46.21031484164904
 21
0.0
 31
0.0
  0
LINE
  5
F046
330
F03C
100
AcDbEntity
  8
0
100
AcDbLine
 10
-46.21031484164896
 20
0.0
 30
0.0
 11
-51.50000000000002
 21
0.0
 31
0.0
  0
LINE
  5
F047
330
F03C
100
AcDbEntity
  8
0
100
AcDbLine
 10
51.50000000000009
 20
0.0
 30
0.0
 11
51.50000000000009
 21
1.500000000000004
 31
0.0
  0
LINE
  5
F048
330
F03C
100
AcDbEntity
  8
0
100
AcDbLine
 10
46.21031484164904
 20
1.500000000000011
 30
0.0
 11
51.50000000000009
 21
1.500000000000011
 31
0.0
  0
LINE
  5
F049
330
F03C
100
AcDbEntity
  8
0
100
AcDbLine
 10
-46.21031484164896
 20
1.500000000000017
 30
0.0
 11
-25.50000000000004
 21
1.500000000000012
 31
0.0
  0
LINE
  5
F04A
330
F03C
100
AcDbEntity
  8
0
100
AcDbLine
 10
-41.00000000000008
 20
0.0
 30
0.0
 11
-41.00000000000007
 21
-1.5
 31
0.0
  0
LINE
  5
F04B
330
F03C
100
AcDbEntity
  8
0
100
AcDbLine
 10
-37.00000000000009
 20
-1.499999999999921
 30
0.0
 11
-37.00000000000013
 21
0.0
 31
0.0
  0
LINE
  5
F04C
330
F03C
100
AcDbEntity
  8
0
100
AcDbLine
 10
-25.50000000000004
 20
0.0
 30
0.0
 11
-46.21031484164896
 21
0.0
 31
0.0
  0
SPLINE
  5
F04D
330
F03C
100
AcDbEntity
  8
0
100
AcDbSpline
210
0.0
220
0.0
230
1.0
 70
     8
 71
     3
 72
     8
 73
     4
 74
     0
 42
0.000000001
 43
0.0000000001
 40
-1.0
 40
-1.0
 40
-1.0
 40
-1.0
 40
0.0
 40
0.0
 40
0.0
 40
0.0
 10
-22.50000000000003
 20
2.999999999999975
 30
0.0
 10
-22.50000000000005
 20
1.429203673205065
 30
0.0
 10
-23.92920367320517
 20
0.0000000000000009
 30
0.0
 10
-25.50000000000004
 20
0.0000000000000056
 30
0.0
  0
SPLINE
  5
F04E
330
F03C
100
AcDbEntity
  8
0
100
AcDbSpline
210
0.0
220
0.0
230
1.0
 70
     8
 71
     3
 72
     8
 73
     4
 74
     0
 42
0.000000001
 43
0.0000000001
 40
0.0
 40
0.0
 40
0.0
 40
0.0
 40
1.0
 40
1.0
 40
1.0
 40
1.0
 10
-25.50000000000004
 20
1.500000000000005
 30
0.0
 10
-24.7146018366026
 20
1.500000000000003
 30
0.0
 10
-24.00000000000004
 20
2.214601836602535
 30
0.0
 10
-24.00000000000003
 20
2.999999999999989
 30
0.0
  0
LINE
  5
F04F
330
F03C
100
AcDbEntity
  8
0
100
AcDbLine
 10
-25.50000000000004
 20
1.500000000000012
 30
0.0
 11
-25.50000000000004
 21
1.090140682897578
 31
0.0
  0
LINE
  5
F050
330
F03C
100
AcDbEntity
  8
0
100
AcDbLine
 10
-25.50000000000004
 20
1.090140682897578
 30
0.0
 11
-25.50000000000004
 21
0.0
 31
0.0
  0
LINE
  5
F051
330
F03C
100
AcDbEntity
  8
0
100
AcDbLine
 10
-39.00000000000007
 20
-8.999999999999985
 30
0.0
 11
-37.00000000000008
 21
-6.999999999999975
 31
0.0
  0
LINE
  5
F052
330
F03C
100
AcDbEntity
  8
0
100
AcDbLine
 10
-37.00000000000008
 20
-6.999999999999975
 30
0.0
 11
-37.00000000000009
 21
-1.499999999999994
 31
0.0
  0
LINE
  5
F053
330
F03C
100
AcDbEntity
  8
0
100
AcDbLine
 10
-41.00000000000008
 20
-1.499999999999994
 30
0.0
 11
-41.00000000000008
 21
-6.999999999999984
 31
0.0
  0
LINE
  5
F054
330
F03C
100
AcDbEntity
  8
0
100
AcDbLine
 10
-41.00000000000008
 20
-6.999999999999984
 30
0.0
 11
-39.00000000000007
 21
-8.999999999999985
 31
0.0
  0
ARC
  5
F055
330
F03C
100
AcDbEntity
  8
0
100
AcDbCircle
 10
-31.82677949145489
 20
7.495925238298273
 30
0.0
 40
5.0
100
AcDbArc
 50
288.0
 51
350.9999999999999
  0
LINE
  5
F056
330
F03C
100
AcDbEntity
  8
0
100
AcDbLine
 10
-26.88833778847919
 20
6.713752913097112
 30
0.0
 11
-24.01846748910732
 21
24.83340086267725
 31
0.0
  0
LINE
  5
F057
330
F03C
100
AcDbEntity
  8
0
100
AcDbLine
 10
-33.8740511689245
 20
1.573415225557286
 30
0.0
 11
-30.28169451958015
 21
2.740642656822511
 31
0.0
  0
LINE
  5
F058
330
F03C
100
AcDbEntity
  8
0
100
AcDbLine
 10
46.21031484164904
 20
0.0
 30
0.0
 11
25.50000000000004
 21
0.0
 31
0.0
  0
LINE
  5
F059
330
F03C
100
AcDbEntity
  8
0
100
AcDbLine
 10
25.50000000000004
 20
1.500000000000012
 30
0.0
 11
46.21031484164904
 21
1.500000000000011
 31
0.0
  0
LINE
  5
F05A
330
F03C
100
AcDbEntity
  8
0
100
AcDbLine
 10
25.50000000000004
 20
1.500000000000012
 30
0.0
 11
25.50000000000004
 21
1.090140682897578
 31
0.0
  0
LINE
  5
F05B
330
F03C
100
AcDbEntity
  8
0
100
AcDbLine
 10
25.50000000000004
 20
1.090140682897578
 30
0.0
 11
25.50000000000004
 21
0.0
 31
0.0
  0
SPLINE
  5
F05C
330
F03C
100
AcDbEntity
  8
0
100
AcDbSpline
210
0.0
220
0.0
230
1.0
 70
     8
 71
     3
 72
     8
 73
     4
 74
     0
 42
0.000000001
 43
0.0000000001
 40
0.0
 40
0.0
 40
0.0
 40
0.0
 40
1.0
 40
1.0
 40
1.0
 40
1.0
 10
25.50000000000004
 20
0.0000000000000056
 30
0.0
 10
23.92920367320517
 20
0.0000000000000009
 30
0.0
 10
22.50000000000005
 20
1.429203673205065
 30
0.0
 10
22.50000000000003
 20
2.999999999999975
 30
0.0
  0
SPLINE
  5
F05D
330
F03C
100
AcDbEntity
  8
0
100
AcDbSpline
210
0.0
220
0.0
230
1.0
 70
     8
 71
     3
 72
     8
 73
     4
 74
     0
 42
0.000000001
 43
0.0000000001
 40
-1.0
 40
-1.0
 40
-1.0
 40
-1.0
 40
0.0
 40
0.0
 40
0.0
 40
0.0
 10
24.00000000000003
 20
2.999999999999989
 30
0.0
 10
24.00000000000004
 20
2.214601836602535
 30
0.0
 10
24.7146018366026
 20
1.500000000000003
 30
0.0
 10
25.50000000000004
 20
1.500000000000005
 30
0.0
  0
SPLINE
  5
F05E
330
F03C
100
AcDbEntity
  8
0
100
AcDbSpline
210
0.0
220
0.0
230
1.0
 70
     8
 71
     3
 72
     8
 73
     4
 74
     0
 42
0.000000001
 43
0.0000000001
 40
-1.0
 40
-1.0
 40
-1.0
 40
-1.0
 40
0.0
 40
0.0
 40
0.0
 40
0.0
 10
-21.00000000000001
 20
2.999999999999992
 30
0.0
 10
-20.17499999999988
 20
1.429203673205121
 30
0.0
 10
-19.3500000000002
 20
0.0000000000000042
 30
0.0
 10
-18.525
 20
0.0000000000000056
 30
0.0
  0
SPLINE
  5
F05F
330
F03C
100
AcDbEntity
  8
0
100
AcDbSpline
210
0.0
220
0.0
230
1.0
 70
     8
 71
     3
 72
     8
 73
     4
 74
     0
 42
0.000000001
 43
0.0000000001
 40
-1.0
 40
-1.0
 40
-1.0
 40
-1.0
 40
0.0
 40
0.0
 40
0.0
 40
0.0
 10
18.52500000000001
 20
0.0000000000000056
 30
0.0
 10
19.34999999999994
 20
0.0000000000000063
 30
0.0
 10
20.17500000000004
 20
1.429203673205085
 30
0.0
 10
21.00000000000001
 20
3.000000000000002
 30
0.0
  0
LINE
  5
F060
330
F03C
100
AcDbEntity
  8
0
100
AcDbLine
 10
18.52500000000001
 20
0.0
 30
0.0
 11
-18.52499999999999
 21
0.0
 31
0.0
  0
LINE
  5
F061
330
F03C
100
AcDbEntity
  8
0
100
AcDbLine
 10
-21.0
 20
3.000000000000002
 30
0.0
 11
-23.99999999999999
 21
3.000000000000002
 31
0.0
  0
LINE
  5
F062
330
F03C
100
AcDbEntity
  8
0
100
AcDbLine
 10
24.00000000000002
 20
3.000000000000002
 30
0.0
 11
21.00000000000001
 21
3.000000000000002
 31
0.0
  0
LINE
  5
F063
330
F03C
100
AcDbEntity
  8
0
100
AcDbLine
 10
-21.0
 20
54.0
 30
0.0
 11
21.00000000000001
 21
54.0
 31
0.0
  0
LINE
  5
F064
330
F03C
100
AcDbEntity
  8
0
100
AcDbLine
 10
37.00000000000009
 20
0.0
 30
0.0
 11
37.00000000000006
 21
-1.499999999999993
 31
0.0
  0
LINE
  5
F065
330
F03C
100
AcDbEntity
  8
0
100
AcDbLine
 10
41.00000000000007
 20
-1.499999999999967
 30
0.0
 11
41.00000000000008
 21
0.0
 31
0.0
  0
LINE
  5
F066
330
F03C
100
AcDbEntity
  8
0
100
AcDbLine
 10
37.00000000000009
 20
-6.999999999999984
 30
0.0
 11
39.00000000000008
 21
-8.999999999999985
 31
0.0
  0
LINE
  5
F067
330
F03C
100
AcDbEntity
  8
0
100
AcDbLine
 10
39.00000000000008
 20
-8.999999999999985
 30
0.0
 11
41.00000000000008
 21
-6.999999999999992
 31
0.0
  0
LINE
  5
F068
330
F03C
100
AcDbEntity
  8
0
100
AcDbLine
 10
37.00000000000009
 20
-1.500000000000003
 30
0.0
 11
37.00000000000009
 21
-6.999999999999984
 31
0.0
  0
LINE
  5
F069
330
F03C
100
AcDbEntity
  8
0
100
AcDbLine
 10
41.00000000000008
 20
-6.999999999999992
 30
0.0
 11
41.00000000000008
 21
-1.500000000000003
 31
0.0
  0
ARC
  5
F06A
330
F03C
100
AcDbEntity
  8
0
100
AcDbCircle
 10
-34.33757666048692
 20
3.000000000000016
 30
0.0
 40
1.5
100
AcDbArc
 50
270.0
 51
287.9999999999999
  0
ARC
  5
F06B
330
F03C
100
AcDbEntity
  8
0
100
AcDbCircle
 10
-25.50000000000002
 20
25.0680525602376
 30
0.0
 40
1.5
100
AcDbArc
 50
350.9999999999999
 51
0.0
  0
ARC
  5
F06C
330
F03C
100
AcDbEntity
  8
0
100
AcDbCircle
 10
25.50000000000013
 20
25.06805256023691
 30
0.0
 40
1.5
100
AcDbArc
 50
180.0
 51
189.0
  0
ARC
  5
F06D
330
F03C
100
AcDbEntity
  8
0
100
AcDbCircle
 10
34.33757666048693
 20
3.000000000000014
 30
0.0
 40
1.5
100
AcDbArc
 50
251.9999999999999
 51
270.0
  0
LINE
  5
F06E
330
F03C
100
AcDbEntity
  8
0
100
AcDbLine
 10
30.28169451958015
 20
2.740642656822511
 30
0.0
 11
33.87405116892451
 21
1.573415225557283
 31
0.0
  0
LINE
  5
F06F
330
F03C
100
AcDbEntity
  8
0
100
AcDbLine
 10
24.01846748910742
 20
24.83340086267656
 30
0.0
 11
26.88833778847919
 21
6.713752913097112
 31
0.0
  0
ARC
  5
F070
330
F03C
100
AcDbEntity
  8
0
100
AcDbCircle
 10
31.82677949145489
 20
7.495925238298273
 30
0.0
 40
5.0
100
AcDbArc
 50
188.9999999999999
 51
252.0
  0
ENDBLK
  5
F03E
330
F03C
100
AcDbEntity
  8
0
100
AcDbBlockEnd
  0
BLOCK
  5
F072
330
F071
100
AcDbEntity
  8
0
100
AcDbBlockBegin
  2
SBE45_93-ISO
 70
     0
 10
0.0
 20
0.0
 30
0.0
  3
SBE45_93-ISO
  1

  0
ELLIPSE
  5
F074
330
F071
100
AcDbEntity
  8
0
100
AcDbEllipse
 10
-4.242640687119365
 20
56.76514446129019
 30
0.0
 11
1.499999999999998
 21
0.0000000000000002
 31
0.0
210
0.0
220
0.0
230
1.0
 40
0.577350269189626
 41
5.497787143782145
 42
7.068583470577038
  0
LINE
  5
F075
330
F071
100
AcDbEntity
  8
0
100
AcDbLine
 10
-3.181980515339548
 20
56.15277202559443
 30
0.0
 11
-3.181980515339553
 21
57.37751689698601
 31
0.0
  0
LINE
  5
F076
330
F071
100
AcDbEntity
  8
0
100
AcDbLine
 10
-2.121320343541668
 20
44.90475288437436
 30
0.0
 11
-2.121320343559716
 21
55.54039958989863
 31
0.0
  0
LINE
  5
F077
330
F071
100
AcDbEntity
  8
0
100
AcDbLine
 10
-2.121320343559698
 20
-18.76078927452443
 30
0.0
 11
-2.121320343559698
 21
-7.942819490731465
 31
0.0
  0
LINE
  5
F078
330
F071
100
AcDbEntity
  8
0
100
AcDbLine
 10
-2.121320343559698
 20
-7.942819490731465
 30
0.0
 11
-2.121320343559753
 21
23.2887846432535
 31
0.0
  0
LINE
  5
F079
330
F071
100
AcDbEntity
  8
0
100
AcDbLine
 10
-2.121320343559758
 20
26.55477096696441
 30
0.0
 11
-2.121320343548767
 21
37.59866596292758
 31
0.0
  0
ELLIPSE
  5
F07A
330
F071
100
AcDbEntity
  8
0
100
AcDbEllipse
 10
-4.242640687119365
 20
56.76514446129019
 30
0.0
 11
2.999999999999989
 21
-0.0000000000000001
 31
0.0
210
0.0
220
0.0
230
1.0
 40
0.5773502691896258
 41
5.497787143782142
 42
7.068583470577036
  0
ELLIPSE
  5
F07B
330
F071
100
AcDbEntity
  8
0
100
AcDbEllipse
 10
31.81980515339469
 20
35.94448164763315
 30
0.0
 11
-2.999999999999998
 21
-0.0000000000001746
 31
0.0
210
0.0
220
0.0
230
1.0
 40
0.5773502691896267
 41
3.926990816987
 42
5.497787143781897
  0
LINE
  5
F07C
330
F071
100
AcDbEntity
  8
0
100
AcDbLine
 10
30.75914498161484
 20
7.57122546039469
 30
0.0
 11
30.75914498161485
 21
17.71717090715938
 31
0.0
  0
LINE
  5
F07D
330
F071
100
AcDbEntity
  8
0
100
AcDbLine
 10
32.88046532517448
 20
17.71717090715936
 30
0.0
 11
32.88046532517447
 21
7.571225460394681
 31
0.0
  0
LINE
  5
F07E
330
F071
100
AcDbEntity
  8
0
100
AcDbLine
 10
30.75914498161486
 20
26.81915692702813
 30
0.0
 11
30.75914498161488
 21
36.55685408332895
 31
0.0
  0
LINE
  5
F07F
330
F071
100
AcDbEntity
  8
0
100
AcDbLine
 10
30.75914498161477
 20
-37.74433478109408
 30
0.0
 11
30.75914498161479
 21
-26.92636499730113
 31
0.0
  0
LINE
  5
F080
330
F071
100
AcDbEntity
  8
0
100
AcDbLine
 10
30.75914498161479
 20
-26.92636499730113
 30
0.0
 11
30.75914498161484
 21
4.305239136683778
 31
0.0
  0
LINE
  5
F081
330
F071
100
AcDbEntity
  8
0
100
AcDbLine
 10
30.75914498161488
 20
36.55685408332895
 30
0.0
 11
29.69848480983505
 21
37.16922651902474
 31
0.0
  0
LINE
  5
F082
330
F071
100
AcDbEntity
  8
0
100
AcDbLine
 10
33.94112549695433
 20
37.16922651902474
 30
0.0
 11
32.88046532517451
 21
36.55685408332895
 31
0.0
  0
LINE
  5
F083
330
F071
100
AcDbEntity
  8
0
100
AcDbLine
 10
32.88046532517447
 20
4.305239136683787
 30
0.0
 11
32.88046532517442
 21
-25.27416330387574
 31
0.0
  0
LINE
  5
F084
330
F071
100
AcDbEntity
  8
0
100
AcDbLine
 10
32.88046532517451
 20
36.55685408332895
 30
0.0
 11
32.88046532517449
 21
26.81915692702812
 31
0.0
  0
ELLIPSE
  5
F085
330
F071
100
AcDbEntity
  8
0
100
AcDbEllipse
 10
-1.060660171779872
 20
-19.37316171022023
 30
0.0
 11
-0.7499999999999233
 21
1.299038105676703
 31
0.0
210
0.0
220
0.0
230
0.9999999999999998
 40
0.5773502691896257
 41
0.785398163397689
 42
2.356194490192587
  0
ELLIPSE
  5
F086
330
F071
100
AcDbEntity
  8
0
100
AcDbEllipse
 10
31.81980515339469
 20
35.94448164763315
 30
0.0
 11
1.499999999999999
 21
-0.0000000000000893
 31
0.0
210
0.0
220
0.0
230
1.0
 40
0.5773502691896259
 41
0.7853981633976908
 42
2.356194490192585
  0
LINE
  5
F087
330
F071
100
AcDbEntity
  8
0
100
AcDbLine
 10
-3.181980515339553
 20
57.37751689698601
 30
0.0
 11
-2.121320343559731
 21
57.98988933268178
 31
0.0
  0
LINE
  5
F088
330
F071
100
AcDbEntity
  8
0
100
AcDbLine
 10
-2.121320343559716
 20
55.54039958989863
 30
0.0
 11
-3.181980515339537
 21
56.15277202559441
 31
0.0
  0
ELLIPSE
  5
F089
330
F071
100
AcDbEntity
  8
0
100
AcDbEllipse
 10
28.63782463805512
 20
-36.51958990970248
 30
0.0
 11
1.500000000000003
 21
-2.598076211353321
 31
0.0
210
0.0
220
0.0
230
1.0
 40
0.5773502691896258
 41
0.0
 42
0.7853981633974449
  0
LINE
  5
F08A
330
F071
100
AcDbEntity
  8
0
100
AcDbLine
 10
-1.242640687119367
 20
46.20313748394713
 30
0.0
 11
-1.242640687119371
 21
56.76514446129019
 31
0.0
  0
LINE
  5
F08B
330
F071
100
AcDbEntity
  8
0
100
AcDbLine
 10
-1.242640687119365
 20
28.18776412881473
 30
0.0
 11
-1.242640687119365
 21
38.74977110612013
 31
0.0
  0
LINE
  5
F08C
330
F071
100
AcDbEntity
  8
0
100
AcDbLine
 10
-1.242640687119356
 20
-5.891973772627205
 30
0.0
 11
-1.24264068711936
 21
24.10528122418627
 31
0.0
  0
ELLIPSE
  5
F08D
330
F071
100
AcDbEntity
  8
0
100
AcDbEllipse
 10
-21.56675682618978
 20
6.754728879466989
 30
0.0
 11
1.24999999999987
 21
2.165063509461171
 31
0.0
210
0.0
220
0.0
230
1.0
 40
0.5773502691896259
 41
3.579741684173541
 42
5.845036276594997
  0
ELLIPSE
  5
F08E
330
F071
100
AcDbEntity
  8
0
100
AcDbEllipse
 10
-21.56675682618979
 20
39.41459211657603
 30
0.0
 11
1.24999999999987
 21
2.165063509461171
 31
0.0
210
0.0
220
0.0
230
1.0
 40
0.5773502691896257
 41
3.579741684173544
 42
5.845036276594998
  0
ELLIPSE
  5
F08F
330
F071
100
AcDbEntity
  8
0
100
AcDbEllipse
 10
-21.56675682618979
 20
23.08466049802151
 30
0.0
 11
1.24999999999987
 21
2.165063509461171
 31
0.0
210
0.0
220
0.0
230
1.0
 40
0.5773502691896259
 41
3.579741684173541
 42
5.845036276594996
  0
ELLIPSE
  5
F090
330
F071
100
AcDbEntity
  8
0
100
AcDbEllipse
 10
-20.50609665440997
 20
22.47228806232572
 30
0.0
 11
1.249999999999999
 21
2.165063509461097
 31
0.0
210
0.0
220
0.0
230
0.9999999999999998
 40
0.5773502691896259
 41
0.0
 42
6.283185307179586
  0
ELLIPSE
  5
F091
330
F071
100
AcDbEntity
  8
0
100
AcDbEllipse
 10
-20.50609665440997
 20
38.80221968088024
 30
0.0
 11
1.249999999999999
 21
2.165063509461097
 31
0.0
210
0.0
220
0.0
230
0.9999999999999998
 40
0.5773502691896259
 41
0.0
 42
6.283185307179586
  0
ELLIPSE
  5
F092
330
F071
100
AcDbEntity
  8
0
100
AcDbEllipse
 10
-20.50609665440996
 20
6.14235644377119
 30
0.0
 11
1.249999999999999
 21
2.165063509461097
 31
0.0
210
0.0
220
0.0
230
0.9999999999999998
 40
0.5773502691896259
 41
0.0
 42
6.283185307179586
  0
LINE
  5
F093
330
F071
100
AcDbEntity
  8
0
100
AcDbLine
 10
-39.24442635585344
 20
-21.81767004389522
 30
0.0
 11
-39.24442635585344
 21
-38.96907965248566
 31
0.0
  0
LINE
  5
F094
330
F071
100
AcDbEntity
  8
0
100
AcDbLine
 10
-3.181980515339537
 20
56.15277202559441
 30
0.0
 11
-22.6274169979696
 21
44.92594403783818
 31
0.0
  0
LINE
  5
F095
330
F071
100
AcDbEntity
  8
0
100
AcDbLine
 10
-2.121320343559716
 20
55.54039958989863
 30
0.0
 11
-21.56675682618979
 21
44.31357160214239
 31
0.0
  0
LINE
  5
F096
330
F071
100
AcDbEntity
  8
0
100
AcDbLine
 10
-38.18376618407362
 20
-22.43004247959103
 30
0.0
 11
-38.18376618407362
 21
-39.58145208818145
 31
0.0
  0
LINE
  5
F097
330
F071
100
AcDbEntity
  8
0
100
AcDbLine
 10
-6.363961030678977
 20
-57.9526251590553
 30
0.0
 11
-6.363961030678941
 21
-40.80121555046487
 31
0.0
  0
LINE
  5
F098
330
F071
100
AcDbEntity
  8
0
100
AcDbLine
 10
29.69848480983505
 20
37.16922651902474
 30
0.0
 11
10.25304832720497
 21
25.94239853126851
 31
0.0
  0
LINE
  5
F099
330
F071
100
AcDbEntity
  8
0
100
AcDbLine
 10
11.31370849898479
 20
25.3300260955727
 30
0.0
 11
30.75914498161488
 21
36.55685408332895
 31
0.0
  0
LINE
  5
F09A
330
F071
100
AcDbEntity
  8
0
100
AcDbLine
 10
-5.303300858899158
 20
-58.56499759475108
 30
0.0
 11
-5.303300858899122
 21
-41.41358798616067
 31
0.0
  0
LINE
  5
F09B
330
F071
100
AcDbEntity
  8
0
100
AcDbLine
 10
-37.12310601229379
 20
-42.64331426666042
 30
0.0
 11
-7.4246212024588
 21
-59.78974246614267
 31
0.0
  0
LINE
  5
F09C
330
F071
100
AcDbEntity
  8
0
100
AcDbLine
 10
-37.12310601229379
 20
-41.41856939526884
 30
0.0
 11
-7.4246212024588
 21
-58.56499759475108
 31
0.0
  0
LINE
  5
F09D
330
F071
100
AcDbEntity
  8
0
100
AcDbLine
 10
-39.24442635585344
 20
-21.81767004389522
 30
0.0
 11
-30.61042993090073
 21
-10.10819559755655
 31
0.0
  0
LINE
  5
F09E
330
F071
100
AcDbEntity
  8
0
100
AcDbLine
 10
-26.87005768508888
 20
0.1741854468540849
 30
0.0
 11
-26.8700576850889
 21
37.57747480948866
 31
0.0
  0
LINE
  5
F09F
330
F071
100
AcDbEntity
  8
0
100
AcDbLine
 10
-25.80939751330908
 20
36.96510237379285
 30
0.0
 11
-25.80939751330906
 21
-0.4381869888417134
 31
0.0
  0
LINE
  5
F0A0
330
F071
100
AcDbEntity
  8
0
100
AcDbLine
 10
-29.54976975912091
 20
-10.72056803325234
 30
0.0
 11
-38.18376618407362
 21
-22.43004247959103
 31
0.0
  0
LINE
  5
F0A1
330
F071
100
AcDbEntity
  8
0
100
AcDbLine
 10
-6.363961030678941
 20
-40.80121555046487
 30
0.0
 11
2.270035394273768
 21
-29.09174110412621
 31
0.0
  0
LINE
  5
F0A2
330
F071
100
AcDbEntity
  8
0
100
AcDbLine
 10
6.010407640085642
 20
-18.80936005971559
 30
0.0
 11
6.010407640085682
 21
18.59392930291897
 31
0.0
  0
LINE
  5
F0A3
330
F071
100
AcDbEntity
  8
0
100
AcDbLine
 10
7.071067811865505
 20
17.98155686722318
 30
0.0
 11
7.071067811865465
 21
-19.42173249541138
 31
0.0
  0
LINE
  5
F0A4
330
F071
100
AcDbEntity
  8
0
100
AcDbLine
 10
3.330695566053589
 20
-29.70411353982201
 30
0.0
 11
-5.303300858899122
 21
-41.41358798616067
 31
0.0
  0
LINE
  5
F0A5
330
F071
100
AcDbEntity
  8
0
100
AcDbLine
 10
-5.303300858899122
 20
-41.41358798616067
 30
0.0
 11
-6.363961030678941
 21
-40.80121555046487
 31
0.0
  0
LINE
  5
F0A6
330
F071
100
AcDbEntity
  8
0
100
AcDbLine
 10
-38.18376618407362
 20
-22.43004247959103
 30
0.0
 11
-39.24442635585344
 21
-21.81767004389522
 31
0.0
  0
ELLIPSE
  5
F0A7
330
F071
100
AcDbEntity
  8
0
100
AcDbEllipse
 10
-35.35533905932743
 20
-4.724794038712283
 30
0.0
 11
-6.000000000000619
 21
-10.3923048454129
 31
0.0
210
0.0
220
0.0
230
0.9999999999999998
 40
0.5773502691896259
 41
1.378810109075633
 42
2.356194490192587
  0
ELLIPSE
  5
F0A8
330
F071
100
AcDbEntity
  8
0
100
AcDbEllipse
 10
-34.29467888754762
 20
-5.337166474408077
 30
0.0
 11
5.999999999999996
 21
10.39230484541326
 31
0.0
210
0.0
220
0.0
230
1.0
 40
0.5773502691896257
 41
4.520402762665313
 42
5.497787143782137
  0
ELLIPSE
  5
F0A9
330
F071
100
AcDbEntity
  8
0
100
AcDbEllipse
 10
-2.474873734153002
 20
-23.7083395452819
 30
0.0
 11
-6.000000000000642
 21
-10.39230484541289
 31
0.0
210
0.0
220
0.0
230
0.9999999999999998
 40
0.5773502691896252
 41
1.378810109075635
 42
2.356194490192587
  0
ELLIPSE
  5
F0AA
330
F071
100
AcDbEntity
  8
0
100
AcDbEllipse
 10
-1.414213562373181
 20
-24.3207119809777
 30
0.0
 11
6.000000000000015
 21
10.39230484541326
 31
0.0
210
0.0
220
0.0
230
1.0
 40
0.5773502691896251
 41
4.520402762665312
 42
5.497787143782138
  0
ELLIPSE
  5
F0AB
330
F071
100
AcDbEntity
  8
0
100
AcDbEllipse
 10
-13.08147545195119
 20
20.79072411527911
 30
0.0
 11
-6.000000000000001
 21
10.39230484541327
 31
0.0
210
0.0
220
0.0
230
1.0
 40
0.5773502691896257
 41
0.9794938541811717
 42
1.178784220247858
  0
LINE
  5
F0AC
330
F071
100
AcDbEntity
  8
0
100
AcDbLine
 10
-25.80939751330906
 20
-0.4381869888417134
 30
0.0
 11
-26.87005768508888
 21
0.1741854468540849
 31
0.0
  0
ELLIPSE
  5
F0AD
330
F071
100
AcDbEntity
  8
0
100
AcDbEllipse
 10
43.84062043356594
 20
-10.84851839567027
 30
0.0
 11
6.000000000000005
 21
-10.39230484541326
 31
0.0
210
0.0
220
0.0
230
0.9999999999999998
 40
0.5773502691896255
 41
0.0
 42
0.7853981633974464
  0
LINE
  5
F0AE
330
F071
100
AcDbEntity
  8
0
100
AcDbLine
 10
-30.61042993090073
 20
-10.10819559755655
 30
0.0
 11
-29.54976975912091
 21
-10.72056803325234
 31
0.0
  0
LINE
  5
F0AF
330
F071
100
AcDbEntity
  8
0
100
AcDbLine
 10
7.071067811865465
 20
-19.42173249541138
 30
0.0
 11
6.010407640085642
 21
-18.80936005971559
 31
0.0
  0
LINE
  5
F0B0
330
F071
100
AcDbEntity
  8
0
100
AcDbLine
 10
2.270035394273768
 20
-29.09174110412621
 30
0.0
 11
3.330695566053589
 21
-29.70411353982201
 31
0.0
  0
LINE
  5
F0B1
330
F071
100
AcDbEntity
  8
0
100
AcDbLine
 10
52.32590180780452
 20
-15.74749788123664
 30
0.0
 11
51.2652416360247
 21
-16.35987031693243
 31
0.0
  0
ELLIPSE
  5
F0B2
330
F071
100
AcDbEntity
  8
0
100
AcDbEllipse
 10
42.77996026178612
 20
-11.46089083136606
 30
0.0
 11
6.000000000000005
 21
-10.39230484541326
 31
0.0
210
0.0
220
0.0
230
0.9999999999999998
 40
0.5773502691896255
 41
6.09119908946021
 42
7.068583470577032
  0
LINE
  5
F0B3
330
F071
100
AcDbEntity
  8
0
100
AcDbLine
 10
48.77996026178613
 20
-21.85319567677933
 30
0.0
 11
49.84062043356594
 21
-21.24082324108354
 31
0.0
  0
LINE
  5
F0B4
330
F071
100
AcDbEntity
  8
0
100
AcDbLine
 10
-22.6274169979696
 20
44.92594403783818
 30
0.0
 11
-26.8700576850889
 21
37.57747480948866
 31
0.0
  0
LINE
  5
F0B5
330
F071
100
AcDbEntity
  8
0
100
AcDbLine
 10
-25.80939751330908
 20
36.96510237379285
 30
0.0
 11
-21.56675682618979
 21
44.31357160214239
 31
0.0
  0
LINE
  5
F0B6
330
F071
100
AcDbEntity
  8
0
100
AcDbLine
 10
10.25304832720497
 20
25.94239853126851
 30
0.0
 11
6.010407640085682
 21
18.59392930291897
 31
0.0
  0
LINE
  5
F0B7
330
F071
100
AcDbEntity
  8
0
100
AcDbLine
 10
7.071067811865505
 20
17.98155686722318
 30
0.0
 11
11.31370849898479
 21
25.3300260955727
 31
0.0
  0
LINE
  5
F0B8
330
F071
100
AcDbEntity
  8
0
100
AcDbLine
 10
-21.56675682618978
 20
63.09299296348008
 30
0.0
 11
-17.32411613907054
 21
65.54248270626333
 31
0.0
  0
LINE
  5
F0B9
330
F071
100
AcDbEntity
  8
0
100
AcDbLine
 10
-17.32411613907054
 20
65.54248270626333
 30
0.0
 11
-16.26345596729067
 21
66.15485514195903
 31
0.0
  0
LINE
  5
F0BA
330
F071
100
AcDbEntity
  8
0
100
AcDbLine
 10
-21.56675682618979
 20
44.31357160214239
 30
0.0
 11
-22.6274169979696
 21
44.92594403783818
 31
0.0
  0
LINE
  5
F0BB
330
F071
100
AcDbEntity
  8
0
100
AcDbLine
 10
-26.8700576850889
 20
37.57747480948866
 30
0.0
 11
-25.80939751330908
 21
36.96510237379285
 31
0.0
  0
LINE
  5
F0BC
330
F071
100
AcDbEntity
  8
0
100
AcDbLine
 10
11.31370849898479
 20
25.3300260955727
 30
0.0
 11
10.25304832720497
 21
25.94239853126851
 31
0.0
  0
LINE
  5
F0BD
330
F071
100
AcDbEntity
  8
0
100
AcDbLine
 10
6.010407640085682
 20
18.59392930291897
 30
0.0
 11
7.071067811865505
 21
17.98155686722318
 31
0.0
  0
LINE
  5
F0BE
330
F071
100
AcDbEntity
  8
0
100
AcDbLine
 10
52.32590180780456
 20
21.65579148139793
 30
0.0
 11
48.08326112068528
 21
29.00426070974744
 31
0.0
  0
LINE
  5
F0BF
330
F071
100
AcDbEntity
  8
0
100
AcDbLine
 10
48.08326112068528
 20
29.00426070974744
 30
0.0
 11
47.02260094890546
 21
28.39188827405163
 31
0.0
  0
LINE
  5
F0C0
330
F071
100
AcDbEntity
  8
0
100
AcDbLine
 10
47.02260094890546
 20
28.39188827405163
 30
0.0
 11
51.26524163602474
 21
21.04341904570213
 31
0.0
  0
LINE
  5
F0C1
330
F071
100
AcDbEntity
  8
0
100
AcDbLine
 10
51.26524163602474
 20
21.04341904570213
 30
0.0
 11
52.32590180780456
 21
21.65579148139793
 31
0.0
  0
ELLIPSE
  5
F0C2
330
F071
100
AcDbEntity
  8
0
100
AcDbEllipse
 10
-4.361875064355635
 20
40.60179235229551
 30
0.0
 11
0.985052831750475
 21
1.1312254057672
 31
0.0
210
0.0
220
0.0
230
1.0
 40
0.4173680013367561
 41
0.0
 42
0.5753553954488205
  0
SPLINE
  5
F0C3
330
F071
100
AcDbEntity
  8
0
100
AcDbSpline
210
0.0
220
0.0
230
1.0
 70
     8
 71
     3
 72
    10
 73
     6
 74
     0
 42
0.000000001
 43
0.0000000001
 40
0.1396843436543103
 40
0.1396843436543103
 40
0.1396843436543103
 40
0.1396843436543103
 40
0.1418729186708979
 40
0.1418729186708979
 40
0.2837458373417949
 40
0.2837458373417949
 40
0.2837458373417949
 40
0.2837458373417949
 10
-4.526852079277992
 20
42.64960718899532
 30
0.0
 10
-4.522878178996005
 20
42.64497641566322
 30
0.0
 10
-4.5189089479378
 20
42.64034802582992
 30
0.0
 10
-4.257941291152391
 20
42.33584800678965
 30
0.0
 10
-4.020184180662374
 20
42.04575123669338
 30
0.0
 10
-3.792322229036386
 20
41.77459845200289
 30
0.0
  0
ELLIPSE
  5
F0C4
330
F071
100
AcDbEntity
  8
0
100
AcDbEllipse
 10
-3.181980515339537
 20
39.54047972742825
 30
0.0
 11
1.01827186335176
 21
1.101418363886363
 31
0.0
210
0.0
220
0.0
230
1.0
 40
0.3866729749328037
 41
0.0
 42
0.627947126339886
  0
SPLINE
  5
F0C5
330
F071
100
AcDbEntity
  8
0
100
AcDbSpline
210
0.0
220
0.0
230
1.0
 70
     8
 71
     3
 72
    10
 73
     6
 74
     0
 42
0.000000001
 43
0.0000000001
 40
0.0
 40
0.0
 40
0.0
 40
0.0
 40
0.0866240026525013
 40
0.0866240026525013
 40
0.1732480053050025
 40
0.1732480053050025
 40
0.1732480053050025
 40
0.1732480053050025
 10
-3.792322228968714
 20
41.77459845195539
 30
0.0
 10
-3.592355453035489
 20
41.59271208819603
 30
0.0
 10
-3.393929380141083
 20
41.40879513430924
 30
0.0
 10
-2.999429122935612
 20
41.03799035706867
 30
0.0
 10
-2.803354934860284
 20
40.85109927377491
 30
0.0
 10
-2.608162155889088
 20
40.66310147658459
 30
0.0
  0
ELLIPSE
  5
F0C6
330
F071
100
AcDbEntity
  8
0
100
AcDbEllipse
 10
-3.181980515328601
 20
38.21103839862337
 30
0.0
 11
0.4817249453119294
 21
-1.420542529129002
 31
0.0
210
0.0
220
0.0
230
0.9999999999999998
 40
0.6821022831553167
 41
0.9100452509959966
 42
2.142595991522576
  0
SPLINE
  5
F0C7
330
F071
100
AcDbEntity
  8
0
100
AcDbSpline
210
0.0
220
0.0
230
1.0
 70
     8
 71
     3
 72
    10
 73
     6
 74
     0
 42
0.000000001
 43
0.0000000001
 40
-0.2385842614456934
 40
-0.2385842614456934
 40
-0.2385842614456934
 40
-0.2385842614456934
 40
-0.1421416204810485
 40
-0.1421416204810485
 40
-0.1200897735668728
 40
-0.1200897735668728
 40
-0.1200897735668728
 40
-0.1200897735668728
 10
-2.121320343537842
 20
37.5986659629339
 30
0.0
 10
-1.676063378877166
 20
37.80269686907046
 30
0.0
 10
-1.369096976652048
 20
38.12121370507158
 30
0.0
 10
-1.25343937969137
 20
38.57473171873404
 30
0.0
 10
-1.242836266410882
 20
38.66155850122373
 30
0.0
 10
-1.242922226810365
 20
38.74976894128645
 30
0.0
  0
SPLINE
  5
F0C8
330
F071
100
AcDbEntity
  8
0
100
AcDbSpline
210
0.0
220
0.0
230
1.0
 70
     8
 71
     3
 72
    14
 73
    10
 74
     0
 42
0.000000001
 43
0.0000000001
 40
0.0
 40
0.0
 40
0.0
 40
0.0
 40
0.0303721411284292
 40
0.0303721411284292
 40
0.0789675669339159
 40
0.0789675669339159
 40
0.1421416204810485
 40
0.1421416204810485
 40
0.2385842614456934
 40
0.2385842614456934
 40
0.2385842614456934
 40
0.2385842614456934
 10
-2.608162155889084
 20
40.66310147658459
 30
0.0
 10
-2.53972358864871
 20
40.59718561662364
 30
0.0
 10
-2.477551323587885
 20
40.52871466055858
 30
0.0
 10
-2.336029810217947
 20
40.34680680514006
 30
0.0
 10
-2.268952712931866
 20
40.23105600714796
 30
0.0
 10
-2.171849177213813
 20
39.96868692302341
 30
0.0
 10
-2.159536552350811
 20
39.82339131680576
 30
0.0
 10
-2.242825573163549
 20
39.49759867068336
 30
0.0
 10
-2.400683197248392
 20
39.34124983496409
 30
0.0
 10
-2.627842107640734
 20
39.25607680411562
 30
0.0
  0
ELLIPSE
  5
F0C9
330
F071
100
AcDbEntity
  8
0
100
AcDbEllipse
 10
-5.484521825674928
 20
37.25430981146511
 30
0.0
 11
0.6735304878558974
 21
-1.340282314263912
 31
0.0
210
0.0
220
0.0
230
1.0
 40
0.6134744499317048
 41
0.8199141697227387
 42
2.003105718372866
  0
SPLINE
  5
F0CA
330
F071
100
AcDbEntity
  8
0
100
AcDbSpline
210
0.0
220
0.0
230
1.0
 70
     8
 71
     3
 72
    10
 73
     6
 74
     0
 42
0.000000001
 43
0.0000000001
 40
-0.3290771859225763
 40
-0.3290771859225763
 40
-0.3290771859225763
 40
-0.3290771859225763
 40
-0.1645385929612889
 40
-0.1645385929612889
 40
-0.0000000000000015
 40
-0.0000000000000015
 40
-0.0000000000000015
 40
-0.0000000000000015
 10
-4.423861653895104
 20
36.64193737576932
 30
0.0
 10
-4.036852086067598
 20
36.83642083664149
 30
0.0
 10
-3.650933785019521
 20
37.01149846325831
 30
0.0
 10
-2.883085430066987
 20
37.32815890220339
 30
0.0
 10
-2.501141726183044
 20
37.46986345893637
 30
0.0
 10
-2.121320343548778
 20
37.59866596292758
 30
0.0
  0
SPLINE
  5
F0CB
330
F071
100
AcDbEntity
  8
0
100
AcDbSpline
210
0.0
220
0.0
230
1.0
 70
     8
 71
     3
 72
    10
 73
     6
 74
     0
 42
0.000000001
 43
0.0000000001
 40
0.0000000000000015
 40
0.0000000000000015
 40
0.0000000000000015
 40
0.0000000000000015
 40
0.1645385929612889
 40
0.1645385929612889
 40
0.3290771859225763
 40
0.3290771859225763
 40
0.3290771859225763
 40
0.3290771859225763
 10
-2.627842107640736
 20
39.25607680411562
 30
0.0
 10
-3.015392750396603
 20
39.11076503627634
 30
0.0
 10
-3.408036792774316
 20
38.95128401392328
 30
0.0
 10
-4.205346452717266
 20
38.5978553409405
 30
0.0
 10
-4.610099457328016
 20
38.40380030409574
 30
0.0
 10
-5.020125725332551
 20
38.19102651949051
 30
0.0
  0
ELLIPSE
  5
F0CC
330
F071
100
AcDbEntity
  8
0
100
AcDbEllipse
 10
-6.983455454762972
 20
36.50105246581559
 30
0.0
 11
0.6735304878559056
 21
-1.34028231426392
 31
0.0
210
0.0
220
0.0
230
0.9999999999999998
 40
0.6134744499317045
 41
0.8199141697227299
 42
2.003105718372863
  0
LINE
  5
F0CD
330
F071
100
AcDbEntity
  8
0
100
AcDbLine
 10
-5.922795282983153
 20
35.88868003011979
 30
0.0
 11
-4.423861653895109
 21
36.64193737576932
 31
0.0
  0
LINE
  5
F0CE
330
F071
100
AcDbEntity
  8
0
100
AcDbLine
 10
-5.020125725332547
 20
38.19102651949051
 30
0.0
 11
-6.519059354420586
 21
37.43776917384097
 31
0.0
  0
ELLIPSE
  5
F0CF
330
F071
100
AcDbEntity
  8
0
100
AcDbEllipse
 10
-6.983455456492184
 20
42.83754609255246
 30
0.0
 11
0.8193997375741201
 21
-1.25641715612878
 31
0.0
210
0.0
220
0.0
230
1.0
 40
0.5388095822648836
 41
0.0000000001434995
 42
0.7550720329637578
  0
ELLIPSE
  5
F0D0
330
F071
100
AcDbEntity
  8
0
100
AcDbEllipse
 10
1.342303299023983
 20
43.25143346608069
 30
0.0
 11
-18.92465153915224
 21
-11.19850234446446
 31
0.0
210
0.0
220
0.0
230
0.9999999999999998
 40
0.1346372153812724
 41
5.025585556707156
 42
7.381780046922147
  0
ELLIPSE
  5
F0D1
330
F071
100
AcDbEntity
  8
0
100
AcDbEllipse
 10
0.2816431272441599
 20
43.86380590177648
 30
0.0
 11
-17.74233703997128
 21
-11.57661130405069
 31
0.0
210
0.0
220
0.0
230
1.0
 40
0.0872913523692789
 41
5.532780666771422
 42
7.40438771144566
  0
ELLIPSE
  5
F0D2
330
F071
100
AcDbEntity
  8
0
100
AcDbEllipse
 10
-5.484521825674923
 20
43.81510821649626
 30
0.0
 11
0.8193997375596717
 21
-1.256417156078008
 31
0.0
210
0.0
220
0.0
230
1.0
 40
0.5388095822689462
 41
0.0000000000000433
 42
0.7550720328373318
  0
LINE
  5
F0D3
330
F071
100
AcDbEntity
  8
0
100
AcDbLine
 10
-4.423861653895104
 20
43.20273578080047
 30
0.0
 11
-5.922795284712365
 21
42.22517365685667
 31
0.0
  0
ELLIPSE
  5
F0D4
330
F071
100
AcDbEntity
  8
0
100
AcDbEllipse
 10
-3.181980515303441
 20
45.51712532008055
 30
0.0
 11
0.9480488983984198
 21
-1.162412700483577
 31
0.0
210
0.0
220
0.0
230
1.0
 40
0.4487796140200797
 41
0.0
 42
0.7024165027826026
  0
SPLINE
  5
F0D5
330
F071
100
AcDbEntity
  8
0
100
AcDbSpline
210
0.0
220
0.0
230
1.0
 70
     8
 71
     3
 72
    10
 73
     6
 74
     0
 42
0.000000001
 43
0.0000000001
 40
-0.3290771859266594
 40
-0.3290771859266594
 40
-0.3290771859266594
 40
-0.3290771859266594
 40
-0.1645385929633297
 40
-0.1645385929633297
 40
0.0
 40
0.0
 40
0.0
 40
0.0
 10
-2.121320343523627
 20
44.90475288438476
 30
0.0
 10
-2.501141726161493
 20
44.59497543335078
 30
0.0
 10
-2.883085430049341
 20
44.29564938956959
 30
0.0
 10
-3.650933785010304
 20
43.72567491964199
 30
0.0
 10
-4.036852086062896
 20
43.45513247626161
 30
0.0
 10
-4.423861653895095
 20
43.20273578080047
 30
0.0
  0
SPLINE
  5
F0D6
330
F071
100
AcDbEntity
  8
0
100
AcDbSpline
210
0.0
220
0.0
230
1.0
 70
     8
 71
     3
 72
    12
 73
     8
 74
     0
 42
0.000000001
 43
0.0000000001
 40
-0.118491443632363
 40
-0.118491443632363
 40
-0.118491443632363
 40
-0.118491443632363
 40
-0.0753627829472236
 40
-0.0753627829472236
 40
-0.0289856857501222
 40
-0.0289856857501222
 40
-0.0000000000019339
 40
-0.0000000000019339
 40
-0.0000000000019339
 40
-0.0000000000019339
 10
-1.242837018218656
 20
46.20311190869735
 30
0.0
 10
-1.243036503896963
 20
46.04415941599518
 30
0.0
 10
-1.284259357047468
 20
45.87899699092061
 30
0.0
 10
-1.453276089711039
 20
45.53877062456859
 30
0.0
 10
-1.586856164084675
 20
45.36408854839686
 30
0.0
 10
-1.865609952744289
 20
45.0967833916842
 30
0.0
 10
-1.987499055279025
 20
44.99795522644794
 30
0.0
 10
-2.121320343514034
 20
44.90475288438715
 30
0.0
  0
ELLIPSE
  5
F0D7
330
F071
100
AcDbEntity
  8
0
100
AcDbEllipse
 10
29.34927177537739
 20
16.17302830200076
 30
0.0
 11
-0.6444133738665789
 21
1.354522574039241
 31
0.0
210
0.0
220
0.0
230
0.9999999999999998
 40
0.6257331206090901
 41
0.3725120245363946
 42
0.8333043077522646
  0
ELLIPSE
  5
F0D8
330
F071
100
AcDbEntity
  8
0
100
AcDbEllipse
 10
41.9801735621092
 20
27.52188291723506
 30
0.0
 11
-26.60789148696049
 21
-14.33873511477723
 31
0.0
210
0.0
220
0.0
230
1.0
 40
0.1000225409266445
 41
5.170902668615093
 42
7.081851048126988
  0
ELLIPSE
  5
F0D9
330
F071
100
AcDbEntity
  8
0
100
AcDbEllipse
 10
29.34927177537741
 20
24.28582843911468
 30
0.0
 11
-0.842574704385559
 21
1.240994708904745
 31
0.0
210
0.0
220
0.0
230
1.0
 40
0.5245233345042672
 41
0.7452041137883541
 42
1.810549179579977
  0
ELLIPSE
  5
F0DA
330
F071
100
AcDbEntity
  8
0
100
AcDbEllipse
 10
40.91951339032938
 20
28.13425535293085
 30
0.0
 11
-25.68345566027804
 21
-15.19796746748749
 31
0.0
210
0.0
220
0.0
230
1.0
 40
0.1346372153812722
 41
5.145249232568378
 42
7.262116370962245
  0
ELLIPSE
  5
F0DB
330
F071
100
AcDbEntity
  8
0
100
AcDbEllipse
 10
30.78943499819177
 20
16.76114346186456
 30
0.0
 11
0.5208505218990885
 21
-1.406667954365002
 31
0.0
210
0.0
220
0.0
230
1.0
 40
0.6701973449423552
 41
3.592562058822023
 42
4.032922845143477
  0
SPLINE
  5
F0DC
330
F071
100
AcDbEntity
  8
0
100
AcDbSpline
210
0.0
220
0.0
230
1.0
 70
     8
 71
     3
 72
    10
 73
     6
 74
     0
 42
0.000000001
 43
0.0000000001
 40
-0.1489505020863155
 40
-0.1489505020863155
 40
-0.1489505020863155
 40
-0.1489505020863155
 40
-0.0744752510431578
 40
-0.0744752510431578
 40
0.0
 40
0.0
 40
0.0
 40
0.0
 10
29.72877482641195
 20
17.37351589756036
 30
0.0
 10
29.90155822975684
 20
17.43749284786224
 30
0.0
 10
30.07381142279727
 20
17.49776895931996
 30
0.0
 10
30.41725676903102
 20
17.61197734085106
 30
0.0
 10
30.58844978490315
 20
17.66591183235134
 30
0.0
 10
30.75914498161485
 20
17.71717090715937
 30
0.0
  0
ELLIPSE
  5
F0DD
330
F071
100
AcDbEntity
  8
0
100
AcDbEllipse
 10
31.81980515339468
 20
17.10479847146358
 30
0.0
 11
-0.4314118640183596
 21
1.436622359419552
 31
0.0
210
0.0
220
0.0
230
1.0
 40
0.6961202208620338
 41
0.5876585946227202
 42
0.9343160604978013
  0
ELLIPSE
  5
F0DE
330
F071
100
AcDbEntity
  8
0
100
AcDbEllipse
 10
32.48242027758614
 20
25.57299399413895
 30
0.0
 11
1.030044369542927
 21
1.090416707856634
 31
0.0
210
0.0
220
0.0
230
0.9999999999999998
 40
0.3751864151476492
 41
4.287665715117299
 42
5.610805162114782
  0
SPLINE
  5
F0DF
330
F071
100
AcDbEntity
  8
0
100
AcDbSpline
210
0.0
220
0.0
230
1.0
 70
     8
 71
     3
 72
    10
 73
     6
 74
     0
 42
0.000000001
 43
0.0000000001
 40
-0.0986315057595732
 40
-0.0986315057595732
 40
-0.0986315057595732
 40
-0.0986315057595732
 40
-0.0493157528797866
 40
-0.0493157528797866
 40
0.0
 40
0.0
 40
0.0
 40
0.0
 10
33.54308044936595
 20
26.18536642983475
 30
0.0
 10
33.43231057331725
 20
26.29000338772143
 30
0.0
 10
33.32172249696438
 20
26.39519466323545
 30
0.0
 10
33.10086492384882
 20
26.60651084621034
 30
0.0
 10
32.99059544905439
 20
26.71263597511027
 30
0.0
 10
32.88046532517448
 20
26.81915692702812
 30
0.0
  0
ELLIPSE
  5
F0E0
330
F071
100
AcDbEntity
  8
0
100
AcDbEllipse
 10
31.81980515339468
 20
26.20678449133234
 30
0.0
 11
-1.042846028619086
 21
-1.078180022349422
 31
0.0
210
0.0
220
0.0
230
1.0
 40
0.3623159750592229
 41
1.126298842996771
 42
2.47356633404844
  0
SPLINE
  5
F0E1
330
F071
100
AcDbEntity
  8
0
100
AcDbSpline
210
0.0
220
0.0
230
1.0
 70
     8
 71
     3
 72
    10
 73
     6
 74
     0
 42
0.000000001
 43
0.0000000001
 40
0.0
 40
0.0
 40
0.0
 40
0.0
 40
0.0493157528797866
 40
0.0493157528797866
 40
0.0986315057595732
 40
0.0986315057595732
 40
0.0986315057595732
 40
0.0986315057595732
 10
31.72405888217497
 20
25.40203860042029
 30
0.0
 10
31.84076783299059
 20
25.2961601968304
 30
0.0
 10
31.95796630968152
 20
25.19064420995337
 30
0.0
 10
32.19347699992669
 20
24.98044160147762
 30
0.0
 10
32.31178926688189
 20
24.87575487903392
 30
0.0
 10
32.43073258443033
 20
24.77154456781934
 30
0.0
  0
ELLIPSE
  5
F0E2
330
F071
100
AcDbEntity
  8
0
100
AcDbEllipse
 10
35.26056188081269
 20
22.55427860284771
 30
0.0
 11
1.075724519468977
 21
1.045378763039132
 31
0.0
210
0.0
220
0.0
230
1.0
 40
0.3273577323099302
 41
4.897499714566547
 42
5.625840623118903
  0
SPLINE
  5
F0E3
330
F071
100
AcDbEntity
  8
0
100
AcDbSpline
210
0.0
220
0.0
230
1.0
 70
     8
 71
     3
 72
    10
 73
     6
 74
     0
 42
0.000000001
 43
0.0000000001
 40
-0.4298105547536806
 40
-0.4298105547536806
 40
-0.4298105547536806
 40
-0.4298105547536806
 40
-0.2527935054382469
 40
-0.2527935054382469
 40
-0.0000000000000017
 40
-0.0000000000000017
 40
-0.0000000000000017
 40
-0.0000000000000017
 10
36.3212220525925
 20
23.1666510385435
 30
0.0
 10
35.93265826332936
 20
23.56649424396024
 30
0.0
 10
35.56232243970197
 20
24.00434814178233
 30
0.0
 10
34.65408071732404
 20
25.04694212001258
 30
0.0
 10
34.11088898169372
 20
25.64899535491575
 30
0.0
 10
33.54308044936595
 20
26.18536642983474
 30
0.0
  0
SPLINE
  5
F0E4
330
F071
100
AcDbEntity
  8
0
100
AcDbSpline
210
0.0
220
0.0
230
1.0
 70
     8
 71
     3
 72
    10
 73
     6
 74
     0
 42
0.000000001
 43
0.0000000001
 40
0.0000000000000017
 40
0.0000000000000017
 40
0.0000000000000017
 40
0.0000000000000017
 40
0.2527935054382469
 40
0.2527935054382469
 40
0.4298105547536806
 40
0.4298105547536806
 40
0.4298105547536806
 40
0.4298105547536806
 10
32.43073258443033
 20
24.77154456781932
 30
0.0
 10
33.0258267557087
 20
24.38554783150045
 30
0.0
 10
33.64528438092627
 20
23.94380351799943
 30
0.0
 10
34.77865172592025
 20
23.12478063682774
 30
0.0
 10
35.27012879561809
 20
22.76533229929936
 30
0.0
 10
35.79492117764348
 20
22.40055556470565
 30
0.0
  0
ELLIPSE
  5
F0E5
330
F071
100
AcDbEntity
  8
0
100
AcDbEllipse
 10
35.26056188081269
 20
16.78426071436654
 30
0.0
 11
0.18703689331658
 21
1.488293385236423
 31
0.0
210
0.0
220
0.0
230
1.0
 40
0.7479997204301389
 41
5.22819043460479
 42
5.956531343157156
  0
ELLIPSE
  5
F0E6
330
F071
100
AcDbEntity
  8
0
100
AcDbEllipse
 10
26.08657572681745
 20
26.1906179055498
 30
0.0
 11
12.86670137892407
 21
-8.191212071365349
 31
0.0
210
0.0
220
0.0
230
1.0
 40
0.2609200613534021
 41
5.779181046885877
 42
7.116398104046117
  0
ELLIPSE
  5
F0E7
330
F071
100
AcDbEntity
  8
0
100
AcDbEllipse
 10
25.02591555503763
 20
25.578245469854
 30
0.0
 11
13.6515271782338
 21
-7.074985500025726
 31
0.0
210
0.0
220
0.0
230
1.0
 40
0.199067523960315
 41
5.717381004953953
 42
7.054598062114195
  0
ELLIPSE
  5
F0E8
330
F071
100
AcDbEntity
  8
0
100
AcDbEllipse
 10
32.48242027758614
 20
16.97346692801483
 30
0.0
 11
0.3083698224032627
 21
1.467960507858091
 31
0.0
210
0.0
220
0.0
230
0.9999999999999998
 40
0.7251908855986239
 41
5.288653074036311
 42
6.047746408756571
  0
SPLINE
  5
F0E9
330
F071
100
AcDbEntity
  8
0
100
AcDbSpline
210
0.0
220
0.0
230
1.0
 70
     8
 71
     3
 72
    10
 73
     6
 74
     0
 42
0.000000001
 43
0.0000000001
 40
-0.4298560553329351
 40
-0.4298560553329351
 40
-0.4298560553329351
 40
-0.4298560553329351
 40
-0.2504545042259934
 40
-0.2504545042259934
 40
0.0
 40
0.0
 40
0.0
 40
0.0
 10
33.54308044936596
 20
17.58583936371062
 30
0.0
 10
33.94604068861246
 20
17.50119078035512
 30
0.0
 10
34.3375442270562
 20
17.4624269032925
 30
0.0
 10
35.25593060755078
 20
17.42629621226863
 30
0.0
 10
35.77145833448498
 20
17.46572308818411
 30
0.0
 10
36.3212220525925
 20
17.39663315006235
 30
0.0
  0
SPLINE
  5
F0EA
330
F071
100
AcDbEntity
  8
0
100
AcDbSpline
210
0.0
220
0.0
230
1.0
 70
     8
 71
     3
 72
    10
 73
     6
 74
     0
 42
0.000000001
 43
0.0000000001
 40
0.0
 40
0.0
 40
0.0
 40
0.0
 40
0.2504545042259934
 40
0.2504545042259934
 40
0.2614164267501714
 40
0.2614164267501714
 40
0.2614164267501714
 40
0.2614164267501714
 10
35.79492117764348
 20
18.14896343635111
 30
0.0
 10
35.05241294823822
 20
18.29913198104188
 30
0.0
 10
34.377786220745
 20
18.30400553690664
 30
0.0
 10
33.71509523820251
 20
18.33381117735237
 30
0.0
 10
33.68738044819867
 20
18.3350824932521
 30
0.0
 10
33.65973775464368
 20
18.33638073528254
 30
0.0
  0
ELLIPSE
  5
F0EB
330
F071
100
AcDbEntity
  8
0
100
AcDbEllipse
 10
31.81980515339466
 20
17.10479847146358
 30
0.0
 11
-0.276393529305433
 21
-1.474315643598097
 31
0.0
210
0.0
220
0.0
230
1.0
 40
0.7317060891393168
 41
2.131227017211982
 42
2.680687794904631
  0
SPLINE
  5
F0EC
330
F071
100
AcDbEntity
  8
0
100
AcDbSpline
210
0.0
220
0.0
230
1.0
 70
     8
 71
     3
 72
    10
 73
     6
 74
     0
 42
0.000000001
 43
0.0000000001
 40
-0.0986315057595762
 40
-0.0986315057595762
 40
-0.0986315057595762
 40
-0.0986315057595762
 40
-0.0493157528797883
 40
-0.0493157528797883
 40
-0.0000000000000003
 40
-0.0000000000000003
 40
-0.0000000000000003
 40
-0.0000000000000003
 10
32.88046532517448
 20
17.71717090715936
 30
0.0
 10
32.99059544905438
 20
17.69652454574132
 30
0.0
 10
33.1008649238488
 20
17.67532145272933
 30
0.0
 10
33.32172249696438
 20
17.63161327712254
 30
0.0
 10
33.43231057331724
 20
17.60910844133356
 30
0.0
 10
33.54308044936594
 20
17.58583936371062
 30
0.0
  0
ELLIPSE
  5
F0ED
330
F071
100
AcDbEntity
  8
0
100
AcDbEllipse
 10
31.81980515339468
 20
26.20678449133232
 30
0.0
 11
-0.974385647212699
 21
1.140426503772096
 31
0.0
210
0.0
220
0.0
230
0.9999999999999998
 40
0.4267122036849439
 41
0.6924023912953752
 42
1.945961861863235
  0
SPLINE
  5
F0EE
330
F071
100
AcDbEntity
  8
0
100
AcDbSpline
210
0.0
220
0.0
230
1.0
 70
     8
 71
     3
 72
    10
 73
     6
 74
     0
 42
0.000000001
 43
0.0000000001
 40
-0.1489505020863106
 40
-0.1489505020863106
 40
-0.1489505020863106
 40
-0.1489505020863106
 40
-0.0744752510431553
 40
-0.0744752510431553
 40
0.0
 40
0.0
 40
0.0
 40
0.0
 10
30.75914498161486
 20
26.81915692702813
 30
0.0
 10
30.58844978490317
 20
26.67331416629441
 30
0.0
 10
30.41725676903103
 20
26.52957199020037
 30
0.0
 10
30.0738114227973
 20
26.24720384553151
 30
0.0
 10
29.90155822975688
 20
26.10857910224793
 30
0.0
 10
29.728774826412
 20
25.97304296368448
 30
0.0
  0
ELLIPSE
  5
F0EF
330
F071
100
AcDbEntity
  8
0
100
AcDbEllipse
 10
30.78943499819182
 20
25.36067052798868
 30
0.0
 11
0.9257933986362088
 21
-1.180214634310901
 31
0.0
210
0.0
220
0.0
230
1.0
 40
0.4663712957493035
 41
3.852704097088713
 42
5.071307076913496
  0
SPLINE
  5
F0F0
330
F071
100
AcDbEntity
  8
0
100
AcDbSpline
210
0.0
220
0.0
230
1.0
 70
     8
 71
     3
 72
    10
 73
     6
 74
     0
 42
0.000000001
 43
0.0000000001
 40
0.0
 40
0.0
 40
0.0
 40
0.0
 40
0.0744752510431553
 40
0.0744752510431553
 40
0.1489505020863106
 40
0.1489505020863106
 40
0.1489505020863106
 40
0.1489505020863106
 10
30.59928640595965
 20
24.5418562146993
 30
0.0
 10
30.78906702015006
 20
24.68083758388542
 30
0.0
 10
30.97776907333317
 20
24.82227843965863
 30
0.0
 10
31.35274141488431
 20
25.10925682861715
 30
0.0
 10
31.53901449990021
 20
25.25479436716246
 30
0.0
 10
31.72405888217498
 20
25.40203860042031
 30
0.0
  0
ELLIPSE
  5
F0F1
330
F071
100
AcDbEntity
  8
0
100
AcDbEllipse
 10
31.81980515339468
 20
26.20678449133232
 30
0.0
 11
-1.499999999999994
 21
-0.0000000000000874
 31
0.0
210
0.0
220
0.0
230
1.0
 40
0.5773502691896269
 41
3.926990816987
 42
5.497787143781895
  0
ELLIPSE
  5
F0F2
330
F071
100
AcDbEntity
  8
0
100
AcDbEllipse
 10
31.81980515339466
 20
17.10479847146358
 30
0.0
 11
1.499999999999994
 21
-0.0000000000000894
 31
0.0
210
0.0
220
0.0
230
1.0
 40
0.5773502691896258
 41
0.7853981633976872
 42
2.356194490192581
  0
SPLINE
  5
F0F3
330
F071
100
AcDbEntity
  8
0
100
AcDbSpline
210
0.0
220
0.0
230
1.0
 70
     8
 71
     3
 72
     8
 73
     4
 74
     0
 42
0.000000001
 43
0.0000000001
 40
-1.158510647660077
 40
-1.158510647660077
 40
-1.158510647660077
 40
-1.158510647660077
 40
-0.9525469336706917
 40
-0.9525469336706917
 40
-0.9525469336706917
 40
-0.9525469336706917
 10
28.28861160359757
 20
16.78540073769655
 30
0.0
 10
28.77220434415387
 20
17.01546971955928
 30
0.0
 10
29.25091302423549
 20
17.1965767924312
 30
0.0
 10
29.72877482641195
 20
17.37351589756034
 30
0.0
  0
SPLINE
  5
F0F4
330
F071
100
AcDbEntity
  8
0
100
AcDbSpline
210
0.0
220
0.0
230
1.0
 70
     8
 71
     3
 72
     8
 73
     4
 74
     0
 42
0.000000001
 43
0.0000000001
 40
-0.2059637139893903
 40
-0.2059637139893903
 40
-0.2059637139893903
 40
-0.2059637139893903
 40
0.0
 40
0.0
 40
0.0
 40
0.0
 10
29.72877482641199
 20
25.97304296368448
 30
0.0
 10
29.25091200727682
 20
25.5981939908387
 30
0.0
 10
28.77220434415389
 20
25.22653669082443
 30
0.0
 10
28.28861160359758
 20
24.89820087481048
 30
0.0
  0
SPLINE
  5
F0F5
330
F071
100
AcDbEntity
  8
0
100
AcDbSpline
210
0.0
220
0.0
230
1.0
 70
     8
 71
     3
 72
     8
 73
     4
 74
     0
 42
0.000000001
 43
0.0000000001
 40
0.0
 40
0.0
 40
0.0
 40
0.0
 40
0.2059637139893902
 40
0.2059637139893902
 40
0.2059637139893902
 40
0.2059637139893902
 10
28.917039805561
 20
23.56182980474494
 30
0.0
 10
29.47991587809643
 20
23.89040061512017
 30
0.0
 10
30.0484329487685
 20
24.22519028202562
 30
0.0
 10
30.59928640595964
 20
24.54185621469931
 30
0.0
  0
SPLINE
  5
F0F6
330
F071
100
AcDbEntity
  8
0
100
AcDbSpline
210
0.0
220
0.0
230
1.0
 70
     8
 71
     3
 72
    12
 73
     8
 74
     0
 42
0.000000001
 43
0.0000000001
 40
0.1197625046292658
 40
0.1197625046292658
 40
0.1197625046292658
 40
0.1197625046292658
 40
0.1702475024050773
 40
0.1702475024050773
 40
0.2269966698734361
 40
0.2269966698734361
 40
0.2837458373417949
 40
0.2837458373417949
 40
0.2837458373417949
 40
0.2837458373417949
 10
-4.433881869720606
 20
42.71156328046934
 30
0.0
 10
-4.321837625830275
 20
42.60418801512418
 30
0.0
 10
-4.211260246197534
 20
42.49850825834037
 30
0.0
 10
-3.978629686516153
 20
42.27852335737502
 30
0.0
 10
-3.856857563043465
 20
42.16477093003405
 30
0.0
 10
-3.61535058831242
 20
41.94374132378428
 30
0.0
 10
-3.495616388452504
 20
41.83646179231111
 30
0.0
 10
-3.376822232601524
 20
41.73301775806272
 30
0.0
  0
SPLINE
  5
F0F7
330
F071
100
AcDbEntity
  8
0
100
AcDbSpline
210
0.0
220
0.0
230
1.0
 70
     8
 71
     3
 72
    16
 73
    12
 74
     0
 42
0.000000001
 43
0.0000000001
 40
0.0
 40
0.0
 40
0.0
 40
0.0
 40
0.0346496010610005
 40
0.0346496010610005
 40
0.069299202122001
 40
0.069299202122001
 40
0.1039488031830015
 40
0.1039488031830015
 40
0.138598404244002
 40
0.138598404244002
 40
0.1732480053050025
 40
0.1732480053050025
 40
0.1732480053050025
 40
0.1732480053050025
 10
-3.376822232581073
 20
41.73301775800971
 30
0.0
 10
-3.294838931216235
 20
41.66162802192481
 30
0.0
 10
-3.213110166900947
 20
41.58991955902358
 30
0.0
 10
-3.050120627544441
 20
41.44592898235742
 30
0.0
 10
-2.968859843123696
 20
41.37364684264451
 30
0.0
 10
-2.806767361955417
 20
41.22856522479008
 30
0.0
 10
-2.725935660968581
 20
41.15576572164741
 30
0.0
 10
-2.564664858023255
 20
41.00969901831063
 30
0.0
 10
-2.484225755273536
 20
40.93643179451058
 30
0.0
 10
-2.323706142257937
 20
40.78947335070441
 30
0.0
 10
-2.243625633303927
 20
40.71578210863851
 30
0.0
 10
-2.163708651987774
 20
40.64189809131462
 30
0.0
  0
SPLINE
  5
F0F8
330
F071
100
AcDbEntity
  8
0
100
AcDbSpline
210
0.0
220
0.0
230
1.0
 70
     8
 71
     3
 72
    16
 73
    12
 74
     0
 42
0.000000001
 43
0.0000000001
 40
0.0
 40
0.0
 40
0.0
 40
0.0
 40
0.024017954713375
 40
0.024017954713375
 40
0.04803590942675
 40
0.04803590942675
 40
0.0720538641401251
 40
0.0720538641401251
 40
0.0960718188535001
 40
0.0960718188535001
 40
0.1200897735668751
 40
0.1200897735668751
 40
0.1200897735668751
 40
0.1200897735668751
 10
-2.163708651987767
 20
40.64189809131462
 30
0.0
 10
-2.07271273726385
 20
40.55777149357353
 30
0.0
 10
-1.984585509673621
 20
40.46792699015589
 30
0.0
 10
-1.815867784537663
 20
40.27407469433903
 30
0.0
 10
-1.735246087420638
 20
40.17007343311732
 30
0.0
 10
-1.584949895212952
 20
39.94414285845675
 30
0.0
 10
-1.515204603869588
 20
39.82217233932342
 30
0.0
 10
-1.39315431736013
 20
39.55573469882549
 30
0.0
 10
-1.340798299550793
 20
39.41108207762303
 30
0.0
 10
-1.265447088798652
 20
39.09718352712274
 30
0.0
 10
-1.24264068711936
 20
38.92764098221539
 30
0.0
 10
-1.24264068711936
 20
38.74977110612013
 30
0.0
  0
SPLINE
  5
F0F9
330
F071
100
AcDbEntity
  8
0
100
AcDbSpline
210
0.0
220
0.0
230
1.0
 70
     8
 71
     3
 72
    16
 73
    12
 74
     0
 42
0.000000001
 43
0.0000000001
 40
0.6935097995171936
 40
0.6935097995171936
 40
0.6935097995171936
 40
0.6935097995171936
 40
0.7904272886253854
 40
0.7904272886253854
 40
0.8873447777335771
 40
0.8873447777335771
 40
0.9842622668417689
 40
0.9842622668417689
 40
1.08117975594996
 40
1.08117975594996
 40
1.178097245058152
 40
1.178097245058152
 40
1.178097245058152
 40
1.178097245058152
 10
-13.38445370606909
 20
36.45267026140685
 30
0.0
 10
-13.00267844205215
 20
36.75604968236309
 30
0.0
 10
-12.59716260782296
 20
37.07010448137262
 30
0.0
 10
-11.74304580204186
 20
37.71596833667458
 30
0.0
 10
-11.29444357913624
 20
38.04778046012677
 30
0.0
 10
-10.35878314254459
 20
38.72562607637637
 30
0.0
 10
-9.871724832826949
 20
39.07166068169249
 30
0.0
 10
-8.864038309649128
 20
39.7744119748917
 30
0.0
 10
-8.343410677748845
 20
40.13112880464517
 30
0.0
 10
-7.273719635918558
 20
40.85168324705242
 30
0.0
 10
-6.724657221802758
 20
41.21552049017807
 30
0.0
 10
-6.164055718924577
 20
41.58112893647961
 30
0.0
  0
LINE
  5
F0FA
330
F071
100
AcDbEntity
  8
0
100
AcDbLine
 10
-6.164055718925212
 20
41.58112893643464
 30
0.0
 11
-4.665122088115243
 21
42.55869106041824
 31
0.0
  0
SPLINE
  5
F0FB
330
F071
100
AcDbEntity
  8
0
100
AcDbSpline
210
0.0
220
0.0
230
1.0
 70
     8
 71
     3
 72
    16
 73
    12
 74
     0
 42
0.000000001
 43
0.0000000001
 40
0.0
 40
0.0
 40
0.0
 40
0.0
 40
0.0658154371853319
 40
0.0658154371853319
 40
0.1316308743706638
 40
0.1316308743706638
 40
0.1974463115559956
 40
0.1974463115559956
 40
0.2632617487413275
 40
0.2632617487413275
 40
0.3290771859266594
 40
0.3290771859266594
 40
0.3290771859266594
 40
0.3290771859266594
 10
-4.665122088115243
 20
42.55869106041824
 30
0.0
 10
-4.498955441356855
 20
42.66706024822051
 30
0.0
 10
-4.333491747927444
 20
42.77818918670394
 30
0.0
 10
-4.00419875892596
 20
43.00538016944918
 30
0.0
 10
-3.840368717489255
 20
43.12144079162926
 30
0.0
 10
-3.514445863507289
 20
43.35789551699562
 30
0.0
 10
-3.352352139009273
 20
43.47828860939197
 30
0.0
 10
-3.029905665502032
 20
43.72283564230975
 30
0.0
 10
-2.869552086748294
 20
43.8469889479693
 30
0.0
 10
-2.550517579216473
 20
44.09853520686801
 30
0.0
 10
-2.391836047162185
 20
44.2259277903377
 30
0.0
 10
-2.2339316168934
 20
44.35471261960644
 30
0.0
  0
SPLINE
  5
F0FC
330
F071
100
AcDbEntity
  8
0
100
AcDbSpline
210
0.0
220
0.0
230
1.0
 70
     8
 71
     3
 72
    16
 73
    12
 74
     0
 42
0.000000001
 43
0.0000000001
 40
0.0000000000038477
 40
0.0000000000038477
 40
0.0000000000038477
 40
0.0000000000038477
 40
0.0236982887295508
 40
0.0236982887295508
 40
0.0473965774552539
 40
0.0473965774552539
 40
0.0710948661809571
 40
0.0710948661809571
 40
0.0947931549066602
 40
0.0947931549066602
 40
0.1184914436323633
 40
0.1184914436323633
 40
0.1184914436323633
 40
0.1184914436323633
 10
-2.233931616870168
 20
44.35471261962542
 30
0.0
 10
-2.141855541314887
 20
44.4298086865972
 30
0.0
 10
-2.051939296619296
 20
44.51043707270665
 30
0.0
 10
-1.877753379834188
 20
44.68630081656868
 30
0.0
 10
-1.793432572719986
 20
44.78150896666956
 30
0.0
 10
-1.633304149232692
 20
44.99217792679735
 30
0.0
 10
-1.557360551905218
 20
45.10767790786662
 30
0.0
 10
-1.42101505458769
 20
45.36697844622664
 30
0.0
 10
-1.360459019030253
 20
45.51108975123074
 30
0.0
 10
-1.271099845044474
 20
45.83354614303011
 30
0.0
 10
-1.242640687119369
 20
46.01254090722282
 30
0.0
 10
-1.242640687119367
 20
46.2031374839471
 30
0.0
  0
LINE
  5
F0FD
330
F071
100
AcDbEntity
  8
0
100
AcDbLine
 10
-2.121320343559698
 20
-18.76078927452443
 30
0.0
 11
-38.18376618407363
 21
-39.58145208818145
 31
0.0
  0
LINE
  5
F0FE
330
F071
100
AcDbEntity
  8
0
100
AcDbLine
 10
-5.303300858899158
 20
-58.56499759475108
 30
0.0
 11
30.75914498161477
 21
-37.74433478109408
 31
0.0
  0
LINE
  5
F0FF
330
F071
100
AcDbEntity
  8
0
100
AcDbLine
 10
-38.18376618407362
 20
-39.58145208818145
 30
0.0
 11
-39.24442635585344
 21
-38.96907965248566
 31
0.0
  0
ELLIPSE
  5
F100
330
F071
100
AcDbEntity
  8
0
100
AcDbEllipse
 10
-37.12310601229379
 20
-40.19382452387724
 30
0.0
 11
0.7500000000000793
 21
-1.299038105676616
 31
0.0
210
0.0
220
0.0
230
0.9999999999999998
 40
0.5773502691896257
 41
3.926990816987002
 42
5.497787143781902
  0
LINE
  5
F101
330
F071
100
AcDbEntity
  8
0
100
AcDbLine
 10
-1.060660171779872
 20
-20.59790658161182
 30
0.0
 11
-37.12310601229379
 21
-41.41856939526884
 31
0.0
  0
ELLIPSE
  5
F102
330
F071
100
AcDbEntity
  8
0
100
AcDbEllipse
 10
-7.4246212024588
 20
-57.3402527233595
 30
0.0
 11
1.499999999999996
 21
-2.59807621135331
 31
0.0
210
0.0
220
0.0
230
1.0
 40
0.5773502691896258
 41
5.497787143782137
 42
7.06858347057703
  0
LINE
  5
F103
330
F071
100
AcDbEntity
  8
0
100
AcDbLine
 10
-6.363961030678977
 20
-57.9526251590553
 30
0.0
 11
-5.303300858899158
 21
-58.56499759475108
 31
0.0
  0
LINE
  5
F104
330
F071
100
AcDbEntity
  8
0
100
AcDbLine
 10
-6.363961030678977
 20
-57.95262515905529
 30
0.0
 11
-7.4246212024588
 21
-58.56499759475108
 31
0.0
  0
ELLIPSE
  5
F105
330
F071
100
AcDbEntity
  8
0
100
AcDbEllipse
 10
-7.4246212024588
 20
-57.3402527233595
 30
0.0
 11
0.750000000000002
 21
-1.29903810567666
 31
0.0
210
0.0
220
0.0
230
0.9999999999999998
 40
0.5773502691896258
 41
5.497787143782137
 42
7.068583470577025
  0
LINE
  5
F106
330
F071
100
AcDbEntity
  8
0
100
AcDbLine
 10
-7.4246212024588
 20
-58.56499759475108
 30
0.0
 11
-7.4246212024588
 21
-59.78974246614267
 31
0.0
  0
LINE
  5
F107
330
F071
100
AcDbEntity
  8
0
100
AcDbLine
 10
-37.12310601229379
 20
-41.41856939526884
 30
0.0
 11
-37.12310601229379
 21
-42.64331426666042
 31
0.0
  0
ELLIPSE
  5
F108
330
F071
100
AcDbEntity
  8
0
100
AcDbEllipse
 10
-37.12310601229379
 20
-40.19382452387724
 30
0.0
 11
1.500000000000153
 21
-2.598076211353224
 31
0.0
210
0.0
220
0.0
230
0.9999999999999998
 40
0.5773502691896257
 41
3.926990816987
 42
5.497787143781897
  0
LINE
  5
F109
330
F071
100
AcDbEntity
  8
0
100
AcDbLine
 10
30.13782463805512
 20
-39.1176661210558
 30
0.0
 11
-5.924621202458797
 21
-59.93832893471282
 31
0.0
  0
ELLIPSE
  5
F10A
330
F071
100
AcDbEntity
  8
0
100
AcDbEllipse
 10
-1.060660171779874
 20
25.53415024080471
 30
0.0
 11
-1.25
 21
-2.165063509461097
 31
0.0
210
0.0
220
0.0
230
1.0
 40
0.5773502691896259
 41
4.570491925780517
 42
6.425082361783756
  0
ELLIPSE
  5
F10B
330
F071
100
AcDbEntity
  8
0
100
AcDbEllipse
 10
-11.8954485923075
 20
41.18716731928468
 30
0.0
 11
8.166754732810652
 21
0.0000000000000322
 31
0.0
210
0.0
220
0.0
230
1.0
 40
0.577350269189625
 41
5.654866776461625
 42
6.408095538707119
  0
LINE
  5
F10C
330
F071
100
AcDbEntity
  8
0
100
AcDbLine
 10
-5.288405224571657
 20
38.41571398196975
 30
0.0
 11
-5.020125725332547
 21
38.19102651949051
 31
0.0
  0
ELLIPSE
  5
F10D
330
F071
100
AcDbEntity
  8
0
100
AcDbEllipse
 10
-4.452492244058001
 20
40.1018040565366
 30
0.0
 11
1.679777606426227
 21
-2.113846539592925
 31
0.0
210
0.0
220
0.0
230
1.0
 40
0.6605596098195699
 41
3.711761074681975
 42
5.013199698257079
  0
ELLIPSE
  5
F10E
330
F071
100
AcDbEntity
  8
0
100
AcDbEllipse
 10
-8.131727983645467
 20
54.11153057327516
 30
0.0
 11
-1.249999999999999
 21
2.165063509461096
 31
0.0
210
0.0
220
0.0
230
1.0
 40
0.5773502691896258
 41
4.425632428173102
 42
8.140738186186071
  0
ELLIPSE
  5
F10F
330
F071
100
AcDbEntity
  8
0
100
AcDbEllipse
 10
-15.20279579551093
 20
50.02904766863652
 30
0.0
 11
-1.249999999999999
 21
2.165063509461096
 31
0.0
210
0.0
220
0.0
230
1.0
 40
0.5773502691896258
 41
4.42563242817311
 42
8.140738186186068
  0
ELLIPSE
  5
F110
330
F071
100
AcDbEntity
  8
0
100
AcDbEllipse
 10
-7.071067811865647
 20
54.72390300897095
 30
0.0
 11
1.250000000000128
 21
-2.165063509461022
 31
0.0
210
0.0
220
0.0
230
1.0
 40
0.5773502691896259
 41
3.579741684173546
 42
4.999145532596065
  0
ELLIPSE
  5
F111
330
F071
100
AcDbEntity
  8
0
100
AcDbEllipse
 10
-14.14213562373111
 20
50.64142010433231
 30
0.0
 11
1.250000000000129
 21
-2.165063509461021
 31
0.0
210
0.0
220
0.0
230
1.0
 40
0.5773502691896259
 41
3.579741684173544
 42
4.999145532596058
  0
ELLIPSE
  5
F112
330
F071
100
AcDbEntity
  8
0
100
AcDbEllipse
 10
-1.060660171779954
 20
26.75889511219633
 30
0.0
 11
1.25
 21
-2.165063509461098
 31
0.0
210
0.0
220
0.0
230
0.9999999999999998
 40
0.5773502691896258
 41
4.662295549665641
 42
4.854286034988851
  0
LINE
  5
F113
330
F071
100
AcDbEntity
  8
0
100
AcDbLine
 10
-2.474873734152986
 20
23.4929087884854
 30
0.0
 11
-2.121320343559753
 21
23.2887846432535
 31
0.0
  0
SPLINE
  5
F114
330
F071
100
AcDbEntity
  8
0
100
AcDbSpline
210
0.0
220
0.0
230
1.0
 70
     8
 71
     3
 72
    11
 73
     7
 74
     0
 42
0.000000001
 43
0.0000000001
 40
-1.0
 40
-1.0
 40
-1.0
 40
-1.0
 40
-0.8649350770697568
 40
-0.8649350770697568
 40
-0.8649350770697568
 40
-0.5000000000000158
 40
-0.5000000000000158
 40
-0.5000000000000158
 40
-0.5000000000000158
 10
-2.121320343559758
 20
26.55477096696441
 30
0.0
 10
-1.992603536142094
 20
26.70005095021493
 30
0.0
 10
-1.867204512202296
 20
26.84885878637717
 30
0.0
 10
-1.753905714165751
 20
26.99957122260418
 30
0.0
 10
-1.447781039480753
 20
27.40678468215121
 30
0.0
 10
-1.318646996033092
 20
27.82342630811877
 30
0.0
 10
-1.333558530040839
 20
28.17065985207332
 30
0.0
  0
SPLINE
  5
F115
330
F071
100
AcDbEntity
  8
0
100
AcDbSpline
210
0.0
220
0.0
230
1.0
 70
     8
 71
     3
 72
    11
 73
     7
 74
     0
 42
0.000000001
 43
0.0000000001
 40
-1.0
 40
-1.0
 40
-1.0
 40
-1.0
 40
-0.8649350770705567
 40
-0.8649350770705567
 40
-0.8649350770705567
 40
0.0
 40
0.0
 40
0.0
 40
0.0
 10
-2.121320343559771
 20
25.73827438603669
 30
0.0
 10
-1.992603536142882
 20
25.59299440278702
 30
0.0
 10
-1.867204512203803
 20
25.44418656662572
 30
0.0
 10
-1.75390571416778
 20
25.2934741303996
 30
0.0
 10
-1.028357566759572
 20
24.32833477507771
 30
0.0
 10
-1.297037625821499
 20
23.31023358259314
 30
0.0
 10
-2.121320343559756
 20
23.28878464325351
 30
0.0
  0
LINE
  5
F116
330
F071
100
AcDbEntity
  8
0
100
AcDbLine
 10
-2.68084534638181
 20
25.41523247503905
 30
0.0
 11
-2.121320343559771
 21
25.73827438603669
 31
0.0
  0
SPLINE
  5
F117
330
F071
100
AcDbEntity
  8
0
100
AcDbSpline
210
0.0
220
0.0
230
1.0
 70
     8
 71
     3
 72
     8
 73
     4
 74
     0
 42
0.000000001
 43
0.0000000001
 40
0.4105686222824927
 40
0.4105686222824927
 40
0.4105686222824927
 40
0.4105686222824927
 40
0.7033723312467412
 40
0.7033723312467412
 40
0.7033723312467412
 40
0.7033723312467412
 10
-2.806314504299645
 20
24.00373881360006
 30
0.0
 10
-2.772803397956105
 20
24.11296041537883
 30
0.0
 10
-2.783058760314145
 20
24.27352569779238
 30
0.0
 10
-2.845588897722421
 20
24.46584059245449
 30
0.0
  0
SPLINE
  5
F118
330
F071
100
AcDbEntity
  8
0
100
AcDbSpline
210
0.0
220
0.0
230
1.0
 70
     8
 71
     3
 72
     8
 73
     4
 74
     0
 42
0.000000001
 43
0.0000000001
 40
-1.0
 40
-1.0
 40
-1.0
 40
-1.0
 40
-0.5000000000000097
 40
-0.5000000000000097
 40
-0.5000000000000097
 40
-0.5000000000000097
 10
-2.121320343559698
 20
-7.94281949073146
 30
0.0
 10
-1.565959976289914
 20
-7.346815084286681
 30
0.0
 10
-1.288279792655027
 20
-6.619394428456879
 30
0.0
 10
-1.288279792655024
 20
-5.891973772627112
 30
0.0
  0
LINE
  5
F119
330
F071
100
AcDbEntity
  8
0
100
AcDbLine
 10
-6.519059354420586
 20
37.43776917384097
 30
0.0
 11
-5.288405224571657
 21
38.41571398196975
 31
0.0
  0
ELLIPSE
  5
F11A
330
F071
100
AcDbEntity
  8
0
100
AcDbEllipse
 10
11.31370849898476
 20
-4.063850817825431
 30
0.0
 11
1.249999999999874
 21
2.165063509461169
 31
0.0
210
0.0
220
0.0
230
1.0
 40
0.5773502691896248
 41
3.579741684173544
 42
5.845036276594997
  0
ELLIPSE
  5
F11B
330
F071
100
AcDbEntity
  8
0
100
AcDbEllipse
 10
11.31370849898478
 20
12.26608080072907
 30
0.0
 11
1.249999999999874
 21
2.165063509461169
 31
0.0
210
0.0
220
0.0
230
1.0
 40
0.5773502691896248
 41
3.579741684173548
 42
5.845036276594997
  0
ELLIPSE
  5
F11C
330
F071
100
AcDbEntity
  8
0
100
AcDbEllipse
 10
11.31370849898474
 20
-20.39378243637994
 30
0.0
 11
1.249999999999874
 21
2.165063509461169
 31
0.0
210
0.0
220
0.0
230
1.0
 40
0.5773502691896246
 41
3.579741684173546
 42
5.845036276594998
  0
ELLIPSE
  5
F11D
330
F071
100
AcDbEntity
  8
0
100
AcDbEllipse
 10
12.37436867076456
 20
-21.00615487207573
 30
0.0
 11
-1.250000000000002
 21
-2.165063509461094
 31
0.0
210
0.0
220
0.0
230
1.0
 40
0.5773502691896249
 41
0.0
 42
6.283185307179586
  0
ELLIPSE
  5
F11E
330
F071
100
AcDbEntity
  8
0
100
AcDbEllipse
 10
12.3743686707646
 20
11.65370836503328
 30
0.0
 11
-1.250000000000002
 21
-2.165063509461094
 31
0.0
210
0.0
220
0.0
230
1.0
 40
0.5773502691896249
 41
0.0
 42
6.283185307179586
  0
ELLIPSE
  5
F11F
330
F071
100
AcDbEntity
  8
0
100
AcDbEllipse
 10
12.37436867076457
 20
-4.676223253521225
 30
0.0
 11
-1.250000000000002
 21
-2.165063509461094
 31
0.0
210
0.0
220
0.0
230
1.0
 40
0.5773502691896249
 41
0.0
 42
6.283185307179586
  0
ELLIPSE
  5
F120
330
F071
100
AcDbEntity
  8
0
100
AcDbEllipse
 10
37.29112720876968
 20
21.97013105790788
 30
0.0
 11
-1.185309973000765
 21
-4.029272920503762
 31
0.0
210
0.0
220
0.0
230
1.0
 40
0.3706816908110082
 41
4.714609510599316
 42
6.051826567759557
  0
ELLIPSE
  5
F121
330
F071
100
AcDbEntity
  8
0
100
AcDbEllipse
 10
33.11441461116586
 20
20.4056875911163
 30
0.0
 11
7.592729584066628
 21
-0.0000000000000111
 31
0.0
210
0.0
220
0.0
230
1.0
 40
0.5773502691896287
 41
1.660962753237635
 42
1.908429487387541
  0
ELLIPSE
  5
F122
330
F071
100
AcDbEntity
  8
0
100
AcDbEllipse
 10
27.7067902900751
 20
21.53463362850962
 30
0.0
 11
1.624629784830869
 21
-3.87305797300278
 31
0.0
210
0.0
220
0.0
230
1.0
 40
0.4799246488165454
 41
0.0
 42
1.910948379511896
  0
LINE
  5
F123
330
F071
100
AcDbEntity
  8
0
100
AcDbLine
 10
24.44432172944219
 20
15.61158683819965
 30
0.0
 11
29.33142007490597
 21
17.66157565550684
 31
0.0
  0
SPLINE
  5
F124
330
F071
100
AcDbEntity
  8
0
100
AcDbSpline
210
0.0
220
0.0
230
1.0
 70
     8
 71
     3
 72
    16
 73
    12
 74
     0
 42
0.000000001
 43
0.0000000001
 40
3.298672286269283
 40
3.298672286269283
 40
3.298672286269283
 40
3.298672286269283
 40
3.440463867569784
 40
3.440463867569784
 40
3.582255448870285
 40
3.582255448870285
 40
3.724047030170786
 40
3.724047030170786
 40
3.865838611471287
 40
3.865838611471287
 40
4.007630192771787
 40
4.007630192771787
 40
4.007630192771787
 40
4.007630192771787
 10
29.33142007490598
 20
17.66157565550682
 30
0.0
 10
29.5458883342073
 20
17.75153855417514
 30
0.0
 10
29.78349190425085
 20
17.83764524978835
 30
0.0
 10
30.29561014675498
 20
17.99403637947965
 30
0.0
 10
30.57010259869285
 20
18.06433988273696
 30
0.0
 10
31.14564880488509
 20
18.1836571337955
 30
0.0
 10
31.44669155881871
 20
18.2326839487828
 30
0.0
 10
32.0645462443719
 20
18.30608829210724
 30
0.0
 10
32.38135196227504
 20
18.33047297024819
 30
0.0
 10
33.01973515919279
 20
18.35304001962567
 30
0.0
 10
33.34130810347471
 20
18.35122444608641
 30
0.0
 10
33.65974100297681
 20
18.33636689419377
 30
0.0
  0
SPLINE
  5
F125
330
F071
100
AcDbEntity
  8
0
100
AcDbSpline
210
0.0
220
0.0
230
1.0
 70
     8
 71
     3
 72
    11
 73
     7
 74
     0
 42
0.000000001
 43
0.0000000001
 40
-1.0
 40
-1.0
 40
-1.0
 40
-1.0
 40
-0.8649350770697568
 40
-0.8649350770697568
 40
-0.8649350770697568
 40
0.0
 40
0.0
 40
0.0
 40
0.0
 10
30.75914498161484
 20
7.57122546039469
 30
0.0
 10
30.82350338532368
 20
7.679348101939287
 30
0.0
 10
30.89805784519656
 20
7.778267443261612
 30
0.0
 10
30.98221960039166
 20
7.86450480122653
 30
0.0
 10
31.52117858868202
 20
8.416755631712021
 30
0.0
 10
32.46832396630574
 20
8.263626294515557
 30
0.0
 10
32.88046532517448
 20
7.571225460394681
 30
0.0
  0
ELLIPSE
  5
F126
330
F071
100
AcDbEntity
  8
0
100
AcDbEllipse
 10
31.81980515339456
 20
6.550604734235085
 30
0.0
 11
-1.250000000000004
 21
-2.165063509461095
 31
0.0
210
0.0
220
0.0
230
1.0
 40
0.5773502691896246
 41
4.570491925780524
 42
6.425082361783758
  0
ELLIPSE
  5
F127
330
F071
100
AcDbEntity
  8
0
100
AcDbEllipse
 10
43.4870670429727
 20
1.039252812972857
 30
0.0
 11
2.75
 21
-4.763139720814411
 31
0.0
210
0.0
220
0.0
230
1.0
 40
0.5773502691896259
 41
5.871908223239688
 42
6.08912220976102
  0
ELLIPSE
  5
F128
330
F071
100
AcDbEntity
  8
0
100
AcDbEllipse
 10
43.4870670429727
 20
1.039252812972857
 30
0.0
 11
-2.75
 21
4.763139720814411
 31
0.0
210
0.0
220
0.0
230
1.0
 40
0.5773502691896259
 41
0.1940630974185669
 42
1.982073410734791
  0
LINE
  5
F129
330
F071
100
AcDbEntity
  8
0
100
AcDbLine
 10
42.06578241278771
 20
-2.320271790170829
 30
0.0
 11
42.06578241278771
 21
-2.971968726616274
 31
0.0
  0
ELLIPSE
  5
F12A
330
F071
100
AcDbEntity
  8
0
100
AcDbEllipse
 10
31.81980515339465
 20
6.550604734235032
 30
0.0
 11
1.25
 21
-2.165063509461095
 31
0.0
210
0.0
220
0.0
230
1.0
 40
0.5773502691896258
 41
6.141288252575426
 42
7.995878688578642
  0
LINE
  5
F12B
330
F071
100
AcDbEntity
  8
0
100
AcDbLine
 10
41.00860120637133
 20
-5.694770078365309
 30
0.0
 11
41.00512224100789
 21
-5.692761496776235
 31
0.0
  0
LINE
  5
F12C
330
F071
100
AcDbEntity
  8
0
100
AcDbLine
 10
41.00512224100789
 20
-5.692761496776235
 30
0.0
 11
41.00512224100789
 21
-2.932644225866622
 31
0.0
  0
ELLIPSE
  5
F12D
330
F071
100
AcDbEntity
  8
0
100
AcDbEllipse
 10
42.42640687119286
 20
0.4268803772770636
 30
0.0
 11
-2.749999999999717
 21
4.763139720814578
 31
0.0
210
0.0
220
0.0
230
1.0
 40
0.5773502691896258
 41
2.730315569650136
 42
8.265258717914431
  0
LINE
  5
F12E
330
F071
100
AcDbEntity
  8
0
100
AcDbLine
 10
43.84769150137781
 20
-4.573802353531353
 30
0.0
 11
43.84769150137781
 21
-7.333919624440965
 31
0.0
  0
LINE
  5
F12F
330
F071
100
AcDbEntity
  8
0
100
AcDbLine
 10
43.84769150137781
 20
-7.333919624440965
 30
0.0
 11
43.84421253601437
 21
-7.331911042851895
 31
0.0
  0
SPLINE
  5
F130
330
F071
100
AcDbEntity
  8
0
100
AcDbSpline
210
0.0
220
0.0
230
1.0
 70
     8
 71
     3
 72
    11
 73
     7
 74
     0
 42
0.000000001
 43
0.0000000001
 40
0.1340645268891879
 40
0.1340645268891879
 40
0.1340645268891879
 40
0.1340645268891879
 40
0.8649350770705567
 40
0.8649350770705567
 40
0.8649350770705567
 40
0.8659354731107889
 40
0.8659354731107889
 40
0.8659354731107889
 40
0.8659354731107889
 10
30.15187087686149
 20
4.930977246369518
 30
0.0
 10
31.09038262954637
 20
4.95998291683104
 30
0.0
 10
32.58413505816354
 20
5.006820661226836
 30
0.0
 10
33.49497625940365
 20
4.942522634324775
 30
0.0
 10
33.4962229944524
 20
4.942434624907119
 30
0.0
 10
33.49746867538147
 20
4.942346736340295
 30
0.0
 10
33.49871330171241
 20
4.942258970301334
 30
0.0
  0
LINE
  5
F131
330
F071
100
AcDbEntity
  8
0
100
AcDbLine
 10
41.00512224100789
 20
-5.692761496776235
 30
0.0
 11
41.01220509396551
 21
-5.688672209714522
 31
0.0
  0
LINE
  5
F132
330
F071
100
AcDbEntity
  8
0
100
AcDbLine
 10
30.75914498161484
 20
4.305239136683778
 30
0.0
 11
30.46933059194352
 21
4.472563552575539
 31
0.0
  0
LINE
  5
F133
330
F071
100
AcDbEntity
  8
0
100
AcDbLine
 10
30.46933059194352
 20
4.472563552575539
 30
0.0
 11
30.40559159102145
 21
4.509363281915779
 31
0.0
  0
SPLINE
  5
F134
330
F071
100
AcDbEntity
  8
0
100
AcDbSpline
210
0.0
220
0.0
230
1.0
 70
     8
 71
     3
 72
    11
 73
     7
 74
     0
 42
0.000000001
 43
0.0000000001
 40
-1.0
 40
-1.0
 40
-1.0
 40
-1.0
 40
-0.8649350770705567
 40
-0.8649350770705567
 40
-0.8649350770705567
 40
0.0
 40
0.0
 40
0.0
 40
0.0
 10
32.88046532517447
 20
4.305239136683791
 30
0.0
 10
32.81610692146602
 20
4.271431178551177
 30
0.0
 10
32.74155246159364
 20
4.244910997456758
 30
0.0
 10
32.65739070639916
 20
4.224086731037144
 30
0.0
 10
32.11843171810899
 20
4.090731318766329
 30
0.0
 10
31.17128634048397
 20
4.088738151536155
 30
0.0
 10
30.75914498161483
 20
4.305239136683787
 30
0.0
  0
LINE
  5
F135
330
F071
100
AcDbEntity
  8
0
100
AcDbLine
 10
32.88046532517447
 20
4.305239136683787
 30
0.0
 11
33.17027971484382
 21
4.47256355257442
 31
0.0
  0
LINE
  5
F136
330
F071
100
AcDbEntity
  8
0
100
AcDbLine
 10
33.17027971484382
 20
4.47256355257442
 30
0.0
 11
33.23401871576776
 21
4.509363281915734
 31
0.0
  0
LINE
  5
F137
330
F071
100
AcDbEntity
  8
0
100
AcDbLine
 10
43.84769150137781
 20
-4.573802353531353
 30
0.0
 11
44.90835167315764
 21
-3.961429917835554
 31
0.0
  0
LINE
  5
F138
330
F071
100
AcDbEntity
  8
0
100
AcDbLine
 10
41.00512224100789
 20
-2.932644225866622
 30
0.0
 11
42.06578241278771
 21
-2.320271790170829
 31
0.0
  0
LINE
  5
F139
330
F071
100
AcDbEntity
  8
0
100
AcDbLine
 10
46.11970407631787
 20
-0.2985315203937189
 30
0.0
 11
43.13351365237941
 21
-2.022609365506089
 31
0.0
  0
LINE
  5
F13A
330
F071
100
AcDbEntity
  8
0
100
AcDbLine
 10
-3.181980515339553
 20
57.37751689698601
 30
0.0
 11
-17.32411613907054
 21
65.54248270626333
 31
0.0
  0
LINE
  5
F13B
330
F071
100
AcDbEntity
  8
0
100
AcDbLine
 10
-21.56675682618978
 20
63.09299296348008
 30
0.0
 11
-21.56675682618978
 21
45.53831647353398
 31
0.0
  0
LINE
  5
F13C
330
F071
100
AcDbEntity
  8
0
100
AcDbLine
 10
-21.56675682618978
 20
39.82284040703991
 30
0.0
 11
-21.56675682618978
 21
37.37335066425673
 31
0.0
  0
LINE
  5
F13D
330
F071
100
AcDbEntity
  8
0
100
AcDbLine
 10
48.08326112068528
 20
29.00426070974744
 30
0.0
 11
33.94112549695433
 21
37.16922651902474
 31
0.0
  0
LINE
  5
F13E
330
F071
100
AcDbEntity
  8
0
100
AcDbLine
 10
32.88046532517451
 20
36.55685408332895
 30
0.0
 11
47.02260094890546
 21
28.39188827405163
 31
0.0
  0
LINE
  5
F13F
330
F071
100
AcDbEntity
  8
0
100
AcDbLine
 10
52.32590180780452
 20
-15.74749788123664
 30
0.0
 11
52.32590180780456
 21
21.65579148139793
 31
0.0
  0
LINE
  5
F140
330
F071
100
AcDbEntity
  8
0
100
AcDbLine
 10
51.2652416360247
 20
-16.35987031693243
 30
0.0
 11
51.26524163602474
 21
21.04341904570213
 31
0.0
  0
LINE
  5
F141
330
F071
100
AcDbEntity
  8
0
100
AcDbLine
 10
-2.121320343559731
 20
57.98988933268178
 30
0.0
 11
-16.26345596729067
 21
66.15485514195903
 31
0.0
  0
ELLIPSE
  5
F142
330
F071
100
AcDbEntity
  8
0
100
AcDbEllipse
 10
45.96194077712559
 20
-14.270058079422
 30
0.0
 11
1.250000000000129
 21
-2.165063509461021
 31
0.0
210
0.0
220
0.0
230
1.0
 40
0.5773502691896259
 41
3.579741684173548
 42
5.845036276594997
  0
ELLIPSE
  5
F143
330
F071
100
AcDbEntity
  8
0
100
AcDbEllipse
 10
38.89087296526011
 20
-15.90305124127743
 30
0.0
 11
1.250000000000129
 21
-2.165063509461021
 31
0.0
210
0.0
220
0.0
230
1.0
 40
0.5773502691896259
 41
3.579741684173548
 42
5.845036276594995
  0
ELLIPSE
  5
F144
330
F071
100
AcDbEntity
  8
0
100
AcDbEllipse
 10
38.89087296526014
 20
11.85783251026523
 30
0.0
 11
1.250000000000128
 21
-2.165063509461022
 31
0.0
210
0.0
220
0.0
230
1.0
 40
0.5773502691896259
 41
3.579741684173544
 42
5.845036276594993
  0
ELLIPSE
  5
F145
330
F071
100
AcDbEntity
  8
0
100
AcDbEllipse
 10
38.89087296526016
 20
28.18776412881974
 30
0.0
 11
1.250000000000129
 21
-2.165063509461021
 31
0.0
210
0.0
220
0.0
230
1.0
 40
0.5773502691896259
 41
3.579741684173553
 42
5.845036276594992
  0
ELLIPSE
  5
F146
330
F071
100
AcDbEntity
  8
0
100
AcDbEllipse
 10
45.96194077712562
 20
15.94031541490384
 30
0.0
 11
1.250000000000129
 21
-2.165063509461021
 31
0.0
210
0.0
220
0.0
230
1.0
 40
0.5773502691896259
 41
3.579741684173546
 42
5.845036276594997
  0
ELLIPSE
  5
F147
330
F071
100
AcDbEntity
  8
0
100
AcDbEllipse
 10
38.89087296526012
 20
-4.472099108289273
 30
0.0
 11
1.250000000000128
 21
-2.165063509461022
 31
0.0
210
0.0
220
0.0
230
1.0
 40
0.5773502691896259
 41
3.579741684173546
 42
5.845036276594993
  0
ELLIPSE
  5
F148
330
F071
100
AcDbEntity
  8
0
100
AcDbEllipse
 10
37.83021279348029
 20
-16.51542367697323
 30
0.0
 11
1.249999999999999
 21
-2.165063509461096
 31
0.0
210
0.0
220
0.0
230
1.0
 40
0.5773502691896259
 41
0.0
 42
6.283185307179586
  0
ELLIPSE
  5
F149
330
F071
100
AcDbEntity
  8
0
100
AcDbEllipse
 10
44.90128060534576
 20
-14.88243051511779
 30
0.0
 11
1.249999999999999
 21
-2.165063509461096
 31
0.0
210
0.0
220
0.0
230
1.0
 40
0.5773502691896259
 41
0.0
 42
6.283185307179586
  0
ELLIPSE
  5
F14A
330
F071
100
AcDbEntity
  8
0
100
AcDbEllipse
 10
37.8302127934803
 20
-5.084471543985071
 30
0.0
 11
1.249999999999999
 21
-2.165063509461096
 31
0.0
210
0.0
220
0.0
230
1.0
 40
0.5773502691896259
 41
0.0
 42
6.283185307179586
  0
ELLIPSE
  5
F14B
330
F071
100
AcDbEntity
  8
0
100
AcDbEllipse
 10
44.9012806053458
 20
15.32794297920806
 30
0.0
 11
1.249999999999999
 21
-2.165063509461096
 31
0.0
210
0.0
220
0.0
230
1.0
 40
0.5773502691896259
 41
0.0
 42
6.283185307179586
  0
ELLIPSE
  5
F14C
330
F071
100
AcDbEntity
  8
0
100
AcDbEllipse
 10
37.83021279348034
 20
27.57539169312393
 30
0.0
 11
1.249999999999999
 21
-2.165063509461096
 31
0.0
210
0.0
220
0.0
230
1.0
 40
0.5773502691896259
 41
0.0
 42
6.283185307179586
  0
ELLIPSE
  5
F14D
330
F071
100
AcDbEntity
  8
0
100
AcDbEllipse
 10
37.83021279348032
 20
11.24546007456943
 30
0.0
 11
1.249999999999999
 21
-2.165063509461096
 31
0.0
210
0.0
220
0.0
230
1.0
 40
0.5773502691896259
 41
0.0
 42
6.283185307179586
  0
LINE
  5
F14E
330
F071
100
AcDbEntity
  8
0
100
AcDbLine
 10
32.88046532517442
 20
-25.27416330387574
 30
0.0
 11
47.52486939021284
 21
-22.32324151536531
 31
0.0
  0
SPLINE
  5
F14F
330
F071
100
AcDbEntity
  8
0
100
AcDbSpline
210
0.0
220
0.0
230
1.0
 70
     8
 71
     3
 72
     8
 73
     4
 74
     0
 42
0.000000001
 43
0.0000000001
 40
-1.0
 40
-1.0
 40
-1.0
 40
-1.0
 40
0.0
 40
0.0
 40
0.0
 40
0.0
 10
30.75914498161479
 20
-26.92636499730113
 30
0.0
 10
31.3145053488846
 20
-26.05499364195202
 30
0.0
 10
32.32510495790464
 20
-25.50425974414365
 30
0.0
 10
32.88046532517443
 20
-25.27416330387574
 30
0.0
  0
LINE
  5
F150
330
F071
100
AcDbEntity
  8
0
100
AcDbLine
 10
41.00860120637133
 20
-5.698917880996412
 30
0.0
 11
41.00860120637133
 21
-5.694770078365309
 31
0.0
  0
LINE
  5
F151
330
F071
100
AcDbEntity
  8
0
100
AcDbLine
 10
43.84421253601437
 20
-7.331911042851895
 30
0.0
 11
43.84421253601437
 21
-7.336058845482984
 31
0.0
  0
LINE
  5
F152
330
F071
100
AcDbEntity
  8
0
100
AcDbLine
 10
43.84421253601437
 20
-7.336058845482984
 30
0.0
 11
43.84062043356594
 21
-7.333984944167428
 31
0.0
  0
LINE
  5
F153
330
F071
100
AcDbEntity
  8
0
100
AcDbLine
 10
43.84062043356594
 20
-7.333984944167428
 30
0.0
 11
43.84062043356594
 21
-7.329837141536343
 31
0.0
  0
LINE
  5
F154
330
F071
100
AcDbEntity
  8
0
100
AcDbLine
 10
43.84062043356594
 20
-7.329837141536343
 30
0.0
 11
41.01219330881976
 21
-5.69684397968087
 31
0.0
  0
LINE
  5
F155
330
F071
100
AcDbEntity
  8
0
100
AcDbLine
 10
41.01219330881976
 20
-5.69684397968087
 30
0.0
 11
41.01219330881976
 21
-5.700991782311972
 31
0.0
  0
LINE
  5
F156
330
F071
100
AcDbEntity
  8
0
100
AcDbLine
 10
41.01219330881976
 20
-5.700991782311972
 30
0.0
 11
41.00860120637133
 21
-5.698917880996412
 31
0.0
  0
ELLIPSE
  5
F157
330
F071
100
AcDbEntity
  8
0
100
AcDbEllipse
 10
43.13351365237939
 20
-4.472099108289264
 30
0.0
 11
-1.499999999999807
 21
-2.598076211353429
 31
0.0
210
0.0
220
0.0
230
1.0
 40
0.5773502691896329
 41
3.926990816986986
 42
5.497787143781883
  0
ELLIPSE
  5
F158
330
F071
100
AcDbEntity
  8
0
100
AcDbEllipse
 10
45.96194077712557
 20
-6.105092270144725
 30
0.0
 11
1.500000000000154
 21
2.598076211353226
 31
0.0
210
0.0
220
0.0
230
1.0
 40
0.5773502691896259
 41
2.274522134611977
 42
2.356194490192589
  0
ELLIPSE
  5
F159
330
F071
100
AcDbEntity
  8
0
100
AcDbEllipse
 10
45.96194077712557
 20
-6.105092270144725
 30
0.0
 11
1.499999999999991
 21
2.598076211353321
 31
0.0
210
0.0
220
0.0
230
0.9999999999999998
 40
0.5773502691896243
 41
0.8625158344705727
 42
0.9940868618318887
  0
LINE
  5
F15A
330
F071
100
AcDbEntity
  8
0
100
AcDbLine
 10
43.84062043356594
 20
-7.329837141536343
 30
0.0
 11
43.84769150137781
 21
-7.3257546586317
 31
0.0
  0
LINE
  5
F15B
330
F071
100
AcDbEntity
  8
0
100
AcDbLine
 10
43.13351365237941
 20
-2.022609365506089
 30
0.0
 11
45.89050848633061
 21
-3.614361075042231
 31
0.0
  0
LINE
  5
F15C
330
F071
100
AcDbEntity
  8
0
100
AcDbLine
 10
41.01219330881976
 20
-5.696843979680856
 30
0.0
 11
41.00860120637133
 21
-5.698917880996412
 31
0.0
  0
LINE
  5
F15D
330
F071
100
AcDbEntity
  8
0
100
AcDbLine
 10
41.00860120637133
 20
-5.694770078365309
 30
0.0
 11
41.01219635013534
 21
-5.692694421145385
 31
0.0
  0
LINE
  5
F15E
330
F071
100
AcDbEntity
  8
0
100
AcDbLine
 10
43.84421253601437
 20
-7.331911042851877
 30
0.0
 11
43.84062043356594
 21
-7.333984944167428
 31
0.0
  0
LINE
  5
F15F
330
F071
100
AcDbEntity
  8
0
100
AcDbLine
 10
43.84769150137781
 20
-7.329902461262802
 30
0.0
 11
43.84421253601437
 21
-7.331911042851895
 31
0.0
  0
SPLINE
  5
F160
330
F071
100
AcDbEntity
  8
0
100
AcDbSpline
210
0.0
220
0.0
230
1.0
 70
     8
 71
     3
 72
     8
 73
     4
 74
     0
 42
0.000000001
 43
0.0000000001
 40
0.0
 40
0.0
 40
0.0
 40
0.0
 40
1.0
 40
1.0
 40
1.0
 40
1.0
 10
1.750089283436642
 20
-19.7712037934225
 30
0.0
 10
1.166726188957607
 20
-20.07567386887068
 30
0.0
 10
0.0780632899688993
 20
-20.61407396370409
 30
0.0
 10
-1.060660171779879
 20
-20.59790658161182
 30
0.0
  0
LINE
  5
F161
330
F071
100
AcDbEntity
  8
0
100
AcDbLine
 10
5.83363094478897
 20
-16.41336160435723
 30
0.0
 11
1.750089283436651
 21
-19.77120379342251
 31
0.0
  0
LINE
  5
F162
330
F071
100
AcDbEntity
  8
0
100
AcDbLine
 10
6.010407640085643
 20
-16.31129953174125
 30
0.0
 11
5.83363094478897
 21
-16.41336160435723
 31
0.0
  0
SPLINE
  5
F163
330
F071
100
AcDbEntity
  8
0
100
AcDbSpline
210
0.0
220
0.0
230
1.0
 70
     8
 71
     3
 72
     8
 73
     4
 74
     0
 42
0.000000001
 43
0.0000000001
 40
0.0
 40
0.0
 40
0.0
 40
0.0
 40
0.0066527737998324
 40
0.0066527737998324
 40
0.0066527737998324
 40
0.0066527737998324
 10
1.696647692437709
 20
-19.79913975680859
 30
0.0
 10
1.715562713349376
 20
-19.78924468241554
 30
0.0
 10
1.734285550227341
 20
-19.77918289930945
 30
0.0
 10
1.752797606982956
 20
-19.76897677486371
 30
0.0
  0
LINE
  5
F164
330
F071
100
AcDbEntity
  8
0
100
AcDbLine
 10
1.750089283436651
 20
-19.77120379342251
 30
0.0
 11
5.613155552994113
 21
-22.00154614404887
 31
0.0
  0
LINE
  5
F165
330
F071
100
AcDbEntity
  8
0
100
AcDbLine
 10
4.979544334122236
 20
-24.0852202790548
 30
0.0
 11
-1.060660171779872
 21
-20.59790658161182
 31
0.0
  0
LINE
  5
F166
330
F071
100
AcDbEntity
  8
0
100
AcDbLine
 10
12.86621977040619
 20
-20.4736286559273
 30
0.0
 11
11.52896418052966
 21
-19.70156378113675
 31
0.0
  0
LINE
  5
F167
330
F071
100
AcDbEntity
  8
0
100
AcDbLine
 10
6.010407640085642
 20
-16.51542367697322
 30
0.0
 11
5.83363094478897
 21
-16.41336160435723
 31
0.0
  0
LINE
  5
F168
330
F071
100
AcDbEntity
  8
0
100
AcDbLine
 10
13.08147545195111
 20
-19.37316171022025
 30
0.0
 11
12.37436867076457
 21
-18.9649134197564
 31
0.0
  0
ENDBLK
  5
F073
330
F071
100
AcDbEntity
  8
0
100
AcDbBlockEnd
  0
ENDSEC
  0
SECTION
  2
ENTITIES
  0
INSERT
  5
F169
330
1F
100
AcDbEntity
  8
0
100
AcDbBlockReference
  2
SBE45_93-Front
 10
0.0
 20
0.0
 30
0.0
  0
INSERT
  5
F16A
330
1F
100
AcDbEntity
  8
0
100
AcDbBlockReference
  2
SBE45_93-Left
 10
88.70000000000016
 20
0.0
 30
0.0
  0
INSERT
  5
F16B
330
1F
100
AcDbEntity
  8
0
100
AcDbBlockReference
  2
SBE45_93-Right
 10
-88.70000000000002
 20
0.0
 30
0.0
  0
INSERT
  5
F16C
330
1F
100
AcDbEntity
  8
0
100
AcDbBlockReference
  2
SBE45_93-Top
 10
0.0
 20
-38.70000000000003
 30
0.0
  0
INSERT
  5
F16D
330
1F
100
AcDbEntity
  8
0
100
AcDbBlockReference
  2
SBE45_93-Bottom
 10
0.0
 20
129.7000000000001
 30
0.0
  0
INSERT
  5
F16E
330
1F
100
AcDbEntity
  8
0
100
AcDbBlockReference
  2
SBE45_93-ISO
 10
118.9444263558537
 20
-95.85485514195907
 30
0.0
  0
MTEXT
  5
F16F
330
1F
100
AcDbEntity
  8
0
100
AcDbMText
 10
0.0
 20
-120.9
 30
0.0
 40
9.400000000000007
 41
0.0
 71
     5
 72
     5
  1
SBE45/93
 73
     1
 44
1.0
1001
ACAD
1000
MTEXTBEGIN
1070
    73
1070
     1
1070
    44
1040
1.0
1070
    74
1070
     0
1000
MTEXTEND
  0
ENDSEC
  0
SECTION
  2
OBJECTS
  0
DICTIONARY
  5
C
330
0
100
AcDbDictionary
281
     1
  3
ACAD_CIP_PREVIOUS_PRODUCT_INFO
350
216
  3
ACAD_COLOR
350
6B
  3
ACAD_DETAILVIEWSTYLE
350
21B
  3
ACAD_GROUP
350
D
  3
ACAD_LAYOUT
350
1A
  3
ACAD_MATERIAL
350
6A
  3
ACAD_MLEADERSTYLE
350
12D
  3
ACAD_MLINESTYLE
350
17
  3
ACAD_PLOTSETTINGS
350
19
  3
ACAD_PLOTSTYLENAME
350
E
  3
ACAD_SCALELIST
350
10C
  3
ACAD_SECTIONVIEWSTYLE
350
219
  3
ACAD_TABLESTYLE
350
7E
  3
ACAD_VISUALSTYLE
350
EF
  3
ACDB_RECOMPOSE_DATA
350
F270
  3
AcDbVariableDictionary
350
5E
  3
DWGPROPS
350
F271
  0
DICTIONARY
  5
F1C0
330
8
100
AcDbDictionary
280
     1
281
     1
  0
DICTIONARY
  5
1FF
330
2
100
AcDbDictionary
280
     1
281
     1
  3
ACAD_LAYERSTATES
360
200
  0
DICTIONARY
  5
13C
330
10
100
AcDbDictionary
280
     1
281
     1
  0
DICTIONARY
  5
1CE
330
1F
100
AcDbDictionary
280
     1
281
     1
  3
ACAD_LAYOUTSELFREF
360
F1C8
  0
DICTIONARY
  5
F173
330
D2
100
AcDbDictionary
280
     1
281
     1
  3
ACAD_LAYOUTSELFREF
360
F1D1
  0
DICTIONARY
  5
F175
330
D6
100
AcDbDictionary
280
     1
281
     1
  3
ACAD_LAYOUTSELFREF
360
F1D4
  0
XRECORD
  5
216
102
{ACAD_REACTORS
330
C
102
}
330
C
100
AcDbXrecord
280
     1
300
ACD
300
2021
300

  0
DICTIONARY
  5
6B
102
{ACAD_REACTORS
330
C
102
}
330
C
100
AcDbDictionary
281
     1
  0
DICTIONARY
  5
21B
102
{ACAD_REACTORS
330
C
102
}
330
C
100
AcDbDictionary
281
     1
  3
Metric50
350
21C
  0
DICTIONARY
  5
D
102
{ACAD_REACTORS
330
C
102
}
330
C
100
AcDbDictionary
281
     1
  0
DICTIONARY
  5
1A
102
{ACAD_REACTORS
330
C
102
}
330
C
100
AcDbDictionary
281
     1
  3
Layout1
350
D3
  3
Layout2
350
D7
  3
Model
350
22
  0
DICTIONARY
  5
6A
102
{ACAD_REACTORS
330
C
102
}
330
C
100
AcDbDictionary
281
     1
  3
ByBlock
350
ED
  3
ByLayer
350
EC
  3
Global
350
EE
  0
DICTIONARY
  5
12D
102
{ACAD_REACTORS
330
C
102
}
330
C
100
AcDbDictionary
281
     1
  3
Standard
350
12E
  0
DICTIONARY
  5
17
102
{ACAD_REACTORS
330
C
102
}
330
C
100
AcDbDictionary
281
     1
  3
Standard
350
18
  0
DICTIONARY
  5
19
102
{ACAD_REACTORS
330
C
102
}
330
C
100
AcDbDictionary
281
     1
  0
ACDBDICTIONARYWDFLT
  5
E
102
{ACAD_REACTORS
330
C
102
}
330
C
100
AcDbDictionary
281
     1
  3
Normal
350
F
100
AcDbDictionaryWithDefault
340
F
  0
DICTIONARY
  5
10C
102
{ACAD_REACTORS
330
C
102
}
330
C
100
AcDbDictionary
281
     1
  3
A0
350
10D
  3
A1
350
1BE
  3
A2
350
1BF
  3
A3
350
1C0
  3
A4
350
1C1
  3
A5
350
1C2
  3
A6
350
1C3
  3
A7
350
1C4
  3
A8
350
1C5
  3
A9
350
1C6
  3
B0
350
1C7
  3
B1
350
1C8
  3
B2
350
1C9
  3
B3
350
1CA
  3
B4
350
1CB
  3
B5
350
1CC
  3
B6
350
1CD
  0
DICTIONARY
  5
219
102
{ACAD_REACTORS
330
C
102
}
330
C
100
AcDbDictionary
281
     1
  3
Metric50
350
21A
  0
DICTIONARY
  5
7E
102
{ACAD_REACTORS
330
C
102
}
330
C
100
AcDbDictionary
281
     1
  3
Standard
350
7F
  0
DICTIONARY
  5
EF
102
{ACAD_REACTORS
330
C
102
}
330
C
100
AcDbDictionary
281
     1
  3
2dWireframe
350
F5
  3
Basic
350
F4
  3
Brighten
350
FB
  3
ColorChange
350
FF
  3
Conceptual
350
F8
  3
Dim
350
FA
  3
EdgeColorOff
350
1E6
  3
Facepattern
350
FE
  3
Flat
350
F0
  3
FlatWithEdges
350
F1
  3
Gouraud
350
F2
  3
GouraudWithEdges
350
F3
  3
Hidden
350
F7
  3
JitterOff
350
1E4
  3
Linepattern
350
FD
  3
OverhangOff
350
1E5
  3
Realistic
350
F9
  3
Shaded
350
1F3
  3
Shaded with edges
350
1F2
  3
Shades of Gray
350
1EF
  3
Sketchy
350
1F0
  3
Thicken
350
FC
  3
Wireframe
350
F6
  3
X-Ray
350
1F1
  0
XRECORD
  5
F270
102
{ACAD_REACTORS
330
C
102
}
330
C
100
AcDbXrecord
280
     1
 90
        1
330
7F
  0
DICTIONARY
  5
5E
102
{ACAD_REACTORS
330
C
102
}
330
C
100
AcDbDictionary
281
     1
  3
CANNOSCALE
350
146
  3
CENTEREXE
350
259
  3
CENTERLTYPEFILE
350
25A
  3
CMLEADERSTYLE
350
145
  3
CTABLESTYLE
350
84
  3
CVIEWDETAILSTYLE
350
227
  3
CVIEWSECTIONSTYLE
350
228
  3
DIMASSOC
350
5F
  3
HIDETEXT
350
63
  3
INDEXCTL
350
F21D
  3
LAYEREVAL
350
1AE
  3
LAYERNOTIFY
350
1AF
  3
LIGHTINGUNITS
350
F21B
  3
MSLTSCALE
350
F21A
  3
PSOLHEIGHT
350
F26D
  3
PSOLWIDTH
350
F26C
  3
SORTENTS
350
F21C
  3
XCLIPFRAME
350
F26E
  0
XRECORD
  5
F271
102
{ACAD_REACTORS
330
C
102
}
330
C
100
AcDbXrecord
280
     1
  1
DWGPROPS COOKIE
  2

  3

  4

  6

  7

  8
tronnguyen
  9

300
=
301
=
302
=
303
=
304
=
305
=
306
=
307
=
308
=
309
=
 40
0.0049537037037037
 41
2460286.6225
 42
2460286.639479167
  1

 90
        0
  0
DICTIONARY
  5
200
102
{ACAD_REACTORS
330
1FF
102
}
330
1FF
100
AcDbDictionary
281
     1
  0
XRECORD
  5
F1C8
102
{ACAD_REACTORS
330
1CE
102
}
330
1CE
100
AcDbXrecord
280
     1
340
1F
  0
XRECORD
  5
F1D1
102
{ACAD_REACTORS
330
F173
102
}
330
F173
100
AcDbXrecord
280
     1
340
D2
  0
XRECORD
  5
F1D4
102
{ACAD_REACTORS
330
F175
102
}
330
F175
100
AcDbXrecord
280
     1
340
D6
  0
ACDBDETAILVIEWSTYLE
  5
21C
102
{ACAD_XDICTIONARY
360
F2B0
102
}
102
{ACAD_REACTORS
330
21B
102
}
330
21B
100
AcDbModelDocViewStyle
 70
     0
  3
Metric50
290
     0
100
AcDbDetailViewStyle
 70
     0
 71
     0
 90
        3
 71
     1
340
11
 40
5.0
340
0
 40
5.0
300

 40
0.0
280
     1
 71
     2
340
16
 90
       25
 71
     3
340
11
 40
5.0
 90
        0
 40
15.0
 90
        1
300
%<\AcVar ViewDetailId>% (%<\AcVar ViewScale \f "%sn">%)
 71
     4
340
16
 90
       25
340
16
 90
       25
280
     0
  0
LAYOUT
  5
D3
102
{ACAD_XDICTIONARY
360
F275
102
}
102
{ACAD_REACTORS
330
1A
102
}
330
1A
100
AcDbPlotSettings
  1

  2
C:\Documents and Settings\basas\Application Data\Autodesk\AutoCAD 2005\R16.1\enu\plotters\Default Windows System Printer.pc3
  4

  6

 40
0.0
 41
0.0
 42
0.0
 43
0.0
 44
0.0
 45
0.0
 46
0.0
 47
0.0
 48
0.0
 49
0.0
140
0.0
141
0.0
142
1.0
143
1.0
 70
   688
 72
     0
 73
     0
 74
     5
  7

 75
    16
147
1.0
148
0.0
149
0.0
100
AcDbLayout
  1
Layout1
 70
     1
 71
     1
 10
0.0
 20
0.0
 11
12.0
 21
9.0
 12
0.0
 22
0.0
 32
0.0
 14
0.0
 24
0.0
 34
0.0
 15
0.0
 25
0.0
 35
0.0
146
0.0
 13
0.0
 23
0.0
 33
0.0
 16
1.0
 26
0.0
 36
0.0
 17
0.0
 27
1.0
 37
0.0
 76
     0
330
D2
  0
LAYOUT
  5
D7
102
{ACAD_XDICTIONARY
360
F277
102
}
102
{ACAD_REACTORS
330
1A
102
}
330
1A
100
AcDbPlotSettings
  1

  2
C:\Documents and Settings\basas\Application Data\Autodesk\AutoCAD 2005\R16.1\enu\plotters\Default Windows System Printer.pc3
  4

  6

 40
0.0
 41
0.0
 42
0.0
 43
0.0
 44
0.0
 45
0.0
 46
0.0
 47
0.0
 48
0.0
 49
0.0
140
0.0
141
0.0
142
1.0
143
1.0
 70
   688
 72
     0
 73
     0
 74
     5
  7

 75
    16
147
1.0
148
0.0
149
0.0
100
AcDbLayout
  1
Layout2
 70
     1
 71
     2
 10
0.0
 20
0.0
 11
12.0
 21
9.0
 12
0.0
 22
0.0
 32
0.0
 14
0.0
 24
0.0
 34
0.0
 15
0.0
 25
0.0
 35
0.0
146
0.0
 13
0.0
 23
0.0
 33
0.0
 16
1.0
 26
0.0
 36
0.0
 17
0.0
 27
1.0
 37
0.0
 76
     0
330
D6
  0
LAYOUT
  5
22
102
{ACAD_XDICTIONARY
360
F272
102
}
102
{ACAD_REACTORS
330
1A
102
}
330
1A
100
AcDbPlotSettings
  1

  2
none_device
  4
ISO_A4_(210.00_x_297.00_MM)
  6

 40
7.5
 41
20.0
 42
7.5
 43
20.0
 44
210.0
 45
297.0
 46
11.54999923706054
 47
-13.65000009536743
 48
0.0
 49
0.0
140
0.0
141
0.0
142
1.0
143
8.704084754739808
 70
 11952
 72
     1
 73
     0
 74
     0
  7

 75
     0
147
0.1148885871608098
148
0.0
149
0.0
100
AcDbLayout
  1
Model
 70
     1
 71
     0
 10
0.0
 20
0.0
 11
12.0
 21
9.0
 12
0.0
 22
0.0
 32
0.0
 14
0.0
 24
0.0
 34
0.0
 15
0.0
 25
0.0
 35
0.0
146
0.0
 13
0.0
 23
0.0
 33
0.0
 16
1.0
 26
0.0
 36
0.0
 17
0.0
 27
1.0
 37
0.0
 76
     0
330
1F
331
EA
1001
ACAD_PSEXT
1000
None
1000
None
1000
Not applicable
1000
The layout will not be plotted unless a new plotter configuration name is selected.
1070
     0
  0
MATERIAL
  5
ED
102
{ACAD_XDICTIONARY
360
1F9
102
}
102
{ACAD_REACTORS
330
6A
102
}
330
6A
100
AcDbMaterial
  1
ByBlock
  0
MATERIAL
  5
EC
102
{ACAD_XDICTIONARY
360
1F7
102
}
102
{ACAD_REACTORS
330
6A
102
}
330
6A
100
AcDbMaterial
  1
ByLayer
  0
MATERIAL
  5
EE
102
{ACAD_XDICTIONARY
360
173
102
}
102
{ACAD_REACTORS
330
6A
102
}
330
6A
100
AcDbMaterial
  1
Global
 43
0.0007999999797903
 43
0.0
 43
0.0
 43
0.0
 43
0.0
 43
0.0007999999797903
 43
0.0
 43
0.0
 43
0.0
 43
0.0
 43
1.0
 43
0.0
 43
0.0
 43
0.0
 43
0.0
 43
1.0
 49
0.0007999999797903
 49
0.0
 49
0.0
 49
0.0
 49
0.0
 49
0.0007999999797903
 49
0.0
 49
0.0
 49
0.0
 49
0.0
 49
1.0
 49
0.0
 49
0.0
 49
0.0
 49
0.0
 49
1.0
142
0.0007999999797903
142
0.0
142
0.0
142
0.0
142
0.0
142
0.0007999999797903
142
0.0
142
0.0
142
0.0
142
0.0
142
1.0
142
0.0
142
0.0
142
0.0
142
0.0
142
1.0
144
0.0007999999797903
144
0.0
144
0.0
144
0.0
144
0.0
144
0.0007999999797903
144
0.0
144
0.0
144
0.0
144
0.0
144
1.0
144
0.0
144
0.0
144
0.0
144
0.0
144
1.0
1001
ACAD
1070
    -1
1070
     3
1070
     0
1000

1071
        0
1070
     0
  0
MLEADERSTYLE
  5
12E
102
{ACAD_XDICTIONARY
360
F29C
102
}
102
{ACAD_REACTORS
330
12D
102
}
330
12D
100
AcDbMLeaderStyle
170
     2
171
     1
172
     0
 90
        2
 40
0.0
 41
0.0
173
     1
 91
-1056964608
340
14
 92
       -2
290
     1
 42
2.0
291
     1
 43
8.0
  3
Standard
 44
4.0
300

342
11
174
     1
178
     1
175
     1
176
     0
 93
-1056964608
 45
4.0
292
     0
297
     0
 46
4.0
 94
-1056964608
 47
1.0
 49
1.0
140
1.0
293
     1
141
0.0
294
     1
177
     0
142
1.0
295
     0
296
     0
143
3.75
1001
ACAD_MLEADERVER
1070
     2
  0
MLINESTYLE
  5
18
102
{ACAD_REACTORS
330
17
102
}
330
17
100
AcDbMlineStyle
  2
STANDARD
 70
     0
  3

 62
   256
 51
90.0
 52
90.0
 71
     2
 49
0.5
 62
   256
  6
BYLAYER
 49
-0.5
 62
   256
  6
BYLAYER
  0
ACDBPLACEHOLDER
  5
F
102
{ACAD_REACTORS
330
E
102
}
330
E
  0
SCALE
  5
10D
102
{ACAD_REACTORS
330
10C
102
}
330
10C
100
AcDbScale
 70
     0
300
1:1
140
1.0
141
1.0
290
     1
  0
SCALE
  5
1BE
102
{ACAD_REACTORS
330
10C
102
}
330
10C
100
AcDbScale
 70
     0
300
1:2
140
1.0
141
2.0
290
     0
  0
SCALE
  5
1BF
102
{ACAD_REACTORS
330
10C
102
}
330
10C
100
AcDbScale
 70
     0
300
1:4
140
1.0
141
4.0
290
     0
  0
SCALE
  5
1C0
102
{ACAD_REACTORS
330
10C
102
}
330
10C
100
AcDbScale
 70
     0
300
1:5
140
1.0
141
5.0
290
     0
  0
SCALE
  5
1C1
102
{ACAD_REACTORS
330
10C
102
}
330
10C
100
AcDbScale
 70
     0
300
1:8
140
1.0
141
8.0
290
     0
  0
SCALE
  5
1C2
102
{ACAD_REACTORS
330
10C
102
}
330
10C
100
AcDbScale
 70
     0
300
1:10
140
1.0
141
10.0
290
     0
  0
SCALE
  5
1C3
102
{ACAD_REACTORS
330
10C
102
}
330
10C
100
AcDbScale
 70
     0
300
1:16
140
1.0
141
16.0
290
     0
  0
SCALE
  5
1C4
102
{ACAD_REACTORS
330
10C
102
}
330
10C
100
AcDbScale
 70
     0
300
1:20
140
1.0
141
20.0
290
     0
  0
SCALE
  5
1C5
102
{ACAD_REACTORS
330
10C
102
}
330
10C
100
AcDbScale
 70
     0
300
1:30
140
1.0
141
30.0
290
     0
  0
SCALE
  5
1C6
102
{ACAD_REACTORS
330
10C
102
}
330
10C
100
AcDbScale
 70
     0
300
1:40
140
1.0
141
40.0
290
     0
  0
SCALE
  5
1C7
102
{ACAD_REACTORS
330
10C
102
}
330
10C
100
AcDbScale
 70
     0
300
1:50
140
1.0
141
50.0
290
     0
  0
SCALE
  5
1C8
102
{ACAD_REACTORS
330
10C
102
}
330
10C
100
AcDbScale
 70
     0
300
1:100
140
1.0
141
100.0
290
     0
  0
SCALE
  5
1C9
102
{ACAD_REACTORS
330
10C
102
}
330
10C
100
AcDbScale
 70
     0
300
2:1
140
2.0
141
1.0
290
     0
  0
SCALE
  5
1CA
102
{ACAD_REACTORS
330
10C
102
}
330
10C
100
AcDbScale
 70
     0
300
4:1
140
4.0
141
1.0
290
     0
  0
SCALE
  5
1CB
102
{ACAD_REACTORS
330
10C
102
}
330
10C
100
AcDbScale
 70
     0
300
8:1
140
8.0
141
1.0
290
     0
  0
SCALE
  5
1CC
102
{ACAD_REACTORS
330
10C
102
}
330
10C
100
AcDbScale
 70
     0
300
10:1
140
10.0
141
1.0
290
     0
  0
SCALE
  5
1CD
102
{ACAD_REACTORS
330
10C
102
}
330
10C
100
AcDbScale
 70
     0
300
100:1
140
100.0
141
1.0
290
     0
  0
ACDBSECTIONVIEWSTYLE
  5
21A
102
{ACAD_XDICTIONARY
360
F2AE
102
}
102
{ACAD_REACTORS
330
219
102
}
330
219
100
AcDbModelDocViewStyle
 70
     0
  3
Metric50
290
     0
100
AcDbSectionViewStyle
 70
     0
 71
     0
 90
      102
 71
     1
340
11
 40
5.0
340
0
340
0
 40
5.0
300
I, O, Q, S, X, Z
 40
10.0
 90
        0
 40
2.5
 90
        0
 71
     2
340
16
 90
       25
340
16
 90
       50
 40
5.0
 40
2.5
 40
5.0
 71
     3
340
11
 40
5.0
 90
        0
 40
15.0
 90
        1
300
%<\AcVar ViewSectionStartId>%-%<\AcVar ViewSectionEndId>% (%<\AcVar ViewScale \f "%sn">%)
 71
     4
300
ANSI31
 40
1.0
 90
        0
290
     0
290
     0
 90
        6
 40
0.0
 40
1.570796326794896
 40
0.2617993877991494
 40
1.308996938995747
 40
-0.2617993877991494
 40
1.832595714594046
  0
TABLESTYLE
  5
7F
102
{ACAD_XDICTIONARY
360
162
102
}
102
{ACAD_REACTORS
330
7E
102
}
330
7E
100
AcDbTableStyle
  3
Standard
 70
     0
 71
     0
 40
1.5
 41
1.5
280
     0
281
     0
  7
Standard
140
4.5
170
     2
 62
     0
 63
     7
283
     0
274
    -2
284
     1
 64
     0
275
    -2
285
     1
 65
     0
276
    -2
286
     1
 66
     0
277
    -2
287
     1
 67
     0
278
    -2
288
     1
 68
     0
279
    -2
289
     1
 69
     0
  7
Standard
140
6.0
170
     5
 62
     0
 63
     7
283
     0
274
    -2
284
     1
 64
     0
275
    -2
285
     1
 65
     0
276
    -2
286
     1
 66
     0
277
    -2
287
     1
 67
     0
278
    -2
288
     1
 68
     0
279
    -2
289
     1
 69
     0
  7
Standard
140
4.5
170
     5
 62
     0
 63
     7
283
     0
274
    -2
284
     1
 64
     0
275
    -2
285
     1
 65
     0
276
    -2
286
     1
 66
     0
277
    -2
287
     1
 67
     0
278
    -2
288
     1
 68
     0
279
    -2
289
     1
 69
     0
  0
VISUALSTYLE
  5
F5
102
{ACAD_XDICTIONARY
360
F286
102
}
102
{ACAD_REACTORS
330
EF
102
}
330
EF
100
AcDbVisualStyle
  2
2dWireframe
 70
     4
 71
     0
 72
     2
 73
     1
 90
        0
 40
-0.6
 41
-30.0
 62
     5
 63
     7
 74
     1
 91
        4
 64
     7
 65
   257
 75
     1
175
     1
 42
1.0
 92
        0
 66
   257
 43
1.0
 76
     1
 77
     6
 78
     2
 67
     7
 79
     5
170
     0
171
     0
290
     0
174
     0
 93
        1
 44
0.0
173
     0
291
     0
 45
0.0
1001
ACAD
1000
AcDbSavedByObjectVersion
1070
     0
  0
VISUALSTYLE
  5
F4
102
{ACAD_XDICTIONARY
360
F284
102
}
102
{ACAD_REACTORS
330
EF
102
}
330
EF
100
AcDbVisualStyle
  2
Basic
 70
     7
 71
     1
 72
     0
 73
     1
 90
        0
 40
-0.6
 41
-30.0
 62
     5
 63
     7
 74
     0
 91
        4
 64
     7
 65
   257
 75
     1
175
     1
 42
1.0
 92
        8
 66
     7
 43
1.0
 76
     1
 77
     6
 78
     2
 67
     7
 79
     5
170
     0
171
     0
290
     0
174
     0
 93
        1
 44
0.0
173
     0
291
     1
 45
0.0
1001
ACAD
1000
AcDbSavedByObjectVersion
1070
     0
  0
VISUALSTYLE
  5
FB
102
{ACAD_XDICTIONARY
360
F292
102
}
102
{ACAD_REACTORS
330
EF
102
}
330
EF
100
AcDbVisualStyle
  2
Brighten
 70
    12
 71
     2
 72
     2
 73
     1
 90
        0
 40
-0.6
 41
-30.0
 62
     5
 63
     7
 74
     1
 91
        4
 64
     7
 65
   257
 75
     1
175
     1
 42
1.0
 92
        8
 66
     7
 43
1.0
 76
     1
 77
     6
 78
     2
 67
     7
 79
     5
170
     0
171
     0
290
     0
174
     0
 93
        1
 44
50.0
173
     0
291
     1
 45
0.0
1001
ACAD
1000
AcDbSavedByObjectVersion
1070
     0
  0
VISUALSTYLE
  5
FF
102
{ACAD_XDICTIONARY
360
F29A
102
}
102
{ACAD_REACTORS
330
EF
102
}
330
EF
100
AcDbVisualStyle
  2
ColorChange
 70
    16
 71
     2
 72
     2
 73
     3
 90
        0
 40
-0.6
 41
-30.0
 62
     5
 63
     8
 74
     1
 91
        4
 64
     7
 65
   257
 75
     1
175
     1
 42
1.0
 92
        8
 66
     8
 43
1.0
 76
     1
 77
     6
 78
     2
 67
     7
 79
     5
170
     0
171
     0
290
     0
174
     0
 93
        1
 44
0.0
173
     0
291
     1
 45
0.0
1001
ACAD
1000
AcDbSavedByObjectVersion
1070
     0
  0
VISUALSTYLE
  5
F8
102
{ACAD_XDICTIONARY
360
F28C
102
}
102
{ACAD_REACTORS
330
EF
102
}
330
EF
100
AcDbVisualStyle
  2
Conceptual
 70
     9
 71
     3
 72
     2
 73
     1
 90
        0
 40
-0.6
 41
-30.0
 62
     5
 63
     7
 74
     2
 91
        2
 64
     7
 65
   257
 75
     1
175
     1
 42
40.0
 92
        8
 66
     7
 43
1.0
 76
     1
 77
     6
 78
     2
 67
     7
 79
     3
170
     0
171
     0
290
     0
174
     0
 93
        1
 44
0.0
173
     0
291
     0
 45
0.0
1001
ACAD
1000
AcDbSavedByObjectVersion
1070
     0
  0
VISUALSTYLE
  5
FA
102
{ACAD_XDICTIONARY
360
F290
102
}
102
{ACAD_REACTORS
330
EF
102
}
330
EF
100
AcDbVisualStyle
  2
Dim
 70
    11
 71
     2
 72
     2
 73
     1
 90
        0
 40
-0.6
 41
-30.0
 62
     5
 63
     7
 74
     1
 91
        4
 64
     7
 65
   257
 75
     1
175
     1
 42
1.0
 92
        8
 66
     7
 43
1.0
 76
     1
 77
     6
 78
     2
 67
     7
 79
     5
170
     0
171
     0
290
     0
174
     0
 93
        1
 44
-50.0
173
     0
291
     1
 45
0.0
1001
ACAD
1000
AcDbSavedByObjectVersion
1070
     0
  0
VISUALSTYLE
  5
1E6
102
{ACAD_XDICTIONARY
360
F2A2
102
}
102
{ACAD_REACTORS
330
EF
102
}
330
EF
100
AcDbVisualStyle
  2
EdgeColorOff
 70
    22
 71
     2
 72
     2
 73
     0
 90
        0
 40
-0.6
 41
-30.0
 62
     5
 63
     7
 74
     1
 91
        4
 64
     7
 65
   257
 75
     1
175
     1
 42
1.0
 92
        8
 66
     7
 43
1.0
 76
     1
 77
     6
 78
     2
 67
     7
 79
     5
170
     0
171
     0
290
     0
174
     0
 93
        1
 44
0.0
173
     0
291
     1
 45
0.0
1001
ACAD
1000
AcDbSavedByObjectVersion
1070
     0
  0
VISUALSTYLE
  5
FE
102
{ACAD_XDICTIONARY
360
F298
102
}
102
{ACAD_REACTORS
330
EF
102
}
330
EF
100
AcDbVisualStyle
  2
Facepattern
 70
    15
 71
     2
 72
     2
 73
     1
 90
        0
 40
-0.6
 41
-30.0
 62
     5
 63
     7
 74
     1
 91
        4
 64
     7
 65
   257
 75
     1
175
     1
 42
1.0
 92
        8
 66
     7
 43
1.0
 76
     1
 77
     6
 78
     2
 67
     7
 79
     5
170
     0
171
     0
290
     0
174
     0
 93
        1
 44
0.0
173
     0
291
     1
 45
0.0
1001
ACAD
1000
AcDbSavedByObjectVersion
1070
     0
  0
VISUALSTYLE
  5
F0
102
{ACAD_XDICTIONARY
360
F27C
102
}
102
{ACAD_REACTORS
330
EF
102
}
330
EF
100
AcDbVisualStyle
  2
Flat
 70
     0
 71
     2
 72
     1
 73
     1
 90
        2
 40
-0.6
 41
30.0
 62
     5
 63
     7
 74
     0
 91
        0
 64
     7
 65
   257
 75
     1
175
     1
 42
1.0
 92
        8
 66
     7
 43
1.0
 76
     1
 77
     6
 78
     2
 67
     7
 79
     5
170
     0
171
     0
290
     0
174
     0
 93
       13
 44
0.0
173
     0
291
     1
 45
0.0
1001
ACAD
1000
AcDbSavedByObjectVersion
1070
     0
  0
VISUALSTYLE
  5
F1
102
{ACAD_XDICTIONARY
360
F27E
102
}
102
{ACAD_REACTORS
330
EF
102
}
330
EF
100
AcDbVisualStyle
  2
FlatWithEdges
 70
     1
 71
     2
 72
     1
 73
     1
 90
        2
 40
-0.6
 41
30.0
 62
     5
 63
     7
 74
     1
 91
        0
 64
     7
 65
   257
 75
     1
175
     1
 42
1.0
 92
        0
 66
   257
 43
1.0
 76
     1
 77
     6
 78
     2
 67
     7
 79
     5
170
     0
171
     0
290
     0
174
     0
 93
       13
 44
0.0
173
     0
291
     1
 45
0.0
1001
ACAD
1000
AcDbSavedByObjectVersion
1070
     0
  0
VISUALSTYLE
  5
F2
102
{ACAD_XDICTIONARY
360
F280
102
}
102
{ACAD_REACTORS
330
EF
102
}
330
EF
100
AcDbVisualStyle
  2
Gouraud
 70
     2
 71
     2
 72
     2
 73
     1
 90
        2
 40
-0.6
 41
30.0
 62
     5
 63
     7
 74
     0
 91
        0
 64
     7
 65
   257
 75
     1
175
     1
 42
1.0
 92
        0
 66
     7
 43
1.0
 76
     1
 77
     6
 78
     2
 67
     7
 79
     5
170
     0
171
     0
290
     0
174
     0
 93
       13
 44
0.0
173
     0
291
     1
 45
0.0
1001
ACAD
1000
AcDbSavedByObjectVersion
1070
     0
  0
VISUALSTYLE
  5
F3
102
{ACAD_XDICTIONARY
360
F282
102
}
102
{ACAD_REACTORS
330
EF
102
}
330
EF
100
AcDbVisualStyle
  2
GouraudWithEdges
 70
     3
 71
     2
 72
     2
 73
     1
 90
        2
 40
-0.6
 41
30.0
 62
     5
 63
     7
 74
     1
 91
        0
 64
     7
 65
   257
 75
     1
175
     1
 42
1.0
 92
        0
 66
   257
 43
1.0
 76
     1
 77
     6
 78
     2
 67
     7
 79
     5
170
     0
171
     0
290
     0
174
     0
 93
       13
 44
0.0
173
     0
291
     1
 45
0.0
1001
ACAD
1000
AcDbSavedByObjectVersion
1070
     0
  0
VISUALSTYLE
  5
F7
102
{ACAD_XDICTIONARY
360
F28A
102
}
102
{ACAD_REACTORS
330
EF
102
}
330
EF
100
AcDbVisualStyle
  2
Hidden
 70
     6
 71
     1
 72
     2
 73
     2
 90
        0
 40
-0.6
 41
-30.0
 62
     5
 63
     7
 74
     2
 91
        2
 64
     7
 65
   257
 75
     2
175
     1
 42
40.0
 92
        0
 66
   257
 43
1.0
 76
     1
 77
     6
 78
     2
 67
     7
 79
     3
170
     0
171
     0
290
     0
174
     0
 93
        1
 44
0.0
173
     0
291
     0
 45
0.0
1001
ACAD
1000
AcDbSavedByObjectVersion
1070
     0
  0
VISUALSTYLE
  5
1E4
102
{ACAD_XDICTIONARY
360
F29E
102
}
102
{ACAD_REACTORS
330
EF
102
}
330
EF
100
AcDbVisualStyle
  2
JitterOff
 70
    20
 71
     2
 72
     2
 73
     0
 90
        0
 40
-0.6
 41
-30.0
 62
     5
 63
     7
 74
     1
 91
        4
 64
     7
 65
   257
 75
     1
175
     1
 42
1.0
 92
       10
 66
     7
 43
1.0
 76
     1
 77
     6
 78
     2
 67
     7
 79
     5
170
     0
171
     0
290
     0
174
     0
 93
        1
 44
0.0
173
     0
291
     1
 45
0.0
1001
ACAD
1000
AcDbSavedByObjectVersion
1070
     0
  0
VISUALSTYLE
  5
FD
102
{ACAD_XDICTIONARY
360
F296
102
}
102
{ACAD_REACTORS
330
EF
102
}
330
EF
100
AcDbVisualStyle
  2
Linepattern
 70
    14
 71
     2
 72
     2
 73
     1
 90
        0
 40
-0.6
 41
-30.0
 62
     5
 63
     7
 74
     1
 91
        4
 64
     7
 65
   257
 75
     7
175
     7
 42
1.0
 92
        8
 66
     7
 43
1.0
 76
     1
 77
     6
 78
     2
 67
     7
 79
     5
170
     0
171
     0
290
     0
174
     0
 93
        1
 44
0.0
173
     0
291
     1
 45
0.0
1001
ACAD
1000
AcDbSavedByObjectVersion
1070
     0
  0
VISUALSTYLE
  5
1E5
102
{ACAD_XDICTIONARY
360
F2A0
102
}
102
{ACAD_REACTORS
330
EF
102
}
330
EF
100
AcDbVisualStyle
  2
OverhangOff
 70
    21
 71
     2
 72
     2
 73
     0
 90
        0
 40
-0.6
 41
-30.0
 62
     5
 63
     7
 74
     1
 91
        4
 64
     7
 65
   257
 75
     1
175
     1
 42
1.0
 92
        9
 66
     7
 43
1.0
 76
     1
 77
     6
 78
     2
 67
     7
 79
     5
170
     0
171
     0
290
     0
174
     0
 93
        1
 44
0.0
173
     0
291
     1
 45
0.0
1001
ACAD
1000
AcDbSavedByObjectVersion
1070
     0
  0
VISUALSTYLE
  5
F9
102
{ACAD_XDICTIONARY
360
F28E
102
}
102
{ACAD_REACTORS
330
EF
102
}
330
EF
100
AcDbVisualStyle
  2
Realistic
 70
     8
 71
     2
 72
     2
 73
     0
 90
        2
 40
-0.6
 41
30.0
 62
     5
 63
     7
 74
     0
 91
        0
 64
     7
 65
   257
 75
     1
175
     1
 42
1.0
 92
        8
 66
   257
 43
1.0
 76
     1
 77
     6
 78
     2
 67
     7
 79
     3
170
     0
171
     0
290
     0
174
     0
 93
       13
 44
0.0
173
     0
291
     0
 45
0.0
1001
ACAD
1000
AcDbSavedByObjectVersion
1070
     0
  0
VISUALSTYLE
  5
1F3
102
{ACAD_XDICTIONARY
360
F2AC
102
}
102
{ACAD_REACTORS
330
EF
102
}
330
EF
100
AcDbVisualStyle
  2
Shaded
 70
    27
 71
     2
 72
     2
 73
     1
 90
        2
 40
-0.6
 41
30.0
 62
     5
 63
     7
 74
     0
 91
        4
 64
     7
 65
   257
 75
     1
175
     1
 42
1.0
 92
        8
 66
   257
 43
1.0
 76
     1
 77
     6
 78
     2
 67
     8
 79
     3
170
     0
171
     0
290
     0
174
     0
 93
        5
 44
0.0
173
     0
291
     0
 45
0.0
1001
ACAD
1000
AcDbSavedByObjectVersion
1070
     0
  0
VISUALSTYLE
  5
1F2
102
{ACAD_XDICTIONARY
360
F2AA
102
}
102
{ACAD_REACTORS
330
EF
102
}
330
EF
100
AcDbVisualStyle
  2
Shaded with edges
 70
    26
 71
     2
 72
     2
 73
     1
 90
        2
 40
-0.6
 41
30.0
 62
     5
 63
     7
 74
     1
 91
        2
 64
     7
 65
   257
 75
     2
175
     1
 42
1.0
 92
        8
 66
   257
 43
1.0
 76
     1
 77
     6
 78
     2
 67
     7
 79
     3
170
     0
171
     0
290
     0
174
     0
 93
        5
 44
0.0
173
     0
291
     0
 45
0.0
1001
ACAD
1000
AcDbSavedByObjectVersion
1070
     0
  0
VISUALSTYLE
  5
1EF
102
{ACAD_XDICTIONARY
360
F2A4
102
}
102
{ACAD_REACTORS
330
EF
102
}
330
EF
100
AcDbVisualStyle
  2
Shades of Gray
 70
    23
 71
     2
 72
     2
 73
     3
 90
        0
 40
-0.6
 41
-30.0
 62
     5
 63
     7
 74
     2
 91
        2
 64
     7
 65
     7
 75
     1
175
     1
 42
40.0
 92
        8
 66
     7
 43
1.0
 76
     1
 77
     6
 78
     2
 67
     7
 79
     3
170
     0
171
     0
290
     0
174
     0
 93
        1
 44
0.0
173
     0
291
     0
 45
0.0
1001
ACAD
1000
AcDbSavedByObjectVersion
1070
     0
  0
VISUALSTYLE
  5
1F0
102
{ACAD_XDICTIONARY
360
F2A6
102
}
102
{ACAD_REACTORS
330
EF
102
}
330
EF
100
AcDbVisualStyle
  2
Sketchy
 70
    24
 71
     1
 72
     2
 73
     2
 90
        0
 40
-0.6
 41
-30.0
 62
     5
 63
     7
 74
     2
 91
        2
 64
     7
 65
     7
 75
     1
175
     1
 42
40.0
 92
       11
 66
     7
 43
1.0
 76
     1
 77
     6
 78
     2
 67
     7
 79
     6
170
     0
171
     0
290
     0
174
     0
 93
        1
 44
0.0
173
     0
291
     0
 45
0.0
1001
ACAD
1000
AcDbSavedByObjectVersion
1070
     0
  0
VISUALSTYLE
  5
FC
102
{ACAD_XDICTIONARY
360
F294
102
}
102
{ACAD_REACTORS
330
EF
102
}
330
EF
100
AcDbVisualStyle
  2
Thicken
 70
    13
 71
     2
 72
     2
 73
     1
 90
        0
 40
-0.6
 41
-30.0
 62
     5
 63
     7
 74
     1
 91
        4
 64
     7
 65
   257
 75
     1
175
     1
 42
1.0
 92
       12
 66
     7
 43
1.0
 76
     1
 77
     6
 78
     2
 67
     7
 79
     5
170
     0
171
     0
290
     0
174
     0
 93
        1
 44
0.0
173
     0
291
     1
 45
0.0
1001
ACAD
1000
AcDbSavedByObjectVersion
1070
     0
  0
VISUALSTYLE
  5
F6
102
{ACAD_XDICTIONARY
360
F288
102
}
102
{ACAD_REACTORS
330
EF
102
}
330
EF
100
AcDbVisualStyle
  2
Wireframe
 70
     5
 71
     0
 72
     2
 73
     0
 90
        0
 40
-0.6
 41
-30.0
 62
     5
 63
     7
 74
     1
 91
        4
 64
     7
 65
   257
 75
     1
175
     1
 42
1.0
 92
        0
 66
   257
 43
1.0
 76
     1
 77
     6
 78
     2
 67
     7
 79
     3
170
     0
171
     0
290
     0
174
     0
 93
        1
 44
0.0
173
     0
291
     0
 45
0.0
1001
ACAD
1000
AcDbSavedByObjectVersion
1070
     0
  0
VISUALSTYLE
  5
1F1
102
{ACAD_XDICTIONARY
360
F2A8
102
}
102
{ACAD_REACTORS
330
EF
102
}
330
EF
100
AcDbVisualStyle
  2
X-Ray
 70
    25
 71
     2
 72
     2
 73
     1
 90
        1
 40
0.5
 41
-30.0
 62
     5
 63
     7
 74
     1
 91
        0
 64
     7
 65
   257
 75
     1
175
     1
 42
1.0
 92
        8
 66
     7
 43
1.0
 76
     1
 77
     6
 78
     2
 67
     7
 79
     3
170
     0
171
     0
290
     0
174
     0
 93
       13
 44
0.0
173
     0
291
     0
 45
0.0
1001
ACAD
1000
AcDbSavedByObjectVersion
1070
     0
  0
DICTIONARYVAR
  5
146
102
{ACAD_REACTORS
330
5E
102
}
330
5E
100
DictionaryVariables
280
     0
  1
1:1
  0
DICTIONARYVAR
  5
259
102
{ACAD_REACTORS
330
5E
102
}
330
5E
100
DictionaryVariables
280
     0
  1
3.500000
  0
DICTIONARYVAR
  5
25A
102
{ACAD_REACTORS
330
5E
102
}
330
5E
100
DictionaryVariables
280
     0
  1
acadiso.lin
  0
DICTIONARYVAR
  5
145
102
{ACAD_REACTORS
330
5E
102
}
330
5E
100
DictionaryVariables
280
     0
  1
STANDARD
  0
DICTIONARYVAR
  5
84
102
{ACAD_REACTORS
330
5E
102
}
330
5E
100
DictionaryVariables
280
     0
  1
STANDARD
  0
DICTIONARYVAR
  5
227
102
{ACAD_REACTORS
330
5E
102
}
330
5E
100
DictionaryVariables
280
     0
  1
Metric50
  0
DICTIONARYVAR
  5
228
102
{ACAD_REACTORS
330
5E
102
}
330
5E
100
DictionaryVariables
280
     0
  1
Metric50
  0
DICTIONARYVAR
  5
5F
102
{ACAD_REACTORS
330
5E
102
}
330
5E
100
DictionaryVariables
280
     0
  1
2
  0
DICTIONARYVAR
  5
63
102
{ACAD_REACTORS
330
5E
102
}
330
5E
100
DictionaryVariables
280
     0
  1
1
  0
DICTIONARYVAR
  5
F21D
102
{ACAD_REACTORS
330
5E
102
}
330
5E
100
DictionaryVariables
280
     0
  1
0
  0
DICTIONARYVAR
  5
1AE
102
{ACAD_REACTORS
330
5E
102
}
330
5E
100
DictionaryVariables
280
     0
  1
0
  0
DICTIONARYVAR
  5
1AF
102
{ACAD_REACTORS
330
5E
102
}
330
5E
100
DictionaryVariables
280
     0
  1
0
  0
DICTIONARYVAR
  5
F21B
102
{ACAD_REACTORS
330
5E
102
}
330
5E
100
DictionaryVariables
280
     0
  1
2
  0
DICTIONARYVAR
  5
F21A
102
{ACAD_REACTORS
330
5E
102
}
330
5E
100
DictionaryVariables
280
     0
  1
1
  0
DICTIONARYVAR
  5
F26D
102
{ACAD_REACTORS
330
5E
102
}
330
5E
100
DictionaryVariables
280
     0
  1
80.000000
  0
DICTIONARYVAR
  5
F26C
102
{ACAD_REACTORS
330
5E
102
}
330
5E
100
DictionaryVariables
280
     0
  1
5.000000
  0
DICTIONARYVAR
  5
F21C
102
{ACAD_REACTORS
330
5E
102
}
330
5E
100
DictionaryVariables
280
     0
  1
127
  0
DICTIONARYVAR
  5
F26E
102
{ACAD_REACTORS
330
5E
102
}
330
5E
100
DictionaryVariables
280
     0
  1
2
  0
DICTIONARY
  5
F2B0
330
21C
100
AcDbDictionary
280
     1
281
     1
  3
ACAD_XREC_ROUNDTRIP
360
F2B1
  0
DICTIONARY
  5
F275
330
D3
100
AcDbDictionary
280
     1
281
     1
  3
ACAD_XREC_ROUNDTRIP
360
F276
  0
DICTIONARY
  5
F277
330
D7
100
AcDbDictionary
280
     1
281
     1
  3
ACAD_XREC_ROUNDTRIP
360
F278
  0
DICTIONARY
  5
F272
330
22
100
AcDbDictionary
280
     1
281
     1
  3
ACAD_XREC_ROUNDTRIP
360
F273
  0
DICTIONARY
  5
1F9
330
ED
100
AcDbDictionary
280
     1
281
     1
  3
ACAD_XREC_ROUNDTRIP
360
F27A
  3
FBXASSET
360
1FA
  0
DICTIONARY
  5
1F7
330
EC
100
AcDbDictionary
280
     1
281
     1
  3
ACAD_XREC_ROUNDTRIP
360
F279
  3
FBXASSET
360
1F8
  0
DICTIONARY
  5
173
330
EE
100
AcDbDictionary
280
     1
281
     1
  3
ACAD_XREC_ROUNDTRIP
360
F27B
  3
BUMPTILE
360
175
  3
DIFFUSETILE
360
174
  3
FBXASSET
360
1FB
  3
OPACITYTILE
360
176
  3
REFLECTIONTILE
360
177
  0
DICTIONARY
  5
F29C
330
12E
100
AcDbDictionary
280
     1
281
     1
  3
ACAD_XREC_ROUNDTRIP
360
F29D
  0
DICTIONARY
  5
F2AE
330
21A
100
AcDbDictionary
280
     1
281
     1
  3
ACAD_XREC_ROUNDTRIP
360
F2AF
  0
DICTIONARY
  5
162
330
7F
100
AcDbDictionary
280
     1
281
     1
  3
ACAD_ROUNDTRIP_2008_TABLESTYLE_CELLSTYLEMAP
360
F26F
  3
ACAD_XREC_ROUNDTRIP
360
F274
  0
DICTIONARY
  5
F286
330
F5
100
AcDbDictionary
280
     1
281
     1
  3
ACAD_XREC_ROUNDTRIP
360
F287
  0
DICTIONARY
  5
F284
330
F4
100
AcDbDictionary
280
     1
281
     1
  3
ACAD_XREC_ROUNDTRIP
360
F285
  0
DICTIONARY
  5
F292
330
FB
100
AcDbDictionary
280
     1
281
     1
  3
ACAD_XREC_ROUNDTRIP
360
F293
  0
DICTIONARY
  5
F29A
330
FF
100
AcDbDictionary
280
     1
281
     1
  3
ACAD_XREC_ROUNDTRIP
360
F29B
  0
DICTIONARY
  5
F28C
330
F8
100
AcDbDictionary
280
     1
281
     1
  3
ACAD_XREC_ROUNDTRIP
360
F28D
  0
DICTIONARY
  5
F290
330
FA
100
AcDbDictionary
280
     1
281
     1
  3
ACAD_XREC_ROUNDTRIP
360
F291
  0
DICTIONARY
  5
F2A2
330
1E6
100
AcDbDictionary
280
     1
281
     1
  3
ACAD_XREC_ROUNDTRIP
360
F2A3
  0
DICTIONARY
  5
F298
330
FE
100
AcDbDictionary
280
     1
281
     1
  3
ACAD_XREC_ROUNDTRIP
360
F299
  0
DICTIONARY
  5
F27C
330
F0
100
AcDbDictionary
280
     1
281
     1
  3
ACAD_XREC_ROUNDTRIP
360
F27D
  0
DICTIONARY
  5
F27E
330
F1
100
AcDbDictionary
280
     1
281
     1
  3
ACAD_XREC_ROUNDTRIP
360
F27F
  0
DICTIONARY
  5
F280
330
F2
100
AcDbDictionary
280
     1
281
     1
  3
ACAD_XREC_ROUNDTRIP
360
F281
  0
DICTIONARY
  5
F282
330
F3
100
AcDbDictionary
280
     1
281
     1
  3
ACAD_XREC_ROUNDTRIP
360
F283
  0
DICTIONARY
  5
F28A
330
F7
100
AcDbDictionary
280
     1
281
     1
  3
ACAD_XREC_ROUNDTRIP
360
F28B
  0
DICTIONARY
  5
F29E
330
1E4
100
AcDbDictionary
280
     1
281
     1
  3
ACAD_XREC_ROUNDTRIP
360
F29F
  0
DICTIONARY
  5
F296
330
FD
100
AcDbDictionary
280
     1
281
     1
  3
ACAD_XREC_ROUNDTRIP
360
F297
  0
DICTIONARY
  5
F2A0
330
1E5
100
AcDbDictionary
280
     1
281
     1
  3
ACAD_XREC_ROUNDTRIP
360
F2A1
  0
DICTIONARY
  5
F28E
330
F9
100
AcDbDictionary
280
     1
281
     1
  3
ACAD_XREC_ROUNDTRIP
360
F28F
  0
DICTIONARY
  5
F2AC
330
1F3
100
AcDbDictionary
280
     1
281
     1
  3
ACAD_XREC_ROUNDTRIP
360
F2AD
  0
DICTIONARY
  5
F2AA
330
1F2
100
AcDbDictionary
280
     1
281
     1
  3
ACAD_XREC_ROUNDTRIP
360
F2AB
  0
DICTIONARY
  5
F2A4
330
1EF
100
AcDbDictionary
280
     1
281
     1
  3
ACAD_XREC_ROUNDTRIP
360
F2A5
  0
DICTIONARY
  5
F2A6
330
1F0
100
AcDbDictionary
280
     1
281
     1
  3
ACAD_XREC_ROUNDTRIP
360
F2A7
  0
DICTIONARY
  5
F294
330
FC
100
AcDbDictionary
280
     1
281
     1
  3
ACAD_XREC_ROUNDTRIP
360
F295
  0
DICTIONARY
  5
F288
330
F6
100
AcDbDictionary
280
     1
281
     1
  3
ACAD_XREC_ROUNDTRIP
360
F289
  0
DICTIONARY
  5
F2A8
330
1F1
100
AcDbDictionary
280
     1
281
     1
  3
ACAD_XREC_ROUNDTRIP
360
F2A9
  0
XRECORD
  5
F2B1
102
{ACAD_REACTORS
330
F2B0
102
}
330
F2B0
100
AcDbXrecord
280
     1
102
DISPLAYNAME
  1
Metric50
102
FLAGS
 90
        0
  0
XRECORD
  5
F276
102
{ACAD_REACTORS
330
F275
102
}
330
F275
100
AcDbXrecord
280
     1
102
SHADEPLOT
 70
     0
102
SHADEPLOTRESLEVEL
 70
     2
102
SHADEPLOTCUSTOMDPI
 70
   300
  0
XRECORD
  5
F278
102
{ACAD_REACTORS
330
F277
102
}
330
F277
100
AcDbXrecord
280
     1
102
SHADEPLOT
 70
     0
102
SHADEPLOTRESLEVEL
 70
     2
102
SHADEPLOTCUSTOMDPI
 70
   300
  0
XRECORD
  5
F273
102
{ACAD_REACTORS
330
F272
102
}
330
F272
100
AcDbXrecord
280
     1
102
SHADEPLOT
 70
     0
102
SHADEPLOTRESLEVEL
 70
     2
102
SHADEPLOTCUSTOMDPI
 70
   300
  0
XRECORD
  5
F27A
102
{ACAD_REACTORS
330
1F9
102
}
330
1F9
100
AcDbXrecord
280
     1
102
MATERIAL
148
0.0
149
0.0
149
0.0
 93
        0
 94
       63
282
     0
 72
     1
 77
     1
171
     1
175
     1
179
     1
273
     0
  0
XRECORD
  5
1FA
102
{ACAD_REACTORS
330
1F9
102
}
330
1F9
100
AcDbXrecord
280
     1
 70
     1
 90
429727718
  1
D62C5603-E3A1-4AEA-B7FB-FE5D8D0755AF
310
504B03040A0000080000CC70623B3DEE336E79000000790000001B0000006175746F6465736B2D64657369676E2D7061636B6167652E786D6C3C3F786D6C2076657273696F6E3D22312E302220656E636F64696E673D227574662D3822203F3E3C666F726D6174733E3C666F726D61743E687474703A2F2F736368656D612E
310
6175746F6465736B2E636F6D2F64657369676E2D7061636B6167652F323030393C2F666F726D61743E3C2F666F726D6174733E504B0304140006080800CC70623BD486FD9CA0000000F4000000130000005B436F6E74656E745F54797065735D2E786D6C7D8EC10E82300C865F65E91D8A1E8C310C0EEA1BF002731658846E
310
D98AC1B77784ABF1D8FE5FBFBF75BBCE937A534CCEB38643598122B6FEE978D0B0485F9C41B54DDD7D022595594E1A469170414C76A4D9A4D207E29CF43ECE46F218070CC6BECC4078ACAA135ACF422C856C0E68EA1BF5669944DDD7BCDE7B1F8E415D77AECB980613C2E4AC91FC167A2B244592486606FC29C8FD7F045B9A
310
EF7053A7E60B504B0304140006080800CC70623B853B8169EB0000007C01000008000000636F72652E786D6C8D90416EC3201045AF62CDB6C206821CC7C244919D9CA01740401C94182C03558F5F9C3852BBEB6A467FFE9B197D7EFC9E1EC5975982F5AE035262288C535E5B377690E21535501C055FBC8FBF6C503839990E
310
5619041F179FE64D52DE45E362569DD7661365082642A11EB9E920A89B99642953CC8E702F67A9EE7234257977194EC9EAE275C4EABCCF5EAD5940D4AC6F0E35A568B8F43562CD7046CD199FD07E60174276A7BE677B5EADB0E0D14EEFFB6A31321A0D82627C4084204C3F096B71DD52F6819B16635EADF63F509AF53FA164
310
5DDCD1EDDD17164090FCC8732078B56691CB33A85CD7DCC40F504B0304140006080800CC70623B55019EA25F0000007C00000007000000636E782E786D6C4DCB3B0E80201045D1AD90E915ED2CF8AC45050C11660C8261F98AB1B07AC9C97D42D718D865D3E909258CFD00CCE24AC6E326A164D74DC0B4128928FF32603847
310
2BA13128B1252AC747C6BAB984FC68F0B87FE8960A5C09FE86CFB69FBA01504B0304140006080800CC70623BDBABAAF470010000D40300000C0000006662782F636F72652E786D6CC553D16E823014FD95A6AF4B694182CC941A83FA05FB810A9511A125A5257EFE2E82712ECEB8A7F100CD39F7F69E734AF9FADC366850B6
310
AF8DCE7018308C942E4C59EB2AC3DE1D498AD15A706B8CFB56869196ADCAF00863C12B6B7C374385D14E6907A836A59A41D9F7CA615434B0C8705F7CAA5606D23BA8E84F41278B93AC54100640439DE0BDB320004D43C63716C7C399D30917DCFBBA9CD9BA8469F5B156168B24CED3F7248AC8769F27244EB73B92EED8862C
310
B7F13E0C179B3C8F979C8ECD82BBBABDAA2BAC924E9558448CBD9330242CFA08E3154B5651FCC6D215639C8EE5774DBE2B5F6CF2B5768B68963BB5F5588420E442FC700B1139D4CB01F450C1E918227C2E09DF070D8140C84E1E9AAB8F1340832A9CB13130A5F1376A908D57309505ECF2A0DF179C4E9D30F5B239B87E3823
310
7A79C6F31DE1A8A5AEC08474B03C7837EAE4938639B44E5932B833D2C6B6B279CDC613877FA26EE21F4A2A4C63EC7F29A2F301D1F9F7A0E37D145F504B0304140006080800CC70623B9C113CC27E0000009D0000000B0000006662782F636E782E786D6C4DCCDF0A83201C86E15B91DFB94BFB330DD428C8FB886521330DA7
310
6397BF1A1DECE883878F57749FCDA1B7892F1BBC047A23808C7F84D9FA55424E0BE6803A256208E9EF06C84F9B91703228B1C690F78B66B34CD9A5439DF5CF0BFBF65E35BCA1B8D6A5C6F540381E886698B5741C695F9503EBA150A2F8958E3DC3EA0B504B0304140006080800CC70623B7DF2F77C2A010000120200003100
310
00006662782F41393633353835312D344632462D344230382D423046372D3739314545314133324237412F636F72652E786D6C8D51DB8EC22014FC15C2939B0D2DB4B45643319AE817EC0F6041255A68B86CFCFC856D4D76DF7CE190393373060EDB3DC707F856CE6B6B7A480A0C81328395DA5C7B18C3057510EC3873D686
310
3F34088C18550F330C39BB3A1BA7051AAC09CA84841A2BD5020AEF55806078A44B0FFD7053A328440C89E1EFC52486BBB8AA8214A99D789CF9E05200300FC927E4FB4D5B375D43103D5527440FB843077C5AA3F5861C8F645F5787F59E95B390B318B55CE45AA638FAA2957BD7248B390B7A7CC51F9C124149C82B8C378810
310
84AB2F42B7B8DD56F413775B8C5999E9FF4471926F8AA236A1AE96B8B3CC434E5839373893369E1FAF30EA395917409EB7F26AF8801C171837A4A6AC9C89E9F9C9B1A58BA30FD6A5EF5DDDCF894B9AD9B6A59C957943A9FCAE2FD5BC4DFE03504B0304140006080800CC70623BAD7543B64E01000033030000300000006662
310
782F41393633353835312D344632462D344230382D423046372D3739314545314133324237412F636E782E786D6CD593CD6EC32010845F0571AD6CE3D48AD20813A9873E410FBD12D82434182C7EAAE6EDBB2424CD25871E7B41D6EC30B3FA84F9E67BB2E40B4234DE8DB46F1925E094D7C6ED479AD3AE5951B2113C789FEE
310
6C943839C1488B4C05DF079FE72A69D8C96C13AAD6B8631503449F83828872B949AC57D26200B826A308D316B4064D6E46FCDA41C05550DC9E483A00797BFD207EFB092A45DE9514C1BBD22178396BD39D891265658C238DEA00936C654E5E433CB65A26D9F6EDB5EBC14EBF49A45CB856E66048291F6939A9A81BB5C89177
310
38143CA680F4AA299D66A042CEB3354A2684DC9D8D178FE0D9B8B41CAAD720F880EE7EF93C0C18769E099ECC04D5A102C8049A8A05632F4DDF376CF1DE0F6BB65C2F8627B65A33C6BB62177CEBBDAD973006829F89F22E814B54F4BC2BE347F8AA8F681390B50FA73F804400B5F542E796F19FF974E7F78DB802FE05E20750
310
4B0304140006080800CC70623BE75B7789680500003C100000340000006662782F41393633353835312D344632462D344230382D423046372D3739314545314133324237412F6F626A656374732E786D6CAD575B8F9B3818FD2B887D06C22499CB8AA1CA655245D5B455A356FB305264C061D8018C6C3393D95FBFC7600890
310
A4CD5EF210B0B1BFEBF98E3F7B1FF6596ABC522E1296DF9BAE3D320D9A872C4AF2F8DE2CE5CEBA358D0FBEC719939D65A691938CDE9B6ADAF4BD98B3B2D05311DD91329583D9D5FC0F438434A7A611A644887B5384CF34233629258BA878B12322891DEFF6B66BD70BFB62634E8AE781D082709A4B588AF91C528CDA28B73F
310
1C998EEF39EABBEFA97FBD6A7C7E9553F9D3D79FE442923C3C523610337627CB87ABE99D359D4CC6D6E4FACAB5E6ABF9D2726FC6A3C5F56271377BB88362213924694B38DD99FE47C48627A1E7D49F5A8BB5E1A74C0A599ED3B0F21F1E56366B89112D681E218F0915D0D6F17AD41FBA2A369DCF6335D62ABBD39779D5DDD1
310
11D4D8DE3CBB96B2E04FB8202E41051754A1AA8E8F76B4C6DFE810B580B1547F4B84911149794252234D024EF8BBE963A95AE27B3D310A9D5C215C7960FAEE415ED75694C6AFB17BCACA5D99A60A9AA65F217B0BFC53292ACB92BF283FAD0D3621576592CB5BED907C2FA8E9DF794E35E97BEA31BED21FEB401ABB94C44839
310
DCACBF0E1C5DA8DA5B2F4DFFD32AD86F543D9E565E7056502E157C00AD2671CD534549AB752FCA9CDA00677A313F04E51B22FF19E57B300579E3C97EB29F682D92935CEC18CF901B7B54FD8C51F362B56FC72FE0B3C1EAE335EDCCBF5AEC39ADB17DC238973F804BA5E6F6BFE7AF1FB32E523BE9F3BD571418E3631DCA4D48
310
5250CF639223210A9446CA30052EDF057BD35F8329C1ECD84552BF0DC8D18BE7BCE23BFE6BD960AB4A7DE79923A103BEBD80F911CBAA2C60DB19B01CF164A5583B772EE6D3FFA56666CBCDA74DC97724A48F9A58967497E489C4D979006FD7A05E227A1EBDD0F737C623387A9C844D3709995625106D157315F8B8392CD4E0
310
A0B9A720C4BE9829CEF37EA1E13111214D53925356365ADA634861B52519DD27A00AEB808EAF0628E6F435519D446F45CF2C9CF5214F0A15B2F6D06B79DA3EE3CBF7F56780D2F4E7EF73A0F5E5B02A38D07DC852C6B7C1FBB6664213E0C39E3EBA7FF4E1AD23EA2829407C85E586727488B751B2DB9502BC7B228A3FD68B6E
310
A65A22397E690AA8D158D7E404EC8CDA235CC3B7D1898680131CEC2CDF2638C65196279577750F15884AEE19F94199155B92B13297978469D4F8D358DF0AEF7631E28DC8F0D9F437D5D39A83B2231A1D52D543813A824EF8D44BCFF2FA6A31BD1E8DAD87F1CCB526B3879935BF59CDADD5C37479BB1CDD4CA7B3556B516589
310
EF352754B706114D9C885EC9131DE6EFEB43D99AFE2391C2F958179413D7CFEF6B1B6DB1E7600F00DE6E5C67454A339A4BA2E0FBA85ED26F045D454F463DBFCE484C2F90F2E5E3666003662ED8F755951A7D1BECD5B30B550B2785C8E7320B7292A4838DDA71BBC863ED7613CAF659337A3354231D4FF4A182A54904C2898C
310
98B28C4AD0CE056CCF332A80986E571EE9DBC305BB5FEB7E509220A58D25CF042D712A806AC0AD0C657FDEF80D2D9CEAA2EE4D1C76F60BFE74219A06527D6F82DF6412526107381E55E353090704D085B52408A8913C4ED159D79BDA71BB4BC506F4831350EB6F975CD22D69BF7AC49B91A2C0A9DDA3D5CA36AD20FC478E37
310
E61844E2352865EBCB61A275A65283CAAA9DD27703B4102F5AF51EF5F573B75CBB5AD38BC845F7A49F82A0966A49C2E3EA5EA0ECD326CD965F1DB402C6FA8B51A4658C5C5E2EC9E214602E55810345408596591009A82E7E7FFACA19EEA299B14A0081A705CB3296EBC14CDF658DCD336EA6D1136881AAEB87B81AB9EE53D5
310
F5EB8BC8362082DA24122F98680A4E7930C01A0079749CEA14382A0783E5EBA5A10F8C098456A03D6A4AEB6BB881E2513747552A5DB22C7EDAF83BD5528081A365F7FF06504B0304140006080000CC70623B000000000000000000000000350000006662782F41393633353835312D344632462D344230382D423046372D37
310
39314545314133324237412F76657274696365732E62696E504B0304140006080800CC70623BF270F1330600000004000000360000006662782F41393633353835312D344632462D344230382D423046372D3739314545314133324237412F747269616E676C65732E62696E636660600000504B0304140006080000CC7062
310
3B000000000000000000000000370000006662782F41393633353835312D344632462D344230382D423046372D3739314545314133324237412F617474726962757465732E62696E504B0304140006080800CC70623B08DA0BD19000000041010000360000006662782F41393633353835312D344632462D344230382D4230
310
46372D3739314545314133324237412F6469726563746F72792E786D6C858F410AC3201045AF22B36F53E9A60B35CBEEBAE80D244E44489C6234F4F835464A48035D0DF398FF9F8AF63D0E6CC63039F212F8F9020C7D47C6792B21C5FE7403D62A1188E2E60C98D7234A5830286103A55745067B9D86B8A3CF9C7F90C11DE6
310
07FB144396D7B6A82D282E9A152AD114D5EF2CB866EEE831B8EEA07A7BB5A8D7D61A2BAAEB7FD5F70921FF497D00504B0304140006080800CC70623BEDD1DC58FD000000A00100003B0000006662782F41393633353835312D344632462D344230382D423046372D3739314545314133324237412F7265736F75726365732F
310
636F72652E786D6C8D504B6E833010BD0A9A6D65B00922041947112427E8052C33A156828DFCA97AFC9A40A576D7CDCCE87D344F8F9FBFE667F689CE6B6B3A6039850C8DB2A336530731DC4903D95970676DF82583CCC8193B5861107C72362E3BA4AC096842428D1D7107A5F7182053CF7474E0D507CE32973124857FE48B
310
540F3961CEF244279DE03EB81420DB9EAC1384436FA353E879B1B182C7A8C75DA3C7F453DF353A1075D537A7BA6464B8F535A99AE14A9A2BBD90E350DD183B5CFABE3AF262350B1EF4FC9351399401471025A527C218A1E53BAB5A5AB765F5469B96525EACF23FA6B88CFF34456DC2A1DCE36E360F82A5202F42F062ED2BAD
310
579969AFDD8A6F504B010214000A0000080000CC70623B3DEE336E79000000790000001B00000000000000000000000000000000006175746F6465736B2D64657369676E2D7061636B6167652E786D6C504B01021400140006080800CC70623BD486FD9CA0000000F40000001300000000000000000000000000B20000005B
310
436F6E74656E745F54797065735D2E786D6C504B01021400140006080800CC70623B853B8169EB0000007C010000080000000000000000000000000083010000636F72652E786D6C504B01021400140006080800CC70623B55019EA25F0000007C000000070000000000000000000000000094020000636E782E786D6C504B
310
01021400140006080800CC70623BDBABAAF470010000D40300000C00000000000000000000000000180300006662782F636F72652E786D6C504B01021400140006080800CC70623B9C113CC27E0000009D0000000B00000000000000000000000000B20400006662782F636E782E786D6C504B01021400140006080800CC70
310
623B7DF2F77C2A010000120200003100000000000000000000000000590500006662782F41393633353835312D344632462D344230382D423046372D3739314545314133324237412F636F72652E786D6C504B01021400140006080800CC70623BAD7543B64E010000330300003000000000000000000000000000D2060000
310
6662782F41393633353835312D344632462D344230382D423046372D3739314545314133324237412F636E782E786D6C504B01021400140006080800CC70623BE75B7789680500003C10000034000000000000000000000000006E0800006662782F41393633353835312D344632462D344230382D423046372D3739314545
310
314133324237412F6F626A656374732E786D6C504B01021400140006080000CC70623B0000000000000000000000003500000000000000000000000000280E00006662782F41393633353835312D344632462D344230382D423046372D3739314545314133324237412F76657274696365732E62696E504B01021400140006
310
080800CC70623BF270F133060000000400000036000000000000000000000000007B0E00006662782F41393633353835312D344632462D344230382D423046372D3739314545314133324237412F747269616E676C65732E62696E504B01021400140006080000CC70623B0000000000000000000000003700000000000000
310
000000000000D50E00006662782F41393633353835312D344632462D344230382D423046372D3739314545314133324237412F617474726962757465732E62696E504B01021400140006080800CC70623B08DA0BD1900000004101000036000000000000000000000000002A0F00006662782F41393633353835312D344632
310
462D344230382D423046372D3739314545314133324237412F6469726563746F72792E786D6C504B01021400140006080800CC70623BEDD1DC58FD000000A00100003B000000000000000000000000000E1000006662782F41393633353835312D344632462D344230382D423046372D3739314545314133324237412F7265
310
736F75726365732F636F72652E786D6C504B0506000000000E000E0080040000641100000000
  0
XRECORD
  5
F279
102
{ACAD_REACTORS
330
1F7
102
}
330
1F7
100
AcDbXrecord
280
     1
102
MATERIAL
148
0.0
149
0.0
149
0.0
 93
        0
 94
       63
282
     0
 72
     1
 77
     1
171
     1
175
     1
179
     1
273
     0
  0
XRECORD
  5
1F8
102
{ACAD_REACTORS
330
1F7
102
}
330
1F7
100
AcDbXrecord
280
     1
 70
     1
 90
429727718
  1
30362254-06B7-45E0-A893-8CFA70E3D6BC
310
504B03040A0000080000CC70623B3DEE336E79000000790000001B0000006175746F6465736B2D64657369676E2D7061636B6167652E786D6C3C3F786D6C2076657273696F6E3D22312E302220656E636F64696E673D227574662D3822203F3E3C666F726D6174733E3C666F726D61743E687474703A2F2F736368656D612E
310
6175746F6465736B2E636F6D2F64657369676E2D7061636B6167652F323030393C2F666F726D61743E3C2F666F726D6174733E504B0304140006080800CC70623BD486FD9CA0000000F4000000130000005B436F6E74656E745F54797065735D2E786D6C7D8EC10E82300C865F65E91D8A1E8C310C0EEA1BF002731658846E
310
D98AC1B77784ABF1D8FE5FBFBF75BBCE937A534CCEB38643598122B6FEE978D0B0485F9C41B54DDD7D022595594E1A469170414C76A4D9A4D207E29CF43ECE46F218070CC6BECC4078ACAA135ACF422C856C0E68EA1BF5669944DDD7BCDE7B1F8E415D77AECB980613C2E4AC91FC167A2B244592486606FC29C8FD7F045B9A
310
EF7053A7E60B504B0304140006080800CC70623B1EC5D7A3EB0000007C01000008000000636F72652E786D6C8D90416EC3201045AF82665B6103C6756C6122AB4D4ED00B204C5C94182C03558F5F9C3852BBEB6A467FFE9B197D71FC9E6FE8CBACC17AD7032D0820E3B41FAD9B7A48F1820F808E52ACDEC75F36404ECDA687
310
4D0629A6D5A76597B477D1B89855E747B38B2A041301E95B6E7A08FAD3CCAA50296647B8168BD2573599823EBB0CA76447F43862C7BCCF5EAC59410E4DDD9C7973C2755553CCCFA4C603E3040F1565ED3B1FDE4E432BCA0D9622DAF9795FAF464533826484B498524CD807E51D79ED187F21878E10516EF63F505AC67F42C9
310
BA58B1FDDD071640D2FCC87D2045B96591CB3DA85CB7DCE40F504B0304140006080800CC70623B55019EA25F0000007C00000007000000636E782E786D6C4DCB3B0E80201045D1AD90E915ED2CF8AC45050C11660C8261F98AB1B07AC9C97D42D718D865D3E909258CFD00CCE24AC6E326A164D74DC0B4128928FF32603847
310
2BA13128B1252AC747C6BAB984FC68F0B87FE8960A5C09FE86CFB69FBA01504B0304140006080800CC70623B8C9102E971010000D40300000C0000006662782F636F72652E786D6CC5535B6E833010BC8AE5DF0A6C08340F1947A84D4ED00B38C6A128602363A31CBFCB234A53A551FA553EC09AD9F5CE8C31DB9E9B1AF5CA
310
7695D1198E428A91D2D214952E33ECDD315861B4E5CC1AE3BE9561A445A3323CC098B3D21ADFCE9034DA29ED00D5A6503328BA4E398C640D8B0C77F253352214DE4145770A5B214FA2546114020D759C75CE8200340D19DE981F0F6746269C33EFAB6266AB02A655C74A59CCF365BADC27CB5D902ED22848F6340DF238A141
310
BE88E2F57B92BFEDF23523433367AE6A2EEAA455C2A902F398D2751045018D3FA264435F3771F242571B4A1919CA6F9A7C5B3CD9E42BED16F12C776AEB308F40C848FC700B1139D4891EF410CEC810227CC6846F8386402064270EF5C5C709A05E49676C024C61FC95EA45ED154CA5211D1FF4FB8291A913A68E9B83EBBB33
310
E2A7673CDE118E5AE8124C0807CB8377834E366998436B950D7A7746DAD846D4CFD978E0F04FD455FC5D49D2D4C6FE9722321F10997F0F32DC47FE05504B0304140006080800CC70623BFFEA85907E0000009D0000000B0000006662782F636E782E786D6C4DCCD10A83201886E15B91FFDC95D95A811AB6F23E625948A6C3
310
E9D8E5AF46073BFAE0E1E365ED67B3E8ADC3CB78C7815C7240DA3DFC64DCC221C519D7805AC182F7F1EF06C88D9BE6703008B6049F9E274D7A1E938DBB5AE3D6131B2589BA0D3D965551E0B2EA732C9B9A624AAEB41E3A557677029960D9AFB4EF11165F504B0304140006080800CC70623B4FEEA4082C0100001202000031
310
0000006662782F39464131463745442D413632322D343644302D413938332D3331353338454246344243312F636F72652E786D6C8D515B6EC32010BC0AE2AB55850DD871ED0813254D72825EC00192A2C460F1A872FC42ED48ED5F7E00CDCECCCEB26C731F6FE05B39AFADE921293004CA082BB5B9F43086336A21D870E6AC
310
0D7F68109861543DCC30E4ECE26C9C164858139409093556AA051CBC570102714B8F1E7AF1A5C6A11862480C7F2DA6415C878B2A4891CA89C7990F2E050073937C42DE1DB7E4F87ED8A36D4329AA9B3D46DBAEAD504556557BD81DEBDD0761E52CE42C462D17B996298E3E6BE59E35C962CE821E1FF18553435012728A7187
310
0841987E927A8D9B35ADDF70BBC6989599FE4F1427F9A4286A132ABAC49D651EF234CD5CE04CDA78BA3DC2A8FB645D00B9DF8B57E215725C60BCA2A463E54C4CE327C7A65E1C7DB02E7DEFCBF594B864C5CA6CDBD49C957943E9FA5D5FBAF336F90F504B0304140006080800CC70623BAD7543B64E01000033030000300000
310
006662782F39464131463745442D413632322D343644302D413938332D3331353338454246344243312F636E782E786D6CD593CD6EC32010845F0571AD6CE3D48AD20813A9873E410FBD12D82434182C7EAAE6EDBB2424CD25871E7B41D6EC30B3FA84F9E67BB2E40B4234DE8DB46F1925E094D7C6ED479AD3AE5951B2113C
310
789FEE6C943839C1488B4C05DF079FE72A69D8C96C13AAD6B8631503449F83828872B949AC57D26200B826A308D316B4064D6E46FCDA41C05550DC9E483A00797BFD207EFB092A45DE9514C1BBD22178396BD39D891265658C238DEA00936C654E5E433CB65A26D9F6EDB5EBC14EBF49A45CB856E66048291F6939A9A81BB5
310
C8917738143CA680F4AA299D66A042CEB3354A2684DC9D8D178FE0D9B8B41CAAD720F880EE7EF93C0C18769E099ECC04D5A102C8049A8A05632F4DDF376CF1DE0F6BB65C2F8627B65A33C6BB62177CEBBDAD973006829F89F22E814B54F4BC2BE347F8AA8F681390B50FA73F804400B5F542E796F19FF974E7F78DB802FE05
310
E207504B0304140006080800CC70623B16AB87BA640500003C100000340000006662782F39464131463745442D413632322D343644302D413938332D3331353338454246344243312F6F626A656374732E786D6CAD575B6FA33818FD2B887DE6924B3BED8A326A92B68A663B534DD4D13E548A0C38942D60649B369D5FBFC7
310
600890A493BDE42160637FD7F31D7FF63E6FB3D478A55C242CBF3247B66B1A340F5994E4F19559CA8D75611A9F7D8F33263BCB4C232719BD32D5B4E97B316765A1A722BA21652A07B3B7B33F0D11D29C9A46981221AE4C113ED38CD8A4942CA2E2C58E882476BCD9DA23BB5ED8171B73523C0F841684D35CC252CCE79062D4
310
468DFA43D7747CCF51DF7D4FFDEB5593E3AB9CCA9FBEFE241792E4E19EB28198C968BAB8199F5D5A67D3E9C49A9E8F47D6EC76B6B0469F26EEFC7C3EBFBCBEB98462213924694B38DD98FE1D62C393D073EA4FADC5DAF04326852CCF6958F90F0F2B9BB5C48816348F90C7840A68EB78EDF68723159BCEE7891A6B95DDE9D3
310
BCEAEEE8086A6C6F9E5D4B59F0175C10A7A0820BAA5055C7473B5AE3CFDD452D602CD5DF12616444529E90D448938013FE6EFA58AA96F85E4F8C42275708571E98FE6827AF6B2B4AE3D7D83D64E5A64C53054DD3AF90BD06FEA9149565C94FCA0F6B834DC85599E4F2423B24DF0B6AFA979E534DFA9E7A4CC6FA631D486393
310
921829879BF5D781A373557BCB85E97FB90DB62B558F8795179C15944B051F40AB495CF35451D26A4727654E6D8033BD98EF82F21D91FF8AF2DD9982BCF1643BDD4EB516C9492E368C67C88DED563FC36D5EACF66DFF057C3658BDBFA69DF9578B3DA735B64F18C7F20770A9D45CFCF7FCF563D6456A277DBEF78A02637CA2
310
43B90A490AEAB94F72244481D24819A6C0E59B606BFA4B3025981DBB48EAB701D97BF19C577CC77F2D1B6C55A9EF3C732474C0B727303F625995056C3B02963D9EAC146BE78EC5FCEC7FA999EBC5EACBAAE41B12D27B4D2C0BBA49F244E2ECDC81B76B502F113D8F5EE8FB1BE3111CDD4FC2AA9B844CAB1288B68AB90A7CDC
310
1C166AB0D3DC5310625FCC14E779BFD0709F8890A629C9292B1B2DED31A4B0DA928CEE135085754027E3018A397D4D5427D15BD1330B677DC8934285AC3DF45A9EB68FF8F2B8FC0A509AFEECFD0FF2DE25CC6047F7214B195F07EFEB9A094D800F7BFAE8FED187B78EA8A3A400F115961BCAD1215E47C966530AF0EE8128FE
310
58CEBB996A8964FFA529A046635D9353B0336A8F700DDF46271A024E70B0B37C9DE01847591E54DED53D54202AB947E4076556AC49C6CA5C9E1226B7F1A7B1BE15DEED62C41B91E1B3E9AFAAA735036547343A925075041DF0A9979E893B391F8FCFA6967B3EFB644DCF6E5CEBFAE272625DCC6FAF3FB93793C5F90CE1EF57
310
407342756B10D1C489E8953CD1617E5CEECAD6F4EF8914CE5D5D504E5C3F1F9736DA62CFC11E00BCDDB8CC8A9466349744C1F75EBDA4DF09BA8A9E8C7A7E9991989E20E5DBDD6A6003664ED8F7A04A8DBE0DF6EAD9B9AA858342E47399053949D2C146EDB85DE4B176BB0965FBAC19BD19AA918E27FA50C1D22402E144464C
310
59462568E704B6E71915404CB72B8FF4EDE184DDAF753F284990D2C6926782963815403548A70C657FDEF80D2D9CEAA2AE4C1C76F60BFE74219A06527D6582DF6412526107381E55E353090704D085B52408D0933C4ED159D79BDA71BB4BC506F4831350EB6F979CD22D69BF7AC49B91A2C0A9DDA3D5CA36AD20FC478E37E6
310
1844E2352865EBCB6EA275A652E3836BE04EFB400BF1A2556F515F1FBB35B2AB35BD889C744FFA1004B5544B121E57F70215746DD2F5E2C1412B602CBF19455AC6C8E5E9922C4E01E65215385004546899059180EAFCF7A707CE7017CD8CDB0410789AB32C63B91E5CEBBBACB17AC6CD347A022D5075FD106377347AAABA7E
310
7D11590744509B44E205134DC1290F06580320F78E537D3D73540E06CB970B431F185308AD40BBD794D6D77003C5A36E8EAA54BA64597CD8F83BD552A080A365F7FF06504B0304140006080000CC70623B000000000000000000000000350000006662782F39464131463745442D413632322D343644302D413938332D3331
310
353338454246344243312F76657274696365732E62696E504B0304140006080800CC70623BF270F1330600000004000000360000006662782F39464131463745442D413632322D343644302D413938332D3331353338454246344243312F747269616E676C65732E62696E636660600000504B0304140006080000CC70623B
310
000000000000000000000000370000006662782F39464131463745442D413632322D343644302D413938332D3331353338454246344243312F617474726962757465732E62696E504B0304140006080800CC70623B08DA0BD19000000041010000360000006662782F39464131463745442D413632322D343644302D413938
310
332D3331353338454246344243312F6469726563746F72792E786D6C858F410AC3201045AF22B36F53E9A60B35CBEEBAE80D244E44489C6234F4F835464A48035D0DF398FF9F8AF63D0E6CC63039F212F8F9020C7D47C6792B21C5FE7403D62A1188E2E60C98D7234A5830286103A55745067B9D86B8A3CF9C7F90C11DE607
310
FB144396D7B6A82D282E9A152AD114D5EF2CB866EEE831B8EEA07A7BB5A8D7D61A2BAAEB7FD5F70921FF497D00504B0304140006080800CC70623B0D6EF93BFE000000A00100003B0000006662782F39464131463745442D413632322D343644302D413938332D3331353338454246344243312F7265736F75726365732F63
310
6F72652E786D6C8D50596E833010BD0A9ADFCA60B334011947A8694ED00B586642AC041B79A97AFC9A40A5F6AF3F33A3B7689E1E3F7DCD8FEC139DD7D6F4C0720A191A65476DA61E62B892236427C19DB5E1970C322367EC618541F0C9D9B8EC90B226A009093576C41D94DE63804C3DD2D18357379C652E63480A7FCF17A9
310
EE72C29CE5894E3AC17D702940B63D59270887DE46A7D0F36263058F518FBB468FE9A7BE6A7420864373B8D4873369AA8691FA421B3294352543C5CAF65C0F6FEF43CB8BD52C78D0F34F46E550061C419494B6843142CB0F5677F4B52BEB177AEC28E5C52AFF638ACBF84F53D42654E51E77B379102C05791282176B5F693D
310
CB4C7BED567C03504B010214000A0000080000CC70623B3DEE336E79000000790000001B00000000000000000000000000000000006175746F6465736B2D64657369676E2D7061636B6167652E786D6C504B01021400140006080800CC70623BD486FD9CA0000000F40000001300000000000000000000000000B20000005B
310
436F6E74656E745F54797065735D2E786D6C504B01021400140006080800CC70623B1EC5D7A3EB0000007C010000080000000000000000000000000083010000636F72652E786D6C504B01021400140006080800CC70623B55019EA25F0000007C000000070000000000000000000000000094020000636E782E786D6C504B
310
01021400140006080800CC70623B8C9102E971010000D40300000C00000000000000000000000000180300006662782F636F72652E786D6C504B01021400140006080800CC70623BFFEA85907E0000009D0000000B00000000000000000000000000B30400006662782F636E782E786D6C504B01021400140006080800CC70
310
623B4FEEA4082C0100001202000031000000000000000000000000005A0500006662782F39464131463745442D413632322D343644302D413938332D3331353338454246344243312F636F72652E786D6C504B01021400140006080800CC70623BAD7543B64E010000330300003000000000000000000000000000D5060000
310
6662782F39464131463745442D413632322D343644302D413938332D3331353338454246344243312F636E782E786D6C504B01021400140006080800CC70623B16AB87BA640500003C1000003400000000000000000000000000710800006662782F39464131463745442D413632322D343644302D413938332D3331353338
310
454246344243312F6F626A656374732E786D6C504B01021400140006080000CC70623B0000000000000000000000003500000000000000000000000000270E00006662782F39464131463745442D413632322D343644302D413938332D3331353338454246344243312F76657274696365732E62696E504B01021400140006
310
080800CC70623BF270F133060000000400000036000000000000000000000000007A0E00006662782F39464131463745442D413632322D343644302D413938332D3331353338454246344243312F747269616E676C65732E62696E504B01021400140006080000CC70623B0000000000000000000000003700000000000000
310
000000000000D40E00006662782F39464131463745442D413632322D343644302D413938332D3331353338454246344243312F617474726962757465732E62696E504B01021400140006080800CC70623B08DA0BD190000000410100003600000000000000000000000000290F00006662782F39464131463745442D413632
310
322D343644302D413938332D3331353338454246344243312F6469726563746F72792E786D6C504B01021400140006080800CC70623B0D6EF93BFE000000A00100003B000000000000000000000000000D1000006662782F39464131463745442D413632322D343644302D413938332D3331353338454246344243312F7265
310
736F75726365732F636F72652E786D6C504B0506000000000E000E0080040000641100000000
  0
XRECORD
  5
F27B
102
{ACAD_REACTORS
330
173
102
}
330
173
100
AcDbXrecord
280
     1
102
MATERIAL
148
0.0
149
0.0
149
0.0
 93
        0
 94
       63
282
     0
 72
     1
 77
     1
171
     1
175
     1
179
     1
273
     0
  0
XRECORD
  5
175
102
{ACAD_REACTORS
330
173
102
}
330
173
100
AcDbXrecord
280
     1
270
     1
271
     1
  0
XRECORD
  5
174
102
{ACAD_REACTORS
330
173
102
}
330
173
100
AcDbXrecord
280
     1
270
     1
271
     1
  0
XRECORD
  5
1FB
102
{ACAD_REACTORS
330
173
102
}
330
173
100
AcDbXrecord
280
     1
 70
     0
 90
1673772943
  1
ECE7A1D2-D628-4531-984C-D00F80459256
310
504B03040A0000080000CC70623B3DEE336E79000000790000001B0000006175746F6465736B2D64657369676E2D7061636B6167652E786D6C3C3F786D6C2076657273696F6E3D22312E302220656E636F64696E673D227574662D3822203F3E3C666F726D6174733E3C666F726D61743E687474703A2F2F736368656D612E
310
6175746F6465736B2E636F6D2F64657369676E2D7061636B6167652F323030393C2F666F726D61743E3C2F666F726D6174733E504B0304140006080800CC70623BD486FD9CA0000000F4000000130000005B436F6E74656E745F54797065735D2E786D6C7D8EC10E82300C865F65E91D8A1E8C310C0EEA1BF002731658846E
310
D98AC1B77784ABF1D8FE5FBFBF75BBCE937A534CCEB38643598122B6FEE978D0B0485F9C41B54DDD7D022595594E1A469170414C76A4D9A4D207E29CF43ECE46F218070CC6BECC4078ACAA135ACF422C856C0E68EA1BF5669944DDD7BCDE7B1F8E415D77AECB980613C2E4AC91FC167A2B244592486606FC29C8FD7F045B9A
310
EF7053A7E60B504B0304140006080800CC70623BD9DDAED0EC0000007C01000008000000636F72652E786D6C8D90416EC3201045AF82665B61836D9CD8C2444DD39CA01740405C94182C03558F5F9C3852BBEB6A467FFE9B197D7EF89E6EE8CB2CC17A37002D0820E394D7D68D03A478C17B4007C117EFE32F1B20272733C0
310
2A83E0E3E2D3BC49CABB685CCCAAF3DA6CA20CC14440EA969B0182FA34932C648AD911AEC52CD5558EA6A0CF2EC329598D1E47ACCEFBECC59A050463A7EA5833865FEBDD0E37353BE3EE8DBDE3F6786A48D375FBF6CC78B9C282473B3DEFABC5C86834888A900E538A49F5419B9EB47DD5BC907D4F082F57FB1F28CDFA9F50
310
B22ED6D5F6EE030B20687EE43E10BC5CB3C8E51E54AE6B6EE207504B0304140006080800CC70623B55019EA25F0000007C00000007000000636E782E786D6C4DCB3B0E80201045D1AD90E915ED2CF8AC45050C11660C8261F98AB1B07AC9C97D42D718D865D3E909258CFD00CCE24AC6E326A164D74DC0B4128928FF326038
310
472BA13128B1252AC747C6BAB984FC68F0B87FE8960A5C09FE86CFB69FBA01504B0304140006080800CC70623BA24EB22D72010000D40300000C0000006662782F636F72652E786D6CC5535B6E833010BC8AE5DF0A6C5E49888CA3A6694ED00B38E05014B091B1518EDFE511A5A9D228FD2A1F60CDEC7A67C6986DCE4D8D7A
310
69BA4AAB0C073EC548AA5C17952A33ECECD15B61B4E1CC686DBF9561A44423333CC098B3D268D7CE50AE9595CA02AA74216750749DB418E5352C32DCE59FB211BE70162ABA93DF8AFC244AE9073ED050C759670D0840D390E18DF9F1706664C23973AE2A66B62A605A75ACA4C13C4976E1364A12EF355A2EBD384AF65EFA96
310
BC7B8BED2EA6719AAE16FB8491A199335B351775B991C2CA02F390D2D40B028F861F41BCA68B7518BFD0D59A524686F29B26D7164F36B94AD9289CE54E6D1DE6010819891F6E21228B3AD1831EC219194284CF98F06DD01008846CC5A1BEF83801D4CBDC6A1303536877A57A513B0953A94FC707FDBE6064EA84A9E3E6E0FA
310
EE8CF0E9198F7784A316AA0413C2C2F2E0ECA0934D1AE6D05A69BCDE9E91D2A611F573361E38FC1375157F5752AE6B6DFE4B11990F88CCBF0719EE23FF02504B0304140006080800CC70623B408A7D3B7C0000009D0000000B0000006662782F636E782E786D6C4DCCD10A83201886E15B91FFDC552A92A0064DBC8F581632
310
D3703A76F9ABD1C18E3E78F878E5F0D9027ABBFCF2292AE86E2D20171F69F6715550CB827B40839639A5F2770314A7CD293819B45C73AAFB45B35BA61ACAA1C1C7E7855C58C15BC331339661262CC762340413D68D77DA5B42298546CBE6573AF60CEB2F504B0304140006080800CC70623B449FB9BD290100001202000031
310
0000006662782F36394639363044362D344446342D343946362D394244322D3234314243333846323333332F636F72652E786D6C8D515B6EC32010BC0AE22B55850D98B871848994463E412FE002495162B07854397EA176A4F62F3F2C9A9D991D587EB84F37F0AD7D30CEF6905418026DA553C65E7A98E219ED203808EE9D
310
8B7F6810D871D23D2C3014FCE25D9A57483A1BB58D19B54EE9151C43D0110279CB971E06F9A5A7B11A53CC8C70ADE6515EC78BAE4895DB992778883E0700CB907242D17643D7E2538BD869608875438BBAE38922CAC8F1BDD90DB4691A5E2F42C153326A951B95E398B3D1FE599322163C9AE9115F7A3D46ADA0A018778810
310
84E907617BDCEE297BC5BB3DC6BC2EF47FA234AB2745C9D8D8D035EE220B50105E2F0DC1954B9FB747187D9F9D8FA0CCDB042D5FA0C015C65B42DF78BD10F3F3B363CB56C7109DCFDFBBB97E662ED92EB62D13BC2E1BCAE5777DB9966D8A1F504B0304140006080800CC70623BAD7543B64E01000033030000300000006662
310
782F36394639363044362D344446342D343946362D394244322D3234314243333846323333332F636E782E786D6CD593CD6EC32010845F0571AD6CE3D48AD20813A9873E410FBD12D82434182C7EAAE6EDBB2424CD25871E7B41D6EC30B3FA84F9E67BB2E40B4234DE8DB46F1925E094D7C6ED479AD3AE5951B2113C789FEE
310
6C943839C1488B4C05DF079FE72A69D8C96C13AAD6B8631503449F83828872B949AC57D26200B826A308D316B4064D6E46FCDA41C05550DC9E483A00797BFD207EFB092A45DE9514C1BBD22178396BD39D891265658C238DEA00936C654E5E433CB65A26D9F6EDB5EBC14EBF49A45CB856E66048291F6939A9A81BB5C89177
310
38143CA680F4AA299D66A042CEB3354A2684DC9D8D178FE0D9B8B41CAAD720F880EE7EF93C0C18769E099ECC04D5A102C8049A8A05632F4DDF376CF1DE0F6BB65C2F8627B65A33C6BB62177CEBBDAD973006829F89F22E814B54F4BC2BE347F8AA8F681390B50FA73F804400B5F542E796F19FF974E7F78DB802FE05E20750
310
4B0304140006080800CC70623B8D05915C650500003B100000340000006662782F36394639363044362D344446342D343946362D394244322D3234314243333846323333332F6F626A656374732E786D6CAD575B6FA33814FE2B887D06429276DA1565D4266D158D3A339A6846FB502932E050B66023DB74D2FDF5FB190C01
310
9276B2973C046C8ECFF53B17071F77456EBD502133CEAE6CDF9DD81665314F32965ED995DA3A17B6F5310C04E7AA47665B8C14F4CAD6DB7618A48257A5D94AE89654B91AEDDEDDFC61C998326A5B714EA4BCB265FC440BE2924AF184CA6737218AB8E976E7FA6E4338649B0A523E8D98964450A6A029F619B8588D52FE7039
310
B1BD30F0F4F730D0FF866AF6369557DB33949F31A9088B0F848DD8CCFCF9F2767A76E99CCDE733677E3EF59D9BBB9BA5E37F984D16E78BC5E5F5ED25044B25C0C96822E8D60EEFE11B91C581D77CEA34368A1F5329E68CD1B8B61F16D63A1B8E092D294B10C78C4A48EB593D192E7DED9BDEE7995E1B91FDEDD3ACEA9FE831
310
6A756F9F7D4D79F4274C90A7A04248AA51D5F8C718DAE06FB2F75AC4796EBE65D22A88A22223B995679120E2D50E41AA49C260C046A35368846B0BECD0DFF3EBEB8AD4F835768F69B9ADF25C43D30E6B646F807FAA64AD59F61715C7A54127C4AACA98BA3006A9D792DAE165E0D59B61A01FB3A9F9D838D2DAE62445C86166
310
F37564E842E7DE6A69879FEEA2DD5AE7E371E1A5E025154AC307D06A03D73EB5978C58FFA4C8E9033066E0F3BD53BEC1F39F91BE7B55103791EDE6BBB991A2046172CB4581D8B893FA674DDA17A77B3B7C413D1B511FD2743BFF8A38F03A658705E3ADF8015C3A3417FF3D7E439FF591DA0B5F18BC20C1B8981957AE6392A3
310
F43C640C01D1A0B4728E2DD4F26DB4B3C3152A252A3B4E913CEC1C72F012782FF88EFF8637AA552DBEF76408E8A8DE9E50F9E1CB3A2DA0DB1B6039A893B56063DC5B3E3FFB5F72E67AB9FEB4AEC496C4F4C1149625DD662C53E89D7BF0F6151A046260D1337DFDC94502430F83B0EE07A130A224BCAD7DAE1D9FB6CD422FF6
310
920702629C4BB9AE79C12F243C6432A6794E18E5552BA56B431AAB5D91317302B2B071E86C3A42B1A02F999E24061403B5D0EB639195DA655DD3EBEAB4FB862DDF579F014AD0E73C22F99E28DA57FB98E75C6CA2D74D53086D600F4786E0FE3144B771A8A7B900F03594DB8A633CBC49B2EDB69228BB479CF863B5E807AAAB
310
23872F6DFEB4129B949CA33823F58830E86D65621E10047D9DB34D862E8EAC3C2ABC2F7B2C40D67CDFE01F5545B92105AF983AC54D93D69E56FB8E797F88913F898A9FEC705D3F9D1B54EC8426FB500D40A03BD0119B06E1B95DDC7EB8F6975367793EBD70E66733DFB9BC982F9CE564727731999F5D4ECFCE3B8D6A4DC2A0
310
6D50FD148437D110834A64C6CDDF57FBACB5C307A2A477DFE4939736CFEF2B175371E0E10CF0DD1D5C15654E0BCA14D1E87DD02FF93782A162C0A3D95F1524A52770F972BF1EE9809D13CE7DD599467F8ECE9ADD85CE85A34CD45355448C64F9E8A031DC2D596ACC6E5DD93D9B82DE2EF5CAF81363A8E47996A0DE24564A79
310
4115AACE09C55E14540231FDA13C319787134EBF34E3A022514E5B4D9E0826E25C02D5805B15ABE1BEF51B26383D445DD9E875EE33FE4C22DA16427D65A3BCA92CA6D28DD01DF5DC53330704308475351050232CCD31583787BA75774AFB06E5070DD0C8EF484E19968C5D83BA5B90B244D31E54D55A372320FE4786B7EA58
310
44E135AA5467CB7EA333A61683CC6A8C3257034C10CF46F40EF9F5BE59BE5BD30C3C72D235E95D10345C1D45445A5F0BB47E46A5EBE5570F9380B5FA629579952296A773720405982B9DE04011506178964401AA8BDF1FBF0A8EAB6861DD6580C0E38217056766716DAEB2D6FA0917D3E4116581EADB879C4E7CFFB11EFACD
310
3D641311495D92C8676CB409A72D18610D803CE8A626049E8EC1887CB5B44CC39883690DDA8399B4B9855B481E7D71D4A9D22F96E5BB73BF5793020C02137BF837504B0304140006080000CC70623B000000000000000000000000350000006662782F36394639363044362D344446342D343946362D394244322D32343142
310
43333846323333332F76657274696365732E62696E504B0304140006080800CC70623BF270F1330600000004000000360000006662782F36394639363044362D344446342D343946362D394244322D3234314243333846323333332F747269616E676C65732E62696E636660600000504B0304140006080000CC70623B0000
310
00000000000000000000370000006662782F36394639363044362D344446342D343946362D394244322D3234314243333846323333332F617474726962757465732E62696E504B0304140006080800CC70623B08DA0BD19000000041010000360000006662782F36394639363044362D344446342D343946362D394244322D
310
3234314243333846323333332F6469726563746F72792E786D6C858F410AC3201045AF22B36F53E9A60B35CBEEBAE80D244E44489C6234F4F835464A48035D0DF398FF9F8AF63D0E6CC63039F212F8F9020C7D47C6792B21C5FE7403D62A1188E2E60C98D7234A5830286103A55745067B9D86B8A3CF9C7F90C11DE607FB14
310
4396D7B6A82D282E9A152AD114D5EF2CB866EEE831B8EEA07A7BB5A8D7D61A2BAAEB7FD5F70921FF497D00504B0304140006080800CC70623BCA768048FE000000A00100003B0000006662782F36394639363044362D344446342D343946362D394244322D3234314243333846323333332F7265736F75726365732F636F72
310
652E786D6C8D50596E833010BD0A9ADFCA60D600328E9AA639412F609909B1126CE4A5EAF16B0295DABFFECC8CDEA2797AECF8353F924FB44E193D409E5248504B332A3D0D10FC95B4901C39B3C6F85F3248B49871801506CE266BC2B243D2688FDA47549B11775038871E12F988C7004EDE7016A9083E2ADC3D5D84BC8B09
310
D33C8D74D471E6BC8D0192EDC93A815B742658898E651BCB59086ADC356A8C3FD555A1055ED7E7E254D615792D0F075295F585746FF53B694EE78A565DD736979A65AB9933AFE69F8CD2A2F038022F28ED489E135A7CE4554F9BBEA85E68DB53CAB255FEC71496F19FA6A0B42F8B3DEE6673C0F318E4497096AD7DC5F52C33
310
EEB55BFE0D504B010214000A0000080000CC70623B3DEE336E79000000790000001B00000000000000000000000000000000006175746F6465736B2D64657369676E2D7061636B6167652E786D6C504B01021400140006080800CC70623BD486FD9CA0000000F40000001300000000000000000000000000B20000005B436F
310
6E74656E745F54797065735D2E786D6C504B01021400140006080800CC70623BD9DDAED0EC0000007C010000080000000000000000000000000083010000636F72652E786D6C504B01021400140006080800CC70623B55019EA25F0000007C000000070000000000000000000000000095020000636E782E786D6C504B0102
310
1400140006080800CC70623BA24EB22D72010000D40300000C00000000000000000000000000190300006662782F636F72652E786D6C504B01021400140006080800CC70623B408A7D3B7C0000009D0000000B00000000000000000000000000B50400006662782F636E782E786D6C504B01021400140006080800CC70623B
310
449FB9BD290100001202000031000000000000000000000000005A0500006662782F36394639363044362D344446342D343946362D394244322D3234314243333846323333332F636F72652E786D6C504B01021400140006080800CC70623BAD7543B64E010000330300003000000000000000000000000000D20600006662
310
782F36394639363044362D344446342D343946362D394244322D3234314243333846323333332F636E782E786D6C504B01021400140006080800CC70623B8D05915C650500003B10000034000000000000000000000000006E0800006662782F36394639363044362D344446342D343946362D394244322D32343142433338
310
46323333332F6F626A656374732E786D6C504B01021400140006080000CC70623B0000000000000000000000003500000000000000000000000000250E00006662782F36394639363044362D344446342D343946362D394244322D3234314243333846323333332F76657274696365732E62696E504B010214001400060808
310
00CC70623BF270F13306000000040000003600000000000000000000000000780E00006662782F36394639363044362D344446342D343946362D394244322D3234314243333846323333332F747269616E676C65732E62696E504B01021400140006080000CC70623B00000000000000000000000037000000000000000000
310
00000000D20E00006662782F36394639363044362D344446342D343946362D394244322D3234314243333846323333332F617474726962757465732E62696E504B01021400140006080800CC70623B08DA0BD190000000410100003600000000000000000000000000270F00006662782F36394639363044362D344446342D
310
343946362D394244322D3234314243333846323333332F6469726563746F72792E786D6C504B01021400140006080800CC70623BCA768048FE000000A00100003B000000000000000000000000000B1000006662782F36394639363044362D344446342D343946362D394244322D3234314243333846323333332F7265736F
310
75726365732F636F72652E786D6C504B0506000000000E000E0080040000621100000000
  0
XRECORD
  5
176
102
{ACAD_REACTORS
330
173
102
}
330
173
100
AcDbXrecord
280
     1
270
     1
271
     1
  0
XRECORD
  5
177
102
{ACAD_REACTORS
330
173
102
}
330
173
100
AcDbXrecord
280
     1
270
     1
271
     1
  0
XRECORD
  5
F29D
102
{ACAD_REACTORS
330
F29C
102
}
330
F29C
100
AcDbXrecord
280
     1
102
ACAD_ROUNDTRIP_2012_MLEADER_STYLE
298
     1
  0
XRECORD
  5
F2AF
102
{ACAD_REACTORS
330
F2AE
102
}
330
F2AE
100
AcDbXrecord
280
     1
102
DISPLAYNAME
  1
Metric50
102
FLAGS
 90
        0
  0
CELLSTYLEMAP
  5
F26F
102
{ACAD_REACTORS
330
162
102
}
330
162
100
AcDbCellStyleMap
 90
        3
300
CELLSTYLE
  1
TABLEFORMAT_BEGIN
 90
        5
170
     1
 91
        0
 92
    32768
 62
   257
 93
        1
300
CONTENTFORMAT
  1
CONTENTFORMAT_BEGIN
 90
        0
 91
        0
 92
      512
 93
        0
300

 40
0.0
140
1.0
 94
        5
 62
     0
340
11
144
6.0
309
CONTENTFORMAT_END
171
     1
301
MARGIN
  1
CELLMARGIN_BEGIN
 40
1.5
 40
1.5
 40
1.5
 40
1.5
 40
4.5
 40
4.5
309
CELLMARGIN_END
 94
        6
 95
        1
302
GRIDFORMAT
  1
GRIDFORMAT_BEGIN
 90
        0
 91
        1
 62
     0
 92
       -2
340
14
 93
        0
 40
1.125
309
GRIDFORMAT_END
 95
        2
302
GRIDFORMAT
  1
GRIDFORMAT_BEGIN
 90
        0
 91
        1
 62
     0
 92
       -2
340
14
 93
        0
 40
1.125
309
GRIDFORMAT_END
 95
        4
302
GRIDFORMAT
  1
GRIDFORMAT_BEGIN
 90
        0
 91
        1
 62
     0
 92
       -2
340
14
 93
        0
 40
1.125
309
GRIDFORMAT_END
 95
        8
302
GRIDFORMAT
  1
GRIDFORMAT_BEGIN
 90
        0
 91
        1
 62
     0
 92
       -2
340
14
 93
        0
 40
1.125
309
GRIDFORMAT_END
 95
       16
302
GRIDFORMAT
  1
GRIDFORMAT_BEGIN
 90
        0
 91
        1
 62
     0
 92
       -2
340
14
 93
        0
 40
1.125
309
GRIDFORMAT_END
 95
       32
302
GRIDFORMAT
  1
GRIDFORMAT_BEGIN
 90
        0
 91
        1
 62
     0
 92
       -2
340
14
 93
        0
 40
1.125
309
GRIDFORMAT_END
309
TABLEFORMAT_END
  1
CELLSTYLE_BEGIN
 90
        1
 91
        1
300
_TITLE
309
CELLSTYLE_END
300
CELLSTYLE
  1
TABLEFORMAT_BEGIN
 90
        5
170
     1
 91
        0
 92
        0
 62
   257
 93
        1
300
CONTENTFORMAT
  1
CONTENTFORMAT_BEGIN
 90
        0
 91
        0
 92
      512
 93
        0
300

 40
0.0
140
1.0
 94
        5
 62
     0
340
11
144
4.5
309
CONTENTFORMAT_END
171
     1
301
MARGIN
  1
CELLMARGIN_BEGIN
 40
1.5
 40
1.5
 40
1.5
 40
1.5
 40
4.5
 40
4.5
309
CELLMARGIN_END
 94
        6
 95
        1
302
GRIDFORMAT
  1
GRIDFORMAT_BEGIN
 90
        0
 91
        1
 62
     0
 92
       -2
340
14
 93
        0
 40
1.125
309
GRIDFORMAT_END
 95
        2
302
GRIDFORMAT
  1
GRIDFORMAT_BEGIN
 90
        0
 91
        1
 62
     0
 92
       -2
340
14
 93
        0
 40
1.125
309
GRIDFORMAT_END
 95
        4
302
GRIDFORMAT
  1
GRIDFORMAT_BEGIN
 90
        0
 91
        1
 62
     0
 92
       -2
340
14
 93
        0
 40
1.125
309
GRIDFORMAT_END
 95
        8
302
GRIDFORMAT
  1
GRIDFORMAT_BEGIN
 90
        0
 91
        1
 62
     0
 92
       -2
340
14
 93
        0
 40
1.125
309
GRIDFORMAT_END
 95
       16
302
GRIDFORMAT
  1
GRIDFORMAT_BEGIN
 90
        0
 91
        1
 62
     0
 92
       -2
340
14
 93
        0
 40
1.125
309
GRIDFORMAT_END
 95
       32
302
GRIDFORMAT
  1
GRIDFORMAT_BEGIN
 90
        0
 91
        1
 62
     0
 92
       -2
340
14
 93
        0
 40
1.125
309
GRIDFORMAT_END
309
TABLEFORMAT_END
  1
CELLSTYLE_BEGIN
 90
        2
 91
        1
300
_HEADER
309
CELLSTYLE_END
300
CELLSTYLE
  1
TABLEFORMAT_BEGIN
 90
        5
170
     1
 91
        0
 92
        0
 62
   257
 93
        1
300
CONTENTFORMAT
  1
CONTENTFORMAT_BEGIN
 90
        0
 91
        0
 92
      512
 93
        0
300

 40
0.0
140
1.0
 94
        2
 62
     0
340
11
144
4.5
309
CONTENTFORMAT_END
171
     1
301
MARGIN
  1
CELLMARGIN_BEGIN
 40
1.5
 40
1.5
 40
1.5
 40
1.5
 40
4.5
 40
4.5
309
CELLMARGIN_END
 94
        6
 95
        1
302
GRIDFORMAT
  1
GRIDFORMAT_BEGIN
 90
        0
 91
        1
 62
     0
 92
       -2
340
14
 93
        0
 40
1.125
309
GRIDFORMAT_END
 95
        2
302
GRIDFORMAT
  1
GRIDFORMAT_BEGIN
 90
        0
 91
        1
 62
     0
 92
       -2
340
14
 93
        0
 40
1.125
309
GRIDFORMAT_END
 95
        4
302
GRIDFORMAT
  1
GRIDFORMAT_BEGIN
 90
        0
 91
        1
 62
     0
 92
       -2
340
14
 93
        0
 40
1.125
309
GRIDFORMAT_END
 95
        8
302
GRIDFORMAT
  1
GRIDFORMAT_BEGIN
 90
        0
 91
        1
 62
     0
 92
       -2
340
14
 93
        0
 40
1.125
309
GRIDFORMAT_END
 95
       16
302
GRIDFORMAT
  1
GRIDFORMAT_BEGIN
 90
        0
 91
        1
 62
     0
 92
       -2
340
14
 93
        0
 40
1.125
309
GRIDFORMAT_END
 95
       32
302
GRIDFORMAT
  1
GRIDFORMAT_BEGIN
 90
        0
 91
        1
 62
     0
 92
       -2
340
14
 93
        0
 40
1.125
309
GRIDFORMAT_END
309
TABLEFORMAT_END
  1
CELLSTYLE_BEGIN
 90
        3
 91
        2
300
_DATA
309
CELLSTYLE_END
  0
XRECORD
  5
F274
102
{ACAD_REACTORS
330
162
102
}
330
162
100
AcDbXrecord
280
     1
102
ACAD_ROUNDTRIP_PRE2007_TABLESTYLE
 90
      512
 91
        0
  1

 92
      512
 93
        0
  2

 94
      512
 95
        0
  3

  0
XRECORD
  5
F287
102
{ACAD_REACTORS
330
F286
102
}
330
F286
100
AcDbXrecord
280
     1
102
RTVSPost2010Prop28
280
     1
102
RTVSPost2010PropOp28
 70
     1
102
RTVSPost2010Prop29
280
     1
102
RTVSPost2010PropOp29
 70
     1
102
RTVSPost2010Prop30
280
     0
102
RTVSPost2010PropOp30
 70
     1
102
RTVSPost2010Prop31
280
     0
102
RTVSPost2010PropOp31
 70
     1
102
RTVSPost2010Prop32
280
     0
102
RTVSPost2010PropOp32
 70
     1
102
RTVSPost2010Prop33
280
     0
102
RTVSPost2010PropOp33
 70
     1
102
RTVSPost2010Prop34
280
     0
102
RTVSPost2010PropOp34
 70
     1
102
RTVSPost2010Prop35
280
     0
102
RTVSPost2010PropOp35
 70
     1
102
RTVSPost2010Prop36
280
     0
102
RTVSPost2010PropOp36
 70
     1
102
RTVSPost2010Prop37
 90
       50
102
RTVSPost2010PropOp37
 70
     1
102
RTVSPost2010Prop38
140
0.0
102
RTVSPost2010PropOp38
 70
     1
102
RTVSPost2010Prop39
140
1.0
102
RTVSPost2010PropOp39
 70
     1
102
RTVSPost2010Prop40
 90
        0
102
RTVSPost2010PropOp40
 70
     1
102
RTVSPost2010Prop41ColorIndex
 90
       18
102
RTVSPost2010Prop41ColorRGB
 90
        0
102
RTVSPost2010PropOp41
 70
     1
102
RTVSPost2010Prop42
 90
       50
102
RTVSPost2010PropOp42
 70
     1
102
RTVSPost2010Prop43
 90
        3
102
RTVSPost2010PropOp43
 70
     1
102
RTVSPost2010Prop44ColorIndex
 90
        5
102
RTVSPost2010Prop44ColorRGB
 90
      255
102
RTVSPost2010PropOp44
 70
     1
102
RTVSPost2010Prop45
280
     0
102
RTVSPost2010PropOp45
 70
     1
102
RTVSPost2010Prop46
 90
       50
102
RTVSPost2010PropOp46
 70
     1
102
RTVSPost2010Prop47
 90
       50
102
RTVSPost2010PropOp47
 70
     1
102
RTVSPost2010Prop48
 90
       50
102
RTVSPost2010PropOp48
 70
     1
102
RTVSPost2010Prop49
280
     0
102
RTVSPost2010PropOp49
 70
     1
102
RTVSPost2010Prop50
 90
       50
102
RTVSPost2010PropOp50
 70
     1
102
RTVSPost2010Prop51ColorIndex
 90
      256
102
RTVSPost2010Prop51ColorRGB
 90
-16777216
102
RTVSPost2010PropOp51
 70
     0
102
RTVSPost2010Prop52
140
1.0
102
RTVSPost2010PropOp52
 70
     0
102
RTVSPost2010Prop53
 90
        2
102
RTVSPost2010PropOp53
 70
     1
102
RTVSPost2010Prop54
  1
strokes_ogs.tif
102
RTVSPost2010PropOp54
 70
     1
102
RTVSPost2010Prop55
280
     0
102
RTVSPost2010PropOp55
 70
     1
102
RTVSPost2010Prop56
140
1.0
102
RTVSPost2010PropOp56
 70
     1
102
RTVSPost2010Prop57
140
1.0
102
RTVSPost2010PropOp57
 70
     1
102
RTVSPropertyOp0
 70
     1
102
RTVSPropertyOp1
 70
     1
102
RTVSPropertyOp2
 70
     1
102
RTVSPropertyOp3
 70
     1
102
RTVSPropertyOp4
 70
     1
102
RTVSPropertyOp5
 70
     1
102
RTVSPropertyOp6
 70
     1
102
RTVSPropertyOp7
 70
     1
102
RTVSPropertyOp8
 70
     1
102
RTVSPropertyOp9
 70
     1
102
RTVSPropertyOp10
 70
     1
102
RTVSPropertyOp11
 70
     1
102
RTVSPropertyOp12
 70
     1
102
RTVSPropertyOp13
 70
     1
102
RTVSPropertyOp14
 70
     1
102
RTVSPropertyOp15
 70
     1
102
RTVSPropertyOp16
 70
     1
102
RTVSPropertyOp17
 70
     1
102
RTVSPropertyOp18
 70
     1
102
RTVSPropertyOp19
 70
     1
102
RTVSPropertyOp20
 70
     1
102
RTVSPropertyOp21
 70
     1
102
RTVSPropertyOp22
 70
     1
102
RTVSPropertyOp23
 70
     1
102
RTVSPropertyOp24
 70
     1
102
RTVSPropertyOp25
 70
     1
102
RTVSPropertyOp26
 70
     1
102
RTVSPropertyOp27
 70
     1
102
RTVSPropertyOp28
 70
     1
102
RTVSPropertyOp29
 70
     1
102
RTVSPropertyOp30
 70
     1
102
RTVSPropertyOp31
 70
     1
102
RTVSPropertyOp32
 70
     1
102
RTVSPropertyOp33
 70
     1
102
RTVSPropertyOp34
 70
     1
102
RTVSPropertyOp35
 70
     1
102
RTVSPropertyOp36
 70
     1
102
RTVSPropertyOp37
 70
     1
102
RTVSPropertyOp38
 70
     1
102
RTVSPropertyOp39
 70
     1
102
RTVSPropertyOp40
 70
     1
102
RTVSPropertyOp41
 70
     1
102
RTVSPropertyOp42
 70
     1
102
RTVSPropertyOp43
 70
     1
102
RTVSPropertyOp44
 70
     1
102
RTVSPropertyOp45
 70
     1
102
RTVSPropertyOp46
 70
     1
102
RTVSPropertyOp47
 70
     1
102
RTVSPropertyOp48
 70
     1
102
RTVSPropertyOp49
 70
     1
102
RTVSPropertyOp50
 70
     1
102
RTVSPropertyOp51
 70
     0
102
RTVSPropertyOp52
 70
     0
102
RTVSPropertyOp53
 70
     1
102
RTVSPropertyOp54
 70
     1
102
RTVSPropertyOp55
 70
     1
102
RTVSPropertyOp56
 70
     1
102
RTVSPropertyOp57
 70
     1
102
RTVSPropertyOp58
 70
     1
102
RTVSPropertyOp59
 70
     1
102
RTVSPropertyOp60
 70
     1
102
RTVSPropertyOp61
 70
     1
102
RTVSPropertyOp62
 70
     1
  0
XRECORD
  5
F285
102
{ACAD_REACTORS
330
F284
102
}
330
F284
100
AcDbXrecord
280
     1
102
RTVSPost2010Prop28
280
     0
102
RTVSPost2010PropOp28
 70
     1
102
RTVSPost2010Prop29
280
     1
102
RTVSPost2010PropOp29
 70
     1
102
RTVSPost2010Prop30
280
     1
102
RTVSPost2010PropOp30
 70
     1
102
RTVSPost2010Prop31
280
     0
102
RTVSPost2010PropOp31
 70
     1
102
RTVSPost2010Prop32
280
     0
102
RTVSPost2010PropOp32
 70
     1
102
RTVSPost2010Prop33
280
     0
102
RTVSPost2010PropOp33
 70
     1
102
RTVSPost2010Prop34
280
     0
102
RTVSPost2010PropOp34
 70
     1
102
RTVSPost2010Prop35
280
     0
102
RTVSPost2010PropOp35
 70
     1
102
RTVSPost2010Prop36
280
     0
102
RTVSPost2010PropOp36
 70
     1
102
RTVSPost2010Prop37
 90
       50
102
RTVSPost2010PropOp37
 70
     1
102
RTVSPost2010Prop38
140
0.0
102
RTVSPost2010PropOp38
 70
     1
102
RTVSPost2010Prop39
140
1.0
102
RTVSPost2010PropOp39
 70
     1
102
RTVSPost2010Prop40
 90
        0
102
RTVSPost2010PropOp40
 70
     1
102
RTVSPost2010Prop41ColorIndex
 90
       18
102
RTVSPost2010Prop41ColorRGB
 90
        0
102
RTVSPost2010PropOp41
 70
     1
102
RTVSPost2010Prop42
 90
       50
102
RTVSPost2010PropOp42
 70
     1
102
RTVSPost2010Prop43
 90
        3
102
RTVSPost2010PropOp43
 70
     1
102
RTVSPost2010Prop44ColorIndex
 90
        5
102
RTVSPost2010Prop44ColorRGB
 90
      255
102
RTVSPost2010PropOp44
 70
     1
102
RTVSPost2010Prop45
280
     0
102
RTVSPost2010PropOp45
 70
     1
102
RTVSPost2010Prop46
 90
       50
102
RTVSPost2010PropOp46
 70
     1
102
RTVSPost2010Prop47
 90
       50
102
RTVSPost2010PropOp47
 70
     1
102
RTVSPost2010Prop48
 90
       50
102
RTVSPost2010PropOp48
 70
     1
102
RTVSPost2010Prop49
280
     0
102
RTVSPost2010PropOp49
 70
     1
102
RTVSPost2010Prop50
 90
       50
102
RTVSPost2010PropOp50
 70
     1
102
RTVSPost2010Prop51ColorIndex
 90
      256
102
RTVSPost2010Prop51ColorRGB
 90
-16777216
102
RTVSPost2010PropOp51
 70
     0
102
RTVSPost2010Prop52
140
1.0
102
RTVSPost2010PropOp52
 70
     0
102
RTVSPost2010Prop53
 90
        2
102
RTVSPost2010PropOp53
 70
     1
102
RTVSPost2010Prop54
  1
strokes_ogs.tif
102
RTVSPost2010PropOp54
 70
     1
102
RTVSPost2010Prop55
280
     0
102
RTVSPost2010PropOp55
 70
     1
102
RTVSPost2010Prop56
140
1.0
102
RTVSPost2010PropOp56
 70
     1
102
RTVSPost2010Prop57
140
1.0
102
RTVSPost2010PropOp57
 70
     1
102
RTVSPropertyOp0
 70
     1
102
RTVSPropertyOp1
 70
     1
102
RTVSPropertyOp2
 70
     1
102
RTVSPropertyOp3
 70
     1
102
RTVSPropertyOp4
 70
     1
102
RTVSPropertyOp5
 70
     1
102
RTVSPropertyOp6
 70
     1
102
RTVSPropertyOp7
 70
     1
102
RTVSPropertyOp8
 70
     1
102
RTVSPropertyOp9
 70
     1
102
RTVSPropertyOp10
 70
     1
102
RTVSPropertyOp11
 70
     1
102
RTVSPropertyOp12
 70
     1
102
RTVSPropertyOp13
 70
     1
102
RTVSPropertyOp14
 70
     1
102
RTVSPropertyOp15
 70
     1
102
RTVSPropertyOp16
 70
     1
102
RTVSPropertyOp17
 70
     1
102
RTVSPropertyOp18
 70
     1
102
RTVSPropertyOp19
 70
     1
102
RTVSPropertyOp20
 70
     1
102
RTVSPropertyOp21
 70
     1
102
RTVSPropertyOp22
 70
     1
102
RTVSPropertyOp23
 70
     1
102
RTVSPropertyOp24
 70
     1
102
RTVSPropertyOp25
 70
     1
102
RTVSPropertyOp26
 70
     1
102
RTVSPropertyOp27
 70
     1
102
RTVSPropertyOp28
 70
     1
102
RTVSPropertyOp29
 70
     1
102
RTVSPropertyOp30
 70
     1
102
RTVSPropertyOp31
 70
     1
102
RTVSPropertyOp32
 70
     1
102
RTVSPropertyOp33
 70
     1
102
RTVSPropertyOp34
 70
     1
102
RTVSPropertyOp35
 70
     1
102
RTVSPropertyOp36
 70
     1
102
RTVSPropertyOp37
 70
     1
102
RTVSPropertyOp38
 70
     1
102
RTVSPropertyOp39
 70
     1
102
RTVSPropertyOp40
 70
     1
102
RTVSPropertyOp41
 70
     1
102
RTVSPropertyOp42
 70
     1
102
RTVSPropertyOp43
 70
     1
102
RTVSPropertyOp44
 70
     1
102
RTVSPropertyOp45
 70
     1
102
RTVSPropertyOp46
 70
     1
102
RTVSPropertyOp47
 70
     1
102
RTVSPropertyOp48
 70
     1
102
RTVSPropertyOp49
 70
     1
102
RTVSPropertyOp50
 70
     1
102
RTVSPropertyOp51
 70
     0
102
RTVSPropertyOp52
 70
     0
102
RTVSPropertyOp53
 70
     1
102
RTVSPropertyOp54
 70
     1
102
RTVSPropertyOp55
 70
     1
102
RTVSPropertyOp56
 70
     1
102
RTVSPropertyOp57
 70
     1
102
RTVSPropertyOp58
 70
     1
102
RTVSPropertyOp59
 70
     1
102
RTVSPropertyOp60
 70
     1
102
RTVSPropertyOp61
 70
     1
102
RTVSPropertyOp62
 70
     1
  0
XRECORD
  5
F293
102
{ACAD_REACTORS
330
F292
102
}
330
F292
100
AcDbXrecord
280
     1
102
RTVSPost2010Prop28
280
     0
102
RTVSPost2010PropOp28
 70
     1
102
RTVSPost2010Prop29
280
     1
102
RTVSPost2010PropOp29
 70
     1
102
RTVSPost2010Prop30
280
     1
102
RTVSPost2010PropOp30
 70
     1
102
RTVSPost2010Prop31
280
     0
102
RTVSPost2010PropOp31
 70
     1
102
RTVSPost2010Prop32
280
     0
102
RTVSPost2010PropOp32
 70
     1
102
RTVSPost2010Prop33
280
     0
102
RTVSPost2010PropOp33
 70
     1
102
RTVSPost2010Prop34
280
     0
102
RTVSPost2010PropOp34
 70
     1
102
RTVSPost2010Prop35
280
     0
102
RTVSPost2010PropOp35
 70
     1
102
RTVSPost2010Prop36
280
     0
102
RTVSPost2010PropOp36
 70
     1
102
RTVSPost2010Prop37
 90
       50
102
RTVSPost2010PropOp37
 70
     1
102
RTVSPost2010Prop38
140
0.0
102
RTVSPost2010PropOp38
 70
     1
102
RTVSPost2010Prop39
140
1.0
102
RTVSPost2010PropOp39
 70
     1
102
RTVSPost2010Prop40
 90
        0
102
RTVSPost2010PropOp40
 70
     1
102
RTVSPost2010Prop41ColorIndex
 90
       18
102
RTVSPost2010Prop41ColorRGB
 90
        0
102
RTVSPost2010PropOp41
 70
     1
102
RTVSPost2010Prop42
 90
       50
102
RTVSPost2010PropOp42
 70
     1
102
RTVSPost2010Prop43
 90
        3
102
RTVSPost2010PropOp43
 70
     1
102
RTVSPost2010Prop44ColorIndex
 90
        5
102
RTVSPost2010Prop44ColorRGB
 90
      255
102
RTVSPost2010PropOp44
 70
     1
102
RTVSPost2010Prop45
280
     0
102
RTVSPost2010PropOp45
 70
     1
102
RTVSPost2010Prop46
 90
       50
102
RTVSPost2010PropOp46
 70
     1
102
RTVSPost2010Prop47
 90
       50
102
RTVSPost2010PropOp47
 70
     1
102
RTVSPost2010Prop48
 90
       50
102
RTVSPost2010PropOp48
 70
     1
102
RTVSPost2010Prop49
280
     0
102
RTVSPost2010PropOp49
 70
     1
102
RTVSPost2010Prop50
 90
       50
102
RTVSPost2010PropOp50
 70
     1
102
RTVSPost2010Prop51ColorIndex
 90
      256
102
RTVSPost2010Prop51ColorRGB
 90
-16777216
102
RTVSPost2010PropOp51
 70
     0
102
RTVSPost2010Prop52
140
1.0
102
RTVSPost2010PropOp52
 70
     0
102
RTVSPost2010Prop53
 90
        2
102
RTVSPost2010PropOp53
 70
     1
102
RTVSPost2010Prop54
  1
strokes_ogs.tif
102
RTVSPost2010PropOp54
 70
     1
102
RTVSPost2010Prop55
280
     0
102
RTVSPost2010PropOp55
 70
     1
102
RTVSPost2010Prop56
140
1.0
102
RTVSPost2010PropOp56
 70
     1
102
RTVSPost2010Prop57
140
1.0
102
RTVSPost2010PropOp57
 70
     1
102
RTVSPropertyOp0
 70
     1
102
RTVSPropertyOp1
 70
     1
102
RTVSPropertyOp2
 70
     1
102
RTVSPropertyOp3
 70
     1
102
RTVSPropertyOp4
 70
     1
102
RTVSPropertyOp5
 70
     1
102
RTVSPropertyOp6
 70
     1
102
RTVSPropertyOp7
 70
     1
102
RTVSPropertyOp8
 70
     1
102
RTVSPropertyOp9
 70
     1
102
RTVSPropertyOp10
 70
     1
102
RTVSPropertyOp11
 70
     1
102
RTVSPropertyOp12
 70
     1
102
RTVSPropertyOp13
 70
     1
102
RTVSPropertyOp14
 70
     1
102
RTVSPropertyOp15
 70
     1
102
RTVSPropertyOp16
 70
     1
102
RTVSPropertyOp17
 70
     1
102
RTVSPropertyOp18
 70
     1
102
RTVSPropertyOp19
 70
     1
102
RTVSPropertyOp20
 70
     1
102
RTVSPropertyOp21
 70
     1
102
RTVSPropertyOp22
 70
     1
102
RTVSPropertyOp23
 70
     1
102
RTVSPropertyOp24
 70
     1
102
RTVSPropertyOp25
 70
     1
102
RTVSPropertyOp26
 70
     1
102
RTVSPropertyOp27
 70
     1
102
RTVSPropertyOp28
 70
     1
102
RTVSPropertyOp29
 70
     1
102
RTVSPropertyOp30
 70
     1
102
RTVSPropertyOp31
 70
     1
102
RTVSPropertyOp32
 70
     1
102
RTVSPropertyOp33
 70
     1
102
RTVSPropertyOp34
 70
     1
102
RTVSPropertyOp35
 70
     1
102
RTVSPropertyOp36
 70
     1
102
RTVSPropertyOp37
 70
     1
102
RTVSPropertyOp38
 70
     1
102
RTVSPropertyOp39
 70
     1
102
RTVSPropertyOp40
 70
     1
102
RTVSPropertyOp41
 70
     1
102
RTVSPropertyOp42
 70
     1
102
RTVSPropertyOp43
 70
     1
102
RTVSPropertyOp44
 70
     1
102
RTVSPropertyOp45
 70
     1
102
RTVSPropertyOp46
 70
     1
102
RTVSPropertyOp47
 70
     1
102
RTVSPropertyOp48
 70
     1
102
RTVSPropertyOp49
 70
     1
102
RTVSPropertyOp50
 70
     1
102
RTVSPropertyOp51
 70
     0
102
RTVSPropertyOp52
 70
     0
102
RTVSPropertyOp53
 70
     1
102
RTVSPropertyOp54
 70
     1
102
RTVSPropertyOp55
 70
     1
102
RTVSPropertyOp56
 70
     1
102
RTVSPropertyOp57
 70
     1
102
RTVSPropertyOp58
 70
     1
102
RTVSPropertyOp59
 70
     1
102
RTVSPropertyOp60
 70
     1
102
RTVSPropertyOp61
 70
     1
102
RTVSPropertyOp62
 70
     1
  0
XRECORD
  5
F29B
102
{ACAD_REACTORS
330
F29A
102
}
330
F29A
100
AcDbXrecord
280
     1
102
RTVSPost2010Prop28
280
     0
102
RTVSPost2010PropOp28
 70
     1
102
RTVSPost2010Prop29
280
     1
102
RTVSPost2010PropOp29
 70
     1
102
RTVSPost2010Prop30
280
     1
102
RTVSPost2010PropOp30
 70
     1
102
RTVSPost2010Prop31
280
     0
102
RTVSPost2010PropOp31
 70
     1
102
RTVSPost2010Prop32
280
     0
102
RTVSPost2010PropOp32
 70
     1
102
RTVSPost2010Prop33
280
     0
102
RTVSPost2010PropOp33
 70
     1
102
RTVSPost2010Prop34
280
     0
102
RTVSPost2010PropOp34
 70
     1
102
RTVSPost2010Prop35
280
     0
102
RTVSPost2010PropOp35
 70
     1
102
RTVSPost2010Prop36
280
     0
102
RTVSPost2010PropOp36
 70
     1
102
RTVSPost2010Prop37
 90
       50
102
RTVSPost2010PropOp37
 70
     1
102
RTVSPost2010Prop38
140
0.0
102
RTVSPost2010PropOp38
 70
     1
102
RTVSPost2010Prop39
140
1.0
102
RTVSPost2010PropOp39
 70
     1
102
RTVSPost2010Prop40
 90
        0
102
RTVSPost2010PropOp40
 70
     1
102
RTVSPost2010Prop41ColorIndex
 90
       18
102
RTVSPost2010Prop41ColorRGB
 90
        0
102
RTVSPost2010PropOp41
 70
     1
102
RTVSPost2010Prop42
 90
       50
102
RTVSPost2010PropOp42
 70
     1
102
RTVSPost2010Prop43
 90
        3
102
RTVSPost2010PropOp43
 70
     1
102
RTVSPost2010Prop44ColorIndex
 90
        5
102
RTVSPost2010Prop44ColorRGB
 90
      255
102
RTVSPost2010PropOp44
 70
     1
102
RTVSPost2010Prop45
280
     0
102
RTVSPost2010PropOp45
 70
     1
102
RTVSPost2010Prop46
 90
       50
102
RTVSPost2010PropOp46
 70
     1
102
RTVSPost2010Prop47
 90
       50
102
RTVSPost2010PropOp47
 70
     1
102
RTVSPost2010Prop48
 90
       50
102
RTVSPost2010PropOp48
 70
     1
102
RTVSPost2010Prop49
280
     0
102
RTVSPost2010PropOp49
 70
     1
102
RTVSPost2010Prop50
 90
       50
102
RTVSPost2010PropOp50
 70
     1
102
RTVSPost2010Prop51ColorIndex
 90
      256
102
RTVSPost2010Prop51ColorRGB
 90
-16777216
102
RTVSPost2010PropOp51
 70
     0
102
RTVSPost2010Prop52
140
1.0
102
RTVSPost2010PropOp52
 70
     0
102
RTVSPost2010Prop53
 90
        2
102
RTVSPost2010PropOp53
 70
     1
102
RTVSPost2010Prop54
  1
strokes_ogs.tif
102
RTVSPost2010PropOp54
 70
     1
102
RTVSPost2010Prop55
280
     0
102
RTVSPost2010PropOp55
 70
     1
102
RTVSPost2010Prop56
140
1.0
102
RTVSPost2010PropOp56
 70
     1
102
RTVSPost2010Prop57
140
1.0
102
RTVSPost2010PropOp57
 70
     1
102
RTVSPropertyOp0
 70
     1
102
RTVSPropertyOp1
 70
     1
102
RTVSPropertyOp2
 70
     1
102
RTVSPropertyOp3
 70
     1
102
RTVSPropertyOp4
 70
     1
102
RTVSPropertyOp5
 70
     1
102
RTVSPropertyOp6
 70
     1
102
RTVSPropertyOp7
 70
     1
102
RTVSPropertyOp8
 70
     1
102
RTVSPropertyOp9
 70
     1
102
RTVSPropertyOp10
 70
     1
102
RTVSPropertyOp11
 70
     1
102
RTVSPropertyOp12
 70
     1
102
RTVSPropertyOp13
 70
     1
102
RTVSPropertyOp14
 70
     1
102
RTVSPropertyOp15
 70
     1
102
RTVSPropertyOp16
 70
     1
102
RTVSPropertyOp17
 70
     1
102
RTVSPropertyOp18
 70
     1
102
RTVSPropertyOp19
 70
     1
102
RTVSPropertyOp20
 70
     1
102
RTVSPropertyOp21
 70
     1
102
RTVSPropertyOp22
 70
     1
102
RTVSPropertyOp23
 70
     1
102
RTVSPropertyOp24
 70
     1
102
RTVSPropertyOp25
 70
     1
102
RTVSPropertyOp26
 70
     1
102
RTVSPropertyOp27
 70
     1
102
RTVSPropertyOp28
 70
     1
102
RTVSPropertyOp29
 70
     1
102
RTVSPropertyOp30
 70
     1
102
RTVSPropertyOp31
 70
     1
102
RTVSPropertyOp32
 70
     1
102
RTVSPropertyOp33
 70
     1
102
RTVSPropertyOp34
 70
     1
102
RTVSPropertyOp35
 70
     1
102
RTVSPropertyOp36
 70
     1
102
RTVSPropertyOp37
 70
     1
102
RTVSPropertyOp38
 70
     1
102
RTVSPropertyOp39
 70
     1
102
RTVSPropertyOp40
 70
     1
102
RTVSPropertyOp41
 70
     1
102
RTVSPropertyOp42
 70
     1
102
RTVSPropertyOp43
 70
     1
102
RTVSPropertyOp44
 70
     1
102
RTVSPropertyOp45
 70
     1
102
RTVSPropertyOp46
 70
     1
102
RTVSPropertyOp47
 70
     1
102
RTVSPropertyOp48
 70
     1
102
RTVSPropertyOp49
 70
     1
102
RTVSPropertyOp50
 70
     1
102
RTVSPropertyOp51
 70
     0
102
RTVSPropertyOp52
 70
     0
102
RTVSPropertyOp53
 70
     1
102
RTVSPropertyOp54
 70
     1
102
RTVSPropertyOp55
 70
     1
102
RTVSPropertyOp56
 70
     1
102
RTVSPropertyOp57
 70
     1
102
RTVSPropertyOp58
 70
     1
102
RTVSPropertyOp59
 70
     1
102
RTVSPropertyOp60
 70
     1
102
RTVSPropertyOp61
 70
     1
102
RTVSPropertyOp62
 70
     1
  0
XRECORD
  5
F28D
102
{ACAD_REACTORS
330
F28C
102
}
330
F28C
100
AcDbXrecord
280
     1
102
RTVSPost2010Prop28
280
     0
102
RTVSPost2010PropOp28
 70
     1
102
RTVSPost2010Prop29
280
     1
102
RTVSPost2010PropOp29
 70
     1
102
RTVSPost2010Prop30
280
     1
102
RTVSPost2010PropOp30
 70
     1
102
RTVSPost2010Prop31
280
     0
102
RTVSPost2010PropOp31
 70
     1
102
RTVSPost2010Prop32
280
     0
102
RTVSPost2010PropOp32
 70
     1
102
RTVSPost2010Prop33
280
     0
102
RTVSPost2010PropOp33
 70
     1
102
RTVSPost2010Prop34
280
     0
102
RTVSPost2010PropOp34
 70
     1
102
RTVSPost2010Prop35
280
     0
102
RTVSPost2010PropOp35
 70
     1
102
RTVSPost2010Prop36
280
     0
102
RTVSPost2010PropOp36
 70
     1
102
RTVSPost2010Prop37
 90
       50
102
RTVSPost2010PropOp37
 70
     1
102
RTVSPost2010Prop38
140
0.0
102
RTVSPost2010PropOp38
 70
     1
102
RTVSPost2010Prop39
140
1.0
102
RTVSPost2010PropOp39
 70
     1
102
RTVSPost2010Prop40
 90
        0
102
RTVSPost2010PropOp40
 70
     1
102
RTVSPost2010Prop41ColorIndex
 90
       18
102
RTVSPost2010Prop41ColorRGB
 90
        0
102
RTVSPost2010PropOp41
 70
     1
102
RTVSPost2010Prop42
 90
       50
102
RTVSPost2010PropOp42
 70
     1
102
RTVSPost2010Prop43
 90
        3
102
RTVSPost2010PropOp43
 70
     1
102
RTVSPost2010Prop44ColorIndex
 90
        5
102
RTVSPost2010Prop44ColorRGB
 90
      255
102
RTVSPost2010PropOp44
 70
     1
102
RTVSPost2010Prop45
280
     0
102
RTVSPost2010PropOp45
 70
     1
102
RTVSPost2010Prop46
 90
       50
102
RTVSPost2010PropOp46
 70
     1
102
RTVSPost2010Prop47
 90
       50
102
RTVSPost2010PropOp47
 70
     1
102
RTVSPost2010Prop48
 90
       50
102
RTVSPost2010PropOp48
 70
     1
102
RTVSPost2010Prop49
280
     0
102
RTVSPost2010PropOp49
 70
     1
102
RTVSPost2010Prop50
 90
       50
102
RTVSPost2010PropOp50
 70
     1
102
RTVSPost2010Prop51ColorIndex
 90
      256
102
RTVSPost2010Prop51ColorRGB
 90
-16777216
102
RTVSPost2010PropOp51
 70
     0
102
RTVSPost2010Prop52
140
1.0
102
RTVSPost2010PropOp52
 70
     0
102
RTVSPost2010Prop53
 90
        2
102
RTVSPost2010PropOp53
 70
     1
102
RTVSPost2010Prop54
  1
strokes_ogs.tif
102
RTVSPost2010PropOp54
 70
     1
102
RTVSPost2010Prop55
280
     0
102
RTVSPost2010PropOp55
 70
     1
102
RTVSPost2010Prop56
140
1.0
102
RTVSPost2010PropOp56
 70
     1
102
RTVSPost2010Prop57
140
1.0
102
RTVSPost2010PropOp57
 70
     1
102
RTVSPropertyOp0
 70
     1
102
RTVSPropertyOp1
 70
     1
102
RTVSPropertyOp2
 70
     1
102
RTVSPropertyOp3
 70
     1
102
RTVSPropertyOp4
 70
     1
102
RTVSPropertyOp5
 70
     1
102
RTVSPropertyOp6
 70
     1
102
RTVSPropertyOp7
 70
     1
102
RTVSPropertyOp8
 70
     1
102
RTVSPropertyOp9
 70
     1
102
RTVSPropertyOp10
 70
     1
102
RTVSPropertyOp11
 70
     1
102
RTVSPropertyOp12
 70
     1
102
RTVSPropertyOp13
 70
     1
102
RTVSPropertyOp14
 70
     1
102
RTVSPropertyOp15
 70
     1
102
RTVSPropertyOp16
 70
     1
102
RTVSPropertyOp17
 70
     1
102
RTVSPropertyOp18
 70
     1
102
RTVSPropertyOp19
 70
     1
102
RTVSPropertyOp20
 70
     1
102
RTVSPropertyOp21
 70
     1
102
RTVSPropertyOp22
 70
     1
102
RTVSPropertyOp23
 70
     1
102
RTVSPropertyOp24
 70
     1
102
RTVSPropertyOp25
 70
     1
102
RTVSPropertyOp26
 70
     1
102
RTVSPropertyOp27
 70
     1
102
RTVSPropertyOp28
 70
     1
102
RTVSPropertyOp29
 70
     1
102
RTVSPropertyOp30
 70
     1
102
RTVSPropertyOp31
 70
     1
102
RTVSPropertyOp32
 70
     1
102
RTVSPropertyOp33
 70
     1
102
RTVSPropertyOp34
 70
     1
102
RTVSPropertyOp35
 70
     1
102
RTVSPropertyOp36
 70
     1
102
RTVSPropertyOp37
 70
     1
102
RTVSPropertyOp38
 70
     1
102
RTVSPropertyOp39
 70
     1
102
RTVSPropertyOp40
 70
     1
102
RTVSPropertyOp41
 70
     1
102
RTVSPropertyOp42
 70
     1
102
RTVSPropertyOp43
 70
     1
102
RTVSPropertyOp44
 70
     1
102
RTVSPropertyOp45
 70
     1
102
RTVSPropertyOp46
 70
     1
102
RTVSPropertyOp47
 70
     1
102
RTVSPropertyOp48
 70
     1
102
RTVSPropertyOp49
 70
     1
102
RTVSPropertyOp50
 70
     1
102
RTVSPropertyOp51
 70
     0
102
RTVSPropertyOp52
 70
     0
102
RTVSPropertyOp53
 70
     1
102
RTVSPropertyOp54
 70
     1
102
RTVSPropertyOp55
 70
     1
102
RTVSPropertyOp56
 70
     1
102
RTVSPropertyOp57
 70
     1
102
RTVSPropertyOp58
 70
     1
102
RTVSPropertyOp59
 70
     1
102
RTVSPropertyOp60
 70
     1
102
RTVSPropertyOp61
 70
     1
102
RTVSPropertyOp62
 70
     1
  0
XRECORD
  5
F291
102
{ACAD_REACTORS
330
F290
102
}
330
F290
100
AcDbXrecord
280
     1
102
RTVSPost2010Prop28
280
     0
102
RTVSPost2010PropOp28
 70
     1
102
RTVSPost2010Prop29
280
     1
102
RTVSPost2010PropOp29
 70
     1
102
RTVSPost2010Prop30
280
     1
102
RTVSPost2010PropOp30
 70
     1
102
RTVSPost2010Prop31
280
     0
102
RTVSPost2010PropOp31
 70
     1
102
RTVSPost2010Prop32
280
     0
102
RTVSPost2010PropOp32
 70
     1
102
RTVSPost2010Prop33
280
     0
102
RTVSPost2010PropOp33
 70
     1
102
RTVSPost2010Prop34
280
     0
102
RTVSPost2010PropOp34
 70
     1
102
RTVSPost2010Prop35
280
     0
102
RTVSPost2010PropOp35
 70
     1
102
RTVSPost2010Prop36
280
     0
102
RTVSPost2010PropOp36
 70
     1
102
RTVSPost2010Prop37
 90
       50
102
RTVSPost2010PropOp37
 70
     1
102
RTVSPost2010Prop38
140
0.0
102
RTVSPost2010PropOp38
 70
     1
102
RTVSPost2010Prop39
140
1.0
102
RTVSPost2010PropOp39
 70
     1
102
RTVSPost2010Prop40
 90
        0
102
RTVSPost2010PropOp40
 70
     1
102
RTVSPost2010Prop41ColorIndex
 90
       18
102
RTVSPost2010Prop41ColorRGB
 90
        0
102
RTVSPost2010PropOp41
 70
     1
102
RTVSPost2010Prop42
 90
       50
102
RTVSPost2010PropOp42
 70
     1
102
RTVSPost2010Prop43
 90
        3
102
RTVSPost2010PropOp43
 70
     1
102
RTVSPost2010Prop44ColorIndex
 90
        5
102
RTVSPost2010Prop44ColorRGB
 90
      255
102
RTVSPost2010PropOp44
 70
     1
102
RTVSPost2010Prop45
280
     0
102
RTVSPost2010PropOp45
 70
     1
102
RTVSPost2010Prop46
 90
       50
102
RTVSPost2010PropOp46
 70
     1
102
RTVSPost2010Prop47
 90
       50
102
RTVSPost2010PropOp47
 70
     1
102
RTVSPost2010Prop48
 90
       50
102
RTVSPost2010PropOp48
 70
     1
102
RTVSPost2010Prop49
280
     0
102
RTVSPost2010PropOp49
 70
     1
102
RTVSPost2010Prop50
 90
       50
102
RTVSPost2010PropOp50
 70
     1
102
RTVSPost2010Prop51ColorIndex
 90
      256
102
RTVSPost2010Prop51ColorRGB
 90
-16777216
102
RTVSPost2010PropOp51
 70
     0
102
RTVSPost2010Prop52
140
1.0
102
RTVSPost2010PropOp52
 70
     0
102
RTVSPost2010Prop53
 90
        2
102
RTVSPost2010PropOp53
 70
     1
102
RTVSPost2010Prop54
  1
strokes_ogs.tif
102
RTVSPost2010PropOp54
 70
     1
102
RTVSPost2010Prop55
280
     0
102
RTVSPost2010PropOp55
 70
     1
102
RTVSPost2010Prop56
140
1.0
102
RTVSPost2010PropOp56
 70
     1
102
RTVSPost2010Prop57
140
1.0
102
RTVSPost2010PropOp57
 70
     1
102
RTVSPropertyOp0
 70
     1
102
RTVSPropertyOp1
 70
     1
102
RTVSPropertyOp2
 70
     1
102
RTVSPropertyOp3
 70
     1
102
RTVSPropertyOp4
 70
     1
102
RTVSPropertyOp5
 70
     1
102
RTVSPropertyOp6
 70
     1
102
RTVSPropertyOp7
 70
     1
102
RTVSPropertyOp8
 70
     1
102
RTVSPropertyOp9
 70
     1
102
RTVSPropertyOp10
 70
     1
102
RTVSPropertyOp11
 70
     1
102
RTVSPropertyOp12
 70
     1
102
RTVSPropertyOp13
 70
     1
102
RTVSPropertyOp14
 70
     1
102
RTVSPropertyOp15
 70
     1
102
RTVSPropertyOp16
 70
     1
102
RTVSPropertyOp17
 70
     1
102
RTVSPropertyOp18
 70
     1
102
RTVSPropertyOp19
 70
     1
102
RTVSPropertyOp20
 70
     1
102
RTVSPropertyOp21
 70
     1
102
RTVSPropertyOp22
 70
     1
102
RTVSPropertyOp23
 70
     1
102
RTVSPropertyOp24
 70
     1
102
RTVSPropertyOp25
 70
     1
102
RTVSPropertyOp26
 70
     1
102
RTVSPropertyOp27
 70
     1
102
RTVSPropertyOp28
 70
     1
102
RTVSPropertyOp29
 70
     1
102
RTVSPropertyOp30
 70
     1
102
RTVSPropertyOp31
 70
     1
102
RTVSPropertyOp32
 70
     1
102
RTVSPropertyOp33
 70
     1
102
RTVSPropertyOp34
 70
     1
102
RTVSPropertyOp35
 70
     1
102
RTVSPropertyOp36
 70
     1
102
RTVSPropertyOp37
 70
     1
102
RTVSPropertyOp38
 70
     1
102
RTVSPropertyOp39
 70
     1
102
RTVSPropertyOp40
 70
     1
102
RTVSPropertyOp41
 70
     1
102
RTVSPropertyOp42
 70
     1
102
RTVSPropertyOp43
 70
     1
102
RTVSPropertyOp44
 70
     1
102
RTVSPropertyOp45
 70
     1
102
RTVSPropertyOp46
 70
     1
102
RTVSPropertyOp47
 70
     1
102
RTVSPropertyOp48
 70
     1
102
RTVSPropertyOp49
 70
     1
102
RTVSPropertyOp50
 70
     1
102
RTVSPropertyOp51
 70
     0
102
RTVSPropertyOp52
 70
     0
102
RTVSPropertyOp53
 70
     1
102
RTVSPropertyOp54
 70
     1
102
RTVSPropertyOp55
 70
     1
102
RTVSPropertyOp56
 70
     1
102
RTVSPropertyOp57
 70
     1
102
RTVSPropertyOp58
 70
     1
102
RTVSPropertyOp59
 70
     1
102
RTVSPropertyOp60
 70
     1
102
RTVSPropertyOp61
 70
     1
102
RTVSPropertyOp62
 70
     1
  0
XRECORD
  5
F2A3
102
{ACAD_REACTORS
330
F2A2
102
}
330
F2A2
100
AcDbXrecord
280
     1
102
RTVSPost2010Prop28
280
     0
102
RTVSPost2010PropOp28
 70
     1
102
RTVSPost2010Prop29
280
     1
102
RTVSPost2010PropOp29
 70
     1
102
RTVSPost2010Prop30
280
     1
102
RTVSPost2010PropOp30
 70
     1
102
RTVSPost2010Prop31
280
     0
102
RTVSPost2010PropOp31
 70
     1
102
RTVSPost2010Prop32
280
     0
102
RTVSPost2010PropOp32
 70
     1
102
RTVSPost2010Prop33
280
     0
102
RTVSPost2010PropOp33
 70
     1
102
RTVSPost2010Prop34
280
     0
102
RTVSPost2010PropOp34
 70
     1
102
RTVSPost2010Prop35
280
     0
102
RTVSPost2010PropOp35
 70
     1
102
RTVSPost2010Prop36
280
     0
102
RTVSPost2010PropOp36
 70
     1
102
RTVSPost2010Prop37
 90
       50
102
RTVSPost2010PropOp37
 70
     1
102
RTVSPost2010Prop38
140
0.0
102
RTVSPost2010PropOp38
 70
     1
102
RTVSPost2010Prop39
140
1.0
102
RTVSPost2010PropOp39
 70
     1
102
RTVSPost2010Prop40
 90
        0
102
RTVSPost2010PropOp40
 70
     1
102
RTVSPost2010Prop41ColorIndex
 90
       18
102
RTVSPost2010Prop41ColorRGB
 90
        0
102
RTVSPost2010PropOp41
 70
     1
102
RTVSPost2010Prop42
 90
       50
102
RTVSPost2010PropOp42
 70
     1
102
RTVSPost2010Prop43
 90
        3
102
RTVSPost2010PropOp43
 70
     1
102
RTVSPost2010Prop44ColorIndex
 90
        5
102
RTVSPost2010Prop44ColorRGB
 90
      255
102
RTVSPost2010PropOp44
 70
     1
102
RTVSPost2010Prop45
280
     0
102
RTVSPost2010PropOp45
 70
     1
102
RTVSPost2010Prop46
 90
       50
102
RTVSPost2010PropOp46
 70
     1
102
RTVSPost2010Prop47
 90
       50
102
RTVSPost2010PropOp47
 70
     1
102
RTVSPost2010Prop48
 90
       50
102
RTVSPost2010PropOp48
 70
     1
102
RTVSPost2010Prop49
280
     0
102
RTVSPost2010PropOp49
 70
     1
102
RTVSPost2010Prop50
 90
       50
102
RTVSPost2010PropOp50
 70
     1
102
RTVSPost2010Prop51ColorIndex
 90
      256
102
RTVSPost2010Prop51ColorRGB
 90
-16777216
102
RTVSPost2010PropOp51
 70
     0
102
RTVSPost2010Prop52
140
1.0
102
RTVSPost2010PropOp52
 70
     0
102
RTVSPost2010Prop53
 90
        2
102
RTVSPost2010PropOp53
 70
     1
102
RTVSPost2010Prop54
  1
strokes_ogs.tif
102
RTVSPost2010PropOp54
 70
     1
102
RTVSPost2010Prop55
280
     0
102
RTVSPost2010PropOp55
 70
     1
102
RTVSPost2010Prop56
140
1.0
102
RTVSPost2010PropOp56
 70
     1
102
RTVSPost2010Prop57
140
1.0
102
RTVSPost2010PropOp57
 70
     1
102
RTVSPropertyOp0
 70
     0
102
RTVSPropertyOp1
 70
     0
102
RTVSPropertyOp2
 70
     0
102
RTVSPropertyOp3
 70
     0
102
RTVSPropertyOp4
 70
     0
102
RTVSPropertyOp5
 70
     0
102
RTVSPropertyOp6
 70
     0
102
RTVSPropertyOp7
 70
     0
102
RTVSPropertyOp8
 70
     0
102
RTVSPropertyOp9
 70
     0
102
RTVSPropertyOp10
 70
     0
102
RTVSPropertyOp11
 70
     0
102
RTVSPropertyOp12
 70
     0
102
RTVSPropertyOp13
 70
     0
102
RTVSPropertyOp14
 70
     2
102
RTVSPropertyOp15
 70
     0
102
RTVSPropertyOp16
 70
     0
102
RTVSPropertyOp17
 70
     0
102
RTVSPropertyOp18
 70
     0
102
RTVSPropertyOp19
 70
     0
102
RTVSPropertyOp20
 70
     0
102
RTVSPropertyOp21
 70
     0
102
RTVSPropertyOp22
 70
     0
102
RTVSPropertyOp23
 70
     0
102
RTVSPropertyOp24
 70
     0
102
RTVSPropertyOp25
 70
     0
102
RTVSPropertyOp26
 70
     0
102
RTVSPropertyOp27
 70
     0
102
RTVSPropertyOp28
 70
     1
102
RTVSPropertyOp29
 70
     1
102
RTVSPropertyOp30
 70
     1
102
RTVSPropertyOp31
 70
     1
102
RTVSPropertyOp32
 70
     1
102
RTVSPropertyOp33
 70
     1
102
RTVSPropertyOp34
 70
     1
102
RTVSPropertyOp35
 70
     1
102
RTVSPropertyOp36
 70
     1
102
RTVSPropertyOp37
 70
     1
102
RTVSPropertyOp38
 70
     1
102
RTVSPropertyOp39
 70
     1
102
RTVSPropertyOp40
 70
     1
102
RTVSPropertyOp41
 70
     1
102
RTVSPropertyOp42
 70
     1
102
RTVSPropertyOp43
 70
     1
102
RTVSPropertyOp44
 70
     1
102
RTVSPropertyOp45
 70
     1
102
RTVSPropertyOp46
 70
     1
102
RTVSPropertyOp47
 70
     1
102
RTVSPropertyOp48
 70
     1
102
RTVSPropertyOp49
 70
     1
102
RTVSPropertyOp50
 70
     1
102
RTVSPropertyOp51
 70
     0
102
RTVSPropertyOp52
 70
     0
102
RTVSPropertyOp53
 70
     1
102
RTVSPropertyOp54
 70
     1
102
RTVSPropertyOp55
 70
     1
102
RTVSPropertyOp56
 70
     1
102
RTVSPropertyOp57
 70
     1
102
RTVSPropertyOp58
 70
     1
102
RTVSPropertyOp59
 70
     1
102
RTVSPropertyOp60
 70
     1
102
RTVSPropertyOp61
 70
     1
102
RTVSPropertyOp62
 70
     1
  0
XRECORD
  5
F299
102
{ACAD_REACTORS
330
F298
102
}
330
F298
100
AcDbXrecord
280
     1
102
RTVSPost2010Prop28
280
     0
102
RTVSPost2010PropOp28
 70
     1
102
RTVSPost2010Prop29
280
     1
102
RTVSPost2010PropOp29
 70
     1
102
RTVSPost2010Prop30
280
     1
102
RTVSPost2010PropOp30
 70
     1
102
RTVSPost2010Prop31
280
     0
102
RTVSPost2010PropOp31
 70
     1
102
RTVSPost2010Prop32
280
     0
102
RTVSPost2010PropOp32
 70
     1
102
RTVSPost2010Prop33
280
     0
102
RTVSPost2010PropOp33
 70
     1
102
RTVSPost2010Prop34
280
     0
102
RTVSPost2010PropOp34
 70
     1
102
RTVSPost2010Prop35
280
     0
102
RTVSPost2010PropOp35
 70
     1
102
RTVSPost2010Prop36
280
     0
102
RTVSPost2010PropOp36
 70
     1
102
RTVSPost2010Prop37
 90
       50
102
RTVSPost2010PropOp37
 70
     1
102
RTVSPost2010Prop38
140
0.0
102
RTVSPost2010PropOp38
 70
     1
102
RTVSPost2010Prop39
140
1.0
102
RTVSPost2010PropOp39
 70
     1
102
RTVSPost2010Prop40
 90
        0
102
RTVSPost2010PropOp40
 70
     1
102
RTVSPost2010Prop41ColorIndex
 90
       18
102
RTVSPost2010Prop41ColorRGB
 90
        0
102
RTVSPost2010PropOp41
 70
     1
102
RTVSPost2010Prop42
 90
       50
102
RTVSPost2010PropOp42
 70
     1
102
RTVSPost2010Prop43
 90
        3
102
RTVSPost2010PropOp43
 70
     1
102
RTVSPost2010Prop44ColorIndex
 90
        5
102
RTVSPost2010Prop44ColorRGB
 90
      255
102
RTVSPost2010PropOp44
 70
     1
102
RTVSPost2010Prop45
280
     0
102
RTVSPost2010PropOp45
 70
     1
102
RTVSPost2010Prop46
 90
       50
102
RTVSPost2010PropOp46
 70
     1
102
RTVSPost2010Prop47
 90
       50
102
RTVSPost2010PropOp47
 70
     1
102
RTVSPost2010Prop48
 90
       50
102
RTVSPost2010PropOp48
 70
     1
102
RTVSPost2010Prop49
280
     0
102
RTVSPost2010PropOp49
 70
     1
102
RTVSPost2010Prop50
 90
       50
102
RTVSPost2010PropOp50
 70
     1
102
RTVSPost2010Prop51ColorIndex
 90
      256
102
RTVSPost2010Prop51ColorRGB
 90
-16777216
102
RTVSPost2010PropOp51
 70
     0
102
RTVSPost2010Prop52
140
1.0
102
RTVSPost2010PropOp52
 70
     0
102
RTVSPost2010Prop53
 90
        2
102
RTVSPost2010PropOp53
 70
     1
102
RTVSPost2010Prop54
  1
strokes_ogs.tif
102
RTVSPost2010PropOp54
 70
     1
102
RTVSPost2010Prop55
280
     0
102
RTVSPost2010PropOp55
 70
     1
102
RTVSPost2010Prop56
140
1.0
102
RTVSPost2010PropOp56
 70
     1
102
RTVSPost2010Prop57
140
1.0
102
RTVSPost2010PropOp57
 70
     1
102
RTVSPropertyOp0
 70
     1
102
RTVSPropertyOp1
 70
     1
102
RTVSPropertyOp2
 70
     1
102
RTVSPropertyOp3
 70
     1
102
RTVSPropertyOp4
 70
     1
102
RTVSPropertyOp5
 70
     1
102
RTVSPropertyOp6
 70
     1
102
RTVSPropertyOp7
 70
     1
102
RTVSPropertyOp8
 70
     1
102
RTVSPropertyOp9
 70
     1
102
RTVSPropertyOp10
 70
     1
102
RTVSPropertyOp11
 70
     1
102
RTVSPropertyOp12
 70
     1
102
RTVSPropertyOp13
 70
     1
102
RTVSPropertyOp14
 70
     1
102
RTVSPropertyOp15
 70
     1
102
RTVSPropertyOp16
 70
     1
102
RTVSPropertyOp17
 70
     1
102
RTVSPropertyOp18
 70
     1
102
RTVSPropertyOp19
 70
     1
102
RTVSPropertyOp20
 70
     1
102
RTVSPropertyOp21
 70
     1
102
RTVSPropertyOp22
 70
     1
102
RTVSPropertyOp23
 70
     1
102
RTVSPropertyOp24
 70
     1
102
RTVSPropertyOp25
 70
     1
102
RTVSPropertyOp26
 70
     1
102
RTVSPropertyOp27
 70
     1
102
RTVSPropertyOp28
 70
     1
102
RTVSPropertyOp29
 70
     1
102
RTVSPropertyOp30
 70
     1
102
RTVSPropertyOp31
 70
     1
102
RTVSPropertyOp32
 70
     1
102
RTVSPropertyOp33
 70
     1
102
RTVSPropertyOp34
 70
     1
102
RTVSPropertyOp35
 70
     1
102
RTVSPropertyOp36
 70
     1
102
RTVSPropertyOp37
 70
     1
102
RTVSPropertyOp38
 70
     1
102
RTVSPropertyOp39
 70
     1
102
RTVSPropertyOp40
 70
     1
102
RTVSPropertyOp41
 70
     1
102
RTVSPropertyOp42
 70
     1
102
RTVSPropertyOp43
 70
     1
102
RTVSPropertyOp44
 70
     1
102
RTVSPropertyOp45
 70
     1
102
RTVSPropertyOp46
 70
     1
102
RTVSPropertyOp47
 70
     1
102
RTVSPropertyOp48
 70
     1
102
RTVSPropertyOp49
 70
     1
102
RTVSPropertyOp50
 70
     1
102
RTVSPropertyOp51
 70
     0
102
RTVSPropertyOp52
 70
     0
102
RTVSPropertyOp53
 70
     1
102
RTVSPropertyOp54
 70
     1
102
RTVSPropertyOp55
 70
     1
102
RTVSPropertyOp56
 70
     1
102
RTVSPropertyOp57
 70
     1
102
RTVSPropertyOp58
 70
     1
102
RTVSPropertyOp59
 70
     1
102
RTVSPropertyOp60
 70
     1
102
RTVSPropertyOp61
 70
     1
102
RTVSPropertyOp62
 70
     1
  0
XRECORD
  5
F27D
102
{ACAD_REACTORS
330
F27C
102
}
330
F27C
100
AcDbXrecord
280
     1
102
RTVSPost2010Prop28
280
     0
102
RTVSPost2010PropOp28
 70
     1
102
RTVSPost2010Prop29
280
     1
102
RTVSPost2010PropOp29
 70
     1
102
RTVSPost2010Prop30
280
     1
102
RTVSPost2010PropOp30
 70
     1
102
RTVSPost2010Prop31
280
     0
102
RTVSPost2010PropOp31
 70
     1
102
RTVSPost2010Prop32
280
     0
102
RTVSPost2010PropOp32
 70
     1
102
RTVSPost2010Prop33
280
     0
102
RTVSPost2010PropOp33
 70
     1
102
RTVSPost2010Prop34
280
     0
102
RTVSPost2010PropOp34
 70
     1
102
RTVSPost2010Prop35
280
     0
102
RTVSPost2010PropOp35
 70
     1
102
RTVSPost2010Prop36
280
     0
102
RTVSPost2010PropOp36
 70
     1
102
RTVSPost2010Prop37
 90
       50
102
RTVSPost2010PropOp37
 70
     1
102
RTVSPost2010Prop38
140
0.0
102
RTVSPost2010PropOp38
 70
     1
102
RTVSPost2010Prop39
140
1.0
102
RTVSPost2010PropOp39
 70
     1
102
RTVSPost2010Prop40
 90
        0
102
RTVSPost2010PropOp40
 70
     1
102
RTVSPost2010Prop41ColorIndex
 90
       18
102
RTVSPost2010Prop41ColorRGB
 90
        0
102
RTVSPost2010PropOp41
 70
     1
102
RTVSPost2010Prop42
 90
       50
102
RTVSPost2010PropOp42
 70
     1
102
RTVSPost2010Prop43
 90
        3
102
RTVSPost2010PropOp43
 70
     1
102
RTVSPost2010Prop44ColorIndex
 90
        5
102
RTVSPost2010Prop44ColorRGB
 90
      255
102
RTVSPost2010PropOp44
 70
     1
102
RTVSPost2010Prop45
280
     0
102
RTVSPost2010PropOp45
 70
     1
102
RTVSPost2010Prop46
 90
       50
102
RTVSPost2010PropOp46
 70
     1
102
RTVSPost2010Prop47
 90
       50
102
RTVSPost2010PropOp47
 70
     1
102
RTVSPost2010Prop48
 90
       50
102
RTVSPost2010PropOp48
 70
     1
102
RTVSPost2010Prop49
280
     0
102
RTVSPost2010PropOp49
 70
     1
102
RTVSPost2010Prop50
 90
       50
102
RTVSPost2010PropOp50
 70
     1
102
RTVSPost2010Prop51ColorIndex
 90
      256
102
RTVSPost2010Prop51ColorRGB
 90
-16777216
102
RTVSPost2010PropOp51
 70
     0
102
RTVSPost2010Prop52
140
1.0
102
RTVSPost2010PropOp52
 70
     0
102
RTVSPost2010Prop53
 90
        2
102
RTVSPost2010PropOp53
 70
     1
102
RTVSPost2010Prop54
  1
strokes_ogs.tif
102
RTVSPost2010PropOp54
 70
     1
102
RTVSPost2010Prop55
280
     0
102
RTVSPost2010PropOp55
 70
     1
102
RTVSPost2010Prop56
140
1.0
102
RTVSPost2010PropOp56
 70
     1
102
RTVSPost2010Prop57
140
1.0
102
RTVSPost2010PropOp57
 70
     1
102
RTVSPropertyOp0
 70
     1
102
RTVSPropertyOp1
 70
     1
102
RTVSPropertyOp2
 70
     1
102
RTVSPropertyOp3
 70
     1
102
RTVSPropertyOp4
 70
     1
102
RTVSPropertyOp5
 70
     1
102
RTVSPropertyOp6
 70
     1
102
RTVSPropertyOp7
 70
     1
102
RTVSPropertyOp8
 70
     1
102
RTVSPropertyOp9
 70
     1
102
RTVSPropertyOp10
 70
     1
102
RTVSPropertyOp11
 70
     1
102
RTVSPropertyOp12
 70
     1
102
RTVSPropertyOp13
 70
     1
102
RTVSPropertyOp14
 70
     1
102
RTVSPropertyOp15
 70
     1
102
RTVSPropertyOp16
 70
     1
102
RTVSPropertyOp17
 70
     1
102
RTVSPropertyOp18
 70
     1
102
RTVSPropertyOp19
 70
     1
102
RTVSPropertyOp20
 70
     1
102
RTVSPropertyOp21
 70
     1
102
RTVSPropertyOp22
 70
     1
102
RTVSPropertyOp23
 70
     1
102
RTVSPropertyOp24
 70
     1
102
RTVSPropertyOp25
 70
     1
102
RTVSPropertyOp26
 70
     1
102
RTVSPropertyOp27
 70
     1
102
RTVSPropertyOp28
 70
     1
102
RTVSPropertyOp29
 70
     1
102
RTVSPropertyOp30
 70
     1
102
RTVSPropertyOp31
 70
     1
102
RTVSPropertyOp32
 70
     1
102
RTVSPropertyOp33
 70
     1
102
RTVSPropertyOp34
 70
     1
102
RTVSPropertyOp35
 70
     1
102
RTVSPropertyOp36
 70
     1
102
RTVSPropertyOp37
 70
     1
102
RTVSPropertyOp38
 70
     1
102
RTVSPropertyOp39
 70
     1
102
RTVSPropertyOp40
 70
     1
102
RTVSPropertyOp41
 70
     1
102
RTVSPropertyOp42
 70
     1
102
RTVSPropertyOp43
 70
     1
102
RTVSPropertyOp44
 70
     1
102
RTVSPropertyOp45
 70
     1
102
RTVSPropertyOp46
 70
     1
102
RTVSPropertyOp47
 70
     1
102
RTVSPropertyOp48
 70
     1
102
RTVSPropertyOp49
 70
     1
102
RTVSPropertyOp50
 70
     1
102
RTVSPropertyOp51
 70
     0
102
RTVSPropertyOp52
 70
     0
102
RTVSPropertyOp53
 70
     1
102
RTVSPropertyOp54
 70
     1
102
RTVSPropertyOp55
 70
     1
102
RTVSPropertyOp56
 70
     1
102
RTVSPropertyOp57
 70
     1
102
RTVSPropertyOp58
 70
     1
102
RTVSPropertyOp59
 70
     1
102
RTVSPropertyOp60
 70
     1
102
RTVSPropertyOp61
 70
     1
102
RTVSPropertyOp62
 70
     1
  0
XRECORD
  5
F27F
102
{ACAD_REACTORS
330
F27E
102
}
330
F27E
100
AcDbXrecord
280
     1
102
RTVSPost2010Prop28
280
     0
102
RTVSPost2010PropOp28
 70
     1
102
RTVSPost2010Prop29
280
     1
102
RTVSPost2010PropOp29
 70
     1
102
RTVSPost2010Prop30
280
     1
102
RTVSPost2010PropOp30
 70
     1
102
RTVSPost2010Prop31
280
     0
102
RTVSPost2010PropOp31
 70
     1
102
RTVSPost2010Prop32
280
     0
102
RTVSPost2010PropOp32
 70
     1
102
RTVSPost2010Prop33
280
     0
102
RTVSPost2010PropOp33
 70
     1
102
RTVSPost2010Prop34
280
     0
102
RTVSPost2010PropOp34
 70
     1
102
RTVSPost2010Prop35
280
     0
102
RTVSPost2010PropOp35
 70
     1
102
RTVSPost2010Prop36
280
     0
102
RTVSPost2010PropOp36
 70
     1
102
RTVSPost2010Prop37
 90
       50
102
RTVSPost2010PropOp37
 70
     1
102
RTVSPost2010Prop38
140
0.0
102
RTVSPost2010PropOp38
 70
     1
102
RTVSPost2010Prop39
140
1.0
102
RTVSPost2010PropOp39
 70
     1
102
RTVSPost2010Prop40
 90
        0
102
RTVSPost2010PropOp40
 70
     1
102
RTVSPost2010Prop41ColorIndex
 90
       18
102
RTVSPost2010Prop41ColorRGB
 90
        0
102
RTVSPost2010PropOp41
 70
     1
102
RTVSPost2010Prop42
 90
       50
102
RTVSPost2010PropOp42
 70
     1
102
RTVSPost2010Prop43
 90
        3
102
RTVSPost2010PropOp43
 70
     1
102
RTVSPost2010Prop44ColorIndex
 90
        5
102
RTVSPost2010Prop44ColorRGB
 90
      255
102
RTVSPost2010PropOp44
 70
     1
102
RTVSPost2010Prop45
280
     0
102
RTVSPost2010PropOp45
 70
     1
102
RTVSPost2010Prop46
 90
       50
102
RTVSPost2010PropOp46
 70
     1
102
RTVSPost2010Prop47
 90
       50
102
RTVSPost2010PropOp47
 70
     1
102
RTVSPost2010Prop48
 90
       50
102
RTVSPost2010PropOp48
 70
     1
102
RTVSPost2010Prop49
280
     0
102
RTVSPost2010PropOp49
 70
     1
102
RTVSPost2010Prop50
 90
       50
102
RTVSPost2010PropOp50
 70
     1
102
RTVSPost2010Prop51ColorIndex
 90
      256
102
RTVSPost2010Prop51ColorRGB
 90
-16777216
102
RTVSPost2010PropOp51
 70
     0
102
RTVSPost2010Prop52
140
1.0
102
RTVSPost2010PropOp52
 70
     0
102
RTVSPost2010Prop53
 90
        2
102
RTVSPost2010PropOp53
 70
     1
102
RTVSPost2010Prop54
  1
strokes_ogs.tif
102
RTVSPost2010PropOp54
 70
     1
102
RTVSPost2010Prop55
280
     0
102
RTVSPost2010PropOp55
 70
     1
102
RTVSPost2010Prop56
140
1.0
102
RTVSPost2010PropOp56
 70
     1
102
RTVSPost2010Prop57
140
1.0
102
RTVSPost2010PropOp57
 70
     1
102
RTVSPropertyOp0
 70
     1
102
RTVSPropertyOp1
 70
     1
102
RTVSPropertyOp2
 70
     1
102
RTVSPropertyOp3
 70
     1
102
RTVSPropertyOp4
 70
     1
102
RTVSPropertyOp5
 70
     1
102
RTVSPropertyOp6
 70
     1
102
RTVSPropertyOp7
 70
     1
102
RTVSPropertyOp8
 70
     1
102
RTVSPropertyOp9
 70
     1
102
RTVSPropertyOp10
 70
     1
102
RTVSPropertyOp11
 70
     1
102
RTVSPropertyOp12
 70
     1
102
RTVSPropertyOp13
 70
     1
102
RTVSPropertyOp14
 70
     1
102
RTVSPropertyOp15
 70
     1
102
RTVSPropertyOp16
 70
     1
102
RTVSPropertyOp17
 70
     1
102
RTVSPropertyOp18
 70
     1
102
RTVSPropertyOp19
 70
     1
102
RTVSPropertyOp20
 70
     1
102
RTVSPropertyOp21
 70
     1
102
RTVSPropertyOp22
 70
     1
102
RTVSPropertyOp23
 70
     1
102
RTVSPropertyOp24
 70
     1
102
RTVSPropertyOp25
 70
     1
102
RTVSPropertyOp26
 70
     1
102
RTVSPropertyOp27
 70
     1
102
RTVSPropertyOp28
 70
     1
102
RTVSPropertyOp29
 70
     1
102
RTVSPropertyOp30
 70
     1
102
RTVSPropertyOp31
 70
     1
102
RTVSPropertyOp32
 70
     1
102
RTVSPropertyOp33
 70
     1
102
RTVSPropertyOp34
 70
     1
102
RTVSPropertyOp35
 70
     1
102
RTVSPropertyOp36
 70
     1
102
RTVSPropertyOp37
 70
     1
102
RTVSPropertyOp38
 70
     1
102
RTVSPropertyOp39
 70
     1
102
RTVSPropertyOp40
 70
     1
102
RTVSPropertyOp41
 70
     1
102
RTVSPropertyOp42
 70
     1
102
RTVSPropertyOp43
 70
     1
102
RTVSPropertyOp44
 70
     1
102
RTVSPropertyOp45
 70
     1
102
RTVSPropertyOp46
 70
     1
102
RTVSPropertyOp47
 70
     1
102
RTVSPropertyOp48
 70
     1
102
RTVSPropertyOp49
 70
     1
102
RTVSPropertyOp50
 70
     1
102
RTVSPropertyOp51
 70
     0
102
RTVSPropertyOp52
 70
     0
102
RTVSPropertyOp53
 70
     1
102
RTVSPropertyOp54
 70
     1
102
RTVSPropertyOp55
 70
     1
102
RTVSPropertyOp56
 70
     1
102
RTVSPropertyOp57
 70
     1
102
RTVSPropertyOp58
 70
     1
102
RTVSPropertyOp59
 70
     1
102
RTVSPropertyOp60
 70
     1
102
RTVSPropertyOp61
 70
     1
102
RTVSPropertyOp62
 70
     1
  0
XRECORD
  5
F281
102
{ACAD_REACTORS
330
F280
102
}
330
F280
100
AcDbXrecord
280
     1
102
RTVSPost2010Prop28
280
     0
102
RTVSPost2010PropOp28
 70
     1
102
RTVSPost2010Prop29
280
     1
102
RTVSPost2010PropOp29
 70
     1
102
RTVSPost2010Prop30
280
     1
102
RTVSPost2010PropOp30
 70
     1
102
RTVSPost2010Prop31
280
     0
102
RTVSPost2010PropOp31
 70
     1
102
RTVSPost2010Prop32
280
     0
102
RTVSPost2010PropOp32
 70
     1
102
RTVSPost2010Prop33
280
     0
102
RTVSPost2010PropOp33
 70
     1
102
RTVSPost2010Prop34
280
     0
102
RTVSPost2010PropOp34
 70
     1
102
RTVSPost2010Prop35
280
     0
102
RTVSPost2010PropOp35
 70
     1
102
RTVSPost2010Prop36
280
     0
102
RTVSPost2010PropOp36
 70
     1
102
RTVSPost2010Prop37
 90
       50
102
RTVSPost2010PropOp37
 70
     1
102
RTVSPost2010Prop38
140
0.0
102
RTVSPost2010PropOp38
 70
     1
102
RTVSPost2010Prop39
140
1.0
102
RTVSPost2010PropOp39
 70
     1
102
RTVSPost2010Prop40
 90
        0
102
RTVSPost2010PropOp40
 70
     1
102
RTVSPost2010Prop41ColorIndex
 90
       18
102
RTVSPost2010Prop41ColorRGB
 90
        0
102
RTVSPost2010PropOp41
 70
     1
102
RTVSPost2010Prop42
 90
       50
102
RTVSPost2010PropOp42
 70
     1
102
RTVSPost2010Prop43
 90
        3
102
RTVSPost2010PropOp43
 70
     1
102
RTVSPost2010Prop44ColorIndex
 90
        5
102
RTVSPost2010Prop44ColorRGB
 90
      255
102
RTVSPost2010PropOp44
 70
     1
102
RTVSPost2010Prop45
280
     0
102
RTVSPost2010PropOp45
 70
     1
102
RTVSPost2010Prop46
 90
       50
102
RTVSPost2010PropOp46
 70
     1
102
RTVSPost2010Prop47
 90
       50
102
RTVSPost2010PropOp47
 70
     1
102
RTVSPost2010Prop48
 90
       50
102
RTVSPost2010PropOp48
 70
     1
102
RTVSPost2010Prop49
280
     0
102
RTVSPost2010PropOp49
 70
     1
102
RTVSPost2010Prop50
 90
       50
102
RTVSPost2010PropOp50
 70
     1
102
RTVSPost2010Prop51ColorIndex
 90
      256
102
RTVSPost2010Prop51ColorRGB
 90
-16777216
102
RTVSPost2010PropOp51
 70
     0
102
RTVSPost2010Prop52
140
1.0
102
RTVSPost2010PropOp52
 70
     0
102
RTVSPost2010Prop53
 90
        2
102
RTVSPost2010PropOp53
 70
     1
102
RTVSPost2010Prop54
  1
strokes_ogs.tif
102
RTVSPost2010PropOp54
 70
     1
102
RTVSPost2010Prop55
280
     0
102
RTVSPost2010PropOp55
 70
     1
102
RTVSPost2010Prop56
140
1.0
102
RTVSPost2010PropOp56
 70
     1
102
RTVSPost2010Prop57
140
1.0
102
RTVSPost2010PropOp57
 70
     1
102
RTVSPropertyOp0
 70
     1
102
RTVSPropertyOp1
 70
     1
102
RTVSPropertyOp2
 70
     1
102
RTVSPropertyOp3
 70
     1
102
RTVSPropertyOp4
 70
     1
102
RTVSPropertyOp5
 70
     1
102
RTVSPropertyOp6
 70
     1
102
RTVSPropertyOp7
 70
     1
102
RTVSPropertyOp8
 70
     1
102
RTVSPropertyOp9
 70
     1
102
RTVSPropertyOp10
 70
     1
102
RTVSPropertyOp11
 70
     1
102
RTVSPropertyOp12
 70
     1
102
RTVSPropertyOp13
 70
     1
102
RTVSPropertyOp14
 70
     1
102
RTVSPropertyOp15
 70
     1
102
RTVSPropertyOp16
 70
     1
102
RTVSPropertyOp17
 70
     1
102
RTVSPropertyOp18
 70
     1
102
RTVSPropertyOp19
 70
     1
102
RTVSPropertyOp20
 70
     1
102
RTVSPropertyOp21
 70
     1
102
RTVSPropertyOp22
 70
     1
102
RTVSPropertyOp23
 70
     1
102
RTVSPropertyOp24
 70
     1
102
RTVSPropertyOp25
 70
     1
102
RTVSPropertyOp26
 70
     1
102
RTVSPropertyOp27
 70
     1
102
RTVSPropertyOp28
 70
     1
102
RTVSPropertyOp29
 70
     1
102
RTVSPropertyOp30
 70
     1
102
RTVSPropertyOp31
 70
     1
102
RTVSPropertyOp32
 70
     1
102
RTVSPropertyOp33
 70
     1
102
RTVSPropertyOp34
 70
     1
102
RTVSPropertyOp35
 70
     1
102
RTVSPropertyOp36
 70
     1
102
RTVSPropertyOp37
 70
     1
102
RTVSPropertyOp38
 70
     1
102
RTVSPropertyOp39
 70
     1
102
RTVSPropertyOp40
 70
     1
102
RTVSPropertyOp41
 70
     1
102
RTVSPropertyOp42
 70
     1
102
RTVSPropertyOp43
 70
     1
102
RTVSPropertyOp44
 70
     1
102
RTVSPropertyOp45
 70
     1
102
RTVSPropertyOp46
 70
     1
102
RTVSPropertyOp47
 70
     1
102
RTVSPropertyOp48
 70
     1
102
RTVSPropertyOp49
 70
     1
102
RTVSPropertyOp50
 70
     1
102
RTVSPropertyOp51
 70
     0
102
RTVSPropertyOp52
 70
     0
102
RTVSPropertyOp53
 70
     1
102
RTVSPropertyOp54
 70
     1
102
RTVSPropertyOp55
 70
     1
102
RTVSPropertyOp56
 70
     1
102
RTVSPropertyOp57
 70
     1
102
RTVSPropertyOp58
 70
     1
102
RTVSPropertyOp59
 70
     1
102
RTVSPropertyOp60
 70
     1
102
RTVSPropertyOp61
 70
     1
102
RTVSPropertyOp62
 70
     1
  0
XRECORD
  5
F283
102
{ACAD_REACTORS
330
F282
102
}
330
F282
100
AcDbXrecord
280
     1
102
RTVSPost2010Prop28
280
     0
102
RTVSPost2010PropOp28
 70
     1
102
RTVSPost2010Prop29
280
     1
102
RTVSPost2010PropOp29
 70
     1
102
RTVSPost2010Prop30
280
     1
102
RTVSPost2010PropOp30
 70
     1
102
RTVSPost2010Prop31
280
     0
102
RTVSPost2010PropOp31
 70
     1
102
RTVSPost2010Prop32
280
     0
102
RTVSPost2010PropOp32
 70
     1
102
RTVSPost2010Prop33
280
     0
102
RTVSPost2010PropOp33
 70
     1
102
RTVSPost2010Prop34
280
     0
102
RTVSPost2010PropOp34
 70
     1
102
RTVSPost2010Prop35
280
     0
102
RTVSPost2010PropOp35
 70
     1
102
RTVSPost2010Prop36
280
     0
102
RTVSPost2010PropOp36
 70
     1
102
RTVSPost2010Prop37
 90
       50
102
RTVSPost2010PropOp37
 70
     1
102
RTVSPost2010Prop38
140
0.0
102
RTVSPost2010PropOp38
 70
     1
102
RTVSPost2010Prop39
140
1.0
102
RTVSPost2010PropOp39
 70
     1
102
RTVSPost2010Prop40
 90
        0
102
RTVSPost2010PropOp40
 70
     1
102
RTVSPost2010Prop41ColorIndex
 90
       18
102
RTVSPost2010Prop41ColorRGB
 90
        0
102
RTVSPost2010PropOp41
 70
     1
102
RTVSPost2010Prop42
 90
       50
102
RTVSPost2010PropOp42
 70
     1
102
RTVSPost2010Prop43
 90
        3
102
RTVSPost2010PropOp43
 70
     1
102
RTVSPost2010Prop44ColorIndex
 90
        5
102
RTVSPost2010Prop44ColorRGB
 90
      255
102
RTVSPost2010PropOp44
 70
     1
102
RTVSPost2010Prop45
280
     0
102
RTVSPost2010PropOp45
 70
     1
102
RTVSPost2010Prop46
 90
       50
102
RTVSPost2010PropOp46
 70
     1
102
RTVSPost2010Prop47
 90
       50
102
RTVSPost2010PropOp47
 70
     1
102
RTVSPost2010Prop48
 90
       50
102
RTVSPost2010PropOp48
 70
     1
102
RTVSPost2010Prop49
280
     0
102
RTVSPost2010PropOp49
 70
     1
102
RTVSPost2010Prop50
 90
       50
102
RTVSPost2010PropOp50
 70
     1
102
RTVSPost2010Prop51ColorIndex
 90
      256
102
RTVSPost2010Prop51ColorRGB
 90
-16777216
102
RTVSPost2010PropOp51
 70
     0
102
RTVSPost2010Prop52
140
1.0
102
RTVSPost2010PropOp52
 70
     0
102
RTVSPost2010Prop53
 90
        2
102
RTVSPost2010PropOp53
 70
     1
102
RTVSPost2010Prop54
  1
strokes_ogs.tif
102
RTVSPost2010PropOp54
 70
     1
102
RTVSPost2010Prop55
280
     0
102
RTVSPost2010PropOp55
 70
     1
102
RTVSPost2010Prop56
140
1.0
102
RTVSPost2010PropOp56
 70
     1
102
RTVSPost2010Prop57
140
1.0
102
RTVSPost2010PropOp57
 70
     1
102
RTVSPropertyOp0
 70
     1
102
RTVSPropertyOp1
 70
     1
102
RTVSPropertyOp2
 70
     1
102
RTVSPropertyOp3
 70
     1
102
RTVSPropertyOp4
 70
     1
102
RTVSPropertyOp5
 70
     1
102
RTVSPropertyOp6
 70
     1
102
RTVSPropertyOp7
 70
     1
102
RTVSPropertyOp8
 70
     1
102
RTVSPropertyOp9
 70
     1
102
RTVSPropertyOp10
 70
     1
102
RTVSPropertyOp11
 70
     1
102
RTVSPropertyOp12
 70
     1
102
RTVSPropertyOp13
 70
     1
102
RTVSPropertyOp14
 70
     1
102
RTVSPropertyOp15
 70
     1
102
RTVSPropertyOp16
 70
     1
102
RTVSPropertyOp17
 70
     1
102
RTVSPropertyOp18
 70
     1
102
RTVSPropertyOp19
 70
     1
102
RTVSPropertyOp20
 70
     1
102
RTVSPropertyOp21
 70
     1
102
RTVSPropertyOp22
 70
     1
102
RTVSPropertyOp23
 70
     1
102
RTVSPropertyOp24
 70
     1
102
RTVSPropertyOp25
 70
     1
102
RTVSPropertyOp26
 70
     1
102
RTVSPropertyOp27
 70
     1
102
RTVSPropertyOp28
 70
     1
102
RTVSPropertyOp29
 70
     1
102
RTVSPropertyOp30
 70
     1
102
RTVSPropertyOp31
 70
     1
102
RTVSPropertyOp32
 70
     1
102
RTVSPropertyOp33
 70
     1
102
RTVSPropertyOp34
 70
     1
102
RTVSPropertyOp35
 70
     1
102
RTVSPropertyOp36
 70
     1
102
RTVSPropertyOp37
 70
     1
102
RTVSPropertyOp38
 70
     1
102
RTVSPropertyOp39
 70
     1
102
RTVSPropertyOp40
 70
     1
102
RTVSPropertyOp41
 70
     1
102
RTVSPropertyOp42
 70
     1
102
RTVSPropertyOp43
 70
     1
102
RTVSPropertyOp44
 70
     1
102
RTVSPropertyOp45
 70
     1
102
RTVSPropertyOp46
 70
     1
102
RTVSPropertyOp47
 70
     1
102
RTVSPropertyOp48
 70
     1
102
RTVSPropertyOp49
 70
     1
102
RTVSPropertyOp50
 70
     1
102
RTVSPropertyOp51
 70
     0
102
RTVSPropertyOp52
 70
     0
102
RTVSPropertyOp53
 70
     1
102
RTVSPropertyOp54
 70
     1
102
RTVSPropertyOp55
 70
     1
102
RTVSPropertyOp56
 70
     1
102
RTVSPropertyOp57
 70
     1
102
RTVSPropertyOp58
 70
     1
102
RTVSPropertyOp59
 70
     1
102
RTVSPropertyOp60
 70
     1
102
RTVSPropertyOp61
 70
     1
102
RTVSPropertyOp62
 70
     1
  0
XRECORD
  5
F28B
102
{ACAD_REACTORS
330
F28A
102
}
330
F28A
100
AcDbXrecord
280
     1
102
RTVSPost2010Prop28
280
     0
102
RTVSPost2010PropOp28
 70
     1
102
RTVSPost2010Prop29
280
     1
102
RTVSPost2010PropOp29
 70
     1
102
RTVSPost2010Prop30
280
     1
102
RTVSPost2010PropOp30
 70
     1
102
RTVSPost2010Prop31
280
     0
102
RTVSPost2010PropOp31
 70
     1
102
RTVSPost2010Prop32
280
     0
102
RTVSPost2010PropOp32
 70
     1
102
RTVSPost2010Prop33
280
     0
102
RTVSPost2010PropOp33
 70
     1
102
RTVSPost2010Prop34
280
     0
102
RTVSPost2010PropOp34
 70
     1
102
RTVSPost2010Prop35
280
     0
102
RTVSPost2010PropOp35
 70
     1
102
RTVSPost2010Prop36
280
     0
102
RTVSPost2010PropOp36
 70
     1
102
RTVSPost2010Prop37
 90
       50
102
RTVSPost2010PropOp37
 70
     1
102
RTVSPost2010Prop38
140
0.0
102
RTVSPost2010PropOp38
 70
     1
102
RTVSPost2010Prop39
140
1.0
102
RTVSPost2010PropOp39
 70
     1
102
RTVSPost2010Prop40
 90
        0
102
RTVSPost2010PropOp40
 70
     1
102
RTVSPost2010Prop41ColorIndex
 90
       18
102
RTVSPost2010Prop41ColorRGB
 90
        0
102
RTVSPost2010PropOp41
 70
     1
102
RTVSPost2010Prop42
 90
       50
102
RTVSPost2010PropOp42
 70
     1
102
RTVSPost2010Prop43
 90
        3
102
RTVSPost2010PropOp43
 70
     1
102
RTVSPost2010Prop44ColorIndex
 90
        5
102
RTVSPost2010Prop44ColorRGB
 90
      255
102
RTVSPost2010PropOp44
 70
     1
102
RTVSPost2010Prop45
280
     0
102
RTVSPost2010PropOp45
 70
     1
102
RTVSPost2010Prop46
 90
       50
102
RTVSPost2010PropOp46
 70
     1
102
RTVSPost2010Prop47
 90
       50
102
RTVSPost2010PropOp47
 70
     1
102
RTVSPost2010Prop48
 90
       50
102
RTVSPost2010PropOp48
 70
     1
102
RTVSPost2010Prop49
280
     0
102
RTVSPost2010PropOp49
 70
     1
102
RTVSPost2010Prop50
 90
       50
102
RTVSPost2010PropOp50
 70
     1
102
RTVSPost2010Prop51ColorIndex
 90
      256
102
RTVSPost2010Prop51ColorRGB
 90
-16777216
102
RTVSPost2010PropOp51
 70
     0
102
RTVSPost2010Prop52
140
1.0
102
RTVSPost2010PropOp52
 70
     0
102
RTVSPost2010Prop53
 90
        2
102
RTVSPost2010PropOp53
 70
     1
102
RTVSPost2010Prop54
  1
strokes_ogs.tif
102
RTVSPost2010PropOp54
 70
     1
102
RTVSPost2010Prop55
280
     0
102
RTVSPost2010PropOp55
 70
     1
102
RTVSPost2010Prop56
140
1.0
102
RTVSPost2010PropOp56
 70
     1
102
RTVSPost2010Prop57
140
1.0
102
RTVSPost2010PropOp57
 70
     1
102
RTVSPropertyOp0
 70
     1
102
RTVSPropertyOp1
 70
     1
102
RTVSPropertyOp2
 70
     1
102
RTVSPropertyOp3
 70
     1
102
RTVSPropertyOp4
 70
     1
102
RTVSPropertyOp5
 70
     1
102
RTVSPropertyOp6
 70
     1
102
RTVSPropertyOp7
 70
     1
102
RTVSPropertyOp8
 70
     1
102
RTVSPropertyOp9
 70
     1
102
RTVSPropertyOp10
 70
     1
102
RTVSPropertyOp11
 70
     1
102
RTVSPropertyOp12
 70
     1
102
RTVSPropertyOp13
 70
     1
102
RTVSPropertyOp14
 70
     1
102
RTVSPropertyOp15
 70
     1
102
RTVSPropertyOp16
 70
     1
102
RTVSPropertyOp17
 70
     1
102
RTVSPropertyOp18
 70
     1
102
RTVSPropertyOp19
 70
     1
102
RTVSPropertyOp20
 70
     1
102
RTVSPropertyOp21
 70
     1
102
RTVSPropertyOp22
 70
     1
102
RTVSPropertyOp23
 70
     1
102
RTVSPropertyOp24
 70
     1
102
RTVSPropertyOp25
 70
     1
102
RTVSPropertyOp26
 70
     1
102
RTVSPropertyOp27
 70
     1
102
RTVSPropertyOp28
 70
     1
102
RTVSPropertyOp29
 70
     1
102
RTVSPropertyOp30
 70
     1
102
RTVSPropertyOp31
 70
     1
102
RTVSPropertyOp32
 70
     1
102
RTVSPropertyOp33
 70
     1
102
RTVSPropertyOp34
 70
     1
102
RTVSPropertyOp35
 70
     1
102
RTVSPropertyOp36
 70
     1
102
RTVSPropertyOp37
 70
     1
102
RTVSPropertyOp38
 70
     1
102
RTVSPropertyOp39
 70
     1
102
RTVSPropertyOp40
 70
     1
102
RTVSPropertyOp41
 70
     1
102
RTVSPropertyOp42
 70
     1
102
RTVSPropertyOp43
 70
     1
102
RTVSPropertyOp44
 70
     1
102
RTVSPropertyOp45
 70
     1
102
RTVSPropertyOp46
 70
     1
102
RTVSPropertyOp47
 70
     1
102
RTVSPropertyOp48
 70
     1
102
RTVSPropertyOp49
 70
     1
102
RTVSPropertyOp50
 70
     1
102
RTVSPropertyOp51
 70
     0
102
RTVSPropertyOp52
 70
     0
102
RTVSPropertyOp53
 70
     1
102
RTVSPropertyOp54
 70
     1
102
RTVSPropertyOp55
 70
     1
102
RTVSPropertyOp56
 70
     1
102
RTVSPropertyOp57
 70
     1
102
RTVSPropertyOp58
 70
     1
102
RTVSPropertyOp59
 70
     1
102
RTVSPropertyOp60
 70
     1
102
RTVSPropertyOp61
 70
     1
102
RTVSPropertyOp62
 70
     1
  0
XRECORD
  5
F29F
102
{ACAD_REACTORS
330
F29E
102
}
330
F29E
100
AcDbXrecord
280
     1
102
RTVSPost2010Prop28
280
     0
102
RTVSPost2010PropOp28
 70
     1
102
RTVSPost2010Prop29
280
     1
102
RTVSPost2010PropOp29
 70
     1
102
RTVSPost2010Prop30
280
     1
102
RTVSPost2010PropOp30
 70
     1
102
RTVSPost2010Prop31
280
     0
102
RTVSPost2010PropOp31
 70
     1
102
RTVSPost2010Prop32
280
     0
102
RTVSPost2010PropOp32
 70
     1
102
RTVSPost2010Prop33
280
     0
102
RTVSPost2010PropOp33
 70
     1
102
RTVSPost2010Prop34
280
     0
102
RTVSPost2010PropOp34
 70
     1
102
RTVSPost2010Prop35
280
     0
102
RTVSPost2010PropOp35
 70
     1
102
RTVSPost2010Prop36
280
     0
102
RTVSPost2010PropOp36
 70
     1
102
RTVSPost2010Prop37
 90
       50
102
RTVSPost2010PropOp37
 70
     1
102
RTVSPost2010Prop38
140
0.0
102
RTVSPost2010PropOp38
 70
     1
102
RTVSPost2010Prop39
140
1.0
102
RTVSPost2010PropOp39
 70
     1
102
RTVSPost2010Prop40
 90
        0
102
RTVSPost2010PropOp40
 70
     1
102
RTVSPost2010Prop41ColorIndex
 90
       18
102
RTVSPost2010Prop41ColorRGB
 90
        0
102
RTVSPost2010PropOp41
 70
     1
102
RTVSPost2010Prop42
 90
       50
102
RTVSPost2010PropOp42
 70
     1
102
RTVSPost2010Prop43
 90
        3
102
RTVSPost2010PropOp43
 70
     1
102
RTVSPost2010Prop44ColorIndex
 90
        5
102
RTVSPost2010Prop44ColorRGB
 90
      255
102
RTVSPost2010PropOp44
 70
     1
102
RTVSPost2010Prop45
280
     0
102
RTVSPost2010PropOp45
 70
     1
102
RTVSPost2010Prop46
 90
       50
102
RTVSPost2010PropOp46
 70
     1
102
RTVSPost2010Prop47
 90
       50
102
RTVSPost2010PropOp47
 70
     1
102
RTVSPost2010Prop48
 90
       50
102
RTVSPost2010PropOp48
 70
     1
102
RTVSPost2010Prop49
280
     0
102
RTVSPost2010PropOp49
 70
     1
102
RTVSPost2010Prop50
 90
       50
102
RTVSPost2010PropOp50
 70
     1
102
RTVSPost2010Prop51ColorIndex
 90
      256
102
RTVSPost2010Prop51ColorRGB
 90
-16777216
102
RTVSPost2010PropOp51
 70
     0
102
RTVSPost2010Prop52
140
1.0
102
RTVSPost2010PropOp52
 70
     0
102
RTVSPost2010Prop53
 90
        2
102
RTVSPost2010PropOp53
 70
     1
102
RTVSPost2010Prop54
  1
strokes_ogs.tif
102
RTVSPost2010PropOp54
 70
     1
102
RTVSPost2010Prop55
280
     0
102
RTVSPost2010PropOp55
 70
     1
102
RTVSPost2010Prop56
140
1.0
102
RTVSPost2010PropOp56
 70
     1
102
RTVSPost2010Prop57
140
1.0
102
RTVSPost2010PropOp57
 70
     1
102
RTVSPropertyOp0
 70
     0
102
RTVSPropertyOp1
 70
     0
102
RTVSPropertyOp2
 70
     0
102
RTVSPropertyOp3
 70
     0
102
RTVSPropertyOp4
 70
     0
102
RTVSPropertyOp5
 70
     0
102
RTVSPropertyOp6
 70
     0
102
RTVSPropertyOp7
 70
     0
102
RTVSPropertyOp8
 70
     0
102
RTVSPropertyOp9
 70
     0
102
RTVSPropertyOp10
 70
     0
102
RTVSPropertyOp11
 70
     0
102
RTVSPropertyOp12
 70
     0
102
RTVSPropertyOp13
 70
     0
102
RTVSPropertyOp14
 70
     2
102
RTVSPropertyOp15
 70
     0
102
RTVSPropertyOp16
 70
     0
102
RTVSPropertyOp17
 70
     0
102
RTVSPropertyOp18
 70
     0
102
RTVSPropertyOp19
 70
     0
102
RTVSPropertyOp20
 70
     0
102
RTVSPropertyOp21
 70
     0
102
RTVSPropertyOp22
 70
     0
102
RTVSPropertyOp23
 70
     0
102
RTVSPropertyOp24
 70
     0
102
RTVSPropertyOp25
 70
     0
102
RTVSPropertyOp26
 70
     0
102
RTVSPropertyOp27
 70
     0
102
RTVSPropertyOp28
 70
     1
102
RTVSPropertyOp29
 70
     1
102
RTVSPropertyOp30
 70
     1
102
RTVSPropertyOp31
 70
     1
102
RTVSPropertyOp32
 70
     1
102
RTVSPropertyOp33
 70
     1
102
RTVSPropertyOp34
 70
     1
102
RTVSPropertyOp35
 70
     1
102
RTVSPropertyOp36
 70
     1
102
RTVSPropertyOp37
 70
     1
102
RTVSPropertyOp38
 70
     1
102
RTVSPropertyOp39
 70
     1
102
RTVSPropertyOp40
 70
     1
102
RTVSPropertyOp41
 70
     1
102
RTVSPropertyOp42
 70
     1
102
RTVSPropertyOp43
 70
     1
102
RTVSPropertyOp44
 70
     1
102
RTVSPropertyOp45
 70
     1
102
RTVSPropertyOp46
 70
     1
102
RTVSPropertyOp47
 70
     1
102
RTVSPropertyOp48
 70
     1
102
RTVSPropertyOp49
 70
     1
102
RTVSPropertyOp50
 70
     1
102
RTVSPropertyOp51
 70
     0
102
RTVSPropertyOp52
 70
     0
102
RTVSPropertyOp53
 70
     1
102
RTVSPropertyOp54
 70
     1
102
RTVSPropertyOp55
 70
     1
102
RTVSPropertyOp56
 70
     1
102
RTVSPropertyOp57
 70
     1
102
RTVSPropertyOp58
 70
     1
102
RTVSPropertyOp59
 70
     1
102
RTVSPropertyOp60
 70
     1
102
RTVSPropertyOp61
 70
     1
102
RTVSPropertyOp62
 70
     1
  0
XRECORD
  5
F297
102
{ACAD_REACTORS
330
F296
102
}
330
F296
100
AcDbXrecord
280
     1
102
RTVSPost2010Prop28
280
     0
102
RTVSPost2010PropOp28
 70
     1
102
RTVSPost2010Prop29
280
     1
102
RTVSPost2010PropOp29
 70
     1
102
RTVSPost2010Prop30
280
     1
102
RTVSPost2010PropOp30
 70
     1
102
RTVSPost2010Prop31
280
     0
102
RTVSPost2010PropOp31
 70
     1
102
RTVSPost2010Prop32
280
     0
102
RTVSPost2010PropOp32
 70
     1
102
RTVSPost2010Prop33
280
     0
102
RTVSPost2010PropOp33
 70
     1
102
RTVSPost2010Prop34
280
     0
102
RTVSPost2010PropOp34
 70
     1
102
RTVSPost2010Prop35
280
     0
102
RTVSPost2010PropOp35
 70
     1
102
RTVSPost2010Prop36
280
     0
102
RTVSPost2010PropOp36
 70
     1
102
RTVSPost2010Prop37
 90
       50
102
RTVSPost2010PropOp37
 70
     1
102
RTVSPost2010Prop38
140
0.0
102
RTVSPost2010PropOp38
 70
     1
102
RTVSPost2010Prop39
140
1.0
102
RTVSPost2010PropOp39
 70
     1
102
RTVSPost2010Prop40
 90
        0
102
RTVSPost2010PropOp40
 70
     1
102
RTVSPost2010Prop41ColorIndex
 90
       18
102
RTVSPost2010Prop41ColorRGB
 90
        0
102
RTVSPost2010PropOp41
 70
     1
102
RTVSPost2010Prop42
 90
       50
102
RTVSPost2010PropOp42
 70
     1
102
RTVSPost2010Prop43
 90
        3
102
RTVSPost2010PropOp43
 70
     1
102
RTVSPost2010Prop44ColorIndex
 90
        5
102
RTVSPost2010Prop44ColorRGB
 90
      255
102
RTVSPost2010PropOp44
 70
     1
102
RTVSPost2010Prop45
280
     0
102
RTVSPost2010PropOp45
 70
     1
102
RTVSPost2010Prop46
 90
       50
102
RTVSPost2010PropOp46
 70
     1
102
RTVSPost2010Prop47
 90
       50
102
RTVSPost2010PropOp47
 70
     1
102
RTVSPost2010Prop48
 90
       50
102
RTVSPost2010PropOp48
 70
     1
102
RTVSPost2010Prop49
280
     0
102
RTVSPost2010PropOp49
 70
     1
102
RTVSPost2010Prop50
 90
       50
102
RTVSPost2010PropOp50
 70
     1
102
RTVSPost2010Prop51ColorIndex
 90
      256
102
RTVSPost2010Prop51ColorRGB
 90
-16777216
102
RTVSPost2010PropOp51
 70
     0
102
RTVSPost2010Prop52
140
1.0
102
RTVSPost2010PropOp52
 70
     0
102
RTVSPost2010Prop53
 90
        2
102
RTVSPost2010PropOp53
 70
     1
102
RTVSPost2010Prop54
  1
strokes_ogs.tif
102
RTVSPost2010PropOp54
 70
     1
102
RTVSPost2010Prop55
280
     0
102
RTVSPost2010PropOp55
 70
     1
102
RTVSPost2010Prop56
140
1.0
102
RTVSPost2010PropOp56
 70
     1
102
RTVSPost2010Prop57
140
1.0
102
RTVSPost2010PropOp57
 70
     1
102
RTVSPropertyOp0
 70
     1
102
RTVSPropertyOp1
 70
     1
102
RTVSPropertyOp2
 70
     1
102
RTVSPropertyOp3
 70
     1
102
RTVSPropertyOp4
 70
     1
102
RTVSPropertyOp5
 70
     1
102
RTVSPropertyOp6
 70
     1
102
RTVSPropertyOp7
 70
     1
102
RTVSPropertyOp8
 70
     1
102
RTVSPropertyOp9
 70
     1
102
RTVSPropertyOp10
 70
     1
102
RTVSPropertyOp11
 70
     1
102
RTVSPropertyOp12
 70
     1
102
RTVSPropertyOp13
 70
     1
102
RTVSPropertyOp14
 70
     1
102
RTVSPropertyOp15
 70
     1
102
RTVSPropertyOp16
 70
     1
102
RTVSPropertyOp17
 70
     1
102
RTVSPropertyOp18
 70
     1
102
RTVSPropertyOp19
 70
     1
102
RTVSPropertyOp20
 70
     1
102
RTVSPropertyOp21
 70
     1
102
RTVSPropertyOp22
 70
     1
102
RTVSPropertyOp23
 70
     1
102
RTVSPropertyOp24
 70
     1
102
RTVSPropertyOp25
 70
     1
102
RTVSPropertyOp26
 70
     1
102
RTVSPropertyOp27
 70
     1
102
RTVSPropertyOp28
 70
     1
102
RTVSPropertyOp29
 70
     1
102
RTVSPropertyOp30
 70
     1
102
RTVSPropertyOp31
 70
     1
102
RTVSPropertyOp32
 70
     1
102
RTVSPropertyOp33
 70
     1
102
RTVSPropertyOp34
 70
     1
102
RTVSPropertyOp35
 70
     1
102
RTVSPropertyOp36
 70
     1
102
RTVSPropertyOp37
 70
     1
102
RTVSPropertyOp38
 70
     1
102
RTVSPropertyOp39
 70
     1
102
RTVSPropertyOp40
 70
     1
102
RTVSPropertyOp41
 70
     1
102
RTVSPropertyOp42
 70
     1
102
RTVSPropertyOp43
 70
     1
102
RTVSPropertyOp44
 70
     1
102
RTVSPropertyOp45
 70
     1
102
RTVSPropertyOp46
 70
     1
102
RTVSPropertyOp47
 70
     1
102
RTVSPropertyOp48
 70
     1
102
RTVSPropertyOp49
 70
     1
102
RTVSPropertyOp50
 70
     1
102
RTVSPropertyOp51
 70
     0
102
RTVSPropertyOp52
 70
     0
102
RTVSPropertyOp53
 70
     1
102
RTVSPropertyOp54
 70
     1
102
RTVSPropertyOp55
 70
     1
102
RTVSPropertyOp56
 70
     1
102
RTVSPropertyOp57
 70
     1
102
RTVSPropertyOp58
 70
     1
102
RTVSPropertyOp59
 70
     1
102
RTVSPropertyOp60
 70
     1
102
RTVSPropertyOp61
 70
     1
102
RTVSPropertyOp62
 70
     1
  0
XRECORD
  5
F2A1
102
{ACAD_REACTORS
330
F2A0
102
}
330
F2A0
100
AcDbXrecord
280
     1
102
RTVSPost2010Prop28
280
     0
102
RTVSPost2010PropOp28
 70
     1
102
RTVSPost2010Prop29
280
     1
102
RTVSPost2010PropOp29
 70
     1
102
RTVSPost2010Prop30
280
     1
102
RTVSPost2010PropOp30
 70
     1
102
RTVSPost2010Prop31
280
     0
102
RTVSPost2010PropOp31
 70
     1
102
RTVSPost2010Prop32
280
     0
102
RTVSPost2010PropOp32
 70
     1
102
RTVSPost2010Prop33
280
     0
102
RTVSPost2010PropOp33
 70
     1
102
RTVSPost2010Prop34
280
     0
102
RTVSPost2010PropOp34
 70
     1
102
RTVSPost2010Prop35
280
     0
102
RTVSPost2010PropOp35
 70
     1
102
RTVSPost2010Prop36
280
     0
102
RTVSPost2010PropOp36
 70
     1
102
RTVSPost2010Prop37
 90
       50
102
RTVSPost2010PropOp37
 70
     1
102
RTVSPost2010Prop38
140
0.0
102
RTVSPost2010PropOp38
 70
     1
102
RTVSPost2010Prop39
140
1.0
102
RTVSPost2010PropOp39
 70
     1
102
RTVSPost2010Prop40
 90
        0
102
RTVSPost2010PropOp40
 70
     1
102
RTVSPost2010Prop41ColorIndex
 90
       18
102
RTVSPost2010Prop41ColorRGB
 90
        0
102
RTVSPost2010PropOp41
 70
     1
102
RTVSPost2010Prop42
 90
       50
102
RTVSPost2010PropOp42
 70
     1
102
RTVSPost2010Prop43
 90
        3
102
RTVSPost2010PropOp43
 70
     1
102
RTVSPost2010Prop44ColorIndex
 90
        5
102
RTVSPost2010Prop44ColorRGB
 90
      255
102
RTVSPost2010PropOp44
 70
     1
102
RTVSPost2010Prop45
280
     0
102
RTVSPost2010PropOp45
 70
     1
102
RTVSPost2010Prop46
 90
       50
102
RTVSPost2010PropOp46
 70
     1
102
RTVSPost2010Prop47
 90
       50
102
RTVSPost2010PropOp47
 70
     1
102
RTVSPost2010Prop48
 90
       50
102
RTVSPost2010PropOp48
 70
     1
102
RTVSPost2010Prop49
280
     0
102
RTVSPost2010PropOp49
 70
     1
102
RTVSPost2010Prop50
 90
       50
102
RTVSPost2010PropOp50
 70
     1
102
RTVSPost2010Prop51ColorIndex
 90
      256
102
RTVSPost2010Prop51ColorRGB
 90
-16777216
102
RTVSPost2010PropOp51
 70
     0
102
RTVSPost2010Prop52
140
1.0
102
RTVSPost2010PropOp52
 70
     0
102
RTVSPost2010Prop53
 90
        2
102
RTVSPost2010PropOp53
 70
     1
102
RTVSPost2010Prop54
  1
strokes_ogs.tif
102
RTVSPost2010PropOp54
 70
     1
102
RTVSPost2010Prop55
280
     0
102
RTVSPost2010PropOp55
 70
     1
102
RTVSPost2010Prop56
140
1.0
102
RTVSPost2010PropOp56
 70
     1
102
RTVSPost2010Prop57
140
1.0
102
RTVSPost2010PropOp57
 70
     1
102
RTVSPropertyOp0
 70
     0
102
RTVSPropertyOp1
 70
     0
102
RTVSPropertyOp2
 70
     0
102
RTVSPropertyOp3
 70
     0
102
RTVSPropertyOp4
 70
     0
102
RTVSPropertyOp5
 70
     0
102
RTVSPropertyOp6
 70
     0
102
RTVSPropertyOp7
 70
     0
102
RTVSPropertyOp8
 70
     0
102
RTVSPropertyOp9
 70
     0
102
RTVSPropertyOp10
 70
     0
102
RTVSPropertyOp11
 70
     0
102
RTVSPropertyOp12
 70
     0
102
RTVSPropertyOp13
 70
     0
102
RTVSPropertyOp14
 70
     2
102
RTVSPropertyOp15
 70
     0
102
RTVSPropertyOp16
 70
     0
102
RTVSPropertyOp17
 70
     0
102
RTVSPropertyOp18
 70
     0
102
RTVSPropertyOp19
 70
     0
102
RTVSPropertyOp20
 70
     0
102
RTVSPropertyOp21
 70
     0
102
RTVSPropertyOp22
 70
     0
102
RTVSPropertyOp23
 70
     0
102
RTVSPropertyOp24
 70
     0
102
RTVSPropertyOp25
 70
     0
102
RTVSPropertyOp26
 70
     0
102
RTVSPropertyOp27
 70
     0
102
RTVSPropertyOp28
 70
     1
102
RTVSPropertyOp29
 70
     1
102
RTVSPropertyOp30
 70
     1
102
RTVSPropertyOp31
 70
     1
102
RTVSPropertyOp32
 70
     1
102
RTVSPropertyOp33
 70
     1
102
RTVSPropertyOp34
 70
     1
102
RTVSPropertyOp35
 70
     1
102
RTVSPropertyOp36
 70
     1
102
RTVSPropertyOp37
 70
     1
102
RTVSPropertyOp38
 70
     1
102
RTVSPropertyOp39
 70
     1
102
RTVSPropertyOp40
 70
     1
102
RTVSPropertyOp41
 70
     1
102
RTVSPropertyOp42
 70
     1
102
RTVSPropertyOp43
 70
     1
102
RTVSPropertyOp44
 70
     1
102
RTVSPropertyOp45
 70
     1
102
RTVSPropertyOp46
 70
     1
102
RTVSPropertyOp47
 70
     1
102
RTVSPropertyOp48
 70
     1
102
RTVSPropertyOp49
 70
     1
102
RTVSPropertyOp50
 70
     1
102
RTVSPropertyOp51
 70
     0
102
RTVSPropertyOp52
 70
     0
102
RTVSPropertyOp53
 70
     1
102
RTVSPropertyOp54
 70
     1
102
RTVSPropertyOp55
 70
     1
102
RTVSPropertyOp56
 70
     1
102
RTVSPropertyOp57
 70
     1
102
RTVSPropertyOp58
 70
     1
102
RTVSPropertyOp59
 70
     1
102
RTVSPropertyOp60
 70
     1
102
RTVSPropertyOp61
 70
     1
102
RTVSPropertyOp62
 70
     1
  0
XRECORD
  5
F28F
102
{ACAD_REACTORS
330
F28E
102
}
330
F28E
100
AcDbXrecord
280
     1
102
RTVSPost2010Prop28
280
     0
102
RTVSPost2010PropOp28
 70
     1
102
RTVSPost2010Prop29
280
     1
102
RTVSPost2010PropOp29
 70
     1
102
RTVSPost2010Prop30
280
     1
102
RTVSPost2010PropOp30
 70
     1
102
RTVSPost2010Prop31
280
     0
102
RTVSPost2010PropOp31
 70
     1
102
RTVSPost2010Prop32
280
     0
102
RTVSPost2010PropOp32
 70
     1
102
RTVSPost2010Prop33
280
     0
102
RTVSPost2010PropOp33
 70
     1
102
RTVSPost2010Prop34
280
     0
102
RTVSPost2010PropOp34
 70
     1
102
RTVSPost2010Prop35
280
     0
102
RTVSPost2010PropOp35
 70
     1
102
RTVSPost2010Prop36
280
     0
102
RTVSPost2010PropOp36
 70
     1
102
RTVSPost2010Prop37
 90
       50
102
RTVSPost2010PropOp37
 70
     1
102
RTVSPost2010Prop38
140
0.0
102
RTVSPost2010PropOp38
 70
     1
102
RTVSPost2010Prop39
140
1.0
102
RTVSPost2010PropOp39
 70
     1
102
RTVSPost2010Prop40
 90
        0
102
RTVSPost2010PropOp40
 70
     1
102
RTVSPost2010Prop41ColorIndex
 90
       18
102
RTVSPost2010Prop41ColorRGB
 90
        0
102
RTVSPost2010PropOp41
 70
     1
102
RTVSPost2010Prop42
 90
       50
102
RTVSPost2010PropOp42
 70
     1
102
RTVSPost2010Prop43
 90
        3
102
RTVSPost2010PropOp43
 70
     1
102
RTVSPost2010Prop44ColorIndex
 90
        5
102
RTVSPost2010Prop44ColorRGB
 90
      255
102
RTVSPost2010PropOp44
 70
     1
102
RTVSPost2010Prop45
280
     0
102
RTVSPost2010PropOp45
 70
     1
102
RTVSPost2010Prop46
 90
       50
102
RTVSPost2010PropOp46
 70
     1
102
RTVSPost2010Prop47
 90
       50
102
RTVSPost2010PropOp47
 70
     1
102
RTVSPost2010Prop48
 90
       50
102
RTVSPost2010PropOp48
 70
     1
102
RTVSPost2010Prop49
280
     0
102
RTVSPost2010PropOp49
 70
     1
102
RTVSPost2010Prop50
 90
       50
102
RTVSPost2010PropOp50
 70
     1
102
RTVSPost2010Prop51ColorIndex
 90
      256
102
RTVSPost2010Prop51ColorRGB
 90
-16777216
102
RTVSPost2010PropOp51
 70
     0
102
RTVSPost2010Prop52
140
1.0
102
RTVSPost2010PropOp52
 70
     0
102
RTVSPost2010Prop53
 90
        2
102
RTVSPost2010PropOp53
 70
     1
102
RTVSPost2010Prop54
  1
strokes_ogs.tif
102
RTVSPost2010PropOp54
 70
     1
102
RTVSPost2010Prop55
280
     0
102
RTVSPost2010PropOp55
 70
     1
102
RTVSPost2010Prop56
140
1.0
102
RTVSPost2010PropOp56
 70
     1
102
RTVSPost2010Prop57
140
1.0
102
RTVSPost2010PropOp57
 70
     1
102
RTVSPropertyOp0
 70
     1
102
RTVSPropertyOp1
 70
     1
102
RTVSPropertyOp2
 70
     1
102
RTVSPropertyOp3
 70
     1
102
RTVSPropertyOp4
 70
     1
102
RTVSPropertyOp5
 70
     1
102
RTVSPropertyOp6
 70
     1
102
RTVSPropertyOp7
 70
     1
102
RTVSPropertyOp8
 70
     1
102
RTVSPropertyOp9
 70
     1
102
RTVSPropertyOp10
 70
     1
102
RTVSPropertyOp11
 70
     1
102
RTVSPropertyOp12
 70
     1
102
RTVSPropertyOp13
 70
     1
102
RTVSPropertyOp14
 70
     1
102
RTVSPropertyOp15
 70
     1
102
RTVSPropertyOp16
 70
     1
102
RTVSPropertyOp17
 70
     1
102
RTVSPropertyOp18
 70
     1
102
RTVSPropertyOp19
 70
     1
102
RTVSPropertyOp20
 70
     1
102
RTVSPropertyOp21
 70
     1
102
RTVSPropertyOp22
 70
     1
102
RTVSPropertyOp23
 70
     1
102
RTVSPropertyOp24
 70
     1
102
RTVSPropertyOp25
 70
     1
102
RTVSPropertyOp26
 70
     1
102
RTVSPropertyOp27
 70
     1
102
RTVSPropertyOp28
 70
     1
102
RTVSPropertyOp29
 70
     1
102
RTVSPropertyOp30
 70
     1
102
RTVSPropertyOp31
 70
     1
102
RTVSPropertyOp32
 70
     1
102
RTVSPropertyOp33
 70
     1
102
RTVSPropertyOp34
 70
     1
102
RTVSPropertyOp35
 70
     1
102
RTVSPropertyOp36
 70
     1
102
RTVSPropertyOp37
 70
     1
102
RTVSPropertyOp38
 70
     1
102
RTVSPropertyOp39
 70
     1
102
RTVSPropertyOp40
 70
     1
102
RTVSPropertyOp41
 70
     1
102
RTVSPropertyOp42
 70
     1
102
RTVSPropertyOp43
 70
     1
102
RTVSPropertyOp44
 70
     1
102
RTVSPropertyOp45
 70
     1
102
RTVSPropertyOp46
 70
     1
102
RTVSPropertyOp47
 70
     1
102
RTVSPropertyOp48
 70
     1
102
RTVSPropertyOp49
 70
     1
102
RTVSPropertyOp50
 70
     1
102
RTVSPropertyOp51
 70
     0
102
RTVSPropertyOp52
 70
     0
102
RTVSPropertyOp53
 70
     1
102
RTVSPropertyOp54
 70
     1
102
RTVSPropertyOp55
 70
     1
102
RTVSPropertyOp56
 70
     1
102
RTVSPropertyOp57
 70
     1
102
RTVSPropertyOp58
 70
     1
102
RTVSPropertyOp59
 70
     1
102
RTVSPropertyOp60
 70
     1
102
RTVSPropertyOp61
 70
     1
102
RTVSPropertyOp62
 70
     1
  0
XRECORD
  5
F2AD
102
{ACAD_REACTORS
330
F2AC
102
}
330
F2AC
100
AcDbXrecord
280
     1
102
RTVSPost2010Prop28
280
     0
102
RTVSPost2010PropOp28
 70
     1
102
RTVSPost2010Prop29
280
     1
102
RTVSPost2010PropOp29
 70
     1
102
RTVSPost2010Prop30
280
     1
102
RTVSPost2010PropOp30
 70
     1
102
RTVSPost2010Prop31
280
     0
102
RTVSPost2010PropOp31
 70
     1
102
RTVSPost2010Prop32
280
     0
102
RTVSPost2010PropOp32
 70
     1
102
RTVSPost2010Prop33
280
     0
102
RTVSPost2010PropOp33
 70
     1
102
RTVSPost2010Prop34
280
     0
102
RTVSPost2010PropOp34
 70
     1
102
RTVSPost2010Prop35
280
     0
102
RTVSPost2010PropOp35
 70
     1
102
RTVSPost2010Prop36
280
     0
102
RTVSPost2010PropOp36
 70
     1
102
RTVSPost2010Prop37
 90
       50
102
RTVSPost2010PropOp37
 70
     1
102
RTVSPost2010Prop38
140
0.0
102
RTVSPost2010PropOp38
 70
     1
102
RTVSPost2010Prop39
140
1.0
102
RTVSPost2010PropOp39
 70
     1
102
RTVSPost2010Prop40
 90
        0
102
RTVSPost2010PropOp40
 70
     1
102
RTVSPost2010Prop41ColorIndex
 90
       18
102
RTVSPost2010Prop41ColorRGB
 90
        0
102
RTVSPost2010PropOp41
 70
     1
102
RTVSPost2010Prop42
 90
       50
102
RTVSPost2010PropOp42
 70
     1
102
RTVSPost2010Prop43
 90
        3
102
RTVSPost2010PropOp43
 70
     1
102
RTVSPost2010Prop44ColorIndex
 90
        5
102
RTVSPost2010Prop44ColorRGB
 90
      255
102
RTVSPost2010PropOp44
 70
     1
102
RTVSPost2010Prop45
280
     0
102
RTVSPost2010PropOp45
 70
     1
102
RTVSPost2010Prop46
 90
       50
102
RTVSPost2010PropOp46
 70
     1
102
RTVSPost2010Prop47
 90
       50
102
RTVSPost2010PropOp47
 70
     1
102
RTVSPost2010Prop48
 90
       50
102
RTVSPost2010PropOp48
 70
     1
102
RTVSPost2010Prop49
280
     0
102
RTVSPost2010PropOp49
 70
     1
102
RTVSPost2010Prop50
 90
       50
102
RTVSPost2010PropOp50
 70
     1
102
RTVSPost2010Prop51ColorIndex
 90
      256
102
RTVSPost2010Prop51ColorRGB
 90
-16777216
102
RTVSPost2010PropOp51
 70
     0
102
RTVSPost2010Prop52
140
1.0
102
RTVSPost2010PropOp52
 70
     0
102
RTVSPost2010Prop53
 90
        2
102
RTVSPost2010PropOp53
 70
     1
102
RTVSPost2010Prop54
  1
strokes_ogs.tif
102
RTVSPost2010PropOp54
 70
     1
102
RTVSPost2010Prop55
280
     0
102
RTVSPost2010PropOp55
 70
     1
102
RTVSPost2010Prop56
140
1.0
102
RTVSPost2010PropOp56
 70
     1
102
RTVSPost2010Prop57
140
1.0
102
RTVSPost2010PropOp57
 70
     1
102
RTVSPropertyOp0
 70
     1
102
RTVSPropertyOp1
 70
     1
102
RTVSPropertyOp2
 70
     1
102
RTVSPropertyOp3
 70
     1
102
RTVSPropertyOp4
 70
     1
102
RTVSPropertyOp5
 70
     1
102
RTVSPropertyOp6
 70
     1
102
RTVSPropertyOp7
 70
     1
102
RTVSPropertyOp8
 70
     1
102
RTVSPropertyOp9
 70
     1
102
RTVSPropertyOp10
 70
     1
102
RTVSPropertyOp11
 70
     1
102
RTVSPropertyOp12
 70
     1
102
RTVSPropertyOp13
 70
     1
102
RTVSPropertyOp14
 70
     1
102
RTVSPropertyOp15
 70
     1
102
RTVSPropertyOp16
 70
     1
102
RTVSPropertyOp17
 70
     1
102
RTVSPropertyOp18
 70
     1
102
RTVSPropertyOp19
 70
     1
102
RTVSPropertyOp20
 70
     1
102
RTVSPropertyOp21
 70
     1
102
RTVSPropertyOp22
 70
     1
102
RTVSPropertyOp23
 70
     1
102
RTVSPropertyOp24
 70
     1
102
RTVSPropertyOp25
 70
     1
102
RTVSPropertyOp26
 70
     1
102
RTVSPropertyOp27
 70
     1
102
RTVSPropertyOp28
 70
     1
102
RTVSPropertyOp29
 70
     1
102
RTVSPropertyOp30
 70
     1
102
RTVSPropertyOp31
 70
     1
102
RTVSPropertyOp32
 70
     1
102
RTVSPropertyOp33
 70
     1
102
RTVSPropertyOp34
 70
     1
102
RTVSPropertyOp35
 70
     1
102
RTVSPropertyOp36
 70
     1
102
RTVSPropertyOp37
 70
     1
102
RTVSPropertyOp38
 70
     1
102
RTVSPropertyOp39
 70
     1
102
RTVSPropertyOp40
 70
     1
102
RTVSPropertyOp41
 70
     1
102
RTVSPropertyOp42
 70
     1
102
RTVSPropertyOp43
 70
     1
102
RTVSPropertyOp44
 70
     1
102
RTVSPropertyOp45
 70
     1
102
RTVSPropertyOp46
 70
     1
102
RTVSPropertyOp47
 70
     1
102
RTVSPropertyOp48
 70
     1
102
RTVSPropertyOp49
 70
     1
102
RTVSPropertyOp50
 70
     1
102
RTVSPropertyOp51
 70
     0
102
RTVSPropertyOp52
 70
     0
102
RTVSPropertyOp53
 70
     1
102
RTVSPropertyOp54
 70
     1
102
RTVSPropertyOp55
 70
     1
102
RTVSPropertyOp56
 70
     1
102
RTVSPropertyOp57
 70
     1
102
RTVSPropertyOp58
 70
     1
102
RTVSPropertyOp59
 70
     1
102
RTVSPropertyOp60
 70
     1
102
RTVSPropertyOp61
 70
     1
102
RTVSPropertyOp62
 70
     1
  0
XRECORD
  5
F2AB
102
{ACAD_REACTORS
330
F2AA
102
}
330
F2AA
100
AcDbXrecord
280
     1
102
RTVSPost2010Prop28
280
     0
102
RTVSPost2010PropOp28
 70
     1
102
RTVSPost2010Prop29
280
     1
102
RTVSPost2010PropOp29
 70
     1
102
RTVSPost2010Prop30
280
     1
102
RTVSPost2010PropOp30
 70
     1
102
RTVSPost2010Prop31
280
     0
102
RTVSPost2010PropOp31
 70
     1
102
RTVSPost2010Prop32
280
     0
102
RTVSPost2010PropOp32
 70
     1
102
RTVSPost2010Prop33
280
     0
102
RTVSPost2010PropOp33
 70
     1
102
RTVSPost2010Prop34
280
     0
102
RTVSPost2010PropOp34
 70
     1
102
RTVSPost2010Prop35
280
     0
102
RTVSPost2010PropOp35
 70
     1
102
RTVSPost2010Prop36
280
     0
102
RTVSPost2010PropOp36
 70
     1
102
RTVSPost2010Prop37
 90
       50
102
RTVSPost2010PropOp37
 70
     1
102
RTVSPost2010Prop38
140
0.0
102
RTVSPost2010PropOp38
 70
     1
102
RTVSPost2010Prop39
140
1.0
102
RTVSPost2010PropOp39
 70
     1
102
RTVSPost2010Prop40
 90
        0
102
RTVSPost2010PropOp40
 70
     1
102
RTVSPost2010Prop41ColorIndex
 90
       18
102
RTVSPost2010Prop41ColorRGB
 90
        0
102
RTVSPost2010PropOp41
 70
     1
102
RTVSPost2010Prop42
 90
       50
102
RTVSPost2010PropOp42
 70
     1
102
RTVSPost2010Prop43
 90
        3
102
RTVSPost2010PropOp43
 70
     1
102
RTVSPost2010Prop44ColorIndex
 90
        5
102
RTVSPost2010Prop44ColorRGB
 90
      255
102
RTVSPost2010PropOp44
 70
     1
102
RTVSPost2010Prop45
280
     0
102
RTVSPost2010PropOp45
 70
     1
102
RTVSPost2010Prop46
 90
       50
102
RTVSPost2010PropOp46
 70
     1
102
RTVSPost2010Prop47
 90
       50
102
RTVSPost2010PropOp47
 70
     1
102
RTVSPost2010Prop48
 90
       50
102
RTVSPost2010PropOp48
 70
     1
102
RTVSPost2010Prop49
280
     0
102
RTVSPost2010PropOp49
 70
     1
102
RTVSPost2010Prop50
 90
       50
102
RTVSPost2010PropOp50
 70
     1
102
RTVSPost2010Prop51ColorIndex
 90
      256
102
RTVSPost2010Prop51ColorRGB
 90
-16777216
102
RTVSPost2010PropOp51
 70
     0
102
RTVSPost2010Prop52
140
1.0
102
RTVSPost2010PropOp52
 70
     0
102
RTVSPost2010Prop53
 90
        2
102
RTVSPost2010PropOp53
 70
     1
102
RTVSPost2010Prop54
  1
strokes_ogs.tif
102
RTVSPost2010PropOp54
 70
     1
102
RTVSPost2010Prop55
280
     0
102
RTVSPost2010PropOp55
 70
     1
102
RTVSPost2010Prop56
140
1.0
102
RTVSPost2010PropOp56
 70
     1
102
RTVSPost2010Prop57
140
1.0
102
RTVSPost2010PropOp57
 70
     1
102
RTVSPropertyOp0
 70
     1
102
RTVSPropertyOp1
 70
     1
102
RTVSPropertyOp2
 70
     1
102
RTVSPropertyOp3
 70
     1
102
RTVSPropertyOp4
 70
     1
102
RTVSPropertyOp5
 70
     1
102
RTVSPropertyOp6
 70
     1
102
RTVSPropertyOp7
 70
     1
102
RTVSPropertyOp8
 70
     1
102
RTVSPropertyOp9
 70
     1
102
RTVSPropertyOp10
 70
     1
102
RTVSPropertyOp11
 70
     1
102
RTVSPropertyOp12
 70
     1
102
RTVSPropertyOp13
 70
     1
102
RTVSPropertyOp14
 70
     1
102
RTVSPropertyOp15
 70
     1
102
RTVSPropertyOp16
 70
     1
102
RTVSPropertyOp17
 70
     1
102
RTVSPropertyOp18
 70
     1
102
RTVSPropertyOp19
 70
     1
102
RTVSPropertyOp20
 70
     1
102
RTVSPropertyOp21
 70
     1
102
RTVSPropertyOp22
 70
     1
102
RTVSPropertyOp23
 70
     1
102
RTVSPropertyOp24
 70
     1
102
RTVSPropertyOp25
 70
     1
102
RTVSPropertyOp26
 70
     1
102
RTVSPropertyOp27
 70
     1
102
RTVSPropertyOp28
 70
     1
102
RTVSPropertyOp29
 70
     1
102
RTVSPropertyOp30
 70
     1
102
RTVSPropertyOp31
 70
     1
102
RTVSPropertyOp32
 70
     1
102
RTVSPropertyOp33
 70
     1
102
RTVSPropertyOp34
 70
     1
102
RTVSPropertyOp35
 70
     1
102
RTVSPropertyOp36
 70
     1
102
RTVSPropertyOp37
 70
     1
102
RTVSPropertyOp38
 70
     1
102
RTVSPropertyOp39
 70
     1
102
RTVSPropertyOp40
 70
     1
102
RTVSPropertyOp41
 70
     1
102
RTVSPropertyOp42
 70
     1
102
RTVSPropertyOp43
 70
     1
102
RTVSPropertyOp44
 70
     1
102
RTVSPropertyOp45
 70
     1
102
RTVSPropertyOp46
 70
     1
102
RTVSPropertyOp47
 70
     1
102
RTVSPropertyOp48
 70
     1
102
RTVSPropertyOp49
 70
     1
102
RTVSPropertyOp50
 70
     1
102
RTVSPropertyOp51
 70
     0
102
RTVSPropertyOp52
 70
     0
102
RTVSPropertyOp53
 70
     1
102
RTVSPropertyOp54
 70
     1
102
RTVSPropertyOp55
 70
     1
102
RTVSPropertyOp56
 70
     1
102
RTVSPropertyOp57
 70
     1
102
RTVSPropertyOp58
 70
     1
102
RTVSPropertyOp59
 70
     1
102
RTVSPropertyOp60
 70
     1
102
RTVSPropertyOp61
 70
     1
102
RTVSPropertyOp62
 70
     1
  0
XRECORD
  5
F2A5
102
{ACAD_REACTORS
330
F2A4
102
}
330
F2A4
100
AcDbXrecord
280
     1
102
RTVSPost2010Prop28
280
     0
102
RTVSPost2010PropOp28
 70
     1
102
RTVSPost2010Prop29
280
     1
102
RTVSPost2010PropOp29
 70
     1
102
RTVSPost2010Prop30
280
     1
102
RTVSPost2010PropOp30
 70
     1
102
RTVSPost2010Prop31
280
     0
102
RTVSPost2010PropOp31
 70
     1
102
RTVSPost2010Prop32
280
     0
102
RTVSPost2010PropOp32
 70
     1
102
RTVSPost2010Prop33
280
     0
102
RTVSPost2010PropOp33
 70
     1
102
RTVSPost2010Prop34
280
     0
102
RTVSPost2010PropOp34
 70
     1
102
RTVSPost2010Prop35
280
     0
102
RTVSPost2010PropOp35
 70
     1
102
RTVSPost2010Prop36
280
     0
102
RTVSPost2010PropOp36
 70
     1
102
RTVSPost2010Prop37
 90
       50
102
RTVSPost2010PropOp37
 70
     1
102
RTVSPost2010Prop38
140
0.0
102
RTVSPost2010PropOp38
 70
     1
102
RTVSPost2010Prop39
140
1.0
102
RTVSPost2010PropOp39
 70
     1
102
RTVSPost2010Prop40
 90
        0
102
RTVSPost2010PropOp40
 70
     1
102
RTVSPost2010Prop41ColorIndex
 90
       18
102
RTVSPost2010Prop41ColorRGB
 90
        0
102
RTVSPost2010PropOp41
 70
     1
102
RTVSPost2010Prop42
 90
       50
102
RTVSPost2010PropOp42
 70
     1
102
RTVSPost2010Prop43
 90
        3
102
RTVSPost2010PropOp43
 70
     1
102
RTVSPost2010Prop44ColorIndex
 90
        5
102
RTVSPost2010Prop44ColorRGB
 90
      255
102
RTVSPost2010PropOp44
 70
     1
102
RTVSPost2010Prop45
280
     0
102
RTVSPost2010PropOp45
 70
     1
102
RTVSPost2010Prop46
 90
       50
102
RTVSPost2010PropOp46
 70
     1
102
RTVSPost2010Prop47
 90
       50
102
RTVSPost2010PropOp47
 70
     1
102
RTVSPost2010Prop48
 90
       50
102
RTVSPost2010PropOp48
 70
     1
102
RTVSPost2010Prop49
280
     0
102
RTVSPost2010PropOp49
 70
     1
102
RTVSPost2010Prop50
 90
       50
102
RTVSPost2010PropOp50
 70
     1
102
RTVSPost2010Prop51ColorIndex
 90
      256
102
RTVSPost2010Prop51ColorRGB
 90
-16777216
102
RTVSPost2010PropOp51
 70
     0
102
RTVSPost2010Prop52
140
1.0
102
RTVSPost2010PropOp52
 70
     0
102
RTVSPost2010Prop53
 90
        2
102
RTVSPost2010PropOp53
 70
     1
102
RTVSPost2010Prop54
  1
strokes_ogs.tif
102
RTVSPost2010PropOp54
 70
     1
102
RTVSPost2010Prop55
280
     0
102
RTVSPost2010PropOp55
 70
     1
102
RTVSPost2010Prop56
140
1.0
102
RTVSPost2010PropOp56
 70
     1
102
RTVSPost2010Prop57
140
1.0
102
RTVSPost2010PropOp57
 70
     1
102
RTVSPropertyOp0
 70
     1
102
RTVSPropertyOp1
 70
     1
102
RTVSPropertyOp2
 70
     1
102
RTVSPropertyOp3
 70
     1
102
RTVSPropertyOp4
 70
     1
102
RTVSPropertyOp5
 70
     1
102
RTVSPropertyOp6
 70
     1
102
RTVSPropertyOp7
 70
     1
102
RTVSPropertyOp8
 70
     1
102
RTVSPropertyOp9
 70
     1
102
RTVSPropertyOp10
 70
     1
102
RTVSPropertyOp11
 70
     1
102
RTVSPropertyOp12
 70
     1
102
RTVSPropertyOp13
 70
     1
102
RTVSPropertyOp14
 70
     1
102
RTVSPropertyOp15
 70
     1
102
RTVSPropertyOp16
 70
     1
102
RTVSPropertyOp17
 70
     1
102
RTVSPropertyOp18
 70
     1
102
RTVSPropertyOp19
 70
     1
102
RTVSPropertyOp20
 70
     1
102
RTVSPropertyOp21
 70
     1
102
RTVSPropertyOp22
 70
     1
102
RTVSPropertyOp23
 70
     1
102
RTVSPropertyOp24
 70
     1
102
RTVSPropertyOp25
 70
     1
102
RTVSPropertyOp26
 70
     1
102
RTVSPropertyOp27
 70
     1
102
RTVSPropertyOp28
 70
     1
102
RTVSPropertyOp29
 70
     1
102
RTVSPropertyOp30
 70
     1
102
RTVSPropertyOp31
 70
     1
102
RTVSPropertyOp32
 70
     1
102
RTVSPropertyOp33
 70
     1
102
RTVSPropertyOp34
 70
     1
102
RTVSPropertyOp35
 70
     1
102
RTVSPropertyOp36
 70
     1
102
RTVSPropertyOp37
 70
     1
102
RTVSPropertyOp38
 70
     1
102
RTVSPropertyOp39
 70
     1
102
RTVSPropertyOp40
 70
     1
102
RTVSPropertyOp41
 70
     1
102
RTVSPropertyOp42
 70
     1
102
RTVSPropertyOp43
 70
     1
102
RTVSPropertyOp44
 70
     1
102
RTVSPropertyOp45
 70
     1
102
RTVSPropertyOp46
 70
     1
102
RTVSPropertyOp47
 70
     1
102
RTVSPropertyOp48
 70
     1
102
RTVSPropertyOp49
 70
     1
102
RTVSPropertyOp50
 70
     1
102
RTVSPropertyOp51
 70
     0
102
RTVSPropertyOp52
 70
     0
102
RTVSPropertyOp53
 70
     1
102
RTVSPropertyOp54
 70
     1
102
RTVSPropertyOp55
 70
     1
102
RTVSPropertyOp56
 70
     1
102
RTVSPropertyOp57
 70
     1
102
RTVSPropertyOp58
 70
     1
102
RTVSPropertyOp59
 70
     1
102
RTVSPropertyOp60
 70
     1
102
RTVSPropertyOp61
 70
     1
102
RTVSPropertyOp62
 70
     1
  0
XRECORD
  5
F2A7
102
{ACAD_REACTORS
330
F2A6
102
}
330
F2A6
100
AcDbXrecord
280
     1
102
RTVSPost2010Prop28
280
     0
102
RTVSPost2010PropOp28
 70
     1
102
RTVSPost2010Prop29
280
     1
102
RTVSPost2010PropOp29
 70
     1
102
RTVSPost2010Prop30
280
     1
102
RTVSPost2010PropOp30
 70
     1
102
RTVSPost2010Prop31
280
     0
102
RTVSPost2010PropOp31
 70
     1
102
RTVSPost2010Prop32
280
     0
102
RTVSPost2010PropOp32
 70
     1
102
RTVSPost2010Prop33
280
     0
102
RTVSPost2010PropOp33
 70
     1
102
RTVSPost2010Prop34
280
     0
102
RTVSPost2010PropOp34
 70
     1
102
RTVSPost2010Prop35
280
     0
102
RTVSPost2010PropOp35
 70
     1
102
RTVSPost2010Prop36
280
     0
102
RTVSPost2010PropOp36
 70
     1
102
RTVSPost2010Prop37
 90
       50
102
RTVSPost2010PropOp37
 70
     1
102
RTVSPost2010Prop38
140
0.0
102
RTVSPost2010PropOp38
 70
     1
102
RTVSPost2010Prop39
140
1.0
102
RTVSPost2010PropOp39
 70
     1
102
RTVSPost2010Prop40
 90
        0
102
RTVSPost2010PropOp40
 70
     1
102
RTVSPost2010Prop41ColorIndex
 90
       18
102
RTVSPost2010Prop41ColorRGB
 90
        0
102
RTVSPost2010PropOp41
 70
     1
102
RTVSPost2010Prop42
 90
       50
102
RTVSPost2010PropOp42
 70
     1
102
RTVSPost2010Prop43
 90
        3
102
RTVSPost2010PropOp43
 70
     1
102
RTVSPost2010Prop44ColorIndex
 90
        5
102
RTVSPost2010Prop44ColorRGB
 90
      255
102
RTVSPost2010PropOp44
 70
     1
102
RTVSPost2010Prop45
280
     0
102
RTVSPost2010PropOp45
 70
     1
102
RTVSPost2010Prop46
 90
       50
102
RTVSPost2010PropOp46
 70
     1
102
RTVSPost2010Prop47
 90
       50
102
RTVSPost2010PropOp47
 70
     1
102
RTVSPost2010Prop48
 90
       50
102
RTVSPost2010PropOp48
 70
     1
102
RTVSPost2010Prop49
280
     0
102
RTVSPost2010PropOp49
 70
     1
102
RTVSPost2010Prop50
 90
       50
102
RTVSPost2010PropOp50
 70
     1
102
RTVSPost2010Prop51ColorIndex
 90
      256
102
RTVSPost2010Prop51ColorRGB
 90
-16777216
102
RTVSPost2010PropOp51
 70
     0
102
RTVSPost2010Prop52
140
1.0
102
RTVSPost2010PropOp52
 70
     0
102
RTVSPost2010Prop53
 90
        2
102
RTVSPost2010PropOp53
 70
     1
102
RTVSPost2010Prop54
  1
strokes_ogs.tif
102
RTVSPost2010PropOp54
 70
     1
102
RTVSPost2010Prop55
280
     0
102
RTVSPost2010PropOp55
 70
     1
102
RTVSPost2010Prop56
140
1.0
102
RTVSPost2010PropOp56
 70
     1
102
RTVSPost2010Prop57
140
1.0
102
RTVSPost2010PropOp57
 70
     1
102
RTVSPropertyOp0
 70
     1
102
RTVSPropertyOp1
 70
     1
102
RTVSPropertyOp2
 70
     1
102
RTVSPropertyOp3
 70
     1
102
RTVSPropertyOp4
 70
     1
102
RTVSPropertyOp5
 70
     1
102
RTVSPropertyOp6
 70
     1
102
RTVSPropertyOp7
 70
     1
102
RTVSPropertyOp8
 70
     1
102
RTVSPropertyOp9
 70
     1
102
RTVSPropertyOp10
 70
     1
102
RTVSPropertyOp11
 70
     1
102
RTVSPropertyOp12
 70
     1
102
RTVSPropertyOp13
 70
     1
102
RTVSPropertyOp14
 70
     1
102
RTVSPropertyOp15
 70
     1
102
RTVSPropertyOp16
 70
     1
102
RTVSPropertyOp17
 70
     1
102
RTVSPropertyOp18
 70
     1
102
RTVSPropertyOp19
 70
     1
102
RTVSPropertyOp20
 70
     1
102
RTVSPropertyOp21
 70
     1
102
RTVSPropertyOp22
 70
     1
102
RTVSPropertyOp23
 70
     1
102
RTVSPropertyOp24
 70
     1
102
RTVSPropertyOp25
 70
     1
102
RTVSPropertyOp26
 70
     1
102
RTVSPropertyOp27
 70
     1
102
RTVSPropertyOp28
 70
     1
102
RTVSPropertyOp29
 70
     1
102
RTVSPropertyOp30
 70
     1
102
RTVSPropertyOp31
 70
     1
102
RTVSPropertyOp32
 70
     1
102
RTVSPropertyOp33
 70
     1
102
RTVSPropertyOp34
 70
     1
102
RTVSPropertyOp35
 70
     1
102
RTVSPropertyOp36
 70
     1
102
RTVSPropertyOp37
 70
     1
102
RTVSPropertyOp38
 70
     1
102
RTVSPropertyOp39
 70
     1
102
RTVSPropertyOp40
 70
     1
102
RTVSPropertyOp41
 70
     1
102
RTVSPropertyOp42
 70
     1
102
RTVSPropertyOp43
 70
     1
102
RTVSPropertyOp44
 70
     1
102
RTVSPropertyOp45
 70
     1
102
RTVSPropertyOp46
 70
     1
102
RTVSPropertyOp47
 70
     1
102
RTVSPropertyOp48
 70
     1
102
RTVSPropertyOp49
 70
     1
102
RTVSPropertyOp50
 70
     1
102
RTVSPropertyOp51
 70
     0
102
RTVSPropertyOp52
 70
     0
102
RTVSPropertyOp53
 70
     1
102
RTVSPropertyOp54
 70
     1
102
RTVSPropertyOp55
 70
     1
102
RTVSPropertyOp56
 70
     1
102
RTVSPropertyOp57
 70
     1
102
RTVSPropertyOp58
 70
     1
102
RTVSPropertyOp59
 70
     1
102
RTVSPropertyOp60
 70
     1
102
RTVSPropertyOp61
 70
     1
102
RTVSPropertyOp62
 70
     1
  0
XRECORD
  5
F295
102
{ACAD_REACTORS
330
F294
102
}
330
F294
100
AcDbXrecord
280
     1
102
RTVSPost2010Prop28
280
     0
102
RTVSPost2010PropOp28
 70
     1
102
RTVSPost2010Prop29
280
     1
102
RTVSPost2010PropOp29
 70
     1
102
RTVSPost2010Prop30
280
     1
102
RTVSPost2010PropOp30
 70
     1
102
RTVSPost2010Prop31
280
     0
102
RTVSPost2010PropOp31
 70
     1
102
RTVSPost2010Prop32
280
     0
102
RTVSPost2010PropOp32
 70
     1
102
RTVSPost2010Prop33
280
     0
102
RTVSPost2010PropOp33
 70
     1
102
RTVSPost2010Prop34
280
     0
102
RTVSPost2010PropOp34
 70
     1
102
RTVSPost2010Prop35
280
     0
102
RTVSPost2010PropOp35
 70
     1
102
RTVSPost2010Prop36
280
     0
102
RTVSPost2010PropOp36
 70
     1
102
RTVSPost2010Prop37
 90
       50
102
RTVSPost2010PropOp37
 70
     1
102
RTVSPost2010Prop38
140
0.0
102
RTVSPost2010PropOp38
 70
     1
102
RTVSPost2010Prop39
140
1.0
102
RTVSPost2010PropOp39
 70
     1
102
RTVSPost2010Prop40
 90
        0
102
RTVSPost2010PropOp40
 70
     1
102
RTVSPost2010Prop41ColorIndex
 90
       18
102
RTVSPost2010Prop41ColorRGB
 90
        0
102
RTVSPost2010PropOp41
 70
     1
102
RTVSPost2010Prop42
 90
       50
102
RTVSPost2010PropOp42
 70
     1
102
RTVSPost2010Prop43
 90
        3
102
RTVSPost2010PropOp43
 70
     1
102
RTVSPost2010Prop44ColorIndex
 90
        5
102
RTVSPost2010Prop44ColorRGB
 90
      255
102
RTVSPost2010PropOp44
 70
     1
102
RTVSPost2010Prop45
280
     0
102
RTVSPost2010PropOp45
 70
     1
102
RTVSPost2010Prop46
 90
       50
102
RTVSPost2010PropOp46
 70
     1
102
RTVSPost2010Prop47
 90
       50
102
RTVSPost2010PropOp47
 70
     1
102
RTVSPost2010Prop48
 90
       50
102
RTVSPost2010PropOp48
 70
     1
102
RTVSPost2010Prop49
280
     0
102
RTVSPost2010PropOp49
 70
     1
102
RTVSPost2010Prop50
 90
       50
102
RTVSPost2010PropOp50
 70
     1
102
RTVSPost2010Prop51ColorIndex
 90
      256
102
RTVSPost2010Prop51ColorRGB
 90
-16777216
102
RTVSPost2010PropOp51
 70
     0
102
RTVSPost2010Prop52
140
1.0
102
RTVSPost2010PropOp52
 70
     0
102
RTVSPost2010Prop53
 90
        2
102
RTVSPost2010PropOp53
 70
     1
102
RTVSPost2010Prop54
  1
strokes_ogs.tif
102
RTVSPost2010PropOp54
 70
     1
102
RTVSPost2010Prop55
280
     0
102
RTVSPost2010PropOp55
 70
     1
102
RTVSPost2010Prop56
140
1.0
102
RTVSPost2010PropOp56
 70
     1
102
RTVSPost2010Prop57
140
1.0
102
RTVSPost2010PropOp57
 70
     1
102
RTVSPropertyOp0
 70
     1
102
RTVSPropertyOp1
 70
     1
102
RTVSPropertyOp2
 70
     1
102
RTVSPropertyOp3
 70
     1
102
RTVSPropertyOp4
 70
     1
102
RTVSPropertyOp5
 70
     1
102
RTVSPropertyOp6
 70
     1
102
RTVSPropertyOp7
 70
     1
102
RTVSPropertyOp8
 70
     1
102
RTVSPropertyOp9
 70
     1
102
RTVSPropertyOp10
 70
     1
102
RTVSPropertyOp11
 70
     1
102
RTVSPropertyOp12
 70
     1
102
RTVSPropertyOp13
 70
     1
102
RTVSPropertyOp14
 70
     1
102
RTVSPropertyOp15
 70
     1
102
RTVSPropertyOp16
 70
     1
102
RTVSPropertyOp17
 70
     1
102
RTVSPropertyOp18
 70
     1
102
RTVSPropertyOp19
 70
     1
102
RTVSPropertyOp20
 70
     1
102
RTVSPropertyOp21
 70
     1
102
RTVSPropertyOp22
 70
     1
102
RTVSPropertyOp23
 70
     1
102
RTVSPropertyOp24
 70
     1
102
RTVSPropertyOp25
 70
     1
102
RTVSPropertyOp26
 70
     1
102
RTVSPropertyOp27
 70
     1
102
RTVSPropertyOp28
 70
     1
102
RTVSPropertyOp29
 70
     1
102
RTVSPropertyOp30
 70
     1
102
RTVSPropertyOp31
 70
     1
102
RTVSPropertyOp32
 70
     1
102
RTVSPropertyOp33
 70
     1
102
RTVSPropertyOp34
 70
     1
102
RTVSPropertyOp35
 70
     1
102
RTVSPropertyOp36
 70
     1
102
RTVSPropertyOp37
 70
     1
102
RTVSPropertyOp38
 70
     1
102
RTVSPropertyOp39
 70
     1
102
RTVSPropertyOp40
 70
     1
102
RTVSPropertyOp41
 70
     1
102
RTVSPropertyOp42
 70
     1
102
RTVSPropertyOp43
 70
     1
102
RTVSPropertyOp44
 70
     1
102
RTVSPropertyOp45
 70
     1
102
RTVSPropertyOp46
 70
     1
102
RTVSPropertyOp47
 70
     1
102
RTVSPropertyOp48
 70
     1
102
RTVSPropertyOp49
 70
     1
102
RTVSPropertyOp50
 70
     1
102
RTVSPropertyOp51
 70
     0
102
RTVSPropertyOp52
 70
     0
102
RTVSPropertyOp53
 70
     1
102
RTVSPropertyOp54
 70
     1
102
RTVSPropertyOp55
 70
     1
102
RTVSPropertyOp56
 70
     1
102
RTVSPropertyOp57
 70
     1
102
RTVSPropertyOp58
 70
     1
102
RTVSPropertyOp59
 70
     1
102
RTVSPropertyOp60
 70
     1
102
RTVSPropertyOp61
 70
     1
102
RTVSPropertyOp62
 70
     1
  0
XRECORD
  5
F289
102
{ACAD_REACTORS
330
F288
102
}
330
F288
100
AcDbXrecord
280
     1
102
RTVSPost2010Prop28
280
     0
102
RTVSPost2010PropOp28
 70
     1
102
RTVSPost2010Prop29
280
     1
102
RTVSPost2010PropOp29
 70
     1
102
RTVSPost2010Prop30
280
     1
102
RTVSPost2010PropOp30
 70
     1
102
RTVSPost2010Prop31
280
     0
102
RTVSPost2010PropOp31
 70
     1
102
RTVSPost2010Prop32
280
     0
102
RTVSPost2010PropOp32
 70
     1
102
RTVSPost2010Prop33
280
     0
102
RTVSPost2010PropOp33
 70
     1
102
RTVSPost2010Prop34
280
     0
102
RTVSPost2010PropOp34
 70
     1
102
RTVSPost2010Prop35
280
     0
102
RTVSPost2010PropOp35
 70
     1
102
RTVSPost2010Prop36
280
     0
102
RTVSPost2010PropOp36
 70
     1
102
RTVSPost2010Prop37
 90
       50
102
RTVSPost2010PropOp37
 70
     1
102
RTVSPost2010Prop38
140
0.0
102
RTVSPost2010PropOp38
 70
     1
102
RTVSPost2010Prop39
140
1.0
102
RTVSPost2010PropOp39
 70
     1
102
RTVSPost2010Prop40
 90
        0
102
RTVSPost2010PropOp40
 70
     1
102
RTVSPost2010Prop41ColorIndex
 90
       18
102
RTVSPost2010Prop41ColorRGB
 90
        0
102
RTVSPost2010PropOp41
 70
     1
102
RTVSPost2010Prop42
 90
       50
102
RTVSPost2010PropOp42
 70
     1
102
RTVSPost2010Prop43
 90
        3
102
RTVSPost2010PropOp43
 70
     1
102
RTVSPost2010Prop44ColorIndex
 90
        5
102
RTVSPost2010Prop44ColorRGB
 90
      255
102
RTVSPost2010PropOp44
 70
     1
102
RTVSPost2010Prop45
280
     0
102
RTVSPost2010PropOp45
 70
     1
102
RTVSPost2010Prop46
 90
       50
102
RTVSPost2010PropOp46
 70
     1
102
RTVSPost2010Prop47
 90
       50
102
RTVSPost2010PropOp47
 70
     1
102
RTVSPost2010Prop48
 90
       50
102
RTVSPost2010PropOp48
 70
     1
102
RTVSPost2010Prop49
280
     0
102
RTVSPost2010PropOp49
 70
     1
102
RTVSPost2010Prop50
 90
       50
102
RTVSPost2010PropOp50
 70
     1
102
RTVSPost2010Prop51ColorIndex
 90
      256
102
RTVSPost2010Prop51ColorRGB
 90
-16777216
102
RTVSPost2010PropOp51
 70
     0
102
RTVSPost2010Prop52
140
1.0
102
RTVSPost2010PropOp52
 70
     0
102
RTVSPost2010Prop53
 90
        2
102
RTVSPost2010PropOp53
 70
     1
102
RTVSPost2010Prop54
  1
strokes_ogs.tif
102
RTVSPost2010PropOp54
 70
     1
102
RTVSPost2010Prop55
280
     0
102
RTVSPost2010PropOp55
 70
     1
102
RTVSPost2010Prop56
140
1.0
102
RTVSPost2010PropOp56
 70
     1
102
RTVSPost2010Prop57
140
1.0
102
RTVSPost2010PropOp57
 70
     1
102
RTVSPropertyOp0
 70
     1
102
RTVSPropertyOp1
 70
     1
102
RTVSPropertyOp2
 70
     1
102
RTVSPropertyOp3
 70
     1
102
RTVSPropertyOp4
 70
     1
102
RTVSPropertyOp5
 70
     1
102
RTVSPropertyOp6
 70
     1
102
RTVSPropertyOp7
 70
     1
102
RTVSPropertyOp8
 70
     1
102
RTVSPropertyOp9
 70
     1
102
RTVSPropertyOp10
 70
     1
102
RTVSPropertyOp11
 70
     1
102
RTVSPropertyOp12
 70
     1
102
RTVSPropertyOp13
 70
     1
102
RTVSPropertyOp14
 70
     1
102
RTVSPropertyOp15
 70
     1
102
RTVSPropertyOp16
 70
     1
102
RTVSPropertyOp17
 70
     1
102
RTVSPropertyOp18
 70
     1
102
RTVSPropertyOp19
 70
     1
102
RTVSPropertyOp20
 70
     1
102
RTVSPropertyOp21
 70
     1
102
RTVSPropertyOp22
 70
     1
102
RTVSPropertyOp23
 70
     1
102
RTVSPropertyOp24
 70
     1
102
RTVSPropertyOp25
 70
     1
102
RTVSPropertyOp26
 70
     1
102
RTVSPropertyOp27
 70
     1
102
RTVSPropertyOp28
 70
     1
102
RTVSPropertyOp29
 70
     1
102
RTVSPropertyOp30
 70
     1
102
RTVSPropertyOp31
 70
     1
102
RTVSPropertyOp32
 70
     1
102
RTVSPropertyOp33
 70
     1
102
RTVSPropertyOp34
 70
     1
102
RTVSPropertyOp35
 70
     1
102
RTVSPropertyOp36
 70
     1
102
RTVSPropertyOp37
 70
     1
102
RTVSPropertyOp38
 70
     1
102
RTVSPropertyOp39
 70
     1
102
RTVSPropertyOp40
 70
     1
102
RTVSPropertyOp41
 70
     1
102
RTVSPropertyOp42
 70
     1
102
RTVSPropertyOp43
 70
     1
102
RTVSPropertyOp44
 70
     1
102
RTVSPropertyOp45
 70
     1
102
RTVSPropertyOp46
 70
     1
102
RTVSPropertyOp47
 70
     1
102
RTVSPropertyOp48
 70
     1
102
RTVSPropertyOp49
 70
     1
102
RTVSPropertyOp50
 70
     1
102
RTVSPropertyOp51
 70
     0
102
RTVSPropertyOp52
 70
     0
102
RTVSPropertyOp53
 70
     1
102
RTVSPropertyOp54
 70
     1
102
RTVSPropertyOp55
 70
     1
102
RTVSPropertyOp56
 70
     1
102
RTVSPropertyOp57
 70
     1
102
RTVSPropertyOp58
 70
     1
102
RTVSPropertyOp59
 70
     1
102
RTVSPropertyOp60
 70
     1
102
RTVSPropertyOp61
 70
     1
102
RTVSPropertyOp62
 70
     1
  0
XRECORD
  5
F2A9
102
{ACAD_REACTORS
330
F2A8
102
}
330
F2A8
100
AcDbXrecord
280
     1
102
RTVSPost2010Prop28
280
     0
102
RTVSPost2010PropOp28
 70
     1
102
RTVSPost2010Prop29
280
     1
102
RTVSPost2010PropOp29
 70
     1
102
RTVSPost2010Prop30
280
     1
102
RTVSPost2010PropOp30
 70
     1
102
RTVSPost2010Prop31
280
     0
102
RTVSPost2010PropOp31
 70
     1
102
RTVSPost2010Prop32
280
     0
102
RTVSPost2010PropOp32
 70
     1
102
RTVSPost2010Prop33
280
     0
102
RTVSPost2010PropOp33
 70
     1
102
RTVSPost2010Prop34
280
     0
102
RTVSPost2010PropOp34
 70
     1
102
RTVSPost2010Prop35
280
     0
102
RTVSPost2010PropOp35
 70
     1
102
RTVSPost2010Prop36
280
     0
102
RTVSPost2010PropOp36
 70
     1
102
RTVSPost2010Prop37
 90
       50
102
RTVSPost2010PropOp37
 70
     1
102
RTVSPost2010Prop38
140
0.0
102
RTVSPost2010PropOp38
 70
     1
102
RTVSPost2010Prop39
140
1.0
102
RTVSPost2010PropOp39
 70
     1
102
RTVSPost2010Prop40
 90
        0
102
RTVSPost2010PropOp40
 70
     1
102
RTVSPost2010Prop41ColorIndex
 90
       18
102
RTVSPost2010Prop41ColorRGB
 90
        0
102
RTVSPost2010PropOp41
 70
     1
102
RTVSPost2010Prop42
 90
       50
102
RTVSPost2010PropOp42
 70
     1
102
RTVSPost2010Prop43
 90
        3
102
RTVSPost2010PropOp43
 70
     1
102
RTVSPost2010Prop44ColorIndex
 90
        5
102
RTVSPost2010Prop44ColorRGB
 90
      255
102
RTVSPost2010PropOp44
 70
     1
102
RTVSPost2010Prop45
280
     0
102
RTVSPost2010PropOp45
 70
     1
102
RTVSPost2010Prop46
 90
       50
102
RTVSPost2010PropOp46
 70
     1
102
RTVSPost2010Prop47
 90
       50
102
RTVSPost2010PropOp47
 70
     1
102
RTVSPost2010Prop48
 90
       50
102
RTVSPost2010PropOp48
 70
     1
102
RTVSPost2010Prop49
280
     0
102
RTVSPost2010PropOp49
 70
     1
102
RTVSPost2010Prop50
 90
       50
102
RTVSPost2010PropOp50
 70
     1
102
RTVSPost2010Prop51ColorIndex
 90
      256
102
RTVSPost2010Prop51ColorRGB
 90
-16777216
102
RTVSPost2010PropOp51
 70
     0
102
RTVSPost2010Prop52
140
1.0
102
RTVSPost2010PropOp52
 70
     0
102
RTVSPost2010Prop53
 90
        2
102
RTVSPost2010PropOp53
 70
     1
102
RTVSPost2010Prop54
  1
strokes_ogs.tif
102
RTVSPost2010PropOp54
 70
     1
102
RTVSPost2010Prop55
280
     0
102
RTVSPost2010PropOp55
 70
     1
102
RTVSPost2010Prop56
140
1.0
102
RTVSPost2010PropOp56
 70
     1
102
RTVSPost2010Prop57
140
1.0
102
RTVSPost2010PropOp57
 70
     1
102
RTVSPropertyOp0
 70
     1
102
RTVSPropertyOp1
 70
     1
102
RTVSPropertyOp2
 70
     1
102
RTVSPropertyOp3
 70
     1
102
RTVSPropertyOp4
 70
     1
102
RTVSPropertyOp5
 70
     1
102
RTVSPropertyOp6
 70
     1
102
RTVSPropertyOp7
 70
     1
102
RTVSPropertyOp8
 70
     1
102
RTVSPropertyOp9
 70
     1
102
RTVSPropertyOp10
 70
     1
102
RTVSPropertyOp11
 70
     1
102
RTVSPropertyOp12
 70
     1
102
RTVSPropertyOp13
 70
     1
102
RTVSPropertyOp14
 70
     1
102
RTVSPropertyOp15
 70
     1
102
RTVSPropertyOp16
 70
     1
102
RTVSPropertyOp17
 70
     1
102
RTVSPropertyOp18
 70
     1
102
RTVSPropertyOp19
 70
     1
102
RTVSPropertyOp20
 70
     1
102
RTVSPropertyOp21
 70
     1
102
RTVSPropertyOp22
 70
     1
102
RTVSPropertyOp23
 70
     1
102
RTVSPropertyOp24
 70
     1
102
RTVSPropertyOp25
 70
     1
102
RTVSPropertyOp26
 70
     1
102
RTVSPropertyOp27
 70
     1
102
RTVSPropertyOp28
 70
     1
102
RTVSPropertyOp29
 70
     1
102
RTVSPropertyOp30
 70
     1
102
RTVSPropertyOp31
 70
     1
102
RTVSPropertyOp32
 70
     1
102
RTVSPropertyOp33
 70
     1
102
RTVSPropertyOp34
 70
     1
102
RTVSPropertyOp35
 70
     1
102
RTVSPropertyOp36
 70
     1
102
RTVSPropertyOp37
 70
     1
102
RTVSPropertyOp38
 70
     1
102
RTVSPropertyOp39
 70
     1
102
RTVSPropertyOp40
 70
     1
102
RTVSPropertyOp41
 70
     1
102
RTVSPropertyOp42
 70
     1
102
RTVSPropertyOp43
 70
     1
102
RTVSPropertyOp44
 70
     1
102
RTVSPropertyOp45
 70
     1
102
RTVSPropertyOp46
 70
     1
102
RTVSPropertyOp47
 70
     1
102
RTVSPropertyOp48
 70
     1
102
RTVSPropertyOp49
 70
     1
102
RTVSPropertyOp50
 70
     1
102
RTVSPropertyOp51
 70
     0
102
RTVSPropertyOp52
 70
     0
102
RTVSPropertyOp53
 70
     1
102
RTVSPropertyOp54
 70
     1
102
RTVSPropertyOp55
 70
     1
102
RTVSPropertyOp56
 70
     1
102
RTVSPropertyOp57
 70
     1
102
RTVSPropertyOp58
 70
     1
102
RTVSPropertyOp59
 70
     1
102
RTVSPropertyOp60
 70
     1
102
RTVSPropertyOp61
 70
     1
102
RTVSPropertyOp62
 70
     1
  0
ENDSEC
  0
EOF
