  0
SECTION
  2
HEADER
  9
$ACADVER
  1
AC1015
  9
$ACADMAINTVER
 70
    18
  9
$DWGCODEPAGE
  3
ANSI_1252
  9
$INSBASE
 10
0.0
 20
0.0
 30
0.0
  9
$EXTMIN
 10
-143.7597648144697
 20
-155.497191872328
 30
-0.0015258207003583
  9
$EXTMAX
 10
174.4638068443908
 20
181.7638555378232
 30
0.0000000349246037
  9
$LIMMIN
 10
0.0
 20
0.0
  9
$LIMMAX
 10
420.0
 20
297.0
  9
$ORTHOMODE
 70
     0
  9
$REGENMODE
 70
     1
  9
$FILLMODE
 70
     1
  9
$QTEXTMODE
 70
     0
  9
$MIRRTEXT
 70
     0
  9
$LTSCALE
 40
1.0
  9
$ATTMODE
 70
     1
  9
$TEXTSIZE
 40
2.5
  9
$TRACEWID
 40
1.0
  9
$TEXTSTYLE
  7
Standard
  9
$CLAYER
  8
0
  9
$CELTYPE
  6
ByLayer
  9
$CECOLOR
 62
   256
  9
$CELTSCALE
 40
1.0
  9
$DISPSILH
 70
     0
  9
$DIMSCALE
 40
1.0
  9
$DIMASZ
 40
2.5
  9
$DIMEXO
 40
0.625
  9
$DIMDLI
 40
3.75
  9
$DIMRND
 40
0.0
  9
$DIMDLE
 40
0.0
  9
$DIMEXE
 40
1.25
  9
$DIMTP
 40
0.0
  9
$DIMTM
 40
0.0
  9
$DIMTXT
 40
2.5
  9
$DIMCEN
 40
2.5
  9
$DIMTSZ
 40
0.0
  9
$DIMTOL
 70
     0
  9
$DIMLIM
 70
     0
  9
$DIMTIH
 70
     0
  9
$DIMTOH
 70
     0
  9
$DIMSE1
 70
     0
  9
$DIMSE2
 70
     0
  9
$DIMTAD
 70
     1
  9
$DIMZIN
 70
     8
  9
$DIMBLK
  1

  9
$DIMASO
 70
     1
  9
$DIMSHO
 70
     1
  9
$DIMPOST
  1

  9
$DIMAPOST
  1

  9
$DIMALT
 70
     0
  9
$DIMALTD
 70
     3
  9
$DIMALTF
 40
0.03937007874016
  9
$DIMLFAC
 40
1.0
  9
$DIMTOFL
 70
     1
  9
$DIMTVP
 40
0.0
  9
$DIMTIX
 70
     0
  9
$DIMSOXD
 70
     0
  9
$DIMSAH
 70
     0
  9
$DIMBLK1
  1

  9
$DIMBLK2
  1

  9
$DIMSTYLE
  2
ISO-25
  9
$DIMCLRD
 70
     0
  9
$DIMCLRE
 70
     0
  9
$DIMCLRT
 70
     0
  9
$DIMTFAC
 40
1.0
  9
$DIMGAP
 40
0.625
  9
$DIMJUST
 70
     0
  9
$DIMSD1
 70
     0
  9
$DIMSD2
 70
     0
  9
$DIMTOLJ
 70
     0
  9
$DIMTZIN
 70
     8
  9
$DIMALTZ
 70
     0
  9
$DIMALTTZ
 70
     0
  9
$DIMUPT
 70
     0
  9
$DIMDEC
 70
     2
  9
$DIMTDEC
 70
     2
  9
$DIMALTU
 70
     2
  9
$DIMALTTD
 70
     3
  9
$DIMTXSTY
  7
Standard
  9
$DIMAUNIT
 70
     0
  9
$DIMADEC
 70
     0
  9
$DIMALTRND
 40
0.0
  9
$DIMAZIN
 70
     0
  9
$DIMDSEP
 70
    44
  9
$DIMATFIT
 70
     3
  9
$DIMFRAC
 70
     0
  9
$DIMLDRBLK
  1

  9
$DIMLUNIT
 70
     2
  9
$DIMLWD
 70
    -2
  9
$DIMLWE
 70
    -2
  9
$DIMTMOVE
 70
     0
  9
$LUNITS
 70
     2
  9
$LUPREC
 70
     4
  9
$SKETCHINC
 40
1.0
  9
$FILLETRAD
 40
0.0
  9
$AUNITS
 70
     0
  9
$AUPREC
 70
     0
  9
$MENU
  1
.
  9
$ELEVATION
 40
0.0
  9
$PELEVATION
 40
0.0
  9
$THICKNESS
 40
0.0
  9
$LIMCHECK
 70
     0
  9
$CHAMFERA
 40
0.0
  9
$CHAMFERB
 40
0.0
  9
$CHAMFERC
 40
0.0
  9
$CHAMFERD
 40
0.0
  9
$SKPOLY
 70
     0
  9
$TDCREATE
 40
2460286.622500000
  9
$TDUCREATE
 40
2460286.330833334
  9
$TDUPDATE
 40
2460286.639837963
  9
$TDUUPDATE
 40
2460286.348171296
  9
$TDINDWG
 40
0.0049884259
  9
$TDUSRTIMER
 40
0.0049884259
  9
$USRTIMER
 70
     1
  9
$ANGBASE
 50
0.0
  9
$ANGDIR
 70
     0
  9
$PDMODE
 70
     0
  9
$PDSIZE
 40
0.0
  9
$PLINEWID
 40
0.0
  9
$SPLFRAME
 70
     0
  9
$SPLINETYPE
 70
     6
  9
$SPLINESEGS
 70
     8
  9
$HANDSEED
  5
10025
  9
$SURFTAB1
 70
     6
  9
$SURFTAB2
 70
     6
  9
$SURFTYPE
 70
     6
  9
$SURFU
 70
     6
  9
$SURFV
 70
     6
  9
$UCSBASE
  2

  9
$UCSNAME
  2

  9
$UCSORG
 10
0.0
 20
0.0
 30
0.0
  9
$UCSXDIR
 10
1.0
 20
0.0
 30
0.0
  9
$UCSYDIR
 10
0.0
 20
1.0
 30
0.0
  9
$UCSORTHOREF
  2

  9
$UCSORTHOVIEW
 70
     0
  9
$UCSORGTOP
 10
0.0
 20
0.0
 30
0.0
  9
$UCSORGBOTTOM
 10
0.0
 20
0.0
 30
0.0
  9
$UCSORGLEFT
 10
0.0
 20
0.0
 30
0.0
  9
$UCSORGRIGHT
 10
0.0
 20
0.0
 30
0.0
  9
$UCSORGFRONT
 10
0.0
 20
0.0
 30
0.0
  9
$UCSORGBACK
 10
0.0
 20
0.0
 30
0.0
  9
$PUCSBASE
  2

  9
$PUCSNAME
  2

  9
$PUCSORG
 10
0.0
 20
0.0
 30
0.0
  9
$PUCSXDIR
 10
1.0
 20
0.0
 30
0.0
  9
$PUCSYDIR
 10
0.0
 20
1.0
 30
0.0
  9
$PUCSORTHOREF
  2

  9
$PUCSORTHOVIEW
 70
     0
  9
$PUCSORGTOP
 10
0.0
 20
0.0
 30
0.0
  9
$PUCSORGBOTTOM
 10
0.0
 20
0.0
 30
0.0
  9
$PUCSORGLEFT
 10
0.0
 20
0.0
 30
0.0
  9
$PUCSORGRIGHT
 10
0.0
 20
0.0
 30
0.0
  9
$PUCSORGFRONT
 10
0.0
 20
0.0
 30
0.0
  9
$PUCSORGBACK
 10
0.0
 20
0.0
 30
0.0
  9
$USERI1
 70
     0
  9
$USERI2
 70
     0
  9
$USERI3
 70
     0
  9
$USERI4
 70
     0
  9
$USERI5
 70
     0
  9
$USERR1
 40
0.0
  9
$USERR2
 40
0.0
  9
$USERR3
 40
0.0
  9
$USERR4
 40
0.0
  9
$USERR5
 40
0.0
  9
$WORLDVIEW
 70
     1
  9
$SHADEDGE
 70
     3
  9
$SHADEDIF
 70
    70
  9
$TILEMODE
 70
     1
  9
$MAXACTVP
 70
    48
  9
$PINSBASE
 10
0.0
 20
0.0
 30
0.0
  9
$PLIMCHECK
 70
     0
  9
$PEXTMIN
 10
0.0
 20
0.0
 30
0.0
  9
$PEXTMAX
 10
0.0
 20
0.0
 30
0.0
  9
$PLIMMIN
 10
0.0
 20
0.0
  9
$PLIMMAX
 10
12.0
 20
9.0
  9
$UNITMODE
 70
     0
  9
$VISRETAIN
 70
     1
  9
$PLINEGEN
 70
     0
  9
$PSLTSCALE
 70
     1
  9
$TREEDEPTH
 70
  3020
  9
$CMLSTYLE
  2
Standard
  9
$CMLJUST
 70
     0
  9
$CMLSCALE
 40
20.0
  9
$PROXYGRAPHICS
 70
     1
  9
$MEASUREMENT
 70
     1
  9
$CELWEIGHT
370
    -1
  9
$ENDCAPS
280
     0
  9
$JOINSTYLE
280
     0
  9
$LWDISPLAY
290
     0
  9
$INSUNITS
 70
     4
  9
$HYPERLINKBASE
  1

  9
$STYLESHEET
  1

  9
$XEDIT
290
     1
  9
$CEPSNTYPE
380
     0
  9
$PSTYLEMODE
290
     1
  9
$FINGERPRINTGUID
  2
{F076C30E-3F10-754B-AD36-B589FE558AAC}
  9
$VERSIONGUID
  2
{46C6E44E-7E24-5D46-9C99-0156767271D4}
  9
$EXTNAMES
290
     1
  9
$PSVPSCALE
 40
0.0
  9
$OLESTARTUP
290
     0
  0
ENDSEC
  0
SECTION
  2
CLASSES
  0
CLASS
  1
ACDBDICTIONARYWDFLT
  2
AcDbDictionaryWithDefault
  3
ObjectDBX Classes
 90
        0
280
     0
281
     0
  0
CLASS
  1
ACDBPLACEHOLDER
  2
AcDbPlaceHolder
  3
ObjectDBX Classes
 90
        0
280
     0
281
     0
  0
CLASS
  1
LAYOUT
  2
AcDbLayout
  3
ObjectDBX Classes
 90
        0
280
     0
281
     0
  0
CLASS
  1
DICTIONARYVAR
  2
AcDbDictionaryVar
  3
ObjectDBX Classes
 90
        0
280
     0
281
     0
  0
CLASS
  1
TABLESTYLE
  2
AcDbTableStyle
  3
ObjectDBX Classes
 90
     4095
280
     0
281
     0
  0
CLASS
  1
MATERIAL
  2
AcDbMaterial
  3
ObjectDBX Classes
 90
     1153
280
     0
281
     0
  0
CLASS
  1
VISUALSTYLE
  2
AcDbVisualStyle
  3
ObjectDBX Classes
 90
     4095
280
     0
281
     0
  0
CLASS
  1
SCALE
  2
AcDbScale
  3
ObjectDBX Classes
 90
     1153
280
     0
281
     0
  0
CLASS
  1
MLEADERSTYLE
  2
AcDbMLeaderStyle
  3
ACDB_MLEADERSTYLE_CLASS
 90
     4095
280
     0
281
     0
  0
CLASS
  1
CELLSTYLEMAP
  2
AcDbCellStyleMap
  3
ObjectDBX Classes
 90
     1152
280
     0
281
     0
  0
CLASS
  1
EXACXREFPANELOBJECT
  2
ExAcXREFPanelObject
  3
EXAC_ESW
 90
    33793
280
     0
281
     0
  0
CLASS
  1
NPOCOLLECTION
  2
AcDbImpNonPersistentObjectsCollection
  3
ObjectDBX Classes
 90
    33921
280
     0
281
     0
  0
CLASS
  1
LAYER_INDEX
  2
AcDbLayerIndex
  3
ObjectDBX Classes
 90
    32768
280
     0
281
     0
  0
CLASS
  1
SPATIAL_INDEX
  2
AcDbSpatialIndex
  3
ObjectDBX Classes
 90
    32768
280
     0
281
     0
  0
CLASS
  1
IDBUFFER
  2
AcDbIdBuffer
  3
ObjectDBX Classes
 90
    32768
280
     0
281
     0
  0
CLASS
  1
ACDBSECTIONVIEWSTYLE
  2
AcDbSectionViewStyle
  3
ObjectDBX Classes
 90
     1025
280
     0
281
     0
  0
CLASS
  1
ACDBDETAILVIEWSTYLE
  2
AcDbDetailViewStyle
  3
ObjectDBX Classes
 90
     1025
280
     0
281
     0
  0
CLASS
  1
XRECORD
  2
AcDbXrecord
  3
ObjectDBX Classes
 90
        0
280
     0
281
     0
  0
ENDSEC
  0
SECTION
  2
TABLES
  0
TABLE
  2
VPORT
  5
8
102
{ACAD_XDICTIONARY
360
FF33
102
}
330
0
100
AcDbSymbolTable
 70
     1
  0
VPORT
  5
EA
330
8
100
AcDbSymbolTableRecord
100
AcDbViewportTableRecord
  2
*Active
 70
     0
 10
0.0
 20
0.0
 11
1.0
 21
1.0
 12
15.35202101496052
 22
13.13333183274761
 13
0.0
 23
0.0
 14
10.0
 24
10.0
 15
10.0
 25
10.0
 16
0.0
 26
0.0
 36
1.0
 17
0.0
 27
0.0
 37
0.0
 40
358.6465602062323
 41
0.9846153846153846
 42
50.0
 43
0.0
 44
0.0
 50
0.0
 51
0.0
 71
     0
 72
  1000
 73
     1
 74
     3
 75
     0
 76
     1
 77
     0
 78
     0
281
     0
 65
     1
110
0.0
120
0.0
130
0.0
111
1.0
121
0.0
131
0.0
112
0.0
122
1.0
132
0.0
 79
     0
146
0.0
1001
ACAD_NAV_VCDISPLAY
1070
     3
  0
ENDTAB
  0
TABLE
  2
LTYPE
  5
5
330
0
100
AcDbSymbolTable
 70
     1
  0
LTYPE
  5
14
330
5
100
AcDbSymbolTableRecord
100
AcDbLinetypeTableRecord
  2
ByBlock
 70
     0
  3

 72
    65
 73
     0
 40
0.0
  0
LTYPE
  5
15
330
5
100
AcDbSymbolTableRecord
100
AcDbLinetypeTableRecord
  2
ByLayer
 70
     0
  3

 72
    65
 73
     0
 40
0.0
  0
LTYPE
  5
16
330
5
100
AcDbSymbolTableRecord
100
AcDbLinetypeTableRecord
  2
Continuous
 70
     0
  3
Solid line
 72
    65
 73
     0
 40
0.0
  0
ENDTAB
  0
TABLE
  2
LAYER
  5
2
102
{ACAD_XDICTIONARY
360
1FF
102
}
330
0
100
AcDbSymbolTable
 70
     1
  0
LAYER
  5
10
102
{ACAD_XDICTIONARY
360
13C
102
}
330
2
100
AcDbSymbolTableRecord
100
AcDbLayerTableRecord
  2
0
 70
     0
 62
     7
  6
Continuous
370
    -3
390
F
  0
ENDTAB
  0
TABLE
  2
STYLE
  5
3
330
0
100
AcDbSymbolTable
 70
     1
  0
STYLE
  5
11
330
3
100
AcDbSymbolTableRecord
100
AcDbTextStyleTableRecord
  2
Standard
 70
     0
 40
0.0
 41
1.0
 50
0.0
 71
     0
 42
2.5
  3
arial.ttf
  4

1001
ACAD
1000
Arial
1071
       34
  0
ENDTAB
  0
TABLE
  2
VIEW
  5
6
330
0
100
AcDbSymbolTable
 70
     0
  0
ENDTAB
  0
TABLE
  2
UCS
  5
7
330
0
100
AcDbSymbolTable
 70
     0
  0
ENDTAB
  0
TABLE
  2
APPID
  5
9
330
0
100
AcDbSymbolTable
 70
     8
  0
APPID
  5
12
330
9
100
AcDbSymbolTableRecord
100
AcDbRegAppTableRecord
  2
ACAD
 70
     0
  0
APPID
  5
9E
330
9
100
AcDbSymbolTableRecord
100
AcDbRegAppTableRecord
  2
ACAD_PSEXT
 70
     0
  0
APPID
  5
133
330
9
100
AcDbSymbolTableRecord
100
AcDbRegAppTableRecord
  2
AcadAnnoPO
 70
     0
  0
APPID
  5
134
330
9
100
AcDbSymbolTableRecord
100
AcDbRegAppTableRecord
  2
AcadAnnotative
 70
     0
  0
APPID
  5
135
330
9
100
AcDbSymbolTableRecord
100
AcDbRegAppTableRecord
  2
ACAD_DSTYLE_DIMJAG
 70
     0
  0
APPID
  5
136
330
9
100
AcDbSymbolTableRecord
100
AcDbRegAppTableRecord
  2
ACAD_DSTYLE_DIMTALN
 70
     0
  0
APPID
  5
165
330
9
100
AcDbSymbolTableRecord
100
AcDbRegAppTableRecord
  2
ACAD_MLEADERVER
 70
     0
  0
APPID
  5
217
330
9
100
AcDbSymbolTableRecord
100
AcDbRegAppTableRecord
  2
ACAD_NAV_VCDISPLAY
 70
     0
  0
ENDTAB
  0
TABLE
  2
DIMSTYLE
  5
A
330
0
100
AcDbSymbolTable
 70
     1
100
AcDbDimStyleTable
 71
     0
  0
DIMSTYLE
105
27
330
A
100
AcDbSymbolTableRecord
100
AcDbDimStyleTableRecord
  2
ISO-25
 70
     0
 41
2.5
 42
0.625
 43
3.75
 44
1.25
 73
     0
 74
     0
 77
     1
 78
     8
140
2.5
141
2.5
143
0.03937007874016
147
0.625
171
     3
172
     1
271
     2
272
     2
274
     3
278
    44
283
     0
284
     8
340
11
  0
ENDTAB
  0
TABLE
  2
BLOCK_RECORD
  5
1
330
0
100
AcDbSymbolTable
 70
     7
  0
BLOCK_RECORD
  5
1F
102
{ACAD_XDICTIONARY
360
1CE
102
}
330
1
100
AcDbSymbolTableRecord
100
AcDbBlockTableRecord
  2
*Model_Space
340
22
  0
BLOCK_RECORD
  5
D2
102
{ACAD_XDICTIONARY
360
FEE6
102
}
330
1
100
AcDbSymbolTableRecord
100
AcDbBlockTableRecord
  2
*Paper_Space
340
D3
  0
BLOCK_RECORD
  5
D6
102
{ACAD_XDICTIONARY
360
FEE8
102
}
330
1
100
AcDbSymbolTableRecord
100
AcDbBlockTableRecord
  2
*Paper_Space0
340
D7
  0
BLOCK_RECORD
  5
FC8D
330
1
100
AcDbSymbolTableRecord
100
AcDbBlockTableRecord
  2
SBE48_91-Front
340
0
102
{BLKREFS
331
FEDC
102
}
  0
BLOCK_RECORD
  5
FCF5
330
1
100
AcDbSymbolTableRecord
100
AcDbBlockTableRecord
  2
SBE48_91-Left
340
0
102
{BLKREFS
331
FEDD
102
}
  0
BLOCK_RECORD
  5
FD28
330
1
100
AcDbSymbolTableRecord
100
AcDbBlockTableRecord
  2
SBE48_91-Right
340
0
102
{BLKREFS
331
FEDE
102
}
  0
BLOCK_RECORD
  5
FD5B
330
1
100
AcDbSymbolTableRecord
100
AcDbBlockTableRecord
  2
SBE48_91-Top
340
0
102
{BLKREFS
331
FEDF
102
}
  0
BLOCK_RECORD
  5
FDAF
330
1
100
AcDbSymbolTableRecord
100
AcDbBlockTableRecord
  2
SBE48_91-Bottom
340
0
102
{BLKREFS
331
FEE0
102
}
  0
BLOCK_RECORD
  5
FDE4
330
1
100
AcDbSymbolTableRecord
100
AcDbBlockTableRecord
  2
SBE48_91-ISO
340
0
102
{BLKREFS
331
FEE1
102
}
  0
ENDTAB
  0
ENDSEC
  0
SECTION
  2
BLOCKS
  0
BLOCK
  5
20
330
1F
100
AcDbEntity
  8
0
100
AcDbBlockBegin
  2
*Model_Space
 70
     0
 10
0.0
 20
0.0
 30
0.0
  3
*Model_Space
  1

  0
ENDBLK
  5
21
330
1F
100
AcDbEntity
  8
0
100
AcDbBlockEnd
  0
BLOCK
  5
D4
330
D2
100
AcDbEntity
 67
     1
  8
0
100
AcDbBlockBegin
  2
*Paper_Space
 70
     0
 10
0.0
 20
0.0
 30
0.0
  3
*Paper_Space
  1

  0
ENDBLK
  5
D5
330
D2
100
AcDbEntity
 67
     1
  8
0
100
AcDbBlockEnd
  0
BLOCK
  5
D8
330
D6
100
AcDbEntity
 67
     1
  8
0
100
AcDbBlockBegin
  2
*Paper_Space0
 70
     0
 10
0.0
 20
0.0
 30
0.0
  3
*Paper_Space0
  1

  0
ENDBLK
  5
D9
330
D6
100
AcDbEntity
 67
     1
  8
0
100
AcDbBlockEnd
  0
BLOCK
  5
FC8E
330
FC8D
100
AcDbEntity
  8
0
100
AcDbBlockBegin
  2
SBE48_91-Front
 70
     0
 10
0.0
 20
0.0
 30
0.0
  3
SBE48_91-Front
  1

  0
LINE
  5
FC90
330
FC8D
100
AcDbEntity
  8
0
100
AcDbLine
 10
-25.50000000000002
 20
90.99999999999997
 30
0.0
 11
-27.00000000000003
 21
90.99999999999997
 31
0.0
  0
LINE
  5
FC91
330
FC8D
100
AcDbEntity
  8
0
100
AcDbLine
 10
25.50000000000016
 20
91.00000000000001
 30
0.0
 11
27.00000000000017
 21
91.00000000000001
 31
0.0
  0
LINE
  5
FC92
330
FC8D
100
AcDbEntity
  8
0
100
AcDbLine
 10
-25.50000000000001
 20
21.00610095525753
 30
0.0
 11
-25.50000000000001
 21
1.500000000000003
 31
0.0
  0
LINE
  5
FC93
330
FC8D
100
AcDbEntity
  8
0
100
AcDbLine
 10
-24.00000000000002
 20
21.00610095525752
 30
0.0
 11
-24.00000000000001
 21
1.500000000000003
 31
0.0
  0
LINE
  5
FC94
330
FC8D
100
AcDbEntity
  8
0
100
AcDbLine
 10
24.00000000000001
 20
1.500000000000021
 30
0.0
 11
24.00000000000004
 21
21.00610095525753
 31
0.0
  0
LINE
  5
FC95
330
FC8D
100
AcDbEntity
  8
0
100
AcDbLine
 10
25.50000000000001
 20
1.500000000000012
 30
0.0
 11
25.50000000000004
 21
21.00610095525753
 31
0.0
  0
LINE
  5
FC96
330
FC8D
100
AcDbEntity
  8
0
100
AcDbLine
 10
-22.5
 20
-1.499999999999999
 30
0.0
 11
22.5
 21
-1.499999999999994
 31
0.0
  0
LINE
  5
FC97
330
FC8D
100
AcDbEntity
  8
0
100
AcDbLine
 10
-22.5
 20
0.0
 30
0.0
 11
22.5
 21
0.0
 31
0.0
  0
LINE
  5
FC98
330
FC8D
100
AcDbEntity
  8
0
100
AcDbLine
 10
-25.50000000000001
 20
21.00610095525753
 30
0.0
 11
-25.50000000000001
 21
29.24206230927725
 31
0.0
  0
LINE
  5
FC99
330
FC8D
100
AcDbEntity
  8
0
100
AcDbLine
 10
-25.50000000000002
 20
39.19051317993774
 30
0.0
 11
-25.50000000000002
 21
85.0
 31
0.0
  0
LINE
  5
FC9A
330
FC8D
100
AcDbEntity
  8
0
100
AcDbLine
 10
-24.00000000000002
 20
85.0
 30
0.0
 11
-24.00000000000002
 21
39.19051317993773
 31
0.0
  0
LINE
  5
FC9B
330
FC8D
100
AcDbEntity
  8
0
100
AcDbLine
 10
-24.00000000000002
 20
29.24206230927725
 30
0.0
 11
-24.00000000000002
 21
21.00610095525752
 31
0.0
  0
LINE
  5
FC9C
330
FC8D
100
AcDbEntity
  8
0
100
AcDbLine
 10
24.00000000000004
 20
21.00610095525753
 30
0.0
 11
24.00000000000006
 21
29.24206230927725
 31
0.0
  0
LINE
  5
FC9D
330
FC8D
100
AcDbEntity
  8
0
100
AcDbLine
 10
24.00000000000007
 20
39.19051317993774
 30
0.0
 11
24.00000000000015
 21
85.00000000000001
 31
0.0
  0
LINE
  5
FC9E
330
FC8D
100
AcDbEntity
  8
0
100
AcDbLine
 10
25.50000000000015
 20
85.00000000000001
 30
0.0
 11
25.50000000000007
 21
39.19051317993774
 31
0.0
  0
LINE
  5
FC9F
330
FC8D
100
AcDbEntity
  8
0
100
AcDbLine
 10
25.50000000000005
 20
29.24206230927724
 30
0.0
 11
25.50000000000004
 21
21.00610095525753
 31
0.0
  0
LINE
  5
FCA0
330
FC8D
100
AcDbEntity
  8
0
100
AcDbLine
 10
25.50000000000004
 20
21.00610095525753
 30
0.0
 11
24.00000000000004
 21
21.00610095525753
 31
0.0
  0
LINE
  5
FCA1
330
FC8D
100
AcDbEntity
  8
0
100
AcDbLine
 10
-24.00000000000002
 20
21.00610095525752
 30
0.0
 11
-25.50000000000001
 21
21.00610095525753
 31
0.0
  0
LINE
  5
FCA2
330
FC8D
100
AcDbEntity
  8
0
100
AcDbLine
 10
-25.50000000000001
 20
39.19051317993774
 30
0.0
 11
-25.50000000000001
 21
29.24206230927724
 31
0.0
  0
LINE
  5
FCA3
330
FC8D
100
AcDbEntity
  8
0
100
AcDbLine
 10
-24.0
 20
29.24206230927724
 30
0.0
 11
-24.0
 21
39.19051317993773
 31
0.0
  0
LINE
  5
FCA4
330
FC8D
100
AcDbEntity
  8
0
100
AcDbLine
 10
23.99999999999997
 20
39.19051317993774
 30
0.0
 11
23.99999999999995
 21
29.24206230927724
 31
0.0
  0
LINE
  5
FCA5
330
FC8D
100
AcDbEntity
  8
0
100
AcDbLine
 10
25.49999999999995
 20
29.24206230927724
 30
0.0
 11
25.49999999999997
 21
39.19051317993774
 31
0.0
  0
ARC
  5
FCA6
330
FC8D
100
AcDbEntity
  8
0
100
AcDbCircle
 10
-41.00000000000004
 20
39.19051317993769
 30
0.0
 40
12.0
100
AcDbArc
 50
180.0
 51
236.0000000000001
  0
ARC
  5
FCA7
330
FC8D
100
AcDbEntity
  8
0
100
AcDbCircle
 10
41.00000000000008
 20
39.19051317993773
 30
0.0
 40
12.0
100
AcDbArc
 50
304.0
 51
0.0
  0
LINE
  5
FCA8
330
FC8D
100
AcDbEntity
  8
0
100
AcDbLine
 10
-25.50000000000002
 20
91.0
 30
0.0
 11
-25.50000000000002
 21
85.0
 31
0.0
  0
LINE
  5
FCA9
330
FC8D
100
AcDbEntity
  8
0
100
AcDbLine
 10
-24.00000000000002
 20
85.0
 30
0.0
 11
-24.00000000000003
 21
91.0
 31
0.0
  0
LINE
  5
FCAA
330
FC8D
100
AcDbEntity
  8
0
100
AcDbLine
 10
24.00000000000016
 20
91.00000000000001
 30
0.0
 11
24.00000000000015
 21
85.00000000000001
 31
0.0
  0
LINE
  5
FCAB
330
FC8D
100
AcDbEntity
  8
0
100
AcDbLine
 10
25.50000000000015
 20
85.00000000000001
 30
0.0
 11
25.50000000000016
 21
91.00000000000001
 31
0.0
  0
LINE
  5
FCAC
330
FC8D
100
AcDbEntity
  8
0
100
AcDbLine
 10
-53.00000000000006
 20
84.99999999999998
 30
0.0
 11
-47.00000000000006
 21
91.0000000000001
 31
0.0
  0
LINE
  5
FCAD
330
FC8D
100
AcDbEntity
  8
0
100
AcDbLine
 10
-24.00000000000003
 20
91.0
 30
0.0
 11
-25.50000000000002
 21
91.0
 31
0.0
  0
LINE
  5
FCAE
330
FC8D
100
AcDbEntity
  8
0
100
AcDbLine
 10
-25.50000000000002
 20
85.0
 30
0.0
 11
-24.00000000000002
 21
85.0
 31
0.0
  0
LINE
  5
FCAF
330
FC8D
100
AcDbEntity
  8
0
100
AcDbLine
 10
25.50000000000016
 20
91.00000000000001
 30
0.0
 11
24.00000000000016
 21
91.00000000000001
 31
0.0
  0
LINE
  5
FCB0
330
FC8D
100
AcDbEntity
  8
0
100
AcDbLine
 10
24.00000000000015
 20
85.00000000000001
 30
0.0
 11
25.50000000000015
 21
85.00000000000001
 31
0.0
  0
LINE
  5
FCB1
330
FC8D
100
AcDbEntity
  8
0
100
AcDbLine
 10
47.00000000000018
 20
91.0000000000001
 30
0.0
 11
53.00000000000017
 21
84.99999999999998
 31
0.0
  0
SPLINE
  5
FCB2
330
FC8D
100
AcDbEntity
  8
0
100
AcDbSpline
210
0.0
220
0.0
230
1.0
 70
     8
 71
     3
 72
    11
 73
     7
 74
     0
 42
0.000000001
 43
0.0000000001
 40
-1.0
 40
-1.0
 40
-1.0
 40
-1.0
 40
-0.8649350770686885
 40
-0.8649350770686885
 40
-0.8649350770686885
 40
0.0
 40
0.0
 40
0.0
 40
0.0
 10
25.5000000000001
 20
55.5
 30
0.0
 10
25.5000000000001
 20
55.58691438702493
 30
0.0
 10
25.50838271405304
 20
55.66373009290038
 30
0.0
 10
25.52783688767243
 20
55.72929168059464
 30
0.0
 10
25.65241843552068
 20
56.14913804539748
 30
0.0
 10
26.41714410067382
 20
56.05658642087274
 30
0.0
 10
27.0000000000001
 20
55.50000000000003
 30
0.0
  0
ARC
  5
FCB3
330
FC8D
100
AcDbEntity
  8
0
100
AcDbCircle
 10
25.5000000000001
 20
53.50000000000001
 30
0.0
 40
2.5
100
AcDbArc
 50
306.8698976458437
 51
53.13010235415607
  0
LINE
  5
FCB4
330
FC8D
100
AcDbEntity
  8
0
100
AcDbLine
 10
38.4949200000001
 20
45.0
 30
0.0
 11
38.49000000000009
 21
44.99999999999999
 31
0.0
  0
LINE
  5
FCB5
330
FC8D
100
AcDbEntity
  8
0
100
AcDbLine
 10
38.49000000000009
 20
44.99999999999999
 30
0.0
 11
38.4900000000001
 21
48.38043947198589
 31
0.0
  0
ARC
  5
FCB6
330
FC8D
100
AcDbEntity
  8
0
100
AcDbCircle
 10
40.50000000000011
 20
53.5
 30
0.0
 40
5.5
100
AcDbArc
 50
291.4355588797964
 51
248.5644411202037
  0
LINE
  5
FCB7
330
FC8D
100
AcDbEntity
  8
0
100
AcDbLine
 10
42.5100000000001
 20
48.38043947198589
 30
0.0
 11
42.5100000000001
 21
44.99999999999999
 31
0.0
  0
LINE
  5
FCB8
330
FC8D
100
AcDbEntity
  8
0
100
AcDbLine
 10
42.5100000000001
 20
44.99999999999999
 30
0.0
 11
42.50508000000009
 21
44.99999999999997
 31
0.0
  0
SPLINE
  5
FCB9
330
FC8D
100
AcDbEntity
  8
0
100
AcDbSpline
210
0.0
220
0.0
230
1.0
 70
     8
 71
     3
 72
    11
 73
     7
 74
     0
 42
0.000000001
 43
0.0000000001
 40
0.6929633215164506
 40
0.6929633215164506
 40
0.6929633215164506
 40
0.6929633215164506
 40
0.8649350770692
 40
0.8649350770692
 40
0.8649350770692
 40
1.0
 40
1.0
 40
1.0
 40
1.0
 10
25.68702953183048
 20
51.08066694697042
 30
0.0
 10
25.92259161675269
 20
51.12401144857955
 30
0.0
 10
26.17117172657489
 20
51.18723186165578
 30
0.0
 10
26.42472347275059
 20
51.2707083194061
 30
0.0
 10
26.62386051677342
 20
51.33626990710022
 30
0.0
 10
26.81796694524394
 20
51.41308561297535
 30
0.0
 10
27.00000000000008
 20
51.5
 30
0.0
  0
SPLINE
  5
FCBA
330
FC8D
100
AcDbEntity
  8
0
100
AcDbSpline
210
0.0
220
0.0
230
1.0
 70
     8
 71
     3
 72
     8
 73
     4
 74
     0
 42
0.000000001
 43
0.0000000001
 40
0.0
 40
0.0
 40
0.0
 40
0.0
 40
0.3070366784835719
 40
0.3070366784835719
 40
0.3070366784835719
 40
0.3070366784835719
 10
27.0000000000001
 20
55.50000000000003
 30
0.0
 10
26.58619289676596
 20
55.69757835065842
 30
0.0
 10
26.12655007946417
 20
55.83668253397473
 30
0.0
 10
25.69461252515083
 20
55.91514915798065
 30
0.0
  0
SPLINE
  5
FCBB
330
FC8D
100
AcDbEntity
  8
0
100
AcDbSpline
210
0.0
220
0.0
230
1.0
 70
     8
 71
     3
 72
    11
 73
     7
 74
     0
 42
0.000000001
 43
0.0000000001
 40
-1.0
 40
-1.0
 40
-1.0
 40
-1.0
 40
-0.8649350770692
 40
-0.8649350770692
 40
-0.8649350770692
 40
0.0
 40
0.0
 40
0.0
 40
0.0
 10
27.00000000000009
 20
51.5
 30
0.0
 10
26.90898347262202
 20
51.41308561297535
 30
0.0
 10
26.81193025838676
 20
51.33626990710022
 30
0.0
 10
26.71236173637534
 20
51.2707083194061
 30
0.0
 10
26.07474017341977
 20
50.85086195460239
 30
0.0
 10
25.5000000000001
 20
50.94341357912707
 30
0.0
 10
25.5000000000001
 20
51.50000000000002
 30
0.0
  0
LINE
  5
FCBC
330
FC8D
100
AcDbEntity
  8
0
100
AcDbLine
 10
-27.00000000000003
 20
91.00000000000001
 30
0.0
 11
-47.00000000000006
 21
91.0000000000001
 31
0.0
  0
LINE
  5
FCBD
330
FC8D
100
AcDbEntity
  8
0
100
AcDbLine
 10
-53.00000000000006
 20
84.99999999999998
 30
0.0
 11
-53.00000000000004
 21
39.19051317993769
 31
0.0
  0
LINE
  5
FCBE
330
FC8D
100
AcDbEntity
  8
0
100
AcDbLine
 10
27.00000000000017
 20
91.00000000000001
 30
0.0
 11
47.00000000000018
 21
91.0000000000001
 31
0.0
  0
LINE
  5
FCBF
330
FC8D
100
AcDbEntity
  8
0
100
AcDbLine
 10
53.0000000000001
 20
39.19051317993771
 30
0.0
 11
53.00000000000017
 21
84.99999999999998
 31
0.0
  0
LINE
  5
FCC0
330
FC8D
100
AcDbEntity
  8
0
100
AcDbLine
 10
-47.71031484164899
 20
29.24206230927718
 30
0.0
 11
-27.00000000000004
 21
15.27277856209688
 31
0.0
  0
ARC
  5
FCC1
330
FC8D
100
AcDbEntity
  8
0
100
AcDbCircle
 10
-25.50000000000011
 20
53.50000000000001
 30
0.0
 40
2.5
100
AcDbArc
 50
126.8698976458439
 51
233.1301023541561
  0
CIRCLE
  5
FCC2
330
FC8D
100
AcDbEntity
  8
0
100
AcDbCircle
 10
-44.00000000000009
 20
36.49999999999999
 30
0.0
 40
2.5
  0
CIRCLE
  5
FCC3
330
FC8D
100
AcDbEntity
  8
0
100
AcDbCircle
 10
-34.00000000000014
 20
63.50000000000001
 30
0.0
 40
2.5
  0
CIRCLE
  5
FCC4
330
FC8D
100
AcDbEntity
  8
0
100
AcDbCircle
 10
-34.00000000000016
 20
83.49999999999999
 30
0.0
 40
2.5
  0
CIRCLE
  5
FCC5
330
FC8D
100
AcDbEntity
  8
0
100
AcDbCircle
 10
-44.00000000000014
 20
73.5
 30
0.0
 40
2.5
  0
CIRCLE
  5
FCC6
330
FC8D
100
AcDbEntity
  8
0
100
AcDbCircle
 10
-34.00000000000011
 20
43.5
 30
0.0
 40
2.5
  0
CIRCLE
  5
FCC7
330
FC8D
100
AcDbEntity
  8
0
100
AcDbCircle
 10
-34.00000000000009
 20
29.5
 30
0.0
 40
2.5
  0
LINE
  5
FCC8
330
FC8D
100
AcDbEntity
  8
0
100
AcDbLine
 10
-38.50000000000011
 20
44.99492
 30
0.0
 11
-38.50000000000011
 21
44.99999999999999
 31
0.0
  0
LINE
  5
FCC9
330
FC8D
100
AcDbEntity
  8
0
100
AcDbLine
 10
-42.5000000000001
 20
44.99999999999999
 30
0.0
 11
-42.5000000000001
 21
44.99492
 31
0.0
  0
LINE
  5
FCCA
330
FC8D
100
AcDbEntity
  8
0
100
AcDbLine
 10
-42.5000000000001
 20
44.99492
 30
0.0
 11
-42.5050800000001
 21
44.99492
 31
0.0
  0
LINE
  5
FCCB
330
FC8D
100
AcDbEntity
  8
0
100
AcDbLine
 10
-42.5050800000001
 20
44.99492
 30
0.0
 11
-42.5050800000001
 21
44.99999999999999
 31
0.0
  0
LINE
  5
FCCC
330
FC8D
100
AcDbEntity
  8
0
100
AcDbLine
 10
-42.5050800000001
 20
44.99999999999999
 30
0.0
 11
-42.5100000000001
 21
44.99999999999999
 31
0.0
  0
LINE
  5
FCCD
330
FC8D
100
AcDbEntity
  8
0
100
AcDbLine
 10
-42.5100000000001
 20
44.99999999999999
 30
0.0
 11
-42.51000000000011
 21
48.38043947198589
 31
0.0
  0
ARC
  5
FCCE
330
FC8D
100
AcDbEntity
  8
0
100
AcDbCircle
 10
-40.50000000000011
 20
53.5
 30
0.0
 40
5.5
100
AcDbArc
 50
291.4355588797964
 51
248.5644411202037
  0
LINE
  5
FCCF
330
FC8D
100
AcDbEntity
  8
0
100
AcDbLine
 10
-38.49000000000012
 20
48.38043947198589
 30
0.0
 11
-38.4900000000001
 21
44.99999999999999
 31
0.0
  0
LINE
  5
FCD0
330
FC8D
100
AcDbEntity
  8
0
100
AcDbLine
 10
-38.4900000000001
 20
44.99999999999999
 30
0.0
 11
-38.49492000000011
 21
44.99999999999999
 31
0.0
  0
LINE
  5
FCD1
330
FC8D
100
AcDbEntity
  8
0
100
AcDbLine
 10
-38.49492000000011
 20
44.99999999999999
 30
0.0
 11
-38.49492000000011
 21
44.99492
 31
0.0
  0
LINE
  5
FCD2
330
FC8D
100
AcDbEntity
  8
0
100
AcDbLine
 10
-38.49492000000011
 20
44.99492
 30
0.0
 11
-38.50000000000011
 21
44.99492
 31
0.0
  0
LINE
  5
FCD3
330
FC8D
100
AcDbEntity
  8
0
100
AcDbLine
 10
-42.50000000000009
 20
45.0
 30
0.0
 11
-42.50000000000031
 21
48.0
 31
0.0
  0
LINE
  5
FCD4
330
FC8D
100
AcDbEntity
  8
0
100
AcDbLine
 10
-38.50000000000012
 20
48.00000000000001
 30
0.0
 11
-38.5000000000001
 21
45.0
 31
0.0
  0
LINE
  5
FCD5
330
FC8D
100
AcDbEntity
  8
0
100
AcDbLine
 10
-42.50000000000008
 20
48.0
 30
0.0
 11
-38.50000000000011
 21
48.00000000000001
 31
0.0
  0
SPLINE
  5
FCD6
330
FC8D
100
AcDbEntity
  8
0
100
AcDbSpline
210
0.0
220
0.0
230
1.0
 70
     8
 71
     3
 72
     8
 73
     4
 74
     0
 42
0.000000001
 43
0.0000000001
 40
-0.3070366784835512
 40
-0.3070366784835512
 40
-0.3070366784835512
 40
-0.3070366784835512
 40
0.0
 40
0.0
 40
0.0
 40
0.0
 10
-25.69461252515092
 20
55.91514915798062
 30
0.0
 10
-26.12655007946424
 20
55.83668253397471
 30
0.0
 10
-26.58619289676599
 20
55.69757835065839
 30
0.0
 10
-27.0000000000001
 20
55.50000000000003
 30
0.0
  0
SPLINE
  5
FCD7
330
FC8D
100
AcDbEntity
  8
0
100
AcDbSpline
210
0.0
220
0.0
230
1.0
 70
     8
 71
     3
 72
    11
 73
     7
 74
     0
 42
0.000000001
 43
0.0000000001
 40
0.0
 40
0.0
 40
0.0
 40
0.0
 40
0.8649350770686885
 40
0.8649350770686885
 40
0.8649350770686885
 40
1.0
 40
1.0
 40
1.0
 40
1.0
 10
-27.0000000000001
 20
55.50000000000003
 30
0.0
 10
-26.41714410067383
 20
56.05658642087274
 30
0.0
 10
-25.65241843552069
 20
56.14913804539748
 30
0.0
 10
-25.52783688767244
 20
55.72929168059464
 30
0.0
 10
-25.50838271405305
 20
55.66373009290038
 30
0.0
 10
-25.50000000000011
 20
55.58691438702493
 30
0.0
 10
-25.50000000000011
 20
55.5
 30
0.0
  0
SPLINE
  5
FCD8
330
FC8D
100
AcDbEntity
  8
0
100
AcDbSpline
210
0.0
220
0.0
230
1.0
 70
     8
 71
     3
 72
    11
 73
     7
 74
     0
 42
0.000000001
 43
0.0000000001
 40
-1.0
 40
-1.0
 40
-1.0
 40
-1.0
 40
-0.8649350770692
 40
-0.8649350770692
 40
-0.8649350770692
 40
-0.6929633215164271
 40
-0.6929633215164271
 40
-0.6929633215164271
 40
-0.6929633215164271
 10
-27.00000000000009
 20
51.5
 30
0.0
 10
-26.81796694524395
 20
51.41308561297535
 30
0.0
 10
-26.62386051677343
 20
51.33626990710022
 30
0.0
 10
-26.4247234727506
 20
51.2707083194061
 30
0.0
 10
-26.17117172657486
 20
51.18723186165578
 30
0.0
 10
-25.92259161675264
 20
51.12401144857954
 30
0.0
 10
-25.68702953183039
 20
51.0806669469704
 30
0.0
  0
SPLINE
  5
FCD9
330
FC8D
100
AcDbEntity
  8
0
100
AcDbSpline
210
0.0
220
0.0
230
1.0
 70
     8
 71
     3
 72
    11
 73
     7
 74
     0
 42
0.000000001
 43
0.0000000001
 40
0.0
 40
0.0
 40
0.0
 40
0.0
 40
0.8649350770692
 40
0.8649350770692
 40
0.8649350770692
 40
1.0
 40
1.0
 40
1.0
 40
1.0
 10
-25.5000000000001
 20
51.50000000000002
 30
0.0
 10
-25.50000000000011
 20
50.94341357912707
 30
0.0
 10
-26.07474017341978
 20
50.85086195460239
 30
0.0
 10
-26.71236173637535
 20
51.2707083194061
 30
0.0
 10
-26.81193025838677
 20
51.33626990710022
 30
0.0
 10
-26.90898347262202
 20
51.41308561297535
 30
0.0
 10
-27.0000000000001
 20
51.5
 30
0.0
  0
SPLINE
  5
FCDA
330
FC8D
100
AcDbEntity
  8
0
100
AcDbSpline
210
0.0
220
0.0
230
1.0
 70
     8
 71
     3
 72
     8
 73
     4
 74
     0
 42
0.000000001
 43
0.0000000001
 40
0.0
 40
0.0
 40
0.0
 40
0.0
 40
1.0
 40
1.0
 40
1.0
 40
1.0
 10
-27.00000000000004
 20
15.27277856209687
 30
0.0
 10
-26.21460183660261
 20
14.59827004525456
 30
0.0
 10
-25.50000000000005
 20
13.92376152841187
 30
0.0
 10
-25.50000000000004
 20
13.24925301156961
 30
0.0
  0
LINE
  5
FCDB
330
FC8D
100
AcDbEntity
  8
0
100
AcDbLine
 10
27.00000000000003
 20
15.27277856209688
 30
0.0
 11
47.71031484164904
 21
29.24206230927722
 31
0.0
  0
SPLINE
  5
FCDC
330
FC8D
100
AcDbEntity
  8
0
100
AcDbSpline
210
0.0
220
0.0
230
1.0
 70
     8
 71
     3
 72
     8
 73
     4
 74
     0
 42
0.000000001
 43
0.0000000001
 40
-1.0
 40
-1.0
 40
-1.0
 40
-1.0
 40
0.0
 40
0.0
 40
0.0
 40
0.0
 10
25.50000000000002
 20
13.24925301156961
 30
0.0
 10
25.50000000000004
 20
13.92376152841187
 30
0.0
 10
26.2146018366026
 20
14.59827004525456
 30
0.0
 10
27.00000000000003
 20
15.27277856209687
 30
0.0
  0
CIRCLE
  5
FCDD
330
FC8D
100
AcDbEntity
  8
0
100
AcDbCircle
 10
34.00000000000008
 20
29.5
 30
0.0
 40
2.5
  0
CIRCLE
  5
FCDE
330
FC8D
100
AcDbEntity
  8
0
100
AcDbCircle
 10
44.00000000000009
 20
36.49999999999999
 30
0.0
 40
2.5
  0
CIRCLE
  5
FCDF
330
FC8D
100
AcDbEntity
  8
0
100
AcDbCircle
 10
34.0000000000001
 20
43.5
 30
0.0
 40
2.5
  0
CIRCLE
  5
FCE0
330
FC8D
100
AcDbEntity
  8
0
100
AcDbCircle
 10
44.00000000000014
 20
73.5
 30
0.0
 40
2.5
  0
CIRCLE
  5
FCE1
330
FC8D
100
AcDbEntity
  8
0
100
AcDbCircle
 10
34.00000000000016
 20
83.49999999999999
 30
0.0
 40
2.5
  0
CIRCLE
  5
FCE2
330
FC8D
100
AcDbEntity
  8
0
100
AcDbCircle
 10
34.00000000000013
 20
63.50000000000001
 30
0.0
 40
2.5
  0
LINE
  5
FCE3
330
FC8D
100
AcDbEntity
  8
0
100
AcDbLine
 10
38.4949200000001
 20
44.99492
 30
0.0
 11
38.4949200000001
 21
45.0
 31
0.0
  0
LINE
  5
FCE4
330
FC8D
100
AcDbEntity
  8
0
100
AcDbLine
 10
42.50508000000009
 20
44.99999999999997
 30
0.0
 11
42.50508000000009
 21
44.99492
 31
0.0
  0
LINE
  5
FCE5
330
FC8D
100
AcDbEntity
  8
0
100
AcDbLine
 10
42.50508000000009
 20
44.99492
 30
0.0
 11
42.50000000000008
 21
44.99492
 31
0.0
  0
LINE
  5
FCE6
330
FC8D
100
AcDbEntity
  8
0
100
AcDbLine
 10
42.50000000000008
 20
44.99492
 30
0.0
 11
42.50000000000008
 21
44.99999999999997
 31
0.0
  0
LINE
  5
FCE7
330
FC8D
100
AcDbEntity
  8
0
100
AcDbLine
 10
38.5000000000001
 20
45.0
 30
0.0
 11
38.5000000000001
 21
44.99492
 31
0.0
  0
LINE
  5
FCE8
330
FC8D
100
AcDbEntity
  8
0
100
AcDbLine
 10
38.5000000000001
 20
44.99492
 30
0.0
 11
38.4949200000001
 21
44.99492
 31
0.0
  0
LINE
  5
FCE9
330
FC8D
100
AcDbEntity
  8
0
100
AcDbLine
 10
38.50000000000009
 20
45.00000000000007
 30
0.0
 11
38.50000000000015
 21
48.0
 31
0.0
  0
LINE
  5
FCEA
330
FC8D
100
AcDbEntity
  8
0
100
AcDbLine
 10
42.50000000000009
 20
48.0
 30
0.0
 11
42.5000000000001
 21
45.0
 31
0.0
  0
LINE
  5
FCEB
330
FC8D
100
AcDbEntity
  8
0
100
AcDbLine
 10
38.5000000000001
 20
48.0
 30
0.0
 11
42.50000000000008
 21
48.0
 31
0.0
  0
SPLINE
  5
FCEC
330
FC8D
100
AcDbEntity
  8
0
100
AcDbSpline
210
0.0
220
0.0
230
1.0
 70
     8
 71
     3
 72
     8
 73
     4
 74
     0
 42
0.000000001
 43
0.0000000001
 40
0.0
 40
0.0
 40
0.0
 40
0.0
 40
1.0
 40
1.0
 40
1.0
 40
1.0
 10
-19.57500000000001
 20
1.499999999999996
 30
0.0
 10
-20.55000000000005
 20
0.7146018366025442
 30
0.0
 10
-21.52500000000012
 20
0.0000000000000016
 30
0.0
 10
-22.50000000000001
 20
0.0
 30
0.0
  0
LINE
  5
FCED
330
FC8D
100
AcDbEntity
  8
0
100
AcDbLine
 10
-12.75
 20
8.499999999999998
 30
0.0
 11
-19.575
 21
1.499999999999996
 31
0.0
  0
SPLINE
  5
FCEE
330
FC8D
100
AcDbEntity
  8
0
100
AcDbSpline
210
0.0
220
0.0
230
1.0
 70
     8
 71
     3
 72
     8
 73
     4
 74
     0
 42
0.000000001
 43
0.0000000001
 40
0.0
 40
0.0
 40
0.0
 40
0.0
 40
1.0
 40
1.0
 40
1.0
 40
1.0
 10
22.50000000000001
 20
0.0000000000000061
 30
0.0
 10
21.52499999999984
 20
0.0000000000000069
 30
0.0
 10
20.55000000000019
 20
0.7146018366025549
 30
0.0
 10
19.57500000000001
 20
1.500000000000003
 30
0.0
  0
LINE
  5
FCEF
330
FC8D
100
AcDbEntity
  8
0
100
AcDbLine
 10
19.575
 20
1.500000000000002
 30
0.0
 11
12.75000000000001
 21
8.500000000000003
 31
0.0
  0
LINE
  5
FCF0
330
FC8D
100
AcDbEntity
  8
0
100
AcDbLine
 10
12.75000000000001
 20
8.500000000000003
 30
0.0
 11
-12.75
 21
8.499999999999998
 31
0.0
  0
ARC
  5
FCF1
330
FC8D
100
AcDbEntity
  8
0
100
AcDbCircle
 10
-22.5
 20
1.500000000000003
 30
0.0
 40
1.500000000000003
100
AcDbArc
 50
180.0
 51
270.0000000000003
  0
ARC
  5
FCF2
330
FC8D
100
AcDbEntity
  8
0
100
AcDbCircle
 10
22.5
 20
1.500000000000007
 30
0.0
 40
3.000000000000002
100
AcDbArc
 50
270.0
 51
0.0
  0
ARC
  5
FCF3
330
FC8D
100
AcDbEntity
  8
0
100
AcDbCircle
 10
22.5
 20
1.500000000000007
 30
0.0
 40
1.500000000000003
100
AcDbArc
 50
270.0
 51
0.0
  0
ARC
  5
FCF4
330
FC8D
100
AcDbEntity
  8
0
100
AcDbCircle
 10
-22.5
 20
1.500000000000003
 30
0.0
 40
3.000000000000002
100
AcDbArc
 50
180.0
 51
270.0
  0
ENDBLK
  5
FC8F
330
FC8D
100
AcDbEntity
  8
0
100
AcDbBlockEnd
  0
BLOCK
  5
FCF6
330
FCF5
100
AcDbEntity
  8
0
100
AcDbBlockBegin
  2
SBE48_91-Left
 70
     0
 10
0.0
 20
0.0
 30
0.0
  3
SBE48_91-Left
  1

  0
LINE
  5
FCF8
330
FCF5
100
AcDbEntity
  8
0
100
AcDbLine
 10
3.0
 20
90.99999999999997
 30
0.0
 11
1.500000000000001
 21
90.99999999999997
 31
0.0
  0
LINE
  5
FCF9
330
FCF5
100
AcDbEntity
  8
0
100
AcDbLine
 10
2.999999999999979
 20
13.24925301156961
 30
0.0
 11
3.0
 21
1.500000000000003
 31
0.0
  0
LINE
  5
FCFA
330
FCF5
100
AcDbEntity
  8
0
100
AcDbLine
 10
2.999999999999998
 20
-1.499999999999996
 30
0.0
 11
2.999999999999998
 21
1.500000000000003
 31
0.0
  0
CIRCLE
  5
FCFB
330
FCF5
100
AcDbEntity
  8
0
100
AcDbCircle
 10
29.00000000000002
 20
43.5
 30
0.0
 40
2.5
  0
CIRCLE
  5
FCFC
330
FCF5
100
AcDbEntity
  8
0
100
AcDbCircle
 10
29.00000000000002
 20
83.49999999999999
 30
0.0
 40
2.5
  0
CIRCLE
  5
FCFD
330
FCF5
100
AcDbEntity
  8
0
100
AcDbCircle
 10
29.00000000000002
 20
63.5
 30
0.0
 40
2.5
  0
ARC
  5
FCFE
330
FCF5
100
AcDbEntity
  8
0
100
AcDbCircle
 10
1.49999999999999
 20
53.50000000000001
 30
0.0
 40
2.5
100
AcDbArc
 50
306.869897645844
 51
53.13010235415607
  0
LINE
  5
FCFF
330
FCF5
100
AcDbEntity
  8
0
100
AcDbLine
 10
1.499999999999994
 20
29.24206230927718
 30
0.0
 11
1.499999999999993
 21
15.27277856209688
 31
0.0
  0
ARC
  5
FD00
330
FCF5
100
AcDbEntity
  8
0
100
AcDbCircle
 10
-1.500000000000014
 20
45.0
 30
0.0
 40
3.0
100
AcDbArc
 50
59.99999999999978
 51
89.99999999999994
  0
ARC
  5
FD01
330
FCF5
100
AcDbEntity
  8
0
100
AcDbCircle
 10
-1.500000000000014
 20
45.0
 30
0.0
 40
1.5
100
AcDbArc
 50
0.0
 51
89.99999999999992
  0
LINE
  5
FD02
330
FCF5
100
AcDbEntity
  8
0
100
AcDbLine
 10
0.0
 20
15.27277856209688
 30
0.0
 11
0.0
 21
29.24206230927718
 31
0.0
  0
SPLINE
  5
FD03
330
FCF5
100
AcDbEntity
  8
0
100
AcDbSpline
210
0.0
220
0.0
230
1.0
 70
     8
 71
     3
 72
    11
 73
     7
 74
     0
 42
0.000000001
 43
0.0000000001
 40
-1.0
 40
-1.0
 40
-1.0
 40
-1.0
 40
-0.8649350770686885
 40
-0.8649350770686885
 40
-0.8649350770686885
 40
-0.6929633215164263
 40
-0.6929633215164263
 40
-0.6929633215164263
 40
-0.6929633215164263
 10
2.999999999999976
 20
55.5
 30
0.0
 10
2.817966945243136
 20
55.58691438702493
 30
0.0
 10
2.623860516771854
 20
55.66373009290038
 30
0.0
 10
2.424723472748233
 20
55.72929168059464
 30
0.0
 10
2.1711717265732
 20
55.8127681383446
 30
0.0
 10
1.92259161675171
 20
55.87598855142059
 30
0.0
 10
1.687029531830143
 20
55.91933305302959
 30
0.0
  0
SPLINE
  5
FD04
330
FCF5
100
AcDbEntity
  8
0
100
AcDbSpline
210
0.0
220
0.0
230
1.0
 70
     8
 71
     3
 72
    11
 73
     7
 74
     0
 42
0.000000001
 43
0.0000000001
 40
0.0
 40
0.0
 40
0.0
 40
0.0
 40
0.8649350770686885
 40
0.8649350770686885
 40
0.8649350770686885
 40
1.0
 40
1.0
 40
1.0
 40
1.0
 10
1.5
 20
55.50000000000003
 30
0.0
 10
1.5
 20
56.05658642087274
 30
0.0
 10
2.07474017341881
 20
56.14913804539748
 30
0.0
 10
2.712361736374115
 20
55.72929168059464
 30
0.0
 10
2.811930258385926
 20
55.66373009290038
 30
0.0
 10
2.908983472621567
 20
55.58691438702493
 30
0.0
 10
2.999999999999988
 20
55.5
 30
0.0
  0
SPLINE
  5
FD05
330
FCF5
100
AcDbEntity
  8
0
100
AcDbSpline
210
0.0
220
0.0
230
1.0
 70
     8
 71
     3
 72
     8
 73
     4
 74
     0
 42
0.000000001
 43
0.0000000001
 40
-0.3070366784835528
 40
-0.3070366784835528
 40
-0.3070366784835528
 40
-0.3070366784835528
 40
0.0
 40
0.0
 40
0.0
 40
0.0
 10
1.694612525150887
 20
51.08485084201944
 30
0.0
 10
2.126550079464148
 20
51.16331746602536
 30
0.0
 10
2.586192896765848
 20
51.30242164934167
 30
0.0
 10
2.999999999999979
 20
51.50000000000002
 30
0.0
  0
SPLINE
  5
FD06
330
FCF5
100
AcDbEntity
  8
0
100
AcDbSpline
210
0.0
220
0.0
230
1.0
 70
     8
 71
     3
 72
    11
 73
     7
 74
     0
 42
0.000000001
 43
0.0000000001
 40
0.0
 40
0.0
 40
0.0
 40
0.0
 40
0.8649350770692
 40
0.8649350770692
 40
0.8649350770692
 40
1.0
 40
1.0
 40
1.0
 40
1.0
 10
2.999999999999989
 20
51.50000000000002
 30
0.0
 10
2.417144100673342
 20
50.94341357912707
 30
0.0
 10
1.652418435519906
 20
50.85086195460239
 30
0.0
 10
1.527836887672109
 20
51.2707083194061
 30
0.0
 10
1.508382714052884
 20
51.33626990710022
 30
0.0
 10
1.5
 20
51.41308561297535
 30
0.0
 10
1.5
 20
51.5
 30
0.0
  0
SPLINE
  5
FD07
330
FCF5
100
AcDbEntity
  8
0
100
AcDbSpline
210
0.0
220
0.0
230
1.0
 70
     8
 71
     3
 72
     8
 73
     4
 74
     0
 42
0.000000001
 43
0.0000000001
 40
-1.0
 40
-1.0
 40
-1.0
 40
-1.0
 40
0.0
 40
0.0
 40
0.0
 40
0.0
 10
2.999999999999959
 20
13.24925301156961
 30
0.0
 10
1.429203673205076
 20
13.92376152841188
 30
0.0
 10
0.0000000000000004
 20
14.59827004525456
 30
0.0
 10
0.0
 20
15.27277856209687
 30
0.0
  0
SPLINE
  5
FD08
330
FCF5
100
AcDbEntity
  8
0
100
AcDbSpline
210
0.0
220
0.0
230
1.0
 70
     8
 71
     3
 72
     8
 73
     4
 74
     0
 42
0.000000001
 43
0.0000000001
 40
0.0
 40
0.0
 40
0.0
 40
0.0
 40
1.0
 40
1.0
 40
1.0
 40
1.0
 10
1.5
 20
15.27277856209687
 30
0.0
 10
1.5
 20
14.59827004525456
 30
0.0
 10
2.214601836602537
 20
13.92376152841187
 30
0.0
 10
2.999999999999979
 20
13.24925301156961
 30
0.0
  0
LINE
  5
FD09
330
FCF5
100
AcDbEntity
  8
0
100
AcDbLine
 10
1.499999999999993
 20
15.27277856209688
 30
0.0
 11
1.090140682897541
 21
15.27277856209688
 31
0.0
  0
LINE
  5
FD0A
330
FCF5
100
AcDbEntity
  8
0
100
AcDbLine
 10
1.090140682897541
 20
15.27277856209688
 30
0.0
 11
0.0
 21
15.27277856209688
 31
0.0
  0
LINE
  5
FD0B
330
FCF5
100
AcDbEntity
  8
0
100
AcDbLine
 10
-8.999999999999994
 20
48.0
 30
0.0
 11
-7.000000000000001
 21
48.0
 31
0.0
  0
LINE
  5
FD0C
330
FCF5
100
AcDbEntity
  8
0
100
AcDbLine
 10
-7.000000000000001
 20
48.0
 30
0.0
 11
-1.500000000000012
 21
48.0
 31
0.0
  0
LINE
  5
FD0D
330
FCF5
100
AcDbEntity
  8
0
100
AcDbLine
 10
-8.999999999999994
 20
48.0
 30
0.0
 11
-8.999999999999994
 21
46.50000000000001
 31
0.0
  0
LINE
  5
FD0E
330
FCF5
100
AcDbEntity
  8
0
100
AcDbLine
 10
-7.000000000000001
 20
48.0
 30
0.0
 11
-7.000000000000001
 21
46.5
 31
0.0
  0
LINE
  5
FD0F
330
FCF5
100
AcDbEntity
  8
0
100
AcDbLine
 10
-1.500000000000012
 20
46.50000000000001
 30
0.0
 11
-7.000000000000001
 21
46.5
 31
0.0
  0
LINE
  5
FD10
330
FCF5
100
AcDbEntity
  8
0
100
AcDbLine
 10
-7.000000000000001
 20
46.5
 30
0.0
 11
-8.999999999999994
 21
46.50000000000001
 31
0.0
  0
LINE
  5
FD11
330
FCF5
100
AcDbEntity
  8
0
100
AcDbLine
 10
53.99999999999999
 20
21.00610095525753
 30
0.0
 11
54.0
 21
1.500000000000003
 31
0.0
  0
LINE
  5
FD12
330
FCF5
100
AcDbEntity
  8
0
100
AcDbLine
 10
3.0
 20
91.0
 30
0.0
 11
30.50000000000001
 21
91.0
 31
0.0
  0
LINE
  5
FD13
330
FCF5
100
AcDbEntity
  8
0
100
AcDbLine
 10
53.99999999999999
 20
21.00610095525753
 30
0.0
 11
41.78968515835103
 21
29.24206230927725
 31
0.0
  0
LINE
  5
FD14
330
FCF5
100
AcDbEntity
  8
0
100
AcDbLine
 10
36.5
 20
39.19051317993774
 30
0.0
 11
36.50000000000002
 21
85.0
 31
0.0
  0
ARC
  5
FD15
330
FCF5
100
AcDbEntity
  8
0
100
AcDbCircle
 10
48.50000000000001
 20
39.19051317993774
 30
0.0
 40
12.0
100
AcDbArc
 50
180.0
 51
236.0
  0
LINE
  5
FD16
330
FCF5
100
AcDbEntity
  8
0
100
AcDbLine
 10
1.49999999999999
 20
39.19051317993769
 30
0.0
 11
1.499999999999992
 21
29.24206230927719
 31
0.0
  0
LINE
  5
FD17
330
FCF5
100
AcDbEntity
  8
0
100
AcDbLine
 10
0.0
 20
29.24206230927718
 30
0.0
 11
0.0
 21
39.19051317993769
 31
0.0
  0
LINE
  5
FD18
330
FCF5
100
AcDbEntity
  8
0
100
AcDbLine
 10
30.50000000000001
 20
91.0
 30
0.0
 11
36.50000000000002
 21
85.0
 31
0.0
  0
LINE
  5
FD19
330
FCF5
100
AcDbEntity
  8
0
100
AcDbLine
 10
0.0
 20
91.0
 30
0.0
 11
0.0
 21
84.99999999999998
 31
0.0
  0
LINE
  5
FD1A
330
FCF5
100
AcDbEntity
  8
0
100
AcDbLine
 10
0.0
 20
84.99999999999998
 30
0.0
 11
1.499999999999991
 21
84.99999999999998
 31
0.0
  0
LINE
  5
FD1B
330
FCF5
100
AcDbEntity
  8
0
100
AcDbLine
 10
1.499999999999991
 20
84.99999999999998
 30
0.0
 11
1.499999999999992
 21
91.0000000000001
 31
0.0
  0
LINE
  5
FD1C
330
FCF5
100
AcDbEntity
  8
0
100
AcDbLine
 10
1.499999999999992
 20
91.0000000000001
 30
0.0
 11
0.0
 21
91.0
 31
0.0
  0
LINE
  5
FD1D
330
FCF5
100
AcDbEntity
  8
0
100
AcDbLine
 10
1.499999999999991
 20
84.99999999999998
 30
0.0
 11
1.499999999999997
 21
39.19051317993769
 31
0.0
  0
LINE
  5
FD1E
330
FCF5
100
AcDbEntity
  8
0
100
AcDbLine
 10
0.0
 20
84.99999999999998
 30
0.0
 11
0.0
 21
39.19051317993769
 31
0.0
  0
LINE
  5
FD1F
330
FCF5
100
AcDbEntity
  8
0
100
AcDbLine
 10
0.0
 20
1.499999999999996
 30
0.0
 11
1.090140682897202
 21
1.499999999999996
 31
0.0
  0
SPLINE
  5
FD20
330
FCF5
100
AcDbEntity
  8
0
100
AcDbSpline
210
0.0
220
0.0
230
1.0
 70
     8
 71
     3
 72
     8
 73
     4
 74
     0
 42
0.000000001
 43
0.0000000001
 40
-1.0
 40
-1.0
 40
-1.0
 40
-1.0
 40
0.0
 40
0.0
 40
0.0
 40
0.0
 10
2.999999999999995
 20
-1.5
 30
0.0
 10
1.42920367320512
 20
-1.499999999999997
 30
0.0
 10
0.0000000000000043
 20
-0.0707963267949099
 30
0.0
 10
0.0000000000000039
 20
1.499999999999996
 30
0.0
  0
SPLINE
  5
FD21
330
FCF5
100
AcDbEntity
  8
0
100
AcDbSpline
210
0.0
220
0.0
230
1.0
 70
     8
 71
     3
 72
     8
 73
     4
 74
     0
 42
0.000000001
 43
0.0000000001
 40
0.0
 40
0.0
 40
0.0
 40
0.0
 40
1.0
 40
1.0
 40
1.0
 40
1.0
 10
1.500000000000003
 20
1.499999999999996
 30
0.0
 10
1.500000000000004
 20
0.7146018366025442
 30
0.0
 10
2.214601836602561
 20
0.0000000000000016
 30
0.0
 10
2.999999999999998
 20
0.0
 30
0.0
  0
LINE
  5
FD22
330
FCF5
100
AcDbEntity
  8
0
100
AcDbLine
 10
1.090140682897202
 20
1.499999999999996
 30
0.0
 11
1.500000000000004
 21
1.499999999999996
 31
0.0
  0
LINE
  5
FD23
330
FCF5
100
AcDbEntity
  8
0
100
AcDbLine
 10
1.500000000000003
 20
8.499999999999998
 30
0.0
 11
1.500000000000004
 21
1.499999999999996
 31
0.0
  0
LINE
  5
FD24
330
FCF5
100
AcDbEntity
  8
0
100
AcDbLine
 10
0.0
 20
8.499999999999998
 30
0.0
 11
1.500000000000003
 21
8.499999999999998
 31
0.0
  0
LINE
  5
FD25
330
FCF5
100
AcDbEntity
  8
0
100
AcDbLine
 10
0.0
 20
1.499999999999996
 30
0.0
 11
0.0
 21
8.499999999999998
 31
0.0
  0
LINE
  5
FD26
330
FCF5
100
AcDbEntity
  8
0
100
AcDbLine
 10
54.0
 20
-1.499999999999999
 30
0.0
 11
2.999999999999998
 21
-1.499999999999999
 31
0.0
  0
LINE
  5
FD27
330
FCF5
100
AcDbEntity
  8
0
100
AcDbLine
 10
54.0
 20
-1.499999999999998
 30
0.0
 11
54.0
 21
1.500000000000003
 31
0.0
  0
ENDBLK
  5
FCF7
330
FCF5
100
AcDbEntity
  8
0
100
AcDbBlockEnd
  0
BLOCK
  5
FD29
330
FD28
100
AcDbEntity
  8
0
100
AcDbBlockBegin
  2
SBE48_91-Right
 70
     0
 10
0.0
 20
0.0
 30
0.0
  3
SBE48_91-Right
  1

  0
SPLINE
  5
FD2B
330
FD28
100
AcDbEntity
  8
0
100
AcDbSpline
210
0.0
220
0.0
230
1.0
 70
     8
 71
     3
 72
    11
 73
     7
 74
     0
 42
0.000000001
 43
0.0000000001
 40
-1.0
 40
-1.0
 40
-1.0
 40
-1.0
 40
-0.8649350770686885
 40
-0.8649350770686885
 40
-0.8649350770686885
 40
0.0
 40
0.0
 40
0.0
 40
0.0
 10
-2.999999999999988
 20
55.5
 30
0.0
 10
-2.908983472621567
 20
55.58691438702493
 30
0.0
 10
-2.811930258385926
 20
55.66373009290038
 30
0.0
 10
-2.712361736374115
 20
55.72929168059464
 30
0.0
 10
-2.07474017341881
 20
56.14913804539748
 30
0.0
 10
-1.5
 20
56.05658642087274
 30
0.0
 10
-1.5
 20
55.50000000000003
 30
0.0
  0
ARC
  5
FD2C
330
FD28
100
AcDbEntity
  8
0
100
AcDbCircle
 10
-1.49999999999999
 20
53.50000000000001
 30
0.0
 40
2.5
100
AcDbArc
 50
126.869897645844
 51
233.130102354156
  0
SPLINE
  5
FD2D
330
FD28
100
AcDbEntity
  8
0
100
AcDbSpline
210
0.0
220
0.0
230
1.0
 70
     8
 71
     3
 72
     8
 73
     4
 74
     0
 42
0.000000001
 43
0.0000000001
 40
0.0
 40
0.0
 40
0.0
 40
0.0
 40
0.3070366784835763
 40
0.3070366784835763
 40
0.3070366784835763
 40
0.3070366784835763
 10
-2.999999999999979
 20
51.50000000000002
 30
0.0
 10
-2.586192896765816
 20
51.30242164934166
 30
0.0
 10
-2.126550079464077
 20
51.16331746602533
 30
0.0
 10
-1.694612525150786
 20
51.08485084201941
 30
0.0
  0
SPLINE
  5
FD2E
330
FD28
100
AcDbEntity
  8
0
100
AcDbSpline
210
0.0
220
0.0
230
1.0
 70
     8
 71
     3
 72
    11
 73
     7
 74
     0
 42
0.000000001
 43
0.0000000001
 40
0.6929633215164471
 40
0.6929633215164471
 40
0.6929633215164471
 40
0.6929633215164471
 40
0.8649350770686885
 40
0.8649350770686885
 40
0.8649350770686885
 40
1.0
 40
1.0
 40
1.0
 40
1.0
 10
-1.687029531830229
 20
55.91933305302958
 30
0.0
 10
-1.92259161675177
 20
55.87598855142058
 30
0.0
 10
-2.171171726573231
 20
55.8127681383446
 30
0.0
 10
-2.424723472748233
 20
55.72929168059464
 30
0.0
 10
-2.623860516771854
 20
55.66373009290038
 30
0.0
 10
-2.817966945243136
 20
55.58691438702493
 30
0.0
 10
-2.999999999999976
 20
55.5
 30
0.0
  0
SPLINE
  5
FD2F
330
FD28
100
AcDbEntity
  8
0
100
AcDbSpline
210
0.0
220
0.0
230
1.0
 70
     8
 71
     3
 72
    11
 73
     7
 74
     0
 42
0.000000001
 43
0.0000000001
 40
-1.0
 40
-1.0
 40
-1.0
 40
-1.0
 40
-0.8649350770692
 40
-0.8649350770692
 40
-0.8649350770692
 40
0.0
 40
0.0
 40
0.0
 40
0.0
 10
-1.5
 20
51.5
 30
0.0
 10
-1.5
 20
51.41308561297535
 30
0.0
 10
-1.508382714052884
 20
51.33626990710022
 30
0.0
 10
-1.527836887672109
 20
51.2707083194061
 30
0.0
 10
-1.652418435519906
 20
50.85086195460239
 30
0.0
 10
-2.417144100673342
 20
50.94341357912707
 30
0.0
 10
-2.999999999999989
 20
51.50000000000002
 30
0.0
  0
LINE
  5
FD30
330
FD28
100
AcDbEntity
  8
0
100
AcDbLine
 10
1.500000000000012
 20
48.0
 30
0.0
 11
7.000000000000001
 21
48.0
 31
0.0
  0
LINE
  5
FD31
330
FD28
100
AcDbEntity
  8
0
100
AcDbLine
 10
7.000000000000001
 20
48.0
 30
0.0
 11
8.999999999999994
 21
48.00000000000001
 31
0.0
  0
LINE
  5
FD32
330
FD28
100
AcDbEntity
  8
0
100
AcDbLine
 10
8.999999999999994
 20
48.00000000000001
 30
0.0
 11
8.999999999999994
 21
46.50000000000001
 31
0.0
  0
LINE
  5
FD33
330
FD28
100
AcDbEntity
  8
0
100
AcDbLine
 10
8.999999999999994
 20
46.50000000000001
 30
0.0
 11
7.000000000000001
 21
46.50000000000001
 31
0.0
  0
LINE
  5
FD34
330
FD28
100
AcDbEntity
  8
0
100
AcDbLine
 10
7.000000000000001
 20
48.0
 30
0.0
 11
7.000000000000001
 21
46.50000000000001
 31
0.0
  0
LINE
  5
FD35
330
FD28
100
AcDbEntity
  8
0
100
AcDbLine
 10
7.000000000000001
 20
46.50000000000001
 30
0.0
 11
1.500000000000012
 21
46.5
 31
0.0
  0
CIRCLE
  5
FD36
330
FD28
100
AcDbEntity
  8
0
100
AcDbCircle
 10
-29.0
 20
33.49999999999999
 30
0.0
 40
2.5
  0
CIRCLE
  5
FD37
330
FD28
100
AcDbEntity
  8
0
100
AcDbCircle
 10
-29.00000000000001
 20
73.49999999999998
 30
0.0
 40
2.5
  0
CIRCLE
  5
FD38
330
FD28
100
AcDbEntity
  8
0
100
AcDbCircle
 10
-29.00000000000001
 20
53.49999999999998
 30
0.0
 40
2.5
  0
LINE
  5
FD39
330
FD28
100
AcDbEntity
  8
0
100
AcDbLine
 10
-30.50000000000001
 20
91.00000000000001
 30
0.0
 11
-2.999999999999998
 21
91.00000000000001
 31
0.0
  0
LINE
  5
FD3A
330
FD28
100
AcDbEntity
  8
0
100
AcDbLine
 10
-54.0
 20
1.500000000000012
 30
0.0
 11
-53.99999999999999
 21
21.00610095525753
 31
0.0
  0
LINE
  5
FD3B
330
FD28
100
AcDbEntity
  8
0
100
AcDbLine
 10
-36.50000000000002
 20
85.00000000000001
 30
0.0
 11
-30.50000000000001
 21
91.00000000000001
 31
0.0
  0
LINE
  5
FD3C
330
FD28
100
AcDbEntity
  8
0
100
AcDbLine
 10
0.0
 20
84.99999999999998
 30
0.0
 11
0.0
 21
91.0000000000001
 31
0.0
  0
LINE
  5
FD3D
330
FD28
100
AcDbEntity
  8
0
100
AcDbLine
 10
0.0
 20
91.0000000000001
 30
0.0
 11
-1.499999999999992
 21
91.0000000000001
 31
0.0
  0
LINE
  5
FD3E
330
FD28
100
AcDbEntity
  8
0
100
AcDbLine
 10
-1.499999999999992
 20
91.0000000000001
 30
0.0
 11
-1.499999999999992
 21
84.99999999999998
 31
0.0
  0
LINE
  5
FD3F
330
FD28
100
AcDbEntity
  8
0
100
AcDbLine
 10
-1.499999999999992
 20
84.99999999999998
 30
0.0
 11
0.0
 21
84.99999999999998
 31
0.0
  0
LINE
  5
FD40
330
FD28
100
AcDbEntity
  8
0
100
AcDbLine
 10
-36.50000000000002
 20
85.00000000000001
 30
0.0
 11
-36.5
 21
39.19051317993774
 31
0.0
  0
LINE
  5
FD41
330
FD28
100
AcDbEntity
  8
0
100
AcDbLine
 10
-41.78968515835103
 20
29.24206230927724
 30
0.0
 11
-53.99999999999999
 21
21.00610095525753
 31
0.0
  0
ARC
  5
FD42
330
FD28
100
AcDbEntity
  8
0
100
AcDbCircle
 10
-48.50000000000001
 20
39.19051317993774
 30
0.0
 40
12.0
100
AcDbArc
 50
304.0
 51
0.0
  0
LINE
  5
FD43
330
FD28
100
AcDbEntity
  8
0
100
AcDbLine
 10
0.0
 20
39.19051317993771
 30
0.0
 11
0.0
 21
29.24206230927722
 31
0.0
  0
LINE
  5
FD44
330
FD28
100
AcDbEntity
  8
0
100
AcDbLine
 10
-1.499999999999991
 20
29.24206230927722
 30
0.0
 11
-1.499999999999991
 21
39.19051317993771
 31
0.0
  0
LINE
  5
FD45
330
FD28
100
AcDbEntity
  8
0
100
AcDbLine
 10
-3.0
 20
1.500000000000012
 30
0.0
 11
-2.999999999999979
 21
13.24925301156961
 31
0.0
  0
LINE
  5
FD46
330
FD28
100
AcDbEntity
  8
0
100
AcDbLine
 10
-3.0
 20
91.00000000000001
 30
0.0
 11
-1.5
 21
91.00000000000001
 31
0.0
  0
LINE
  5
FD47
330
FD28
100
AcDbEntity
  8
0
100
AcDbLine
 10
-2.999999999999998
 20
1.500000000000012
 30
0.0
 11
-2.999999999999998
 21
-1.499999999999992
 31
0.0
  0
LINE
  5
FD48
330
FD28
100
AcDbEntity
  8
0
100
AcDbLine
 10
0.0
 20
39.19051317993771
 30
0.0
 11
0.0
 21
84.99999999999998
 31
0.0
  0
LINE
  5
FD49
330
FD28
100
AcDbEntity
  8
0
100
AcDbLine
 10
-1.499999999999983
 20
39.19051317993771
 30
0.0
 11
-1.499999999999992
 21
84.99999999999998
 31
0.0
  0
LINE
  5
FD4A
330
FD28
100
AcDbEntity
  8
0
100
AcDbLine
 10
0.0
 20
29.24206230927722
 30
0.0
 11
0.0
 21
15.27277856209688
 31
0.0
  0
LINE
  5
FD4B
330
FD28
100
AcDbEntity
  8
0
100
AcDbLine
 10
-1.499999999999993
 20
15.27277856209688
 30
0.0
 11
-1.49999999999999
 21
29.24206230927722
 31
0.0
  0
LINE
  5
FD4C
330
FD28
100
AcDbEntity
  8
0
100
AcDbLine
 10
-1.499999999999993
 20
15.27277856209688
 30
0.0
 11
-1.090140682897541
 21
15.27277856209688
 31
0.0
  0
LINE
  5
FD4D
330
FD28
100
AcDbEntity
  8
0
100
AcDbLine
 10
-1.090140682897541
 20
15.27277856209688
 30
0.0
 11
0.0
 21
15.27277856209688
 31
0.0
  0
SPLINE
  5
FD4E
330
FD28
100
AcDbEntity
  8
0
100
AcDbSpline
210
0.0
220
0.0
230
1.0
 70
     8
 71
     3
 72
     8
 73
     4
 74
     0
 42
0.000000001
 43
0.0000000001
 40
0.0
 40
0.0
 40
0.0
 40
0.0
 40
1.0
 40
1.0
 40
1.0
 40
1.0
 10
0.0
 20
15.27277856209687
 30
0.0
 10
-0.0000000000000004
 20
14.59827004525456
 30
0.0
 10
-1.429203673205076
 20
13.92376152841188
 30
0.0
 10
-2.999999999999959
 20
13.24925301156961
 30
0.0
  0
SPLINE
  5
FD4F
330
FD28
100
AcDbEntity
  8
0
100
AcDbSpline
210
0.0
220
0.0
230
1.0
 70
     8
 71
     3
 72
     8
 73
     4
 74
     0
 42
0.000000001
 43
0.0000000001
 40
-1.0
 40
-1.0
 40
-1.0
 40
-1.0
 40
0.0
 40
0.0
 40
0.0
 40
0.0
 10
-2.999999999999979
 20
13.24925301156961
 30
0.0
 10
-2.214601836602537
 20
13.92376152841187
 30
0.0
 10
-1.5
 20
14.59827004525456
 30
0.0
 10
-1.5
 20
15.27277856209687
 30
0.0
  0
SPLINE
  5
FD50
330
FD28
100
AcDbEntity
  8
0
100
AcDbSpline
210
0.0
220
0.0
230
1.0
 70
     8
 71
     3
 72
     8
 73
     4
 74
     0
 42
0.000000001
 43
0.0000000001
 40
-1.0
 40
-1.0
 40
-1.0
 40
-1.0
 40
0.0
 40
0.0
 40
0.0
 40
0.0
 10
-0.0000000000000039
 20
1.500000000000003
 30
0.0
 10
-0.0000000000000031
 20
-0.070796326794895
 30
0.0
 10
-1.429203673205056
 20
-1.499999999999992
 30
0.0
 10
-2.999999999999997
 20
-1.499999999999994
 30
0.0
  0
LINE
  5
FD51
330
FD28
100
AcDbEntity
  8
0
100
AcDbLine
 10
0.0
 20
1.500000000000002
 30
0.0
 11
-1.090140682896918
 21
1.500000000000002
 31
0.0
  0
LINE
  5
FD52
330
FD28
100
AcDbEntity
  8
0
100
AcDbLine
 10
-1.090140682896918
 20
1.500000000000002
 30
0.0
 11
-1.500000000000003
 21
1.500000000000002
 31
0.0
  0
SPLINE
  5
FD53
330
FD28
100
AcDbEntity
  8
0
100
AcDbSpline
210
0.0
220
0.0
230
1.0
 70
     8
 71
     3
 72
     8
 73
     4
 74
     0
 42
0.000000001
 43
0.0000000001
 40
0.0
 40
0.0
 40
0.0
 40
0.0
 40
1.0
 40
1.0
 40
1.0
 40
1.0
 10
-2.999999999999999
 20
0.0000000000000061
 30
0.0
 10
-2.214601836602529
 20
0.0000000000000069
 30
0.0
 10
-1.500000000000003
 20
0.7146018366025549
 30
0.0
 10
-1.500000000000003
 20
1.500000000000003
 30
0.0
  0
LINE
  5
FD54
330
FD28
100
AcDbEntity
  8
0
100
AcDbLine
 10
-1.500000000000003
 20
1.500000000000002
 30
0.0
 11
-1.500000000000003
 21
8.500000000000003
 31
0.0
  0
LINE
  5
FD55
330
FD28
100
AcDbEntity
  8
0
100
AcDbLine
 10
0.0
 20
8.500000000000003
 30
0.0
 11
0.0
 21
1.500000000000002
 31
0.0
  0
LINE
  5
FD56
330
FD28
100
AcDbEntity
  8
0
100
AcDbLine
 10
-1.500000000000003
 20
8.500000000000003
 30
0.0
 11
0.0
 21
8.500000000000003
 31
0.0
  0
LINE
  5
FD57
330
FD28
100
AcDbEntity
  8
0
100
AcDbLine
 10
-54.0
 20
-1.499999999999994
 30
0.0
 11
-2.999999999999998
 21
-1.499999999999994
 31
0.0
  0
LINE
  5
FD58
330
FD28
100
AcDbEntity
  8
0
100
AcDbLine
 10
-54.0
 20
1.500000000000012
 30
0.0
 11
-54.0
 21
-1.499999999999994
 31
0.0
  0
ARC
  5
FD59
330
FD28
100
AcDbEntity
  8
0
100
AcDbCircle
 10
1.500000000000014
 20
45.0
 30
0.0
 40
3.0
100
AcDbArc
 50
90.00000000000335
 51
119.9999999999999
  0
ARC
  5
FD5A
330
FD28
100
AcDbEntity
  8
0
100
AcDbCircle
 10
1.500000000000014
 20
45.0
 30
0.0
 40
1.5
100
AcDbArc
 50
90.00000000000687
 51
180.0
  0
ENDBLK
  5
FD2A
330
FD28
100
AcDbEntity
  8
0
100
AcDbBlockEnd
  0
BLOCK
  5
FD5C
330
FD5B
100
AcDbEntity
  8
0
100
AcDbBlockBegin
  2
SBE48_91-Top
 70
     0
 10
0.0
 20
0.0
 30
0.0
  3
SBE48_91-Top
  1

  0
ARC
  5
FD5E
330
FD5B
100
AcDbEntity
  8
0
100
AcDbCircle
 10
-27.00000000000003
 20
-3.000000000000004
 30
0.0
 40
1.500000000000003
100
AcDbArc
 50
0.0
 51
90.0
  0
ARC
  5
FD5F
330
FD5B
100
AcDbEntity
  8
0
100
AcDbCircle
 10
-27.00000000000003
 20
-3.000000000000004
 30
0.0
 40
3.000000000000002
100
AcDbArc
 50
0.0
 51
90.0
  0
ARC
  5
FD60
330
FD5B
100
AcDbEntity
  8
0
100
AcDbCircle
 10
27.00000000000016
 20
-2.999999999999999
 30
0.0
 40
2.999999999999998
100
AcDbArc
 50
89.99999999999992
 51
180.0
  0
LINE
  5
FD61
330
FD5B
100
AcDbEntity
  8
0
100
AcDbLine
 10
-22.5
 20
-2.999999999999998
 30
0.0
 11
-24.0
 21
-2.999999999999998
 31
0.0
  0
ARC
  5
FD62
330
FD5B
100
AcDbEntity
  8
0
100
AcDbCircle
 10
27.00000000000016
 20
-2.999999999999999
 30
0.0
 40
1.499999999999999
100
AcDbArc
 50
89.99999999999984
 51
180.0
  0
LINE
  5
FD63
330
FD5B
100
AcDbEntity
  8
0
100
AcDbLine
 10
24.0
 20
-2.999999999999998
 30
0.0
 11
22.5
 21
-2.999999999999998
 31
0.0
  0
LINE
  5
FD64
330
FD5B
100
AcDbEntity
  8
0
100
AcDbLine
 10
-25.50000000000001
 20
-53.99999999999999
 30
0.0
 11
-25.50000000000001
 21
-41.78968515835103
 31
0.0
  0
LINE
  5
FD65
330
FD5B
100
AcDbEntity
  8
0
100
AcDbLine
 10
-24.00000000000002
 20
-41.78968515835103
 30
0.0
 11
-24.00000000000002
 21
-54.0
 31
0.0
  0
LINE
  5
FD66
330
FD5B
100
AcDbEntity
  8
0
100
AcDbLine
 10
24.00000000000004
 20
-53.99999999999999
 30
0.0
 11
24.00000000000006
 21
-41.78968515835103
 31
0.0
  0
LINE
  5
FD67
330
FD5B
100
AcDbEntity
  8
0
100
AcDbLine
 10
25.50000000000005
 20
-41.78968515835103
 30
0.0
 11
25.50000000000004
 21
-53.99999999999999
 31
0.0
  0
LINE
  5
FD68
330
FD5B
100
AcDbEntity
  8
0
100
AcDbLine
 10
25.50000000000004
 20
-53.99999999999999
 30
0.0
 11
24.00000000000004
 21
-53.99999999999999
 31
0.0
  0
LINE
  5
FD69
330
FD5B
100
AcDbEntity
  8
0
100
AcDbLine
 10
-24.00000000000002
 20
-54.0
 30
0.0
 11
-25.50000000000001
 21
-53.99999999999999
 31
0.0
  0
LINE
  5
FD6A
330
FD5B
100
AcDbEntity
  8
0
100
AcDbLine
 10
-25.50000000000001
 20
-36.5
 30
0.0
 11
-25.50000000000001
 21
-41.78968515835103
 31
0.0
  0
LINE
  5
FD6B
330
FD5B
100
AcDbEntity
  8
0
100
AcDbLine
 10
-24.0
 20
-41.78968515835103
 30
0.0
 11
-24.0
 21
-36.5
 31
0.0
  0
LINE
  5
FD6C
330
FD5B
100
AcDbEntity
  8
0
100
AcDbLine
 10
23.99999999999997
 20
-36.5
 30
0.0
 11
23.99999999999995
 21
-41.78968515835103
 31
0.0
  0
LINE
  5
FD6D
330
FD5B
100
AcDbEntity
  8
0
100
AcDbLine
 10
25.49999999999995
 20
-41.78968515835103
 30
0.0
 11
25.49999999999997
 21
-36.5
 31
0.0
  0
LINE
  5
FD6E
330
FD5B
100
AcDbEntity
  8
0
100
AcDbLine
 10
-25.50000000000002
 20
-30.50000000000001
 30
0.0
 11
-25.50000000000002
 21
-36.50000000000002
 31
0.0
  0
LINE
  5
FD6F
330
FD5B
100
AcDbEntity
  8
0
100
AcDbLine
 10
-24.00000000000002
 20
-36.50000000000001
 30
0.0
 11
-24.00000000000003
 21
-30.50000000000001
 31
0.0
  0
LINE
  5
FD70
330
FD5B
100
AcDbEntity
  8
0
100
AcDbLine
 10
24.00000000000016
 20
-30.50000000000001
 30
0.0
 11
24.00000000000015
 21
-36.50000000000001
 31
0.0
  0
LINE
  5
FD71
330
FD5B
100
AcDbEntity
  8
0
100
AcDbLine
 10
25.50000000000015
 20
-36.50000000000002
 30
0.0
 11
25.50000000000016
 21
-30.50000000000001
 31
0.0
  0
LINE
  5
FD72
330
FD5B
100
AcDbEntity
  8
0
100
AcDbLine
 10
-47.00000000000006
 20
0.0
 30
0.0
 11
-53.00000000000006
 21
0.0
 31
0.0
  0
LINE
  5
FD73
330
FD5B
100
AcDbEntity
  8
0
100
AcDbLine
 10
-53.00000000000006
 20
0.0
 30
0.0
 11
-53.00000000000006
 21
-1.499999999999991
 31
0.0
  0
LINE
  5
FD74
330
FD5B
100
AcDbEntity
  8
0
100
AcDbLine
 10
-53.00000000000006
 20
-1.499999999999991
 30
0.0
 11
-47.00000000000006
 21
-1.499999999999992
 31
0.0
  0
LINE
  5
FD75
330
FD5B
100
AcDbEntity
  8
0
100
AcDbLine
 10
-47.00000000000006
 20
-1.499999999999992
 30
0.0
 11
-47.00000000000006
 21
0.0
 31
0.0
  0
LINE
  5
FD76
330
FD5B
100
AcDbEntity
  8
0
100
AcDbLine
 10
-24.00000000000003
 20
-30.50000000000001
 30
0.0
 11
-25.50000000000002
 21
-30.50000000000001
 31
0.0
  0
LINE
  5
FD77
330
FD5B
100
AcDbEntity
  8
0
100
AcDbLine
 10
-25.50000000000002
 20
-36.50000000000002
 30
0.0
 11
-24.00000000000002
 21
-36.50000000000001
 31
0.0
  0
LINE
  5
FD78
330
FD5B
100
AcDbEntity
  8
0
100
AcDbLine
 10
25.50000000000016
 20
-30.50000000000001
 30
0.0
 11
24.00000000000016
 21
-30.50000000000001
 31
0.0
  0
LINE
  5
FD79
330
FD5B
100
AcDbEntity
  8
0
100
AcDbLine
 10
24.00000000000015
 20
-36.50000000000001
 30
0.0
 11
25.50000000000015
 21
-36.50000000000002
 31
0.0
  0
LINE
  5
FD7A
330
FD5B
100
AcDbEntity
  8
0
100
AcDbLine
 10
53.00000000000017
 20
0.0
 30
0.0
 11
47.00000000000018
 21
0.0
 31
0.0
  0
LINE
  5
FD7B
330
FD5B
100
AcDbEntity
  8
0
100
AcDbLine
 10
47.00000000000018
 20
0.0
 30
0.0
 11
47.00000000000018
 21
-1.499999999999992
 31
0.0
  0
LINE
  5
FD7C
330
FD5B
100
AcDbEntity
  8
0
100
AcDbLine
 10
47.00000000000018
 20
-1.499999999999992
 30
0.0
 11
53.00000000000017
 21
-1.499999999999992
 31
0.0
  0
LINE
  5
FD7D
330
FD5B
100
AcDbEntity
  8
0
100
AcDbLine
 10
53.00000000000017
 20
-1.499999999999992
 30
0.0
 11
53.00000000000017
 21
0.0
 31
0.0
  0
LINE
  5
FD7E
330
FD5B
100
AcDbEntity
  8
0
100
AcDbLine
 10
-25.50000000000002
 20
-3.0
 30
0.0
 11
-25.50000000000002
 21
-30.50000000000001
 31
0.0
  0
LINE
  5
FD7F
330
FD5B
100
AcDbEntity
  8
0
100
AcDbLine
 10
-24.00000000000002
 20
-3.0
 30
0.0
 11
-24.00000000000003
 21
-30.50000000000001
 31
0.0
  0
LINE
  5
FD80
330
FD5B
100
AcDbEntity
  8
0
100
AcDbLine
 10
24.00000000000015
 20
-3.0
 30
0.0
 11
24.00000000000016
 21
-30.50000000000001
 31
0.0
  0
LINE
  5
FD81
330
FD5B
100
AcDbEntity
  8
0
100
AcDbLine
 10
25.50000000000016
 20
-30.50000000000001
 30
0.0
 11
25.50000000000016
 21
-2.999999999999998
 31
0.0
  0
LINE
  5
FD82
330
FD5B
100
AcDbEntity
  8
0
100
AcDbLine
 10
-22.5
 20
-54.0
 30
0.0
 11
22.5
 21
-54.0
 31
0.0
  0
LINE
  5
FD83
330
FD5B
100
AcDbEntity
  8
0
100
AcDbLine
 10
-27.00000000000003
 20
-1.499999999999999
 30
0.0
 11
-47.00000000000006
 21
-1.499999999999992
 31
0.0
  0
LINE
  5
FD84
330
FD5B
100
AcDbEntity
  8
0
100
AcDbLine
 10
47.00000000000018
 20
0.0
 30
0.0
 11
27.00000000000017
 21
0.0
 31
0.0
  0
LINE
  5
FD85
330
FD5B
100
AcDbEntity
  8
0
100
AcDbLine
 10
27.00000000000017
 20
-1.499999999999999
 30
0.0
 11
47.00000000000018
 21
-1.499999999999992
 31
0.0
  0
LINE
  5
FD86
330
FD5B
100
AcDbEntity
  8
0
100
AcDbLine
 10
-27.00000000000003
 20
0.0
 30
0.0
 11
-47.00000000000006
 21
0.0
 31
0.0
  0
LINE
  5
FD87
330
FD5B
100
AcDbEntity
  8
0
100
AcDbLine
 10
-42.50000000000029
 20
0.0
 30
0.0
 11
-42.50000000000031
 21
1.500000000000011
 31
0.0
  0
LINE
  5
FD88
330
FD5B
100
AcDbEntity
  8
0
100
AcDbLine
 10
-38.50000000000012
 20
1.499999999999882
 30
0.0
 11
-38.50000000000011
 21
0.0
 31
0.0
  0
LINE
  5
FD89
330
FD5B
100
AcDbEntity
  8
0
100
AcDbLine
 10
-38.50000000000011
 20
1.500000000000012
 30
0.0
 11
-38.5000000000001
 21
6.999999999999992
 31
0.0
  0
LINE
  5
FD8A
330
FD5B
100
AcDbEntity
  8
0
100
AcDbLine
 10
-38.5000000000001
 20
6.999999999999992
 30
0.0
 11
-40.5000000000001
 21
8.999999999999994
 31
0.0
  0
LINE
  5
FD8B
330
FD5B
100
AcDbEntity
  8
0
100
AcDbLine
 10
-40.5000000000001
 20
8.999999999999994
 30
0.0
 11
-42.50000000000008
 21
7.000000000000001
 31
0.0
  0
LINE
  5
FD8C
330
FD5B
100
AcDbEntity
  8
0
100
AcDbLine
 10
-42.50000000000008
 20
7.000000000000001
 30
0.0
 11
-42.50000000000008
 21
1.500000000000012
 31
0.0
  0
ARC
  5
FD8D
330
FD5B
100
AcDbEntity
  8
0
100
AcDbCircle
 10
-33.3267794914549
 20
-7.495925238298273
 30
0.0
 40
5.000000000000014
100
AcDbArc
 50
9.000000000000065
 51
72.00000000000009
  0
LINE
  5
FD8E
330
FD5B
100
AcDbEntity
  8
0
100
AcDbLine
 10
-28.3883377884792
 20
-6.713752913097112
 30
0.0
 11
-25.51846748910732
 21
-24.83340086267733
 31
0.0
  0
LINE
  5
FD8F
330
FD5B
100
AcDbEntity
  8
0
100
AcDbLine
 10
-35.37405116892453
 20
-1.573415225557261
 30
0.0
 11
-31.78169451958016
 21
-2.740642656822493
 31
0.0
  0
LINE
  5
FD90
330
FD5B
100
AcDbEntity
  8
0
100
AcDbLine
 10
-19.575
 20
0.0
 30
0.0
 11
-19.575
 21
-1.090140682897202
 31
0.0
  0
SPLINE
  5
FD91
330
FD5B
100
AcDbEntity
  8
0
100
AcDbSpline
210
0.0
220
0.0
230
1.0
 70
     8
 71
     3
 72
     8
 73
     4
 74
     0
 42
0.000000001
 43
0.0000000001
 40
-1.0
 40
-1.0
 40
-1.0
 40
-1.0
 40
0.0
 40
0.0
 40
0.0
 40
0.0
 10
-22.50000000000001
 20
-2.999999999999995
 30
0.0
 10
-21.52500000000012
 20
-1.42920367320512
 30
0.0
 10
-20.55000000000005
 20
-0.0000000000000043
 30
0.0
 10
-19.57500000000001
 20
-0.0000000000000039
 30
0.0
  0
SPLINE
  5
FD92
330
FD5B
100
AcDbEntity
  8
0
100
AcDbSpline
210
0.0
220
0.0
230
1.0
 70
     8
 71
     3
 72
     8
 73
     4
 74
     0
 42
0.000000001
 43
0.0000000001
 40
0.0
 40
0.0
 40
0.0
 40
0.0
 40
1.0
 40
1.0
 40
1.0
 40
1.0
 10
-19.57500000000001
 20
-1.500000000000003
 30
0.0
 10
-20.55000000000005
 20
-1.500000000000004
 30
0.0
 10
-21.52500000000012
 20
-2.214601836602561
 30
0.0
 10
-22.50000000000001
 20
-2.999999999999998
 30
0.0
  0
LINE
  5
FD93
330
FD5B
100
AcDbEntity
  8
0
100
AcDbLine
 10
-19.575
 20
-1.090140682897202
 30
0.0
 11
-19.575
 21
-1.500000000000004
 31
0.0
  0
LINE
  5
FD94
330
FD5B
100
AcDbEntity
  8
0
100
AcDbLine
 10
-12.75
 20
-1.500000000000003
 30
0.0
 11
-19.575
 21
-1.500000000000004
 31
0.0
  0
LINE
  5
FD95
330
FD5B
100
AcDbEntity
  8
0
100
AcDbLine
 10
-12.75
 20
0.0
 30
0.0
 11
-12.75
 21
-1.500000000000003
 31
0.0
  0
LINE
  5
FD96
330
FD5B
100
AcDbEntity
  8
0
100
AcDbLine
 10
-19.575
 20
0.0
 30
0.0
 11
-12.75
 21
0.0
 31
0.0
  0
SPLINE
  5
FD97
330
FD5B
100
AcDbEntity
  8
0
100
AcDbSpline
210
0.0
220
0.0
230
1.0
 70
     8
 71
     3
 72
     8
 73
     4
 74
     0
 42
0.000000001
 43
0.0000000001
 40
-1.0
 40
-1.0
 40
-1.0
 40
-1.0
 40
0.0
 40
0.0
 40
0.0
 40
0.0
 10
19.57500000000001
 20
-0.0000000000000039
 30
0.0
 10
20.55000000000019
 20
-0.0000000000000031
 30
0.0
 10
21.52499999999984
 20
-1.429203673205056
 30
0.0
 10
22.50000000000001
 20
-2.999999999999997
 30
0.0
  0
LINE
  5
FD98
330
FD5B
100
AcDbEntity
  8
0
100
AcDbLine
 10
19.575
 20
0.0
 30
0.0
 11
19.575
 21
-1.090140682896918
 31
0.0
  0
LINE
  5
FD99
330
FD5B
100
AcDbEntity
  8
0
100
AcDbLine
 10
19.575
 20
-1.090140682896918
 30
0.0
 11
19.575
 21
-1.500000000000003
 31
0.0
  0
SPLINE
  5
FD9A
330
FD5B
100
AcDbEntity
  8
0
100
AcDbSpline
210
0.0
220
0.0
230
1.0
 70
     8
 71
     3
 72
     8
 73
     4
 74
     0
 42
0.000000001
 43
0.0000000001
 40
0.0
 40
0.0
 40
0.0
 40
0.0
 40
1.0
 40
1.0
 40
1.0
 40
1.0
 10
22.50000000000001
 20
-2.999999999999999
 30
0.0
 10
21.52499999999984
 20
-2.214601836602529
 30
0.0
 10
20.55000000000019
 20
-1.500000000000003
 30
0.0
 10
19.57500000000001
 20
-1.500000000000003
 30
0.0
  0
LINE
  5
FD9B
330
FD5B
100
AcDbEntity
  8
0
100
AcDbLine
 10
19.575
 20
-1.500000000000003
 30
0.0
 11
12.75000000000001
 21
-1.500000000000003
 31
0.0
  0
LINE
  5
FD9C
330
FD5B
100
AcDbEntity
  8
0
100
AcDbLine
 10
12.75000000000001
 20
0.0
 30
0.0
 11
19.575
 21
0.0
 31
0.0
  0
LINE
  5
FD9D
330
FD5B
100
AcDbEntity
  8
0
100
AcDbLine
 10
12.75000000000001
 20
-1.500000000000003
 30
0.0
 11
12.75000000000001
 21
0.0
 31
0.0
  0
LINE
  5
FD9E
330
FD5B
100
AcDbEntity
  8
0
100
AcDbLine
 10
12.75000000000001
 20
-1.500000000000003
 30
0.0
 11
-12.75
 21
-1.500000000000003
 31
0.0
  0
LINE
  5
FD9F
330
FD5B
100
AcDbEntity
  8
0
100
AcDbLine
 10
12.75000000000001
 20
0.0
 30
0.0
 11
-12.75
 21
0.0
 31
0.0
  0
LINE
  5
FDA0
330
FD5B
100
AcDbEntity
  8
0
100
AcDbLine
 10
38.50000000000014
 20
0.0
 30
0.0
 11
38.50000000000015
 21
1.500000000000025
 31
0.0
  0
LINE
  5
FDA1
330
FD5B
100
AcDbEntity
  8
0
100
AcDbLine
 10
42.50000000000015
 20
1.499999999999841
 30
0.0
 11
42.50000000000009
 21
0.0
 31
0.0
  0
LINE
  5
FDA2
330
FD5B
100
AcDbEntity
  8
0
100
AcDbLine
 10
-24.00000000000001
 20
-54.0
 30
0.0
 11
-22.5
 21
-54.0
 31
0.0
  0
LINE
  5
FDA3
330
FD5B
100
AcDbEntity
  8
0
100
AcDbLine
 10
22.5
 20
-54.0
 30
0.0
 11
24.00000000000001
 21
-54.0
 31
0.0
  0
LINE
  5
FDA4
330
FD5B
100
AcDbEntity
  8
0
100
AcDbLine
 10
42.50000000000008
 20
1.500000000000012
 30
0.0
 11
42.50000000000008
 21
7.000000000000001
 31
0.0
  0
LINE
  5
FDA5
330
FD5B
100
AcDbEntity
  8
0
100
AcDbLine
 10
42.50000000000008
 20
7.000000000000001
 30
0.0
 11
40.50000000000007
 21
8.999999999999994
 31
0.0
  0
LINE
  5
FDA6
330
FD5B
100
AcDbEntity
  8
0
100
AcDbLine
 10
40.50000000000007
 20
8.999999999999994
 30
0.0
 11
38.50000000000009
 21
6.999999999999992
 31
0.0
  0
LINE
  5
FDA7
330
FD5B
100
AcDbEntity
  8
0
100
AcDbLine
 10
38.50000000000009
 20
6.999999999999992
 30
0.0
 11
38.5000000000001
 21
1.500000000000012
 31
0.0
  0
ARC
  5
FDA8
330
FD5B
100
AcDbEntity
  8
0
100
AcDbCircle
 10
-35.83757666048696
 20
-2.999999999999991
 30
0.0
 40
1.5
100
AcDbArc
 50
71.99999999999988
 51
90.0
  0
ARC
  5
FDA9
330
FD5B
100
AcDbEntity
  8
0
100
AcDbCircle
 10
-27.00000000000002
 20
-25.06805256023767
 30
0.0
 40
1.5
100
AcDbArc
 50
0.0
 51
8.999999999999902
  0
ARC
  5
FDAA
330
FD5B
100
AcDbEntity
  8
0
100
AcDbCircle
 10
27.00000000000013
 20
-25.06805256023694
 30
0.0
 40
1.5
100
AcDbArc
 50
170.9999999999999
 51
180.0
  0
ARC
  5
FDAB
330
FD5B
100
AcDbEntity
  8
0
100
AcDbCircle
 10
35.83757666048692
 20
-3.0
 30
0.0
 40
1.5
100
AcDbArc
 50
90.0
 51
107.9999999999999
  0
LINE
  5
FDAC
330
FD5B
100
AcDbEntity
  8
0
100
AcDbLine
 10
31.78169451958016
 20
-2.740642656822493
 30
0.0
 11
35.3740511689245
 21
-1.573415225557268
 31
0.0
  0
LINE
  5
FDAD
330
FD5B
100
AcDbEntity
  8
0
100
AcDbLine
 10
25.51846748910743
 20
-24.83340086267659
 30
0.0
 11
28.3883377884792
 21
-6.713752913097112
 31
0.0
  0
ARC
  5
FDAE
330
FD5B
100
AcDbEntity
  8
0
100
AcDbCircle
 10
33.32677949145489
 20
-7.495925238298273
 30
0.0
 40
5.000000000000014
100
AcDbArc
 50
107.9999999999999
 51
170.9999999999998
  0
ENDBLK
  5
FD5D
330
FD5B
100
AcDbEntity
  8
0
100
AcDbBlockEnd
  0
BLOCK
  5
FDB0
330
FDAF
100
AcDbEntity
  8
0
100
AcDbBlockBegin
  2
SBE48_91-Bottom
 70
     0
 10
0.0
 20
0.0
 30
0.0
  3
SBE48_91-Bottom
  1

  0
LINE
  5
FDB2
330
FDAF
100
AcDbEntity
  8
0
100
AcDbLine
 10
-25.50000000000001
 20
54.0
 30
0.0
 11
-25.50000000000001
 21
2.999999999999998
 31
0.0
  0
LINE
  5
FDB3
330
FDAF
100
AcDbEntity
  8
0
100
AcDbLine
 10
25.50000000000001
 20
54.0
 30
0.0
 11
25.50000000000001
 21
2.999999999999998
 31
0.0
  0
LINE
  5
FDB4
330
FDAF
100
AcDbEntity
  8
0
100
AcDbLine
 10
25.50000000000001
 20
54.0
 30
0.0
 11
22.5
 21
54.0
 31
0.0
  0
LINE
  5
FDB5
330
FDAF
100
AcDbEntity
  8
0
100
AcDbLine
 10
-22.5
 20
54.0
 30
0.0
 11
-25.50000000000001
 21
54.0
 31
0.0
  0
LINE
  5
FDB6
330
FDAF
100
AcDbEntity
  8
0
100
AcDbLine
 10
-53.00000000000005
 20
1.499999999999991
 30
0.0
 11
-47.71031484164899
 21
1.499999999999992
 31
0.0
  0
LINE
  5
FDB7
330
FDAF
100
AcDbEntity
  8
0
100
AcDbLine
 10
-53.00000000000004
 20
1.499999999999997
 30
0.0
 11
-53.00000000000004
 21
0.0
 31
0.0
  0
LINE
  5
FDB8
330
FDAF
100
AcDbEntity
  8
0
100
AcDbLine
 10
53.00000000000008
 20
0.0
 30
0.0
 11
47.71031484164903
 21
0.0
 31
0.0
  0
LINE
  5
FDB9
330
FDAF
100
AcDbEntity
  8
0
100
AcDbLine
 10
-47.71031484164899
 20
0.0
 30
0.0
 11
-53.00000000000005
 21
0.0
 31
0.0
  0
LINE
  5
FDBA
330
FDAF
100
AcDbEntity
  8
0
100
AcDbLine
 10
53.00000000000008
 20
0.0
 30
0.0
 11
53.00000000000008
 21
1.499999999999983
 31
0.0
  0
LINE
  5
FDBB
330
FDAF
100
AcDbEntity
  8
0
100
AcDbLine
 10
47.71031484164903
 20
1.499999999999991
 30
0.0
 11
53.00000000000008
 21
1.499999999999991
 31
0.0
  0
LINE
  5
FDBC
330
FDAF
100
AcDbEntity
  8
0
100
AcDbLine
 10
-47.71031484164899
 20
1.499999999999994
 30
0.0
 11
-27.00000000000004
 21
1.499999999999993
 31
0.0
  0
LINE
  5
FDBD
330
FDAF
100
AcDbEntity
  8
0
100
AcDbLine
 10
-42.50000000000009
 20
0.0
 30
0.0
 11
-42.50000000000021
 21
-1.500000000000012
 31
0.0
  0
LINE
  5
FDBE
330
FDAF
100
AcDbEntity
  8
0
100
AcDbLine
 10
-38.5000000000001
 20
-1.499999999999883
 30
0.0
 11
-38.50000000000008
 21
0.0
 31
0.0
  0
LINE
  5
FDBF
330
FDAF
100
AcDbEntity
  8
0
100
AcDbLine
 10
-27.00000000000004
 20
0.0
 30
0.0
 11
-47.71031484164899
 21
0.0
 31
0.0
  0
SPLINE
  5
FDC0
330
FDAF
100
AcDbEntity
  8
0
100
AcDbSpline
210
0.0
220
0.0
230
1.0
 70
     8
 71
     3
 72
     8
 73
     4
 74
     0
 42
0.000000001
 43
0.0000000001
 40
-1.0
 40
-1.0
 40
-1.0
 40
-1.0
 40
0.0
 40
0.0
 40
0.0
 40
0.0
 10
-24.00000000000004
 20
2.999999999999959
 30
0.0
 10
-24.00000000000006
 20
1.429203673205076
 30
0.0
 10
-25.42920367320518
 20
0.0000000000000004
 30
0.0
 10
-27.00000000000004
 20
0.0
 30
0.0
  0
SPLINE
  5
FDC1
330
FDAF
100
AcDbEntity
  8
0
100
AcDbSpline
210
0.0
220
0.0
230
1.0
 70
     8
 71
     3
 72
     8
 73
     4
 74
     0
 42
0.000000001
 43
0.0000000001
 40
0.0
 40
0.0
 40
0.0
 40
0.0
 40
1.0
 40
1.0
 40
1.0
 40
1.0
 10
-27.00000000000004
 20
1.5
 30
0.0
 10
-26.21460183660261
 20
1.5
 30
0.0
 10
-25.50000000000005
 20
2.214601836602537
 30
0.0
 10
-25.50000000000004
 20
2.999999999999979
 30
0.0
  0
LINE
  5
FDC2
330
FDAF
100
AcDbEntity
  8
0
100
AcDbLine
 10
-27.00000000000004
 20
1.499999999999993
 30
0.0
 11
-27.00000000000004
 21
1.090140682897541
 31
0.0
  0
LINE
  5
FDC3
330
FDAF
100
AcDbEntity
  8
0
100
AcDbLine
 10
-27.00000000000004
 20
1.090140682897541
 30
0.0
 11
-27.00000000000004
 21
0.0
 31
0.0
  0
LINE
  5
FDC4
330
FDAF
100
AcDbEntity
  8
0
100
AcDbLine
 10
-40.5000000000001
 20
-8.999999999999994
 30
0.0
 11
-38.50000000000009
 21
-6.999999999999984
 31
0.0
  0
LINE
  5
FDC5
330
FDAF
100
AcDbEntity
  8
0
100
AcDbLine
 10
-38.50000000000009
 20
-6.999999999999984
 30
0.0
 11
-38.5000000000001
 21
-1.500000000000003
 31
0.0
  0
LINE
  5
FDC6
330
FDAF
100
AcDbEntity
  8
0
100
AcDbLine
 10
-42.50000000000009
 20
-1.500000000000012
 30
0.0
 11
-42.50000000000008
 21
-7.000000000000001
 31
0.0
  0
LINE
  5
FDC7
330
FDAF
100
AcDbEntity
  8
0
100
AcDbLine
 10
-42.50000000000008
 20
-7.000000000000001
 30
0.0
 11
-40.5000000000001
 21
-8.999999999999994
 31
0.0
  0
ARC
  5
FDC8
330
FDAF
100
AcDbEntity
  8
0
100
AcDbCircle
 10
-33.3267794914549
 20
7.495925238298273
 30
0.0
 40
5.000000000000014
100
AcDbArc
 50
287.9999999999999
 51
350.9999999999999
  0
LINE
  5
FDC9
330
FDAF
100
AcDbEntity
  8
0
100
AcDbLine
 10
-28.3883377884792
 20
6.713752913097112
 30
0.0
 11
-25.51846748910732
 21
24.83340086267733
 31
0.0
  0
LINE
  5
FDCA
330
FDAF
100
AcDbEntity
  8
0
100
AcDbLine
 10
-35.37405116892453
 20
1.573415225557261
 30
0.0
 11
-31.78169451958016
 21
2.740642656822493
 31
0.0
  0
LINE
  5
FDCB
330
FDAF
100
AcDbEntity
  8
0
100
AcDbLine
 10
47.71031484164903
 20
0.0
 30
0.0
 11
27.00000000000003
 21
0.0
 31
0.0
  0
LINE
  5
FDCC
330
FDAF
100
AcDbEntity
  8
0
100
AcDbLine
 10
27.00000000000003
 20
1.499999999999993
 30
0.0
 11
47.71031484164903
 21
1.49999999999999
 31
0.0
  0
LINE
  5
FDCD
330
FDAF
100
AcDbEntity
  8
0
100
AcDbLine
 10
27.00000000000003
 20
1.499999999999993
 30
0.0
 11
27.00000000000003
 21
1.090140682897541
 31
0.0
  0
LINE
  5
FDCE
330
FDAF
100
AcDbEntity
  8
0
100
AcDbLine
 10
27.00000000000003
 20
1.090140682897541
 30
0.0
 11
27.00000000000003
 21
0.0
 31
0.0
  0
SPLINE
  5
FDCF
330
FDAF
100
AcDbEntity
  8
0
100
AcDbSpline
210
0.0
220
0.0
230
1.0
 70
     8
 71
     3
 72
     8
 73
     4
 74
     0
 42
0.000000001
 43
0.0000000001
 40
0.0
 40
0.0
 40
0.0
 40
0.0
 40
1.0
 40
1.0
 40
1.0
 40
1.0
 10
27.00000000000003
 20
0.0
 30
0.0
 10
25.42920367320518
 20
0.0000000000000004
 30
0.0
 10
24.00000000000005
 20
1.429203673205076
 30
0.0
 10
24.00000000000003
 20
2.999999999999959
 30
0.0
  0
SPLINE
  5
FDD0
330
FDAF
100
AcDbEntity
  8
0
100
AcDbSpline
210
0.0
220
0.0
230
1.0
 70
     8
 71
     3
 72
     8
 73
     4
 74
     0
 42
0.000000001
 43
0.0000000001
 40
-1.0
 40
-1.0
 40
-1.0
 40
-1.0
 40
0.0
 40
0.0
 40
0.0
 40
0.0
 10
25.50000000000002
 20
2.999999999999979
 30
0.0
 10
25.50000000000004
 20
2.214601836602537
 30
0.0
 10
26.2146018366026
 20
1.5
 30
0.0
 10
27.00000000000003
 20
1.5
 30
0.0
  0
SPLINE
  5
FDD1
330
FDAF
100
AcDbEntity
  8
0
100
AcDbSpline
210
0.0
220
0.0
230
1.0
 70
     8
 71
     3
 72
     8
 73
     4
 74
     0
 42
0.000000001
 43
0.0000000001
 40
-1.0
 40
-1.0
 40
-1.0
 40
-1.0
 40
0.0
 40
0.0
 40
0.0
 40
0.0
 10
-22.50000000000001
 20
2.999999999999995
 30
0.0
 10
-21.52500000000012
 20
1.42920367320512
 30
0.0
 10
-20.55000000000005
 20
0.0000000000000043
 30
0.0
 10
-19.57500000000001
 20
0.0000000000000039
 30
0.0
  0
SPLINE
  5
FDD2
330
FDAF
100
AcDbEntity
  8
0
100
AcDbSpline
210
0.0
220
0.0
230
1.0
 70
     8
 71
     3
 72
     8
 73
     4
 74
     0
 42
0.000000001
 43
0.0000000001
 40
-1.0
 40
-1.0
 40
-1.0
 40
-1.0
 40
0.0
 40
0.0
 40
0.0
 40
0.0
 10
19.57500000000001
 20
0.0000000000000039
 30
0.0
 10
20.55000000000019
 20
0.0000000000000031
 30
0.0
 10
21.52499999999984
 20
1.429203673205056
 30
0.0
 10
22.50000000000001
 20
2.999999999999997
 30
0.0
  0
LINE
  5
FDD3
330
FDAF
100
AcDbEntity
  8
0
100
AcDbLine
 10
19.575
 20
0.0
 30
0.0
 11
-19.575
 21
0.0
 31
0.0
  0
LINE
  5
FDD4
330
FDAF
100
AcDbEntity
  8
0
100
AcDbLine
 10
-22.5
 20
2.999999999999998
 30
0.0
 11
-25.50000000000001
 21
2.999999999999998
 31
0.0
  0
LINE
  5
FDD5
330
FDAF
100
AcDbEntity
  8
0
100
AcDbLine
 10
25.50000000000001
 20
2.999999999999998
 30
0.0
 11
22.5
 21
2.999999999999998
 31
0.0
  0
LINE
  5
FDD6
330
FDAF
100
AcDbEntity
  8
0
100
AcDbLine
 10
-22.5
 20
54.0
 30
0.0
 11
22.5
 21
54.0
 31
0.0
  0
LINE
  5
FDD7
330
FDAF
100
AcDbEntity
  8
0
100
AcDbLine
 10
38.50000000000009
 20
0.0
 30
0.0
 11
38.50000000000012
 21
-1.500000000000018
 31
0.0
  0
LINE
  5
FDD8
330
FDAF
100
AcDbEntity
  8
0
100
AcDbLine
 10
42.50000000000008
 20
-1.499999999999834
 30
0.0
 11
42.50000000000003
 21
0.0
 31
0.0
  0
LINE
  5
FDD9
330
FDAF
100
AcDbEntity
  8
0
100
AcDbLine
 10
38.50000000000009
 20
-6.999999999999992
 30
0.0
 11
40.50000000000007
 21
-8.999999999999994
 31
0.0
  0
LINE
  5
FDDA
330
FDAF
100
AcDbEntity
  8
0
100
AcDbLine
 10
40.50000000000007
 20
-8.999999999999994
 30
0.0
 11
42.50000000000007
 21
-7.000000000000001
 31
0.0
  0
LINE
  5
FDDB
330
FDAF
100
AcDbEntity
  8
0
100
AcDbLine
 10
38.50000000000009
 20
-1.500000000000012
 30
0.0
 11
38.50000000000009
 21
-6.999999999999992
 31
0.0
  0
LINE
  5
FDDC
330
FDAF
100
AcDbEntity
  8
0
100
AcDbLine
 10
42.50000000000007
 20
-7.000000000000001
 30
0.0
 11
42.50000000000008
 21
-1.500000000000012
 31
0.0
  0
ARC
  5
FDDD
330
FDAF
100
AcDbEntity
  8
0
100
AcDbCircle
 10
-35.83757666048696
 20
2.999999999999991
 30
0.0
 40
1.5
100
AcDbArc
 50
270.0
 51
288.0000000000001
  0
ARC
  5
FDDE
330
FDAF
100
AcDbEntity
  8
0
100
AcDbCircle
 10
-27.00000000000002
 20
25.06805256023767
 30
0.0
 40
1.5
100
AcDbArc
 50
351.0000000000001
 51
0.0
  0
ARC
  5
FDDF
330
FDAF
100
AcDbEntity
  8
0
100
AcDbCircle
 10
27.00000000000013
 20
25.06805256023694
 30
0.0
 40
1.5
100
AcDbArc
 50
180.0
 51
189.0
  0
ARC
  5
FDE0
330
FDAF
100
AcDbEntity
  8
0
100
AcDbCircle
 10
35.83757666048692
 20
3.0
 30
0.0
 40
1.5
100
AcDbArc
 50
252.0000000000002
 51
270.0000000000002
  0
LINE
  5
FDE1
330
FDAF
100
AcDbEntity
  8
0
100
AcDbLine
 10
31.78169451958016
 20
2.740642656822493
 30
0.0
 11
35.3740511689245
 21
1.573415225557268
 31
0.0
  0
LINE
  5
FDE2
330
FDAF
100
AcDbEntity
  8
0
100
AcDbLine
 10
25.51846748910743
 20
24.83340086267659
 30
0.0
 11
28.3883377884792
 21
6.713752913097112
 31
0.0
  0
ARC
  5
FDE3
330
FDAF
100
AcDbEntity
  8
0
100
AcDbCircle
 10
33.32677949145489
 20
7.495925238298273
 30
0.0
 40
5.000000000000014
100
AcDbArc
 50
189.0
 51
252.0000000000001
  0
ENDBLK
  5
FDB1
330
FDAF
100
AcDbEntity
  8
0
100
AcDbBlockEnd
  0
BLOCK
  5
FDE5
330
FDE4
100
AcDbEntity
  8
0
100
AcDbBlockBegin
  2
SBE48_91-ISO
 70
     0
 10
0.0
 20
0.0
 30
0.0
  3
SBE48_91-ISO
  1

  0
ELLIPSE
  5
FDE7
330
FDE4
100
AcDbEntity
  8
0
100
AcDbEllipse
 10
-5.303300858899175
 20
56.76514446129019
 30
0.0
 11
1.500000000000003
 21
-0.0000000000000001
 31
0.0
210
0.0
220
0.0
230
1.0
 40
0.5773502691896259
 41
5.497787143782137
 42
7.068583470577035
  0
LINE
  5
FDE8
330
FDE4
100
AcDbEntity
  8
0
100
AcDbLine
 10
-4.242640687119347
 20
56.1527720255944
 30
0.0
 11
-4.242640687119347
 21
57.37751689698601
 31
0.0
  0
LINE
  5
FDE9
330
FDE4
100
AcDbEntity
  8
0
100
AcDbLine
 10
-3.18198051532148
 20
44.90475288437432
 30
0.0
 11
-3.181980515339524
 21
55.54039958989861
 31
0.0
  0
LINE
  5
FDEA
330
FDE4
100
AcDbEntity
  8
0
100
AcDbLine
 10
-3.18198051533951
 20
-17.53604440313288
 30
0.0
 11
-3.181980515339504
 21
-7.942819490731471
 31
0.0
  0
LINE
  5
FDEB
330
FDE4
100
AcDbEntity
  8
0
100
AcDbLine
 10
-3.181980515339504
 20
-7.942819490731471
 30
0.0
 11
-3.181980515339566
 21
23.28878464325349
 31
0.0
  0
LINE
  5
FDEC
330
FDE4
100
AcDbEntity
  8
0
100
AcDbLine
 10
-3.181980515339566
 20
26.55477096696439
 30
0.0
 11
-3.181980515328566
 21
37.59866596292754
 31
0.0
  0
ELLIPSE
  5
FDED
330
FDE4
100
AcDbEntity
  8
0
100
AcDbEllipse
 10
-5.303300858899175
 20
56.76514446129022
 30
0.0
 11
3.000000000000002
 21
-0.0000000000000003
 31
0.0
210
0.0
220
0.0
230
1.0
 40
0.5773502691896259
 41
5.497787143782139
 42
7.068583470577033
  0
ELLIPSE
  5
FDEE
330
FDE4
100
AcDbEntity
  8
0
100
AcDbEllipse
 10
32.88046532517453
 20
34.71973677624155
 30
0.0
 11
-2.999999999999997
 21
-0.0000000000001744
 31
0.0
210
0.0
220
0.0
230
1.0
 40
0.5773502691896269
 41
3.926990816987
 42
5.497787143781898
  0
LINE
  5
FDEF
330
FDE4
100
AcDbEntity
  8
0
100
AcDbLine
 10
31.81980515339466
 20
6.34648058900308
 30
0.0
 11
31.81980515339468
 21
16.49242603576775
 31
0.0
  0
LINE
  5
FDF0
330
FDE4
100
AcDbEntity
  8
0
100
AcDbLine
 10
33.94112549695432
 20
16.49242603576775
 30
0.0
 11
33.9411254969543
 21
6.34648058900308
 31
0.0
  0
LINE
  5
FDF1
330
FDE4
100
AcDbEntity
  8
0
100
AcDbLine
 10
31.81980515339469
 20
25.59441205563649
 30
0.0
 11
31.8198051533947
 21
35.33210921193734
 31
0.0
  0
LINE
  5
FDF2
330
FDE4
100
AcDbEntity
  8
0
100
AcDbLine
 10
31.81980515339459
 20
-37.7443347810941
 30
0.0
 11
31.81980515339463
 21
-28.15110986869273
 31
0.0
  0
LINE
  5
FDF3
330
FDE4
100
AcDbEntity
  8
0
100
AcDbLine
 10
31.81980515339463
 20
-28.15110986869273
 30
0.0
 11
31.81980515339466
 21
3.080494265292186
 31
0.0
  0
LINE
  5
FDF4
330
FDE4
100
AcDbEntity
  8
0
100
AcDbLine
 10
31.8198051533947
 20
35.33210921193734
 30
0.0
 11
30.75914498161488
 21
35.94448164763313
 31
0.0
  0
LINE
  5
FDF5
330
FDE4
100
AcDbEntity
  8
0
100
AcDbLine
 10
35.00178566873417
 20
35.94448164763313
 30
0.0
 11
33.94112549695435
 21
35.33210921193734
 31
0.0
  0
LINE
  5
FDF6
330
FDE4
100
AcDbEntity
  8
0
100
AcDbLine
 10
33.9411254969543
 20
3.080494265292181
 30
0.0
 11
33.94112549695426
 21
-26.49890817526733
 31
0.0
  0
LINE
  5
FDF7
330
FDE4
100
AcDbEntity
  8
0
100
AcDbLine
 10
33.94112549695435
 20
35.33210921193734
 30
0.0
 11
33.94112549695433
 21
25.59441205563648
 31
0.0
  0
ELLIPSE
  5
FDF8
330
FDE4
100
AcDbEntity
  8
0
100
AcDbEllipse
 10
-2.121320343559689
 20
-18.14841683882867
 30
0.0
 11
-0.7499999999999226
 21
1.299038105676704
 31
0.0
210
0.0
220
0.0
230
0.9999999999999998
 40
0.5773502691896259
 41
0.7853981633976899
 42
2.356194490192587
  0
ELLIPSE
  5
FDF9
330
FDE4
100
AcDbEntity
  8
0
100
AcDbEllipse
 10
32.88046532517453
 20
34.71973677624155
 30
0.0
 11
1.499999999999998
 21
-0.0000000000000896
 31
0.0
210
0.0
220
0.0
230
1.0
 40
0.577350269189626
 41
0.7853981633976855
 42
2.356194490192589
  0
LINE
  5
FDFA
330
FDE4
100
AcDbEntity
  8
0
100
AcDbLine
 10
-4.242640687119347
 20
57.37751689698601
 30
0.0
 11
-3.181980515339528
 21
57.9898893326818
 31
0.0
  0
LINE
  5
FDFB
330
FDE4
100
AcDbEntity
  8
0
100
AcDbLine
 10
-3.181980515339524
 20
55.54039958989861
 30
0.0
 11
-4.242640687119347
 21
56.1527720255944
 31
0.0
  0
ELLIPSE
  5
FDFC
330
FDE4
100
AcDbEntity
  8
0
100
AcDbEllipse
 10
29.69848480983495
 20
-36.51958990970251
 30
0.0
 11
1.5
 21
-2.598076211353317
 31
0.0
210
0.0
220
0.0
230
1.0
 40
0.5773502691896258
 41
0.0
 42
0.7853981633974492
  0
LINE
  5
FDFD
330
FDE4
100
AcDbEntity
  8
0
100
AcDbLine
 10
-2.303300858899166
 20
46.20313748394709
 30
0.0
 11
-2.303300858899168
 21
56.76514446129022
 31
0.0
  0
LINE
  5
FDFE
330
FDE4
100
AcDbEntity
  8
0
100
AcDbLine
 10
-2.303300858899162
 20
28.18776412881472
 30
0.0
 11
-2.303300858899166
 21
38.7497711061201
 31
0.0
  0
LINE
  5
FDFF
330
FDE4
100
AcDbEntity
  8
0
100
AcDbLine
 10
-2.303300858899159
 20
-5.891973772627219
 30
0.0
 11
-2.303300858899162
 21
24.10528122418625
 31
0.0
  0
ELLIPSE
  5
FE00
330
FDE4
100
AcDbEntity
  8
0
100
AcDbEllipse
 10
-22.62741699796958
 20
6.754728879466971
 30
0.0
 11
1.24999999999987
 21
2.165063509461172
 31
0.0
210
0.0
220
0.0
230
1.0
 40
0.5773502691896259
 41
3.579741684173541
 42
5.845036276594998
  0
ELLIPSE
  5
FE01
330
FDE4
100
AcDbEntity
  8
0
100
AcDbEllipse
 10
-22.62741699796959
 20
39.41459211657602
 30
0.0
 11
1.24999999999987
 21
2.165063509461172
 31
0.0
210
0.0
220
0.0
230
0.9999999999999998
 40
0.5773502691896257
 41
3.579741684173544
 42
5.845036276594994
  0
ELLIPSE
  5
FE02
330
FDE4
100
AcDbEntity
  8
0
100
AcDbEllipse
 10
-22.62741699796959
 20
23.0846604980215
 30
0.0
 11
1.24999999999987
 21
2.165063509461172
 31
0.0
210
0.0
220
0.0
230
1.0
 40
0.5773502691896259
 41
3.579741684173541
 42
5.845036276594997
  0
ELLIPSE
  5
FE03
330
FDE4
100
AcDbEntity
  8
0
100
AcDbEllipse
 10
-21.56675682618977
 20
22.4722880623257
 30
0.0
 11
1.249999999999999
 21
2.165063509461098
 31
0.0
210
0.0
220
0.0
230
1.0
 40
0.5773502691896259
 41
0.0
 42
6.283185307179586
  0
ELLIPSE
  5
FE04
330
FDE4
100
AcDbEntity
  8
0
100
AcDbEllipse
 10
-21.56675682618978
 20
38.80221968088022
 30
0.0
 11
1.249999999999999
 21
2.165063509461098
 31
0.0
210
0.0
220
0.0
230
1.0
 40
0.5773502691896259
 41
0.0
 42
6.283185307179586
  0
ELLIPSE
  5
FE05
330
FDE4
100
AcDbEntity
  8
0
100
AcDbEllipse
 10
-21.56675682618976
 20
6.142356443771177
 30
0.0
 11
1.249999999999999
 21
2.165063509461098
 31
0.0
210
0.0
220
0.0
230
1.0
 40
0.5773502691896259
 41
0.0
 42
6.283185307179586
  0
LINE
  5
FE06
330
FDE4
100
AcDbEntity
  8
0
100
AcDbLine
 10
-40.30508652763325
 20
-21.81767004389527
 30
0.0
 11
-40.30508652763325
 21
-37.7443347810941
 31
0.0
  0
LINE
  5
FE07
330
FDE4
100
AcDbEntity
  8
0
100
AcDbLine
 10
-4.242640687119347
 20
56.1527720255944
 30
0.0
 11
-23.68807716974941
 21
44.92594403783818
 31
0.0
  0
LINE
  5
FE08
330
FDE4
100
AcDbEntity
  8
0
100
AcDbLine
 10
-3.181980515339524
 20
55.54039958989861
 30
0.0
 11
-22.62741699796959
 21
44.31357160214237
 31
0.0
  0
LINE
  5
FE09
330
FDE4
100
AcDbEntity
  8
0
100
AcDbLine
 10
-39.24442635585344
 20
-22.43004247959108
 30
0.0
 11
-39.24442635585343
 21
-38.35670721678989
 31
0.0
  0
LINE
  5
FE0A
330
FDE4
100
AcDbEntity
  8
0
100
AcDbLine
 10
-5.303300858899149
 20
-57.9526251590553
 30
0.0
 11
-5.303300858899118
 21
-42.02596042185651
 31
0.0
  0
LINE
  5
FE0B
330
FDE4
100
AcDbEntity
  8
0
100
AcDbLine
 10
30.75914498161488
 20
35.94448164763313
 30
0.0
 11
11.31370849898482
 21
24.71765365987689
 31
0.0
  0
LINE
  5
FE0C
330
FDE4
100
AcDbEntity
  8
0
100
AcDbLine
 10
12.37436867076464
 20
24.1052812241811
 30
0.0
 11
31.8198051533947
 21
35.33210921193734
 31
0.0
  0
LINE
  5
FE0D
330
FDE4
100
AcDbEntity
  8
0
100
AcDbLine
 10
-4.24264068711933
 20
-58.56499759475112
 30
0.0
 11
-4.242640687119294
 21
-42.63833285755231
 31
0.0
  0
LINE
  5
FE0E
330
FDE4
100
AcDbEntity
  8
0
100
AcDbLine
 10
-38.18376618407362
 20
-41.41856939526888
 30
0.0
 11
-6.363961030678972
 21
-59.78974246614271
 31
0.0
  0
LINE
  5
FE0F
330
FDE4
100
AcDbEntity
  8
0
100
AcDbLine
 10
-38.18376618407361
 20
-40.19382452387728
 30
0.0
 11
-6.363961030678972
 21
-58.56499759475112
 31
0.0
  0
LINE
  5
FE10
330
FDE4
100
AcDbEntity
  8
0
100
AcDbLine
 10
-40.30508652763325
 20
-21.81767004389527
 30
0.0
 11
-31.67109010268053
 21
-10.10819559755656
 31
0.0
  0
LINE
  5
FE11
330
FDE4
100
AcDbEntity
  8
0
100
AcDbLine
 10
-27.93071785686869
 20
0.1741854468540671
 30
0.0
 11
-27.9307178568687
 21
37.57747480948864
 31
0.0
  0
LINE
  5
FE12
330
FDE4
100
AcDbEntity
  8
0
100
AcDbLine
 10
-26.87005768508887
 20
36.96510237379285
 30
0.0
 11
-26.87005768508886
 21
-0.4381869888417267
 31
0.0
  0
LINE
  5
FE13
330
FDE4
100
AcDbEntity
  8
0
100
AcDbLine
 10
-30.61042993090071
 20
-10.72056803325236
 30
0.0
 11
-39.24442635585344
 21
-22.43004247959108
 31
0.0
  0
LINE
  5
FE14
330
FDE4
100
AcDbEntity
  8
0
100
AcDbLine
 10
-5.303300858899118
 20
-42.02596042185651
 30
0.0
 11
3.330695566053611
 21
-30.31648597551781
 31
0.0
  0
LINE
  5
FE15
330
FDE4
100
AcDbEntity
  8
0
100
AcDbLine
 10
7.071067811865479
 20
-20.03410493110719
 30
0.0
 11
7.071067811865532
 21
17.36918443152737
 31
0.0
  0
LINE
  5
FE16
330
FDE4
100
AcDbEntity
  8
0
100
AcDbLine
 10
8.131727983645347
 20
16.75681199583157
 30
0.0
 11
8.131727983645296
 21
-20.64647736680298
 31
0.0
  0
LINE
  5
FE17
330
FDE4
100
AcDbEntity
  8
0
100
AcDbLine
 10
4.39135573783343
 20
-30.92885841121362
 30
0.0
 11
-4.242640687119294
 21
-42.63833285755231
 31
0.0
  0
LINE
  5
FE18
330
FDE4
100
AcDbEntity
  8
0
100
AcDbLine
 10
-4.242640687119294
 20
-42.63833285755231
 30
0.0
 11
-5.303300858899118
 21
-42.02596042185651
 31
0.0
  0
LINE
  5
FE19
330
FDE4
100
AcDbEntity
  8
0
100
AcDbLine
 10
-39.24442635585344
 20
-22.43004247959108
 30
0.0
 11
-40.30508652763325
 21
-21.81767004389527
 31
0.0
  0
ELLIPSE
  5
FE1A
330
FDE4
100
AcDbEntity
  8
0
100
AcDbEllipse
 10
-36.41599923110725
 20
-4.724794038712296
 30
0.0
 11
-6.000000000000621
 21
-10.39230484541291
 31
0.0
210
0.0
220
0.0
230
0.9999999999999998
 40
0.577350269189626
 41
1.378810109075633
 42
2.356194490192585
  0
ELLIPSE
  5
FE1B
330
FDE4
100
AcDbEntity
  8
0
100
AcDbEllipse
 10
-35.35533905932742
 20
-5.33716647440809
 30
0.0
 11
5.999999999999996
 21
10.39230484541326
 31
0.0
210
0.0
220
0.0
230
1.0
 40
0.5773502691896258
 41
4.520402762665313
 42
5.497787143782137
  0
ELLIPSE
  5
FE1C
330
FDE4
100
AcDbEntity
  8
0
100
AcDbEllipse
 10
-1.414213562373167
 20
-24.9330844166735
 30
0.0
 11
-6.000000000000644
 21
-10.3923048454129
 31
0.0
210
0.0
220
0.0
230
1.0
 40
0.5773502691896251
 41
1.378810109075635
 42
2.356194490192587
  0
ELLIPSE
  5
FE1D
330
FDE4
100
AcDbEntity
  8
0
100
AcDbEllipse
 10
-0.3535533905933463
 20
-25.5454568523693
 30
0.0
 11
6.000000000000015
 21
10.39230484541326
 31
0.0
210
0.0
220
0.0
230
1.0
 40
0.5773502691896252
 41
4.520402762665314
 42
5.497787143782138
  0
ELLIPSE
  5
FE1E
330
FDE4
100
AcDbEntity
  8
0
100
AcDbEllipse
 10
-14.14213562373102
 20
20.79072411527913
 30
0.0
 11
-5.999999999999994
 21
10.39230484541326
 31
0.0
210
0.0
220
0.0
230
1.0
 40
0.5773502691896257
 41
0.979493854181177
 42
1.178784220247862
  0
LINE
  5
FE1F
330
FDE4
100
AcDbEntity
  8
0
100
AcDbLine
 10
-26.87005768508886
 20
-0.4381869888417267
 30
0.0
 11
-27.93071785686869
 21
0.1741854468540671
 31
0.0
  0
ELLIPSE
  5
FE20
330
FDE4
100
AcDbEntity
  8
0
100
AcDbEllipse
 10
44.90128060534579
 20
-12.07326326706186
 30
0.0
 11
6.000000000000006
 21
-10.39230484541327
 31
0.0
210
0.0
220
0.0
230
1.0
 40
0.5773502691896258
 41
0.0
 42
0.785398163397446
  0
LINE
  5
FE21
330
FDE4
100
AcDbEntity
  8
0
100
AcDbLine
 10
-31.67109010268053
 20
-10.10819559755656
 30
0.0
 11
-30.61042993090071
 21
-10.72056803325236
 31
0.0
  0
LINE
  5
FE22
330
FDE4
100
AcDbEntity
  8
0
100
AcDbLine
 10
8.131727983645296
 20
-20.64647736680298
 30
0.0
 11
7.071067811865479
 21
-20.03410493110719
 31
0.0
  0
LINE
  5
FE23
330
FDE4
100
AcDbEntity
  8
0
100
AcDbLine
 10
3.330695566053611
 20
-30.31648597551781
 30
0.0
 11
4.39135573783343
 21
-30.92885841121362
 31
0.0
  0
LINE
  5
FE24
330
FDE4
100
AcDbEntity
  8
0
100
AcDbLine
 10
53.38656197958435
 20
-16.97224275262824
 30
0.0
 11
52.32590180780454
 21
-17.58461518832404
 31
0.0
  0
ELLIPSE
  5
FE25
330
FDE4
100
AcDbEntity
  8
0
100
AcDbEllipse
 10
43.84062043356596
 20
-12.68563570275766
 30
0.0
 11
6.000000000000005
 21
-10.39230484541326
 31
0.0
210
0.0
220
0.0
230
0.9999999999999998
 40
0.5773502691896258
 41
6.091199089460208
 42
7.068583470577032
  0
LINE
  5
FE26
330
FDE4
100
AcDbEntity
  8
0
100
AcDbLine
 10
49.84062043356596
 20
-23.07794054817092
 30
0.0
 11
50.9012806053458
 21
-22.46556811247513
 31
0.0
  0
LINE
  5
FE27
330
FDE4
100
AcDbEntity
  8
0
100
AcDbLine
 10
-23.68807716974941
 20
44.92594403783818
 30
0.0
 11
-27.9307178568687
 21
37.57747480948864
 31
0.0
  0
LINE
  5
FE28
330
FDE4
100
AcDbEntity
  8
0
100
AcDbLine
 10
-26.87005768508887
 20
36.96510237379285
 30
0.0
 11
-22.62741699796959
 21
44.31357160214237
 31
0.0
  0
LINE
  5
FE29
330
FDE4
100
AcDbEntity
  8
0
100
AcDbLine
 10
11.31370849898482
 20
24.71765365987689
 30
0.0
 11
7.071067811865532
 21
17.36918443152737
 31
0.0
  0
LINE
  5
FE2A
330
FDE4
100
AcDbEntity
  8
0
100
AcDbLine
 10
8.131727983645347
 20
16.75681199583157
 30
0.0
 11
12.37436867076464
 21
24.1052812241811
 31
0.0
  0
LINE
  5
FE2B
330
FDE4
100
AcDbEntity
  8
0
100
AcDbLine
 10
-22.6274169979696
 20
63.09299296348008
 30
0.0
 11
-18.38477631085032
 21
65.54248270626337
 31
0.0
  0
LINE
  5
FE2C
330
FDE4
100
AcDbEntity
  8
0
100
AcDbLine
 10
-18.38477631085032
 20
65.54248270626337
 30
0.0
 11
-17.3241161390705
 21
66.15485514195907
 31
0.0
  0
LINE
  5
FE2D
330
FDE4
100
AcDbEntity
  8
0
100
AcDbLine
 10
-22.62741699796959
 20
44.31357160214237
 30
0.0
 11
-23.68807716974941
 21
44.92594403783818
 31
0.0
  0
LINE
  5
FE2E
330
FDE4
100
AcDbEntity
  8
0
100
AcDbLine
 10
-27.9307178568687
 20
37.57747480948864
 30
0.0
 11
-26.87005768508887
 21
36.96510237379285
 31
0.0
  0
LINE
  5
FE2F
330
FDE4
100
AcDbEntity
  8
0
100
AcDbLine
 10
12.37436867076464
 20
24.1052812241811
 30
0.0
 11
11.31370849898482
 21
24.71765365987689
 31
0.0
  0
LINE
  5
FE30
330
FDE4
100
AcDbEntity
  8
0
100
AcDbLine
 10
7.071067811865532
 20
17.36918443152737
 30
0.0
 11
8.131727983645347
 21
16.75681199583157
 31
0.0
  0
LINE
  5
FE31
330
FDE4
100
AcDbEntity
  8
0
100
AcDbLine
 10
53.38656197958441
 20
20.4310466100063
 30
0.0
 11
49.14392129246514
 21
27.77951583835593
 31
0.0
  0
LINE
  5
FE32
330
FDE4
100
AcDbEntity
  8
0
100
AcDbLine
 10
49.14392129246514
 20
27.77951583835593
 30
0.0
 11
48.08326112068531
 21
27.16714340266014
 31
0.0
  0
LINE
  5
FE33
330
FDE4
100
AcDbEntity
  8
0
100
AcDbLine
 10
48.08326112068531
 20
27.16714340266014
 30
0.0
 11
52.32590180780459
 21
19.81867417431051
 31
0.0
  0
LINE
  5
FE34
330
FDE4
100
AcDbEntity
  8
0
100
AcDbLine
 10
52.32590180780459
 20
19.81867417431051
 30
0.0
 11
53.38656197958441
 21
20.4310466100063
 31
0.0
  0
ELLIPSE
  5
FE35
330
FDE4
100
AcDbEntity
  8
0
100
AcDbEllipse
 10
-5.422535236135472
 20
40.60179235229551
 30
0.0
 11
0.9850528317504785
 21
1.131225405767201
 31
0.0
210
0.0
220
0.0
230
0.9999999999999998
 40
0.4173680013367532
 41
0.0
 42
0.5753553954488134
  0
SPLINE
  5
FE36
330
FDE4
100
AcDbEntity
  8
0
100
AcDbSpline
210
0.0
220
0.0
230
1.0
 70
     8
 71
     3
 72
    10
 73
     6
 74
     0
 42
0.000000001
 43
0.0000000001
 40
0.1396843436543133
 40
0.1396843436543133
 40
0.1396843436543133
 40
0.1396843436543133
 40
0.1418729186708969
 40
0.1418729186708969
 40
0.2837458373417925
 40
0.2837458373417925
 40
0.2837458373417925
 40
0.2837458373417925
 10
-5.587512251057789
 20
42.64960718899529
 30
0.0
 10
-5.583538350775811
 20
42.64497641566319
 30
0.0
 10
-5.579569119717611
 20
42.6403480258299
 30
0.0
 10
-5.318601462932193
 20
42.33584800678962
 30
0.0
 10
-5.080844352442199
 20
42.04575123669338
 30
0.0
 10
-4.852982400816214
 20
41.7745984520029
 30
0.0
  0
ELLIPSE
  5
FE37
330
FDE4
100
AcDbEntity
  8
0
100
AcDbEllipse
 10
-4.242640687119347
 20
39.54047972742822
 30
0.0
 11
1.018271863351761
 21
1.101418363886365
 31
0.0
210
0.0
220
0.0
230
1.0
 40
0.3866729749327989
 41
0.0
 42
0.6279471263398904
  0
SPLINE
  5
FE38
330
FDE4
100
AcDbEntity
  8
0
100
AcDbSpline
210
0.0
220
0.0
230
1.0
 70
     8
 71
     3
 72
    10
 73
     6
 74
     0
 42
0.000000001
 43
0.0000000001
 40
0.0
 40
0.0
 40
0.0
 40
0.0
 40
0.0866240026525033
 40
0.0866240026525033
 40
0.1732480053050065
 40
0.1732480053050065
 40
0.1732480053050065
 40
0.1732480053050065
 10
-4.852982400748548
 20
41.77459845195539
 30
0.0
 10
-4.653015624815322
 20
41.59271208819603
 30
0.0
 10
-4.454589551920924
 20
41.40879513430926
 30
0.0
 10
-4.060089294715425
 20
41.03799035706866
 30
0.0
 10
-3.864015106640092
 20
40.8510992737749
 30
0.0
 10
-3.668822327668892
 20
40.66310147658457
 30
0.0
  0
ELLIPSE
  5
FE39
330
FDE4
100
AcDbEntity
  8
0
100
AcDbEllipse
 10
-4.242640687108401
 20
38.21103839862333
 30
0.0
 11
0.4817249453119337
 21
-1.420542529129003
 31
0.0
210
0.0
220
0.0
230
1.0
 40
0.6821022831553183
 41
0.9100452509959948
 42
2.142595991522572
  0
SPLINE
  5
FE3A
330
FDE4
100
AcDbEntity
  8
0
100
AcDbSpline
210
0.0
220
0.0
230
1.0
 70
     8
 71
     3
 72
    10
 73
     6
 74
     0
 42
0.000000001
 43
0.0000000001
 40
-0.2385842614456958
 40
-0.2385842614456958
 40
-0.2385842614456958
 40
-0.2385842614456958
 40
-0.1421416204810507
 40
-0.1421416204810507
 40
-0.1200897735668752
 40
-0.1200897735668752
 40
-0.1200897735668752
 40
-0.1200897735668752
 10
-3.181980515317635
 20
37.59866596293385
 30
0.0
 10
-2.736723550656954
 20
37.80269686907041
 30
0.0
 10
-2.429757148431845
 20
38.12121370507155
 30
0.0
 10
-2.314099551471169
 20
38.574731718734
 30
0.0
 10
-2.303496438190681
 20
38.66155850122368
 30
0.0
 10
-2.303582398590162
 20
38.74976894128642
 30
0.0
  0
SPLINE
  5
FE3B
330
FDE4
100
AcDbEntity
  8
0
100
AcDbSpline
210
0.0
220
0.0
230
1.0
 70
     8
 71
     3
 72
    14
 73
    10
 74
     0
 42
0.000000001
 43
0.0000000001
 40
0.0000000000000002
 40
0.0000000000000002
 40
0.0000000000000002
 40
0.0000000000000002
 40
0.0303721411284298
 40
0.0303721411284298
 40
0.0789675669339172
 40
0.0789675669339172
 40
0.1421416204810507
 40
0.1421416204810507
 40
0.2385842614456958
 40
0.2385842614456958
 40
0.2385842614456958
 40
0.2385842614456958
 10
-3.668822327668894
 20
40.66310147658457
 30
0.0
 10
-3.60038376042852
 20
40.59718561662363
 30
0.0
 10
-3.538211495367684
 20
40.52871466055854
 30
0.0
 10
-3.396689981997766
 20
40.34680680514004
 30
0.0
 10
-3.329612884711676
 20
40.23105600714794
 30
0.0
 10
-3.232509348993615
 20
39.96868692302337
 30
0.0
 10
-3.220196724130601
 20
39.82339131680572
 30
0.0
 10
-3.303485744943341
 20
39.49759867068332
 30
0.0
 10
-3.461343369028182
 20
39.34124983496405
 30
0.0
 10
-3.688502279420529
 20
39.25607680411558
 30
0.0
  0
ELLIPSE
  5
FE3C
330
FDE4
100
AcDbEntity
  8
0
100
AcDbEllipse
 10
-6.545181997454729
 20
37.25430981146509
 30
0.0
 11
0.67353048785589
 21
-1.340282314263907
 31
0.0
210
0.0
220
0.0
230
1.0
 40
0.6134744499317049
 41
0.8199141697227352
 42
2.003105718372864
  0
SPLINE
  5
FE3D
330
FDE4
100
AcDbEntity
  8
0
100
AcDbSpline
210
0.0
220
0.0
230
1.0
 70
     8
 71
     3
 72
    10
 73
     6
 74
     0
 42
0.000000001
 43
0.0000000001
 40
-0.3290771859225763
 40
-0.3290771859225763
 40
-0.3290771859225763
 40
-0.3290771859225763
 40
-0.1645385929612888
 40
-0.1645385929612888
 40
-0.0000000000000011
 40
-0.0000000000000011
 40
-0.0000000000000011
 40
-0.0000000000000011
 10
-5.484521825674906
 20
36.6419373757693
 30
0.0
 10
-5.097512257847403
 20
36.83642083664147
 30
0.0
 10
-4.711593956799324
 20
37.01149846325828
 30
0.0
 10
-3.943745601846797
 20
37.32815890220336
 30
0.0
 10
-3.561801897962837
 20
37.46986345893633
 30
0.0
 10
-3.181980515328568
 20
37.59866596292756
 30
0.0
  0
SPLINE
  5
FE3E
330
FDE4
100
AcDbEntity
  8
0
100
AcDbSpline
210
0.0
220
0.0
230
1.0
 70
     8
 71
     3
 72
    10
 73
     6
 74
     0
 42
0.000000001
 43
0.0000000001
 40
0.0000000000000011
 40
0.0000000000000011
 40
0.0000000000000011
 40
0.0000000000000011
 40
0.1645385929612888
 40
0.1645385929612888
 40
0.3290771859225763
 40
0.3290771859225763
 40
0.3290771859225763
 40
0.3290771859225763
 10
-3.688502279420524
 20
39.25607680411559
 30
0.0
 10
-4.076052922176391
 20
39.11076503627632
 30
0.0
 10
-4.468696964554119
 20
38.95128401392323
 30
0.0
 10
-5.266006624497063
 20
38.59785534094047
 30
0.0
 10
-5.670759629107817
 20
38.40380030409571
 30
0.0
 10
-6.080785897112352
 20
38.19102651949047
 30
0.0
  0
ELLIPSE
  5
FE3F
330
FDE4
100
AcDbEntity
  8
0
100
AcDbEllipse
 10
-8.044115626542795
 20
36.50105246581554
 30
0.0
 11
0.6735304878559001
 21
-1.340282314263912
 31
0.0
210
0.0
220
0.0
230
0.9999999999999998
 40
0.6134744499317046
 41
0.8199141697227343
 42
2.003105718372863
  0
LINE
  5
FE40
330
FDE4
100
AcDbEntity
  8
0
100
AcDbLine
 10
-6.983455454762976
 20
35.88868003011975
 30
0.0
 11
-5.484521825674915
 21
36.6419373757693
 31
0.0
  0
LINE
  5
FE41
330
FDE4
100
AcDbEntity
  8
0
100
AcDbLine
 10
-6.080785897112352
 20
38.19102651949048
 30
0.0
 11
-7.579719526200414
 21
37.43776917384093
 31
0.0
  0
ELLIPSE
  5
FE42
330
FDE4
100
AcDbEntity
  8
0
100
AcDbEllipse
 10
-8.044115628272056
 20
42.83754609255239
 30
0.0
 11
0.8193997375741211
 21
-1.256417156128779
 31
0.0
210
0.0
220
0.0
230
1.0
 40
0.5388095822648823
 41
0.0000000001435014
 42
0.7550720329637591
  0
ELLIPSE
  5
FE43
330
FDE4
100
AcDbEntity
  8
0
100
AcDbEllipse
 10
0.2816431272441178
 20
43.25143346608062
 30
0.0
 11
-18.92465153915224
 21
-11.19850234446446
 31
0.0
210
0.0
220
0.0
230
0.9999999999999998
 40
0.1346372153812725
 41
5.025585556707159
 42
7.381780046922152
  0
ELLIPSE
  5
FE44
330
FDE4
100
AcDbEntity
  8
0
100
AcDbEllipse
 10
-0.7790170445357059
 20
43.86380590177643
 30
0.0
 11
-17.74233703997128
 21
-11.57661130405069
 31
0.0
210
0.0
220
0.0
230
1.0
 40
0.0872913523692789
 41
5.532780666771427
 42
7.404387711445664
  0
ELLIPSE
  5
FE45
330
FDE4
100
AcDbEntity
  8
0
100
AcDbEllipse
 10
-6.545181997454725
 20
43.81510821649623
 30
0.0
 11
0.8193997375596801
 21
-1.256417156078012
 31
0.0
210
0.0
220
0.0
230
0.9999999999999998
 40
0.5388095822689464
 41
0.0000000000000055
 42
0.7550720328373071
  0
LINE
  5
FE46
330
FDE4
100
AcDbEntity
  8
0
100
AcDbLine
 10
-5.484521825674906
 20
43.20273578080044
 30
0.0
 11
-6.983455456492237
 21
42.22517365685658
 31
0.0
  0
ELLIPSE
  5
FE47
330
FDE4
100
AcDbEntity
  8
0
100
AcDbEllipse
 10
-4.242640687083256
 20
45.51712532008052
 30
0.0
 11
0.9480488983984233
 21
-1.162412700483584
 31
0.0
210
0.0
220
0.0
230
1.0
 40
0.4487796140200845
 41
0.0000000000000101
 42
0.7024165027826276
  0
SPLINE
  5
FE48
330
FDE4
100
AcDbEntity
  8
0
100
AcDbSpline
210
0.0
220
0.0
230
1.0
 70
     8
 71
     3
 72
    10
 73
     6
 74
     0
 42
0.000000001
 43
0.0000000001
 40
-0.3290771859266576
 40
-0.3290771859266576
 40
-0.3290771859266576
 40
-0.3290771859266576
 40
-0.1645385929633288
 40
-0.1645385929633288
 40
0.0
 40
0.0
 40
0.0
 40
0.0
 10
-3.181980515303437
 20
44.90475288438473
 30
0.0
 10
-3.561801897941301
 20
44.59497543335075
 30
0.0
 10
-3.943745601829165
 20
44.29564938956956
 30
0.0
 10
-4.711593956790105
 20
43.72567491964196
 30
0.0
 10
-5.097512257842704
 20
43.45513247626159
 30
0.0
 10
-5.484521825674901
 20
43.20273578080042
 30
0.0
  0
SPLINE
  5
FE49
330
FDE4
100
AcDbEntity
  8
0
100
AcDbSpline
210
0.0
220
0.0
230
1.0
 70
     8
 71
     3
 72
    12
 73
     8
 74
     0
 42
0.000000001
 43
0.0000000001
 40
-0.118491443632364
 40
-0.118491443632364
 40
-0.118491443632364
 40
-0.118491443632364
 40
-0.0753627829472244
 40
-0.0753627829472244
 40
-0.0289856857501223
 40
-0.0289856857501223
 40
-0.0000000000019335
 40
-0.0000000000019335
 40
-0.0000000000019335
 40
-0.0000000000019335
 10
-2.303497189998457
 20
46.20311190869734
 30
0.0
 10
-2.303696675676762
 20
46.04415941599513
 30
0.0
 10
-2.344919528827265
 20
45.87899699092057
 30
0.0
 10
-2.513936261490827
 20
45.53877062456856
 30
0.0
 10
-2.647516335864494
 20
45.3640885483968
 30
0.0
 10
-2.92627012452415
 20
45.09678339168413
 30
0.0
 10
-3.04815922705883
 20
44.9979552264479
 30
0.0
 10
-3.18198051529384
 20
44.90475288438712
 30
0.0
  0
ELLIPSE
  5
FE4A
330
FDE4
100
AcDbEntity
  8
0
100
AcDbEllipse
 10
30.40993194715722
 20
14.94828343060914
 30
0.0
 11
-0.644413373866577
 21
1.354522574039246
 31
0.0
210
0.0
220
0.0
230
1.0
 40
0.6257331206090919
 41
0.3725120245364071
 42
0.8333043077522672
  0
ELLIPSE
  5
FE4B
330
FDE4
100
AcDbEntity
  8
0
100
AcDbEllipse
 10
43.040833733889
 20
26.29713804584343
 30
0.0
 11
-26.60789148696049
 21
-14.33873511477723
 31
0.0
210
0.0
220
0.0
230
1.0
 40
0.1000225409266446
 41
5.170902668615094
 42
7.08185104812699
  0
ELLIPSE
  5
FE4C
330
FDE4
100
AcDbEntity
  8
0
100
AcDbEllipse
 10
30.40993194715723
 20
23.06108356772306
 30
0.0
 11
-0.8425747043855649
 21
1.240994708904748
 31
0.0
210
0.0
220
0.0
230
0.9999999999999998
 40
0.5245233345042655
 41
0.7452041137883541
 42
1.810549179579979
  0
ELLIPSE
  5
FE4D
330
FDE4
100
AcDbEntity
  8
0
100
AcDbEllipse
 10
41.98017356210918
 20
26.90951048153922
 30
0.0
 11
-25.68345566027804
 21
-15.19796746748749
 31
0.0
210
0.0
220
0.0
230
1.0
 40
0.1346372153812722
 41
5.145249232568378
 42
7.262116370962248
  0
ELLIPSE
  5
FE4E
330
FDE4
100
AcDbEntity
  8
0
100
AcDbEllipse
 10
31.85009516997159
 20
15.53639859047294
 30
0.0
 11
0.5208505218990919
 21
-1.406667954365002
 31
0.0
210
0.0
220
0.0
230
1.0
 40
0.6701973449423533
 41
3.592562058822032
 42
4.032922845143478
  0
SPLINE
  5
FE4F
330
FDE4
100
AcDbEntity
  8
0
100
AcDbSpline
210
0.0
220
0.0
230
1.0
 70
     8
 71
     3
 72
    10
 73
     6
 74
     0
 42
0.000000001
 43
0.0000000001
 40
-0.1489505020863178
 40
-0.1489505020863178
 40
-0.1489505020863178
 40
-0.1489505020863178
 40
-0.0744752510431589
 40
-0.0744752510431589
 40
0.0
 40
0.0
 40
0.0
 40
0.0
 10
30.78943499819177
 20
16.14877102616874
 30
0.0
 10
30.96221840153665
 20
16.21274797647062
 30
0.0
 10
31.13447159457709
 20
16.27302408792835
 30
0.0
 10
31.47791694081084
 20
16.38723246945944
 30
0.0
 10
31.64910995668297
 20
16.44116696095973
 30
0.0
 10
31.81980515339468
 20
16.49242603576775
 30
0.0
  0
ELLIPSE
  5
FE50
330
FDE4
100
AcDbEntity
  8
0
100
AcDbEllipse
 10
32.8804653251745
 20
15.88005360007196
 30
0.0
 11
-0.4314118640183592
 21
1.436622359419552
 31
0.0
210
0.0
220
0.0
230
0.9999999999999998
 40
0.6961202208620329
 41
0.5876585946227184
 42
0.9343160604978004
  0
ELLIPSE
  5
FE51
330
FDE4
100
AcDbEntity
  8
0
100
AcDbEllipse
 10
33.54308044936598
 20
24.34824912274732
 30
0.0
 11
1.030044369542927
 21
1.090416707856641
 31
0.0
210
0.0
220
0.0
230
0.9999999999999998
 40
0.3751864151476529
 41
4.287665715117302
 42
5.610805162114781
  0
SPLINE
  5
FE52
330
FDE4
100
AcDbEntity
  8
0
100
AcDbSpline
210
0.0
220
0.0
230
1.0
 70
     8
 71
     3
 72
    10
 73
     6
 74
     0
 42
0.000000001
 43
0.0000000001
 40
-0.098631505759573
 40
-0.098631505759573
 40
-0.098631505759573
 40
-0.098631505759573
 40
-0.0493157528797865
 40
-0.0493157528797865
 40
0.0
 40
0.0
 40
0.0
 40
0.0
 10
34.60374062114579
 20
24.96062155844312
 30
0.0
 10
34.49297074509709
 20
25.06525851632981
 30
0.0
 10
34.38238266874426
 20
25.17044979184378
 30
0.0
 10
34.16152509562865
 20
25.3817659748187
 30
0.0
 10
34.05125562083423
 20
25.48789110371864
 30
0.0
 10
33.94112549695434
 20
25.59441205563647
 30
0.0
  0
ELLIPSE
  5
FE53
330
FDE4
100
AcDbEntity
  8
0
100
AcDbEllipse
 10
32.88046532517451
 20
24.98203961994069
 30
0.0
 11
-1.042846028619087
 21
-1.078180022349419
 31
0.0
210
0.0
220
0.0
230
1.0
 40
0.3623159750592207
 41
1.126298842996769
 42
2.473566334048451
  0
SPLINE
  5
FE54
330
FDE4
100
AcDbEntity
  8
0
100
AcDbSpline
210
0.0
220
0.0
230
1.0
 70
     8
 71
     3
 72
    10
 73
     6
 74
     0
 42
0.000000001
 43
0.0000000001
 40
0.0
 40
0.0
 40
0.0
 40
0.0
 40
0.0493157528797865
 40
0.0493157528797865
 40
0.098631505759573
 40
0.098631505759573
 40
0.098631505759573
 40
0.098631505759573
 10
32.78471905395482
 20
24.17729372902865
 30
0.0
 10
32.90142800477043
 20
24.07141532543878
 30
0.0
 10
33.01862648146136
 20
23.96589933856174
 30
0.0
 10
33.25413717170655
 20
23.75569673008599
 30
0.0
 10
33.37244943866173
 20
23.65101000764231
 30
0.0
 10
33.49139275621017
 20
23.54679969642771
 30
0.0
  0
ELLIPSE
  5
FE55
330
FDE4
100
AcDbEntity
  8
0
100
AcDbEllipse
 10
36.32122205259253
 20
21.32953373145609
 30
0.0
 11
1.075724519468979
 21
1.045378763039139
 31
0.0
210
0.0
220
0.0
230
1.0
 40
0.3273577323099326
 41
4.89749971456654
 42
5.625840623118905
  0
SPLINE
  5
FE56
330
FDE4
100
AcDbEntity
  8
0
100
AcDbSpline
210
0.0
220
0.0
230
1.0
 70
     8
 71
     3
 72
    10
 73
     6
 74
     0
 42
0.000000001
 43
0.0000000001
 40
-0.4298105547536792
 40
-0.4298105547536792
 40
-0.4298105547536792
 40
-0.4298105547536792
 40
-0.2527935054382455
 40
-0.2527935054382455
 40
-0.0000000000000005
 40
-0.0000000000000005
 40
-0.0000000000000005
 40
-0.0000000000000005
 10
37.38188222437235
 20
21.94190616715189
 30
0.0
 10
36.99331843510921
 20
22.34174937256861
 30
0.0
 10
36.62298261148181
 20
22.77960327039072
 30
0.0
 10
35.71474088910388
 20
23.82219724862096
 30
0.0
 10
35.17154915347357
 20
24.42425048352412
 30
0.0
 10
34.60374062114581
 20
24.9606215584431
 30
0.0
  0
SPLINE
  5
FE57
330
FDE4
100
AcDbEntity
  8
0
100
AcDbSpline
210
0.0
220
0.0
230
1.0
 70
     8
 71
     3
 72
    10
 73
     6
 74
     0
 42
0.000000001
 43
0.0000000001
 40
0.0000000000000005
 40
0.0000000000000005
 40
0.0000000000000005
 40
0.0000000000000005
 40
0.2527935054382455
 40
0.2527935054382455
 40
0.4298105547536792
 40
0.4298105547536792
 40
0.4298105547536792
 40
0.4298105547536792
 10
33.49139275621018
 20
23.5467996964277
 30
0.0
 10
34.08648692748855
 20
23.16080296010883
 30
0.0
 10
34.70594455270612
 20
22.71905864660781
 30
0.0
 10
35.83931189770009
 20
21.90003576543613
 30
0.0
 10
36.33078896739794
 20
21.54058742790773
 30
0.0
 10
36.85558134942333
 20
21.17581069331404
 30
0.0
  0
ELLIPSE
  5
FE58
330
FDE4
100
AcDbEntity
  8
0
100
AcDbEllipse
 10
36.32122205259252
 20
15.55951584297494
 30
0.0
 11
0.1870368933165866
 21
1.488293385236417
 31
0.0
210
0.0
220
0.0
230
0.9999999999999998
 40
0.7479997204301342
 41
5.22819043460479
 42
5.956531343157155
  0
ELLIPSE
  5
FE59
330
FDE4
100
AcDbEntity
  8
0
100
AcDbEllipse
 10
27.14723589859727
 20
24.96587303415819
 30
0.0
 11
12.86670137892408
 21
-8.191212071365352
 31
0.0
210
0.0
220
0.0
230
1.0
 40
0.260920061353402
 41
5.779181046885879
 42
7.116398104046116
  0
ELLIPSE
  5
FE5A
330
FDE4
100
AcDbEntity
  8
0
100
AcDbEllipse
 10
26.08657572681745
 20
24.3535005984624
 30
0.0
 11
13.65152717823381
 21
-7.074985500025731
 31
0.0
210
0.0
220
0.0
230
1.0
 40
0.1990675239603149
 41
5.717381004953955
 42
7.054598062114194
  0
ELLIPSE
  5
FE5B
330
FDE4
100
AcDbEntity
  8
0
100
AcDbEllipse
 10
33.54308044936599
 20
15.74872205662321
 30
0.0
 11
0.3083698224032574
 21
1.467960507858084
 31
0.0
210
0.0
220
0.0
230
0.9999999999999998
 40
0.7251908855986257
 41
5.288653074036312
 42
6.047746408756584
  0
SPLINE
  5
FE5C
330
FDE4
100
AcDbEntity
  8
0
100
AcDbSpline
210
0.0
220
0.0
230
1.0
 70
     8
 71
     3
 72
    10
 73
     6
 74
     0
 42
0.000000001
 43
0.0000000001
 40
-0.4298560553329342
 40
-0.4298560553329342
 40
-0.4298560553329342
 40
-0.4298560553329342
 40
-0.250454504225995
 40
-0.250454504225995
 40
-0.0000000000000003
 40
-0.0000000000000003
 40
-0.0000000000000003
 40
-0.0000000000000003
 10
34.6037406211458
 20
16.361094492319
 30
0.0
 10
35.00670086039229
 20
16.27644590896349
 30
0.0
 10
35.39820439883605
 20
16.23768203190087
 30
0.0
 10
36.31659077933063
 20
16.20155134087701
 30
0.0
 10
36.83211850626483
 20
16.24097821679248
 30
0.0
 10
37.38188222437234
 20
16.17188827867073
 30
0.0
  0
SPLINE
  5
FE5D
330
FDE4
100
AcDbEntity
  8
0
100
AcDbSpline
210
0.0
220
0.0
230
1.0
 70
     8
 71
     3
 72
    10
 73
     6
 74
     0
 42
0.000000001
 43
0.0000000001
 40
0.0000000000000003
 40
0.0000000000000003
 40
0.0000000000000003
 40
0.0000000000000003
 40
0.250454504225995
 40
0.250454504225995
 40
0.2614164267501715
 40
0.2614164267501715
 40
0.2614164267501715
 40
0.2614164267501715
 10
36.8555813494233
 20
16.92421856495951
 30
0.0
 10
36.11307312001806
 20
17.07438710965026
 30
0.0
 10
35.43844639252485
 20
17.07926066551501
 30
0.0
 10
34.77575540998235
 20
17.10906630596074
 30
0.0
 10
34.74804061997852
 20
17.11033762186047
 30
0.0
 10
34.72039792642353
 20
17.11163586389093
 30
0.0
  0
ELLIPSE
  5
FE5E
330
FDE4
100
AcDbEntity
  8
0
100
AcDbEllipse
 10
32.88046532517449
 20
15.88005360007196
 30
0.0
 11
-0.2763935293054518
 21
-1.474315643598097
 31
0.0
210
0.0
220
0.0
230
1.0
 40
0.7317060891393134
 41
2.131227017211994
 42
2.680687794904638
  0
SPLINE
  5
FE5F
330
FDE4
100
AcDbEntity
  8
0
100
AcDbSpline
210
0.0
220
0.0
230
1.0
 70
     8
 71
     3
 72
    10
 73
     6
 74
     0
 42
0.000000001
 43
0.0000000001
 40
-0.0986315057595782
 40
-0.0986315057595782
 40
-0.0986315057595782
 40
-0.0986315057595782
 40
-0.0493157528797892
 40
-0.0493157528797892
 40
-0.0000000000000003
 40
-0.0000000000000003
 40
-0.0000000000000003
 40
-0.0000000000000003
 10
33.94112549695432
 20
16.49242603576775
 30
0.0
 10
34.05125562083421
 20
16.4717796743497
 30
0.0
 10
34.16152509562863
 20
16.45057658133772
 30
0.0
 10
34.38238266874423
 20
16.40686840573092
 30
0.0
 10
34.49297074509709
 20
16.38436356994195
 30
0.0
 10
34.60374062114581
 20
16.36109449231901
 30
0.0
  0
ELLIPSE
  5
FE60
330
FDE4
100
AcDbEntity
  8
0
100
AcDbEllipse
 10
32.88046532517451
 20
24.98203961994069
 30
0.0
 11
-0.9743856472127097
 21
1.140426503772113
 31
0.0
210
0.0
220
0.0
230
1.0
 40
0.4267122036849455
 41
0.6924023912953779
 42
1.945961861863235
  0
SPLINE
  5
FE61
330
FDE4
100
AcDbEntity
  8
0
100
AcDbSpline
210
0.0
220
0.0
230
1.0
 70
     8
 71
     3
 72
    10
 73
     6
 74
     0
 42
0.000000001
 43
0.0000000001
 40
-0.1489505020863135
 40
-0.1489505020863135
 40
-0.1489505020863135
 40
-0.1489505020863135
 40
-0.0744752510431567
 40
-0.0744752510431567
 40
0.0
 40
0.0
 40
0.0
 40
0.0
 10
31.81980515339469
 20
25.59441205563649
 30
0.0
 10
31.64910995668299
 20
25.44856929490278
 30
0.0
 10
31.47791694081086
 20
25.30482711880873
 30
0.0
 10
31.13447159457712
 20
25.02245897413988
 30
0.0
 10
30.96221840153668
 20
24.88383423085629
 30
0.0
 10
30.7894349981918
 20
24.74829809229284
 30
0.0
  0
ELLIPSE
  5
FE62
330
FDE4
100
AcDbEntity
  8
0
100
AcDbEllipse
 10
31.85009516997163
 20
24.13592565659703
 30
0.0
 11
0.9257933986362074
 21
-1.180214634310902
 31
0.0
210
0.0
220
0.0
230
1.0
 40
0.4663712957493053
 41
3.852704097088714
 42
5.07130707691349
  0
SPLINE
  5
FE63
330
FDE4
100
AcDbEntity
  8
0
100
AcDbSpline
210
0.0
220
0.0
230
1.0
 70
     8
 71
     3
 72
    10
 73
     6
 74
     0
 42
0.000000001
 43
0.0000000001
 40
0.0
 40
0.0
 40
0.0
 40
0.0
 40
0.0744752510431567
 40
0.0744752510431567
 40
0.1489505020863135
 40
0.1489505020863135
 40
0.1489505020863135
 40
0.1489505020863135
 10
31.65994657773945
 20
23.31711134330765
 30
0.0
 10
31.84972719192988
 20
23.45609271249376
 30
0.0
 10
32.03842924511298
 20
23.59753356826701
 30
0.0
 10
32.41340158666413
 20
23.88451195722553
 30
0.0
 10
32.59967467168003
 20
24.03004949577081
 30
0.0
 10
32.78471905395482
 20
24.17729372902865
 30
0.0
  0
ELLIPSE
  5
FE64
330
FDE4
100
AcDbEntity
  8
0
100
AcDbEllipse
 10
32.88046532517451
 20
24.98203961994069
 30
0.0
 11
-1.499999999999999
 21
-0.0000000000000874
 31
0.0
210
0.0
220
0.0
230
1.0
 40
0.5773502691896269
 41
3.926990816986997
 42
5.497787143781898
  0
ELLIPSE
  5
FE65
330
FDE4
100
AcDbEntity
  8
0
100
AcDbEllipse
 10
32.88046532517449
 20
15.88005360007196
 30
0.0
 11
1.499999999999999
 21
-0.0000000000000892
 31
0.0
210
0.0
220
0.0
230
1.0
 40
0.5773502691896259
 41
0.7853981633976881
 42
2.356194490192583
  0
SPLINE
  5
FE66
330
FDE4
100
AcDbEntity
  8
0
100
AcDbSpline
210
0.0
220
0.0
230
1.0
 70
     8
 71
     3
 72
     8
 73
     4
 74
     0
 42
0.000000001
 43
0.0000000001
 40
-1.158510647660078
 40
-1.158510647660078
 40
-1.158510647660078
 40
-1.158510647660078
 40
-0.9525469336706946
 40
-0.9525469336706946
 40
-0.9525469336706946
 40
-0.9525469336706946
 10
29.34927177537741
 20
15.56065586630494
 30
0.0
 10
29.8328645159337
 20
15.79072484816766
 30
0.0
 10
30.31157319601531
 20
15.97183192103957
 30
0.0
 10
30.78943499819177
 20
16.14877102616872
 30
0.0
  0
SPLINE
  5
FE67
330
FDE4
100
AcDbEntity
  8
0
100
AcDbSpline
210
0.0
220
0.0
230
1.0
 70
     8
 71
     3
 72
     8
 73
     4
 74
     0
 42
0.000000001
 43
0.0000000001
 40
-0.2059637139893872
 40
-0.2059637139893872
 40
-0.2059637139893872
 40
-0.2059637139893872
 40
0.0
 40
0.0
 40
0.0
 40
0.0
 10
30.7894349981918
 20
24.74829809229284
 30
0.0
 10
30.31157217905664
 20
24.37344911944707
 30
0.0
 10
29.83286451593372
 20
24.0017918194328
 30
0.0
 10
29.34927177537741
 20
23.67345600341885
 30
0.0
  0
SPLINE
  5
FE68
330
FDE4
100
AcDbEntity
  8
0
100
AcDbSpline
210
0.0
220
0.0
230
1.0
 70
     8
 71
     3
 72
     8
 73
     4
 74
     0
 42
0.000000001
 43
0.0000000001
 40
0.0
 40
0.0
 40
0.0
 40
0.0
 40
0.2059637139893869
 40
0.2059637139893869
 40
0.2059637139893869
 40
0.2059637139893869
 10
29.97769997734084
 20
22.33708493335331
 30
0.0
 10
30.54057604987625
 20
22.66565574372853
 30
0.0
 10
31.10909312054832
 20
23.000445410634
 30
0.0
 10
31.65994657773944
 20
23.31711134330767
 30
0.0
  0
SPLINE
  5
FE69
330
FDE4
100
AcDbEntity
  8
0
100
AcDbSpline
210
0.0
220
0.0
230
1.0
 70
     8
 71
     3
 72
    12
 73
     8
 74
     0
 42
0.000000001
 43
0.0000000001
 40
0.1197625046292726
 40
0.1197625046292726
 40
0.1197625046292726
 40
0.1197625046292726
 40
0.170247502405076
 40
0.170247502405076
 40
0.2269966698734342
 40
0.2269966698734342
 40
0.2837458373417925
 40
0.2837458373417925
 40
0.2837458373417925
 40
0.2837458373417925
 10
-5.494542041500389
 20
42.71156328046927
 30
0.0
 10
-5.382497797610072
 20
42.60418801512414
 30
0.0
 10
-5.271920417977353
 20
42.49850825834037
 30
0.0
 10
-5.039289858295989
 20
42.27852335737503
 30
0.0
 10
-4.917517734823291
 20
42.16477093003405
 30
0.0
 10
-4.676010760092248
 20
41.94374132378428
 30
0.0
 10
-4.556276560232359
 20
41.83646179231114
 30
0.0
 10
-4.437482404381354
 20
41.73301775806272
 30
0.0
  0
SPLINE
  5
FE6A
330
FDE4
100
AcDbEntity
  8
0
100
AcDbSpline
210
0.0
220
0.0
230
1.0
 70
     8
 71
     3
 72
    16
 73
    12
 74
     0
 42
0.000000001
 43
0.0000000001
 40
0.0
 40
0.0
 40
0.0
 40
0.0
 40
0.0346496010610013
 40
0.0346496010610013
 40
0.0692992021220026
 40
0.0692992021220026
 40
0.1039488031830039
 40
0.1039488031830039
 40
0.1385984042440052
 40
0.1385984042440052
 40
0.1732480053050065
 40
0.1732480053050065
 40
0.1732480053050065
 40
0.1732480053050065
 10
-4.437482404360917
 20
41.73301775800971
 30
0.0
 10
-4.355499102996076
 20
41.66162802192483
 30
0.0
 10
-4.273770338680793
 20
41.5899195590236
 30
0.0
 10
-4.110780799324293
 20
41.44592898235744
 30
0.0
 10
-4.029520014903555
 20
41.37364684264453
 30
0.0
 10
-3.867427533735257
 20
41.22856522479009
 30
0.0
 10
-3.786595832748407
 20
41.15576572164741
 30
0.0
 10
-3.625325029803061
 20
41.0096990183106
 30
0.0
 10
-3.544885927053345
 20
40.93643179451058
 30
0.0
 10
-3.384366314037736
 20
40.78947335070441
 30
0.0
 10
-3.304285805083733
 20
40.7157821086385
 30
0.0
 10
-3.22436882376758
 20
40.64189809131459
 30
0.0
  0
SPLINE
  5
FE6B
330
FDE4
100
AcDbEntity
  8
0
100
AcDbSpline
210
0.0
220
0.0
230
1.0
 70
     8
 71
     3
 72
    16
 73
    12
 74
     0
 42
0.000000001
 43
0.0000000001
 40
0.0000000000000002
 40
0.0000000000000002
 40
0.0000000000000002
 40
0.0000000000000002
 40
0.0240179547133756
 40
0.0240179547133756
 40
0.0480359094267511
 40
0.0480359094267511
 40
0.0720538641401265
 40
0.0720538641401265
 40
0.0960718188535019
 40
0.0960718188535019
 40
0.1200897735668774
 40
0.1200897735668774
 40
0.1200897735668774
 40
0.1200897735668774
 10
-3.224368823767584
 20
40.64189809131459
 30
0.0
 10
-3.133372909043528
 20
40.55777149357337
 30
0.0
 10
-3.045245681453407
 20
40.46792699015583
 30
0.0
 10
-2.876527956317458
 20
40.27407469433899
 30
0.0
 10
-2.79590625920044
 20
40.17007343311728
 30
0.0
 10
-2.64561006699276
 20
39.94414285845672
 30
0.0
 10
-2.575864775649394
 20
39.8221723393234
 30
0.0
 10
-2.453814489139927
 20
39.55573469882544
 30
0.0
 10
-2.401458471330595
 20
39.41108207762301
 30
0.0
 10
-2.326107260578458
 20
39.09718352712274
 30
0.0
 10
-2.303300858899168
 20
38.92764098221541
 30
0.0
 10
-2.303300858899166
 20
38.7497711061201
 30
0.0
  0
SPLINE
  5
FE6C
330
FDE4
100
AcDbEntity
  8
0
100
AcDbSpline
210
0.0
220
0.0
230
1.0
 70
     8
 71
     3
 72
    16
 73
    12
 74
     0
 42
0.000000001
 43
0.0000000001
 40
0.6935097995171922
 40
0.6935097995171922
 40
0.6935097995171922
 40
0.6935097995171922
 40
0.7904272886253842
 40
0.7904272886253842
 40
0.887344777733576
 40
0.887344777733576
 40
0.984262266841768
 40
0.984262266841768
 40
1.08117975594996
 40
1.08117975594996
 40
1.178097245058151
 40
1.178097245058151
 40
1.178097245058151
 40
1.178097245058151
 10
-14.44511387784898
 20
36.45267026140678
 30
0.0
 10
-14.06333861383203
 20
36.75604968236302
 30
0.0
 10
-13.65782277960284
 20
37.07010448137254
 30
0.0
 10
-12.80370597382175
 20
37.71596833667452
 30
0.0
 10
-12.35510375091612
 20
38.04778046012671
 30
0.0
 10
-11.41944331432446
 20
38.7256260763763
 30
0.0
 10
-10.93238500460683
 20
39.07166068169243
 30
0.0
 10
-9.924698481429006
 20
39.77441197489163
 30
0.0
 10
-9.404070849528721
 20
40.1311288046451
 30
0.0
 10
-8.334379807698431
 20
40.85168324705235
 30
0.0
 10
-7.785317393582635
 20
41.215520490178
 30
0.0
 10
-7.224715890704453
 20
41.58112893647953
 30
0.0
  0
LINE
  5
FE6D
330
FDE4
100
AcDbEntity
  8
0
100
AcDbLine
 10
-7.224715890705075
 20
41.58112893643457
 30
0.0
 11
-5.725782259895044
 21
42.55869106041823
 31
0.0
  0
SPLINE
  5
FE6E
330
FDE4
100
AcDbEntity
  8
0
100
AcDbSpline
210
0.0
220
0.0
230
1.0
 70
     8
 71
     3
 72
    16
 73
    12
 74
     0
 42
0.000000001
 43
0.0000000001
 40
0.0
 40
0.0
 40
0.0
 40
0.0
 40
0.0658154371853316
 40
0.0658154371853316
 40
0.1316308743706631
 40
0.1316308743706631
 40
0.1974463115559946
 40
0.1974463115559946
 40
0.2632617487413261
 40
0.2632617487413261
 40
0.3290771859266576
 40
0.3290771859266576
 40
0.3290771859266576
 40
0.3290771859266576
 10
-5.725782259895049
 20
42.55869106041823
 30
0.0
 10
-5.55961561313667
 20
42.66706024822048
 30
0.0
 10
-5.39415191970725
 20
42.77818918670392
 30
0.0
 10
-5.064858930705762
 20
43.00538016944914
 30
0.0
 10
-4.901028889269056
 20
43.12144079162924
 30
0.0
 10
-4.575106035287093
 20
43.35789551699559
 30
0.0
 10
-4.413012310789086
 20
43.47828860939194
 30
0.0
 10
-4.090565837281854
 20
43.72283564230971
 30
0.0
 10
-3.93021225852812
 20
43.84698894796926
 30
0.0
 10
-3.611177750996295
 20
44.09853520686795
 30
0.0
 10
-3.452496218942
 20
44.22592779033767
 30
0.0
 10
-3.29459178867322
 20
44.35471261960642
 30
0.0
  0
SPLINE
  5
FE6F
330
FDE4
100
AcDbEntity
  8
0
100
AcDbSpline
210
0.0
220
0.0
230
1.0
 70
     8
 71
     3
 72
    16
 73
    12
 74
     0
 42
0.000000001
 43
0.0000000001
 40
0.0000000000038469
 40
0.0000000000038469
 40
0.0000000000038469
 40
0.0000000000038469
 40
0.0236982887295505
 40
0.0236982887295505
 40
0.047396577455254
 40
0.047396577455254
 40
0.0710948661809576
 40
0.0710948661809576
 40
0.0947931549066612
 40
0.0947931549066612
 40
0.1184914436323647
 40
0.1184914436323647
 40
0.1184914436323647
 40
0.1184914436323647
 10
-3.294591788649989
 20
44.35471261962537
 30
0.0
 10
-3.202515713094775
 20
44.42980868659711
 30
0.0
 10
-3.11259946839915
 20
44.51043707270657
 30
0.0
 10
-2.938413551614029
 20
44.68630081656862
 30
0.0
 10
-2.854092744499816
 20
44.7815089666695
 30
0.0
 10
-2.693964321012496
 20
44.99217792679731
 30
0.0
 10
-2.618020723685026
 20
45.10767790786658
 30
0.0
 10
-2.481675226367501
 20
45.36697844622659
 30
0.0
 10
-2.421119190810061
 20
45.51108975123071
 30
0.0
 10
-2.331760016824269
 20
45.83354614303008
 30
0.0
 10
-2.303300858899168
 20
46.01254090722279
 30
0.0
 10
-2.303300858899171
 20
46.2031374839471
 30
0.0
  0
LINE
  5
FE70
330
FDE4
100
AcDbEntity
  8
0
100
AcDbLine
 10
-3.18198051533951
 20
-17.53604440313288
 30
0.0
 11
-39.24442635585343
 21
-38.35670721678989
 31
0.0
  0
LINE
  5
FE71
330
FDE4
100
AcDbEntity
  8
0
100
AcDbLine
 10
-4.24264068711933
 20
-58.56499759475112
 30
0.0
 11
31.8198051533946
 21
-37.74433478109409
 31
0.0
  0
LINE
  5
FE72
330
FDE4
100
AcDbEntity
  8
0
100
AcDbLine
 10
-39.24442635585343
 20
-38.35670721678989
 30
0.0
 11
-40.30508652763325
 21
-37.7443347810941
 31
0.0
  0
ELLIPSE
  5
FE73
330
FDE4
100
AcDbEntity
  8
0
100
AcDbEllipse
 10
-38.18376618407362
 20
-38.96907965248569
 30
0.0
 11
0.7500000000000793
 21
-1.299038105676616
 31
0.0
210
0.0
220
0.0
230
0.9999999999999998
 40
0.5773502691896259
 41
3.926990816987002
 42
5.497787143781903
  0
LINE
  5
FE74
330
FDE4
100
AcDbEntity
  8
0
100
AcDbLine
 10
-2.121320343559689
 20
-19.37316171022026
 30
0.0
 11
-38.18376618407361
 21
-40.19382452387728
 31
0.0
  0
ELLIPSE
  5
FE75
330
FDE4
100
AcDbEntity
  8
0
100
AcDbEllipse
 10
-6.363961030678972
 20
-57.34025272335952
 30
0.0
 11
1.5
 21
-2.598076211353318
 31
0.0
210
0.0
220
0.0
230
1.0
 40
0.5773502691896259
 41
5.497787143782137
 42
7.068583470577036
  0
LINE
  5
FE76
330
FDE4
100
AcDbEntity
  8
0
100
AcDbLine
 10
-5.303300858899149
 20
-57.9526251590553
 30
0.0
 11
-4.24264068711933
 21
-58.56499759475112
 31
0.0
  0
LINE
  5
FE77
330
FDE4
100
AcDbEntity
  8
0
100
AcDbLine
 10
-5.303300858899135
 20
-57.9526251590553
 30
0.0
 11
-6.363961030678972
 21
-58.56499759475112
 31
0.0
  0
ELLIPSE
  5
FE78
330
FDE4
100
AcDbEntity
  8
0
100
AcDbEllipse
 10
-6.363961030678972
 20
-57.34025272335952
 30
0.0
 11
0.7500000000000016
 21
-1.299038105676661
 31
0.0
210
0.0
220
0.0
230
1.0
 40
0.5773502691896259
 41
5.497787143782137
 42
7.068583470577047
  0
LINE
  5
FE79
330
FDE4
100
AcDbEntity
  8
0
100
AcDbLine
 10
-6.363961030678972
 20
-58.56499759475112
 30
0.0
 11
-6.363961030678972
 21
-59.78974246614271
 31
0.0
  0
LINE
  5
FE7A
330
FDE4
100
AcDbEntity
  8
0
100
AcDbLine
 10
-38.18376618407361
 20
-40.19382452387728
 30
0.0
 11
-38.18376618407362
 21
-41.41856939526888
 31
0.0
  0
ELLIPSE
  5
FE7B
330
FDE4
100
AcDbEntity
  8
0
100
AcDbEllipse
 10
-38.18376618407362
 20
-38.96907965248569
 30
0.0
 11
1.500000000000156
 21
-2.598076211353229
 31
0.0
210
0.0
220
0.0
230
0.9999999999999998
 40
0.5773502691896257
 41
3.926990816987
 42
5.497787143781897
  0
LINE
  5
FE7C
330
FDE4
100
AcDbEntity
  8
0
100
AcDbLine
 10
31.19848480983496
 20
-39.11766612105582
 30
0.0
 11
-4.863961030678973
 21
-59.93832893471284
 31
0.0
  0
ELLIPSE
  5
FE7D
330
FDE4
100
AcDbEntity
  8
0
100
AcDbEllipse
 10
-2.121320343559682
 20
25.53415024080468
 30
0.0
 11
-1.249999999999999
 21
-2.165063509461097
 31
0.0
210
0.0
220
0.0
230
0.9999999999999998
 40
0.5773502691896259
 41
4.570491925780522
 42
6.425082361783753
  0
ELLIPSE
  5
FE7E
330
FDE4
100
AcDbEntity
  8
0
100
AcDbEllipse
 10
-12.95610876408734
 20
41.18716731928466
 30
0.0
 11
8.166754732810668
 21
0.0000000000000316
 31
0.0
210
0.0
220
0.0
230
1.0
 40
0.5773502691896251
 41
5.654866776461626
 42
6.408095538707124
  0
LINE
  5
FE7F
330
FDE4
100
AcDbEntity
  8
0
100
AcDbLine
 10
-6.349065396351472
 20
38.41571398196972
 30
0.0
 11
-6.080785897112352
 21
38.19102651949048
 31
0.0
  0
ELLIPSE
  5
FE80
330
FDE4
100
AcDbEntity
  8
0
100
AcDbEllipse
 10
-5.513152415837803
 20
40.10180405653656
 30
0.0
 11
1.679777606426227
 21
-2.113846539592925
 31
0.0
210
0.0
220
0.0
230
1.0
 40
0.6605596098195701
 41
3.711761074681961
 42
5.013199698257078
  0
ELLIPSE
  5
FE81
330
FDE4
100
AcDbEntity
  8
0
100
AcDbEllipse
 10
-9.19238815542528
 20
54.11153057327513
 30
0.0
 11
-1.249999999999998
 21
2.165063509461097
 31
0.0
210
0.0
220
0.0
230
1.0
 40
0.5773502691896258
 41
4.425632428173103
 42
8.140738186186071
  0
ELLIPSE
  5
FE82
330
FDE4
100
AcDbEntity
  8
0
100
AcDbEllipse
 10
-16.26345596729074
 20
50.02904766863652
 30
0.0
 11
-1.249999999999999
 21
2.165063509461098
 31
0.0
210
0.0
220
0.0
230
0.9999999999999998
 40
0.5773502691896255
 41
4.42563242817311
 42
8.140738186186068
  0
ELLIPSE
  5
FE83
330
FDE4
100
AcDbEntity
  8
0
100
AcDbEllipse
 10
-8.131727983645458
 20
54.72390300897095
 30
0.0
 11
1.250000000000128
 21
-2.165063509461023
 31
0.0
210
0.0
220
0.0
230
1.0
 40
0.5773502691896255
 41
3.579741684173546
 42
4.999145532596066
  0
ELLIPSE
  5
FE84
330
FDE4
100
AcDbEntity
  8
0
100
AcDbEllipse
 10
-15.20279579551092
 20
50.64142010433231
 30
0.0
 11
1.250000000000127
 21
-2.165063509461023
 31
0.0
210
0.0
220
0.0
230
0.9999999999999996
 40
0.5773502691896257
 41
3.579741684173546
 42
4.999145532596061
  0
ELLIPSE
  5
FE85
330
FDE4
100
AcDbEntity
  8
0
100
AcDbEllipse
 10
-2.121320343559762
 20
26.75889511219632
 30
0.0
 11
1.249999999999999
 21
-2.165063509461098
 31
0.0
210
0.0
220
0.0
230
0.9999999999999998
 40
0.5773502691896259
 41
4.662295549665641
 42
4.854286034988856
  0
LINE
  5
FE86
330
FDE4
100
AcDbEntity
  8
0
100
AcDbLine
 10
-3.535533905932788
 20
23.49290878848539
 30
0.0
 11
-3.181980515339566
 21
23.28878464325349
 31
0.0
  0
SPLINE
  5
FE87
330
FDE4
100
AcDbEntity
  8
0
100
AcDbSpline
210
0.0
220
0.0
230
1.0
 70
     8
 71
     3
 72
    11
 73
     7
 74
     0
 42
0.000000001
 43
0.0000000001
 40
-1.0
 40
-1.0
 40
-1.0
 40
-1.0
 40
-0.8649350770686885
 40
-0.8649350770686885
 40
-0.8649350770686885
 40
-0.5000000000000126
 40
-0.5000000000000126
 40
-0.5000000000000126
 40
-0.5000000000000126
 10
-3.181980515339568
 20
26.55477096696439
 30
0.0
 10
-3.053263707920903
 20
26.70005095021606
 30
0.0
 10
-2.927864683980132
 20
26.84885878637949
 30
0.0
 10
-2.814565885942876
 20
26.99957122260773
 30
0.0
 10
-2.508441211259266
 20
27.40678468215361
 30
0.0
 10
-2.379307167812336
 20
27.82342630811979
 30
0.0
 10
-2.394218701820129
 20
28.17065985207337
 30
0.0
  0
SPLINE
  5
FE88
330
FDE4
100
AcDbEntity
  8
0
100
AcDbSpline
210
0.0
220
0.0
230
1.0
 70
     8
 71
     3
 72
    11
 73
     7
 74
     0
 42
0.000000001
 43
0.0000000001
 40
-1.0
 40
-1.0
 40
-1.0
 40
-1.0
 40
-0.8649350770692
 40
-0.8649350770692
 40
-0.8649350770692
 40
0.0
 40
0.0
 40
0.0
 40
0.0
 10
-3.181980515339573
 20
25.73827438603665
 30
0.0
 10
-3.0532637079214
 20
25.59299440278547
 30
0.0
 10
-2.92786468398108
 20
25.44418656662268
 30
0.0
 10
-2.814565885944162
 20
25.29347413039502
 30
0.0
 10
-2.089017738538649
 20
24.32833477507442
 30
0.0
 10
-2.35769779760266
 20
23.31023358259369
 30
0.0
 10
-3.181980515339564
 20
23.2887846432535
 30
0.0
  0
LINE
  5
FE89
330
FDE4
100
AcDbEntity
  8
0
100
AcDbLine
 10
-3.741505518161616
 20
25.41523247503903
 30
0.0
 11
-3.181980515339577
 21
25.73827438603666
 31
0.0
  0
SPLINE
  5
FE8A
330
FDE4
100
AcDbEntity
  8
0
100
AcDbSpline
210
0.0
220
0.0
230
1.0
 70
     8
 71
     3
 72
     8
 73
     4
 74
     0
 42
0.000000001
 43
0.0000000001
 40
0.410568622282498
 40
0.410568622282498
 40
0.410568622282498
 40
0.410568622282498
 40
0.7033723312467429
 40
0.7033723312467429
 40
0.7033723312467429
 40
0.7033723312467429
 10
-3.866974676079184
 20
24.00373881360027
 30
0.0
 10
-3.833463569735569
 20
24.11296041537898
 30
0.0
 10
-3.843718932093571
 20
24.27352569779242
 30
0.0
 10
-3.906249069501939
 20
24.46584059245449
 30
0.0
  0
SPLINE
  5
FE8B
330
FDE4
100
AcDbEntity
  8
0
100
AcDbSpline
210
0.0
220
0.0
230
1.0
 70
     8
 71
     3
 72
     8
 73
     4
 74
     0
 42
0.000000001
 43
0.0000000001
 40
-1.0
 40
-1.0
 40
-1.0
 40
-1.0
 40
-0.5000000000000103
 40
-0.5000000000000103
 40
-0.5000000000000103
 40
-0.5000000000000103
 10
-3.181980515339504
 20
-7.942819490731471
 30
0.0
 10
-2.626620148069731
 20
-7.346815084286843
 30
0.0
 10
-2.348939964434846
 20
-6.619394428457043
 30
0.0
 10
-2.348939964434846
 20
-5.891973772627236
 30
0.0
  0
LINE
  5
FE8C
330
FDE4
100
AcDbEntity
  8
0
100
AcDbLine
 10
-7.579719526200414
 20
37.43776917384093
 30
0.0
 11
-6.349065396351472
 21
38.41571398196972
 31
0.0
  0
ELLIPSE
  5
FE8D
330
FDE4
100
AcDbEntity
  8
0
100
AcDbEllipse
 10
12.3743686707646
 20
-5.288595689217041
 30
0.0
 11
1.249999999999873
 21
2.16506350946117
 31
0.0
210
0.0
220
0.0
230
1.0
 40
0.5773502691896245
 41
3.579741684173544
 42
5.845036276594999
  0
ELLIPSE
  5
FE8E
330
FDE4
100
AcDbEntity
  8
0
100
AcDbEllipse
 10
12.37436867076462
 20
11.04133592933747
 30
0.0
 11
1.249999999999873
 21
2.16506350946117
 31
0.0
210
0.0
220
0.0
230
1.0
 40
0.5773502691896245
 41
3.579741684173544
 42
5.845036276594998
  0
ELLIPSE
  5
FE8F
330
FDE4
100
AcDbEntity
  8
0
100
AcDbEllipse
 10
12.37436867076457
 20
-21.61852730777155
 30
0.0
 11
1.249999999999873
 21
2.165063509461169
 31
0.0
210
0.0
220
0.0
230
1.0
 40
0.5773502691896248
 41
3.579741684173544
 42
5.845036276594998
  0
ELLIPSE
  5
FE90
330
FDE4
100
AcDbEntity
  8
0
100
AcDbEllipse
 10
13.4350288425444
 20
-22.23089974346734
 30
0.0
 11
-1.250000000000003
 21
-2.165063509461095
 31
0.0
210
0.0
220
0.0
230
1.0
 40
0.5773502691896246
 41
0.0
 42
6.283185307179586
  0
ELLIPSE
  5
FE91
330
FDE4
100
AcDbEntity
  8
0
100
AcDbEllipse
 10
13.43502884254444
 20
10.42896349364167
 30
0.0
 11
-1.250000000000003
 21
-2.165063509461095
 31
0.0
210
0.0
220
0.0
230
1.0
 40
0.5773502691896246
 41
0.0
 42
6.283185307179586
  0
ELLIPSE
  5
FE92
330
FDE4
100
AcDbEntity
  8
0
100
AcDbEllipse
 10
13.43502884254442
 20
-5.900968124912835
 30
0.0
 11
-1.250000000000003
 21
-2.165063509461095
 31
0.0
210
0.0
220
0.0
230
1.0
 40
0.5773502691896246
 41
0.0
 42
6.283185307179586
  0
ELLIPSE
  5
FE93
330
FDE4
100
AcDbEntity
  8
0
100
AcDbEllipse
 10
38.35178738054953
 20
20.74538618651627
 30
0.0
 11
-1.185309973000765
 21
-4.029272920503763
 31
0.0
210
0.0
220
0.0
230
1.0
 40
0.370681690811008
 41
4.714609510599322
 42
6.051826567759561
  0
ELLIPSE
  5
FE94
330
FDE4
100
AcDbEntity
  8
0
100
AcDbEllipse
 10
34.17507478294569
 20
19.18094271972467
 30
0.0
 11
7.592729584066638
 21
-0.0000000000000111
 31
0.0
210
0.0
220
0.0
230
1.0
 40
0.5773502691896287
 41
1.660962753237635
 42
1.908429487387547
  0
ELLIPSE
  5
FE95
330
FDE4
100
AcDbEntity
  8
0
100
AcDbEllipse
 10
28.76745046185494
 20
20.309888757118
 30
0.0
 11
1.624629784830869
 21
-3.873057973002781
 31
0.0
210
0.0
220
0.0
230
1.0
 40
0.4799246488165453
 41
0.0
 42
1.910948379511893
  0
LINE
  5
FE96
330
FDE4
100
AcDbEntity
  8
0
100
AcDbLine
 10
25.50498190122199
 20
14.38684196680801
 30
0.0
 11
30.39208024668581
 21
16.43683078411521
 31
0.0
  0
SPLINE
  5
FE97
330
FDE4
100
AcDbEntity
  8
0
100
AcDbSpline
210
0.0
220
0.0
230
1.0
 70
     8
 71
     3
 72
    16
 73
    12
 74
     0
 42
0.000000001
 43
0.0000000001
 40
3.298672286269284
 40
3.298672286269284
 40
3.298672286269284
 40
3.298672286269284
 40
3.440463867569785
 40
3.440463867569785
 40
3.582255448870286
 40
3.582255448870286
 40
3.724047030170787
 40
3.724047030170787
 40
3.865838611471288
 40
3.865838611471288
 40
4.007630192771788
 40
4.007630192771788
 40
4.007630192771788
 40
4.007630192771788
 10
30.3920802466858
 20
16.43683078411521
 30
0.0
 10
30.60654850598713
 20
16.52679368278352
 30
0.0
 10
30.84415207603067
 20
16.61290037839673
 30
0.0
 10
31.35627031853482
 20
16.76929150808803
 30
0.0
 10
31.63076277047268
 20
16.83959501134534
 30
0.0
 10
32.20630897666492
 20
16.95891226240388
 30
0.0
 10
32.50735173059855
 20
17.00793907739118
 30
0.0
 10
33.12520641615174
 20
17.08134342071563
 30
0.0
 10
33.44201213405488
 20
17.10572809885657
 30
0.0
 10
34.08039533097262
 20
17.12829514823405
 30
0.0
 10
34.40196827525455
 20
17.1264795746948
 30
0.0
 10
34.72040117475665
 20
17.11162202280215
 30
0.0
  0
SPLINE
  5
FE98
330
FDE4
100
AcDbEntity
  8
0
100
AcDbSpline
210
0.0
220
0.0
230
1.0
 70
     8
 71
     3
 72
    11
 73
     7
 74
     0
 42
0.000000001
 43
0.0000000001
 40
-1.0
 40
-1.0
 40
-1.0
 40
-1.0
 40
-0.8649350770686885
 40
-0.8649350770686885
 40
-0.8649350770686885
 40
0.0
 40
0.0
 40
0.0
 40
0.0
 10
31.81980515339466
 20
6.346480589003076
 30
0.0
 10
31.884163557104
 20
6.454603230548556
 30
0.0
 10
31.95871801697756
 20
6.553522571871566
 30
0.0
 10
32.04287977217348
 20
6.639759929836968
 30
0.0
 10
32.58183876046416
 20
7.192010760320428
 30
0.0
 10
33.52898413808611
 20
7.038881423123193
 30
0.0
 10
33.9411254969543
 20
6.346480589003089
 30
0.0
  0
ELLIPSE
  5
FE99
330
FDE4
100
AcDbEntity
  8
0
100
AcDbEllipse
 10
32.8804653251744
 20
5.325859862843476
 30
0.0
 11
-1.250000000000003
 21
-2.165063509461095
 31
0.0
210
0.0
220
0.0
230
1.0
 40
0.5773502691896248
 41
4.570491925780526
 42
6.425082361783751
  0
ELLIPSE
  5
FE9A
330
FDE4
100
AcDbEntity
  8
0
100
AcDbEllipse
 10
44.54772721475253
 20
-0.1854920584187436
 30
0.0
 11
2.75
 21
-4.763139720814414
 31
0.0
210
0.0
220
0.0
230
1.0
 40
0.5773502691896257
 41
5.871908223239691
 42
6.08912220976102
  0
ELLIPSE
  5
FE9B
330
FDE4
100
AcDbEntity
  8
0
100
AcDbEllipse
 10
44.54772721475253
 20
-0.1854920584187436
 30
0.0
 11
-2.75
 21
4.763139720814414
 31
0.0
210
0.0
220
0.0
230
1.0
 40
0.577350269189626
 41
0.1940630974185669
 42
1.982073410734791
  0
LINE
  5
FE9C
330
FDE4
100
AcDbEntity
  8
0
100
AcDbLine
 10
43.12644258456756
 20
-3.545016661562434
 30
0.0
 11
43.12644258456756
 21
-4.19671359800799
 31
0.0
  0
ELLIPSE
  5
FE9D
330
FDE4
100
AcDbEntity
  8
0
100
AcDbEllipse
 10
32.88046532517449
 20
5.325859862843422
 30
0.0
 11
1.25
 21
-2.165063509461096
 31
0.0
210
0.0
220
0.0
230
0.9999999999999998
 40
0.5773502691896258
 41
6.141288252575419
 42
7.995878688578647
  0
LINE
  5
FE9E
330
FDE4
100
AcDbEntity
  8
0
100
AcDbLine
 10
42.06926137815118
 20
-6.919514949756919
 30
0.0
 11
42.06578241278773
 21
-6.917506368167845
 31
0.0
  0
LINE
  5
FE9F
330
FDE4
100
AcDbEntity
  8
0
100
AcDbLine
 10
42.06578241278773
 20
-6.917506368167845
 30
0.0
 11
42.06578241278773
 21
-4.157389097258228
 31
0.0
  0
ELLIPSE
  5
FEA0
330
FDE4
100
AcDbEntity
  8
0
100
AcDbEllipse
 10
43.4870670429727
 20
-0.7978644941145375
 30
0.0
 11
-2.749999999999716
 21
4.763139720814575
 31
0.0
210
0.0
220
0.0
230
1.0
 40
0.577350269189626
 41
2.730315569650141
 42
8.265258717914431
  0
LINE
  5
FEA1
330
FDE4
100
AcDbEntity
  8
0
100
AcDbLine
 10
44.90835167315766
 20
-5.798547224922958
 30
0.0
 11
44.90835167315765
 21
-8.558664495832575
 31
0.0
  0
LINE
  5
FEA2
330
FDE4
100
AcDbEntity
  8
0
100
AcDbLine
 10
44.90835167315765
 20
-8.558664495832575
 30
0.0
 11
44.90487270779421
 21
-8.556655914243505
 31
0.0
  0
SPLINE
  5
FEA3
330
FDE4
100
AcDbEntity
  8
0
100
AcDbSpline
210
0.0
220
0.0
230
1.0
 70
     8
 71
     3
 72
    11
 73
     7
 74
     0
 42
0.000000001
 43
0.0000000001
 40
0.1340645268891909
 40
0.1340645268891909
 40
0.1340645268891909
 40
0.1340645268891909
 40
0.8649350770692
 40
0.8649350770692
 40
0.8649350770692
 40
0.8659354731107949
 40
0.8659354731107949
 40
0.8659354731107949
 40
0.8659354731107949
 10
31.21253104864133
 20
3.706232374978162
 30
0.0
 10
32.15104280132447
 20
3.735238045439994
 30
0.0
 10
33.64479522993792
 20
3.78207578983571
 30
0.0
 10
34.5556364311784
 20
3.71777776293352
 30
0.0
 10
34.55688316622884
 20
3.71768975351574
 30
0.0
 10
34.5581288471596
 20
3.7176018649488
 30
0.0
 10
34.55937347349224
 20
3.717514098909719
 30
0.0
  0
LINE
  5
FEA4
330
FDE4
100
AcDbEntity
  8
0
100
AcDbLine
 10
42.06578241278773
 20
-6.917506368167845
 30
0.0
 11
42.07286526574535
 21
-6.913417081106132
 31
0.0
  0
LINE
  5
FEA5
330
FDE4
100
AcDbEntity
  8
0
100
AcDbLine
 10
31.81980515339466
 20
3.080494265292186
 30
0.0
 11
31.52999076372542
 21
3.247818681182748
 31
0.0
  0
LINE
  5
FEA6
330
FDE4
100
AcDbEntity
  8
0
100
AcDbLine
 10
31.52999076372542
 20
3.247818681182748
 30
0.0
 11
31.46625176280129
 21
3.284618410524178
 31
0.0
  0
SPLINE
  5
FEA7
330
FDE4
100
AcDbEntity
  8
0
100
AcDbSpline
210
0.0
220
0.0
230
1.0
 70
     8
 71
     3
 72
    11
 73
     7
 74
     0
 42
0.000000001
 43
0.0000000001
 40
-1.0
 40
-1.0
 40
-1.0
 40
-1.0
 40
-0.8649350770692
 40
-0.8649350770692
 40
-0.8649350770692
 40
0.0
 40
0.0
 40
0.0
 40
0.0
 10
33.94112549695429
 20
3.080494265292177
 30
0.0
 10
33.87676709324521
 20
3.046686307159167
 30
0.0
 10
33.80221263337197
 20
3.020166126064607
 30
0.0
 10
33.71805087817643
 20
2.999341859644903
 30
0.0
 10
33.1790918898859
 20
2.865986447375044
 30
0.0
 10
32.23194651226312
 20
2.863993280145495
 30
0.0
 10
31.81980515339466
 20
3.080494265292195
 30
0.0
  0
LINE
  5
FEA8
330
FDE4
100
AcDbEntity
  8
0
100
AcDbLine
 10
33.9411254969543
 20
3.080494265292181
 30
0.0
 11
34.23093988662448
 21
3.247818681183289
 31
0.0
  0
LINE
  5
FEA9
330
FDE4
100
AcDbEntity
  8
0
100
AcDbLine
 10
34.23093988662448
 20
3.247818681183289
 30
0.0
 11
34.29467888754759
 21
3.284618410524124
 31
0.0
  0
LINE
  5
FEAA
330
FDE4
100
AcDbEntity
  8
0
100
AcDbLine
 10
44.90835167315766
 20
-5.798547224922958
 30
0.0
 11
45.96901184493749
 21
-5.186174789227164
 31
0.0
  0
LINE
  5
FEAB
330
FDE4
100
AcDbEntity
  8
0
100
AcDbLine
 10
42.06578241278773
 20
-4.157389097258228
 30
0.0
 11
43.12644258456756
 21
-3.545016661562434
 31
0.0
  0
LINE
  5
FEAC
330
FDE4
100
AcDbEntity
  8
0
100
AcDbLine
 10
47.18036424809773
 20
-1.523276391785328
 30
0.0
 11
44.19417382415924
 21
-3.247354236897699
 31
0.0
  0
LINE
  5
FEAD
330
FDE4
100
AcDbEntity
  8
0
100
AcDbLine
 10
-4.242640687119347
 20
57.37751689698601
 30
0.0
 11
-18.38477631085032
 21
65.54248270626337
 31
0.0
  0
LINE
  5
FEAE
330
FDE4
100
AcDbEntity
  8
0
100
AcDbLine
 10
-22.6274169979696
 20
63.09299296348008
 30
0.0
 11
-22.6274169979696
 21
45.53831647353397
 31
0.0
  0
LINE
  5
FEAF
330
FDE4
100
AcDbEntity
  8
0
100
AcDbLine
 10
-22.6274169979696
 20
39.82284040703986
 30
0.0
 11
-22.6274169979696
 21
37.37335066425671
 31
0.0
  0
LINE
  5
FEB0
330
FDE4
100
AcDbEntity
  8
0
100
AcDbLine
 10
49.14392129246514
 20
27.77951583835593
 30
0.0
 11
35.00178566873417
 21
35.94448164763313
 31
0.0
  0
LINE
  5
FEB1
330
FDE4
100
AcDbEntity
  8
0
100
AcDbLine
 10
33.94112549695435
 20
35.33210921193734
 30
0.0
 11
48.08326112068531
 21
27.16714340266014
 31
0.0
  0
LINE
  5
FEB2
330
FDE4
100
AcDbEntity
  8
0
100
AcDbLine
 10
53.38656197958435
 20
-16.97224275262824
 30
0.0
 11
53.38656197958441
 21
20.4310466100063
 31
0.0
  0
LINE
  5
FEB3
330
FDE4
100
AcDbEntity
  8
0
100
AcDbLine
 10
52.32590180780454
 20
-17.58461518832404
 30
0.0
 11
52.32590180780459
 21
19.81867417431051
 31
0.0
  0
LINE
  5
FEB4
330
FDE4
100
AcDbEntity
  8
0
100
AcDbLine
 10
-3.181980515339528
 20
57.9898893326818
 30
0.0
 11
-17.3241161390705
 21
66.15485514195907
 31
0.0
  0
ELLIPSE
  5
FEB5
330
FDE4
100
AcDbEntity
  8
0
100
AcDbEllipse
 10
47.02260094890544
 20
-15.4948029508136
 30
0.0
 11
1.25000000000013
 21
-2.165063509461022
 31
0.0
210
0.0
220
0.0
230
1.0
 40
0.5773502691896259
 41
3.579741684173546
 42
5.845036276594997
  0
ELLIPSE
  5
FEB6
330
FDE4
100
AcDbEntity
  8
0
100
AcDbEllipse
 10
39.95153313703995
 20
-17.12779611266904
 30
0.0
 11
1.25000000000013
 21
-2.165063509461022
 31
0.0
210
0.0
220
0.0
230
1.0
 40
0.5773502691896259
 41
3.579741684173546
 42
5.845036276595
  0
ELLIPSE
  5
FEB7
330
FDE4
100
AcDbEntity
  8
0
100
AcDbEllipse
 10
39.95153313703999
 20
10.63308763887362
 30
0.0
 11
1.250000000000129
 21
-2.165063509461022
 31
0.0
210
0.0
220
0.0
230
1.0
 40
0.5773502691896258
 41
3.579741684173544
 42
5.84503627659499
  0
ELLIPSE
  5
FEB8
330
FDE4
100
AcDbEntity
  8
0
100
AcDbEllipse
 10
39.95153313704
 20
26.96301925742812
 30
0.0
 11
1.250000000000129
 21
-2.165063509461021
 31
0.0
210
0.0
220
0.0
230
1.0
 40
0.5773502691896259
 41
3.579741684173553
 42
5.845036276594989
  0
ELLIPSE
  5
FEB9
330
FDE4
100
AcDbEntity
  8
0
100
AcDbEllipse
 10
47.02260094890546
 20
14.71557054351224
 30
0.0
 11
1.250000000000129
 21
-2.165063509461022
 31
0.0
210
0.0
220
0.0
230
1.0
 40
0.5773502691896259
 41
3.579741684173548
 42
5.845036276594997
  0
ELLIPSE
  5
FEBA
330
FDE4
100
AcDbEntity
  8
0
100
AcDbEllipse
 10
39.95153313703997
 20
-5.696843979680883
 30
0.0
 11
1.250000000000129
 21
-2.165063509461022
 31
0.0
210
0.0
220
0.0
230
1.0
 40
0.5773502691896258
 41
3.579741684173544
 42
5.84503627659499
  0
ELLIPSE
  5
FEBB
330
FDE4
100
AcDbEntity
  8
0
100
AcDbEllipse
 10
38.89087296526013
 20
-17.74016854836484
 30
0.0
 11
1.25
 21
-2.165063509461096
 31
0.0
210
0.0
220
0.0
230
1.0
 40
0.5773502691896259
 41
0.0
 42
6.283185307179586
  0
ELLIPSE
  5
FEBC
330
FDE4
100
AcDbEntity
  8
0
100
AcDbEllipse
 10
45.9619407771256
 20
-16.1071753865094
 30
0.0
 11
1.25
 21
-2.165063509461096
 31
0.0
210
0.0
220
0.0
230
1.0
 40
0.5773502691896259
 41
0.0
 42
6.283185307179586
  0
ELLIPSE
  5
FEBD
330
FDE4
100
AcDbEntity
  8
0
100
AcDbEllipse
 10
38.89087296526014
 20
-6.309216415376681
 30
0.0
 11
1.25
 21
-2.165063509461096
 31
0.0
210
0.0
220
0.0
230
1.0
 40
0.5773502691896259
 41
0.0
 42
6.283185307179586
  0
ELLIPSE
  5
FEBE
330
FDE4
100
AcDbEntity
  8
0
100
AcDbEllipse
 10
45.96194077712564
 20
14.10319810781645
 30
0.0
 11
1.25
 21
-2.165063509461096
 31
0.0
210
0.0
220
0.0
230
1.0
 40
0.5773502691896259
 41
0.0
 42
6.283185307179586
  0
ELLIPSE
  5
FEBF
330
FDE4
100
AcDbEntity
  8
0
100
AcDbEllipse
 10
38.89087296526017
 20
26.35064682173233
 30
0.0
 11
1.25
 21
-2.165063509461096
 31
0.0
210
0.0
220
0.0
230
1.0
 40
0.5773502691896259
 41
0.0
 42
6.283185307179586
  0
ELLIPSE
  5
FEC0
330
FDE4
100
AcDbEntity
  8
0
100
AcDbEllipse
 10
38.89087296526016
 20
10.02071520317782
 30
0.0
 11
1.25
 21
-2.165063509461096
 31
0.0
210
0.0
220
0.0
230
1.0
 40
0.5773502691896259
 41
0.0
 42
6.283185307179586
  0
LINE
  5
FEC1
330
FDE4
100
AcDbEntity
  8
0
100
AcDbLine
 10
33.94112549695426
 20
-26.49890817526733
 30
0.0
 11
48.58552956199267
 21
-23.5479863867569
 31
0.0
  0
SPLINE
  5
FEC2
330
FDE4
100
AcDbEntity
  8
0
100
AcDbSpline
210
0.0
220
0.0
230
1.0
 70
     8
 71
     3
 72
     8
 73
     4
 74
     0
 42
0.000000001
 43
0.0000000001
 40
-1.0
 40
-1.0
 40
-1.0
 40
-1.0
 40
0.0
 40
0.0
 40
0.0
 40
0.0
 10
31.81980515339463
 20
-28.15110986869273
 30
0.0
 10
32.37516552066443
 20
-27.27973851334393
 30
0.0
 10
33.38576512968447
 20
-26.72900461553525
 30
0.0
 10
33.94112549695426
 20
-26.49890817526733
 30
0.0
  0
LINE
  5
FEC3
330
FDE4
100
AcDbEntity
  8
0
100
AcDbLine
 10
42.06926137815118
 20
-6.923662752388022
 30
0.0
 11
42.06926137815118
 21
-6.919514949756919
 31
0.0
  0
LINE
  5
FEC4
330
FDE4
100
AcDbEntity
  8
0
100
AcDbLine
 10
44.90487270779421
 20
-8.556655914243505
 30
0.0
 11
44.90487270779421
 21
-8.560803716874591
 31
0.0
  0
LINE
  5
FEC5
330
FDE4
100
AcDbEntity
  8
0
100
AcDbLine
 10
44.90487270779421
 20
-8.560803716874591
 30
0.0
 11
44.90128060534579
 21
-8.558729815559036
 31
0.0
  0
LINE
  5
FEC6
330
FDE4
100
AcDbEntity
  8
0
100
AcDbLine
 10
44.90128060534579
 20
-8.558729815559036
 30
0.0
 11
44.90128060534579
 21
-8.554582012927948
 31
0.0
  0
LINE
  5
FEC7
330
FDE4
100
AcDbEntity
  8
0
100
AcDbLine
 10
44.90128060534579
 20
-8.554582012927948
 30
0.0
 11
42.07285348059961
 21
-6.921588851072475
 31
0.0
  0
LINE
  5
FEC8
330
FDE4
100
AcDbEntity
  8
0
100
AcDbLine
 10
42.07285348059961
 20
-6.921588851072475
 30
0.0
 11
42.07285348059961
 21
-6.925736653703582
 31
0.0
  0
LINE
  5
FEC9
330
FDE4
100
AcDbEntity
  8
0
100
AcDbLine
 10
42.07285348059961
 20
-6.925736653703582
 30
0.0
 11
42.06926137815118
 21
-6.923662752388022
 31
0.0
  0
ELLIPSE
  5
FECA
330
FDE4
100
AcDbEntity
  8
0
100
AcDbEllipse
 10
44.19417382415924
 20
-5.696843979680874
 30
0.0
 11
-1.499999999999887
 21
-2.598076211353383
 31
0.0
210
0.0
220
0.0
230
1.0
 40
0.5773502691896141
 41
3.926990816987004
 42
5.497787143781878
  0
ELLIPSE
  5
FECB
330
FDE4
100
AcDbEntity
  8
0
100
AcDbEllipse
 10
47.02260094890544
 20
-7.329837141536339
 30
0.0
 11
1.500000000000146
 21
2.598076211353233
 31
0.0
210
0.0
220
0.0
230
0.9999999999999998
 40
0.577350269189628
 41
2.274522134611473
 42
2.356194490192585
  0
ELLIPSE
  5
FECC
330
FDE4
100
AcDbEntity
  8
0
100
AcDbEllipse
 10
47.02260094890544
 20
-7.329837141536339
 30
0.0
 11
1.500000000000102
 21
2.598076211353257
 31
0.0
210
0.0
220
0.0
230
1.0
 40
0.5773502691896459
 41
0.8625158344706003
 42
0.994086861831918
  0
LINE
  5
FECD
330
FDE4
100
AcDbEntity
  8
0
100
AcDbLine
 10
44.90128060534579
 20
-8.554582012927948
 30
0.0
 11
44.90835167315765
 21
-8.550499530023312
 31
0.0
  0
LINE
  5
FECE
330
FDE4
100
AcDbEntity
  8
0
100
AcDbLine
 10
44.19417382415924
 20
-3.247354236897699
 30
0.0
 11
46.95116865811045
 21
-4.839105946433845
 31
0.0
  0
LINE
  5
FECF
330
FDE4
100
AcDbEntity
  8
0
100
AcDbLine
 10
42.07285348059961
 20
-6.921588851072471
 30
0.0
 11
42.06926137815118
 21
-6.923662752388022
 31
0.0
  0
LINE
  5
FED0
330
FDE4
100
AcDbEntity
  8
0
100
AcDbLine
 10
42.06926137815118
 20
-6.919514949756919
 30
0.0
 11
42.07285652191519
 21
-6.91743929253699
 31
0.0
  0
LINE
  5
FED1
330
FDE4
100
AcDbEntity
  8
0
100
AcDbLine
 10
44.9048727077942
 20
-8.556655914243487
 30
0.0
 11
44.90128060534579
 21
-8.558729815559036
 31
0.0
  0
LINE
  5
FED2
330
FDE4
100
AcDbEntity
  8
0
100
AcDbLine
 10
44.90835167315765
 20
-8.554647332654425
 30
0.0
 11
44.90487270779421
 21
-8.556655914243505
 31
0.0
  0
SPLINE
  5
FED3
330
FDE4
100
AcDbEntity
  8
0
100
AcDbSpline
210
0.0
220
0.0
230
1.0
 70
     8
 71
     3
 72
     8
 73
     4
 74
     0
 42
0.000000001
 43
0.0000000001
 40
0.0
 40
0.0
 40
0.0
 40
0.0
 40
1.0
 40
1.0
 40
1.0
 40
1.0
 10
1.007627163190776
 20
-18.73017065273968
 30
0.0
 10
0.3181980515338667
 20
-18.97340348461833
 30
0.0
 10
-0.8765308646330982
 20
-19.45056633588202
 30
0.0
 10
-2.121320343559693
 20
-19.37316171022026
 30
0.0
  0
LINE
  5
FED4
330
FDE4
100
AcDbEntity
  8
0
100
AcDbLine
 10
5.833630944788968
 20
-15.80098916866146
 30
0.0
 11
1.00762716319078
 21
-18.73017065273968
 31
0.0
  0
LINE
  5
FED5
330
FDE4
100
AcDbEntity
  8
0
100
AcDbLine
 10
6.89429111656879
 20
-15.18861673296567
 30
0.0
 11
5.833630944788968
 21
-15.80098916866146
 31
0.0
  0
SPLINE
  5
FED6
330
FDE4
100
AcDbEntity
  8
0
100
AcDbSpline
210
0.0
220
0.0
230
1.0
 70
     8
 71
     3
 72
     8
 73
     4
 74
     0
 42
0.000000001
 43
0.0000000001
 40
0.0
 40
0.0
 40
0.0
 40
0.0
 40
0.0420877475339327
 40
0.0420877475339327
 40
0.0420877475339327
 40
0.0420877475339327
 10
0.754418548260849
 20
-18.82214866970815
 30
0.0
 10
0.8854300465368991
 20
-18.77394021575085
 30
0.0
 10
1.012958772501351
 20
-18.71658470345902
 30
0.0
 10
1.133315003528945
 20
-18.65388341564796
 30
0.0
  0
LINE
  5
FED7
330
FDE4
100
AcDbEntity
  8
0
100
AcDbLine
 10
1.00762716319078
 20
-18.73017065273968
 30
0.0
 11
6.893827566262053
 21
-22.12857003995697
 31
0.0
  0
LINE
  5
FED8
330
FDE4
100
AcDbEntity
  8
0
100
AcDbLine
 10
6.38642788307302
 20
-24.28511243906422
 30
0.0
 11
-2.121320343559689
 21
-19.37316171022026
 31
0.0
  0
LINE
  5
FED9
330
FDE4
100
AcDbEntity
  8
0
100
AcDbLine
 10
14.14213562373094
 20
-20.59790658161188
 30
0.0
 11
13.43502884254441
 21
-20.18965829114802
 31
0.0
  0
LINE
  5
FEDA
330
FDE4
100
AcDbEntity
  8
0
100
AcDbLine
 10
7.071067811865483
 20
-16.51542367697325
 30
0.0
 11
5.833630944788968
 21
-15.80098916866146
 31
0.0
  0
LINE
  5
FEDB
330
FDE4
100
AcDbEntity
  8
0
100
AcDbLine
 10
7.071067811865484
 20
-15.29067880558167
 30
0.0
 11
6.89429111656879
 21
-15.18861673296567
 31
0.0
  0
ENDBLK
  5
FDE6
330
FDE4
100
AcDbEntity
  8
0
100
AcDbBlockEnd
  0
ENDSEC
  0
SECTION
  2
ENTITIES
  0
INSERT
  5
FEDC
330
1F
100
AcDbEntity
  8
0
100
AcDbBlockReference
  2
SBE48_91-Front
 10
0.0
 20
0.0
 30
0.0
  0
INSERT
  5
FEDD
330
1F
100
AcDbEntity
  8
0
100
AcDbBlockReference
  2
SBE48_91-Left
 10
89.7500000000002
 20
0.0
 30
0.0
  0
INSERT
  5
FEDE
330
1F
100
AcDbEntity
  8
0
100
AcDbBlockReference
  2
SBE48_91-Right
 10
-89.75000000000008
 20
0.0
 30
0.0
  0
INSERT
  5
FEDF
330
1F
100
AcDbEntity
  8
0
100
AcDbBlockReference
  2
SBE48_91-Top
 10
0.0
 20
-38.25000000000002
 30
0.0
  0
INSERT
  5
FEE0
330
1F
100
AcDbEntity
  8
0
100
AcDbBlockReference
  2
SBE48_91-Bottom
 10
0.0
 20
127.7500000000001
 30
0.0
  0
INSERT
  5
FEE1
330
1F
100
AcDbEntity
  8
0
100
AcDbBlockReference
  2
SBE48_91-ISO
 10
121.0550865276335
 20
-95.40485514195911
 30
0.0
  0
MTEXT
  5
FEE2
330
1F
100
AcDbEntity
  8
0
100
AcDbMText
 10
0.0
 20
-120.0
 30
0.0
 40
9.250000000000008
 41
0.0
 71
     5
 72
     5
  1
SBE48/91
 73
     1
 44
1.0
1001
ACAD
1000
MTEXTBEGIN
1070
    73
1070
     1
1070
    44
1040
1.0
1070
    74
1070
     0
1000
MTEXTEND
  0
ENDSEC
  0
SECTION
  2
OBJECTS
  0
DICTIONARY
  5
C
330
0
100
AcDbDictionary
281
     1
  3
ACAD_CIP_PREVIOUS_PRODUCT_INFO
350
216
  3
ACAD_COLOR
350
6B
  3
ACAD_DETAILVIEWSTYLE
350
21B
  3
ACAD_GROUP
350
D
  3
ACAD_LAYOUT
350
1A
  3
ACAD_MATERIAL
350
6A
  3
ACAD_MLEADERSTYLE
350
12D
  3
ACAD_MLINESTYLE
350
17
  3
ACAD_PLOTSETTINGS
350
19
  3
ACAD_PLOTSTYLENAME
350
E
  3
ACAD_SCALELIST
350
10C
  3
ACAD_SECTIONVIEWSTYLE
350
219
  3
ACAD_TABLESTYLE
350
7E
  3
ACAD_VISUALSTYLE
350
EF
  3
ACDB_RECOMPOSE_DATA
350
FFE3
  3
AcDbVariableDictionary
350
5E
  3
DWGPROPS
350
FFE4
  0
DICTIONARY
  5
FF33
330
8
100
AcDbDictionary
280
     1
281
     1
  0
DICTIONARY
  5
1FF
330
2
100
AcDbDictionary
280
     1
281
     1
  3
ACAD_LAYERSTATES
360
200
  0
DICTIONARY
  5
13C
330
10
100
AcDbDictionary
280
     1
281
     1
  0
DICTIONARY
  5
1CE
330
1F
100
AcDbDictionary
280
     1
281
     1
  3
ACAD_LAYOUTSELFREF
360
FF3B
  0
DICTIONARY
  5
FEE6
330
D2
100
AcDbDictionary
280
     1
281
     1
  3
ACAD_LAYOUTSELFREF
360
FF44
  0
DICTIONARY
  5
FEE8
330
D6
100
AcDbDictionary
280
     1
281
     1
  3
ACAD_LAYOUTSELFREF
360
FF47
  0
XRECORD
  5
216
102
{ACAD_REACTORS
330
C
102
}
330
C
100
AcDbXrecord
280
     1
300
ACD
300
2021
300

  0
DICTIONARY
  5
6B
102
{ACAD_REACTORS
330
C
102
}
330
C
100
AcDbDictionary
281
     1
  0
DICTIONARY
  5
21B
102
{ACAD_REACTORS
330
C
102
}
330
C
100
AcDbDictionary
281
     1
  3
Metric50
350
21C
  0
DICTIONARY
  5
D
102
{ACAD_REACTORS
330
C
102
}
330
C
100
AcDbDictionary
281
     1
  0
DICTIONARY
  5
1A
102
{ACAD_REACTORS
330
C
102
}
330
C
100
AcDbDictionary
281
     1
  3
Layout1
350
D3
  3
Layout2
350
D7
  3
Model
350
22
  0
DICTIONARY
  5
6A
102
{ACAD_REACTORS
330
C
102
}
330
C
100
AcDbDictionary
281
     1
  3
ByBlock
350
ED
  3
ByLayer
350
EC
  3
Global
350
EE
  0
DICTIONARY
  5
12D
102
{ACAD_REACTORS
330
C
102
}
330
C
100
AcDbDictionary
281
     1
  3
Standard
350
12E
  0
DICTIONARY
  5
17
102
{ACAD_REACTORS
330
C
102
}
330
C
100
AcDbDictionary
281
     1
  3
Standard
350
18
  0
DICTIONARY
  5
19
102
{ACAD_REACTORS
330
C
102
}
330
C
100
AcDbDictionary
281
     1
  0
ACDBDICTIONARYWDFLT
  5
E
102
{ACAD_REACTORS
330
C
102
}
330
C
100
AcDbDictionary
281
     1
  3
Normal
350
F
100
AcDbDictionaryWithDefault
340
F
  0
DICTIONARY
  5
10C
102
{ACAD_REACTORS
330
C
102
}
330
C
100
AcDbDictionary
281
     1
  3
A0
350
10D
  3
A1
350
1BE
  3
A2
350
1BF
  3
A3
350
1C0
  3
A4
350
1C1
  3
A5
350
1C2
  3
A6
350
1C3
  3
A7
350
1C4
  3
A8
350
1C5
  3
A9
350
1C6
  3
B0
350
1C7
  3
B1
350
1C8
  3
B2
350
1C9
  3
B3
350
1CA
  3
B4
350
1CB
  3
B5
350
1CC
  3
B6
350
1CD
  0
DICTIONARY
  5
219
102
{ACAD_REACTORS
330
C
102
}
330
C
100
AcDbDictionary
281
     1
  3
Metric50
350
21A
  0
DICTIONARY
  5
7E
102
{ACAD_REACTORS
330
C
102
}
330
C
100
AcDbDictionary
281
     1
  3
Standard
350
7F
  0
DICTIONARY
  5
EF
102
{ACAD_REACTORS
330
C
102
}
330
C
100
AcDbDictionary
281
     1
  3
2dWireframe
350
F5
  3
Basic
350
F4
  3
Brighten
350
FB
  3
ColorChange
350
FF
  3
Conceptual
350
F8
  3
Dim
350
FA
  3
EdgeColorOff
350
1E6
  3
Facepattern
350
FE
  3
Flat
350
F0
  3
FlatWithEdges
350
F1
  3
Gouraud
350
F2
  3
GouraudWithEdges
350
F3
  3
Hidden
350
F7
  3
JitterOff
350
1E4
  3
Linepattern
350
FD
  3
OverhangOff
350
1E5
  3
Realistic
350
F9
  3
Shaded
350
1F3
  3
Shaded with edges
350
1F2
  3
Shades of Gray
350
1EF
  3
Sketchy
350
1F0
  3
Thicken
350
FC
  3
Wireframe
350
F6
  3
X-Ray
350
1F1
  0
XRECORD
  5
FFE3
102
{ACAD_REACTORS
330
C
102
}
330
C
100
AcDbXrecord
280
     1
 90
        1
330
7F
  0
DICTIONARY
  5
5E
102
{ACAD_REACTORS
330
C
102
}
330
C
100
AcDbDictionary
281
     1
  3
CANNOSCALE
350
146
  3
CENTEREXE
350
259
  3
CENTERLTYPEFILE
350
25A
  3
CMLEADERSTYLE
350
145
  3
CTABLESTYLE
350
84
  3
CVIEWDETAILSTYLE
350
227
  3
CVIEWSECTIONSTYLE
350
228
  3
DIMASSOC
350
5F
  3
HIDETEXT
350
63
  3
INDEXCTL
350
FF90
  3
LAYEREVAL
350
1AE
  3
LAYERNOTIFY
350
1AF
  3
LIGHTINGUNITS
350
FF8E
  3
MSLTSCALE
350
FF8D
  3
PSOLHEIGHT
350
FFE0
  3
PSOLWIDTH
350
FFDF
  3
SORTENTS
350
FF8F
  3
XCLIPFRAME
350
FFE1
  0
XRECORD
  5
FFE4
102
{ACAD_REACTORS
330
C
102
}
330
C
100
AcDbXrecord
280
     1
  1
DWGPROPS COOKIE
  2

  3

  4

  6

  7

  8
tronnguyen
  9

300
=
301
=
302
=
303
=
304
=
305
=
306
=
307
=
308
=
309
=
 40
0.0049768518518519
 41
2460286.6225
 42
2460286.639837963
  1

 90
        0
  0
DICTIONARY
  5
200
102
{ACAD_REACTORS
330
1FF
102
}
330
1FF
100
AcDbDictionary
281
     1
  0
XRECORD
  5
FF3B
102
{ACAD_REACTORS
330
1CE
102
}
330
1CE
100
AcDbXrecord
280
     1
340
1F
  0
XRECORD
  5
FF44
102
{ACAD_REACTORS
330
FEE6
102
}
330
FEE6
100
AcDbXrecord
280
     1
340
D2
  0
XRECORD
  5
FF47
102
{ACAD_REACTORS
330
FEE8
102
}
330
FEE8
100
AcDbXrecord
280
     1
340
D6
  0
ACDBDETAILVIEWSTYLE
  5
21C
102
{ACAD_XDICTIONARY
360
10023
102
}
102
{ACAD_REACTORS
330
21B
102
}
330
21B
100
AcDbModelDocViewStyle
 70
     0
  3
Metric50
290
     0
100
AcDbDetailViewStyle
 70
     0
 71
     0
 90
        3
 71
     1
340
11
 40
5.0
340
0
 40
5.0
300

 40
0.0
280
     1
 71
     2
340
16
 90
       25
 71
     3
340
11
 40
5.0
 90
        0
 40
15.0
 90
        1
300
%<\AcVar ViewDetailId>% (%<\AcVar ViewScale \f "%sn">%)
 71
     4
340
16
 90
       25
340
16
 90
       25
280
     0
  0
LAYOUT
  5
D3
102
{ACAD_XDICTIONARY
360
FFE8
102
}
102
{ACAD_REACTORS
330
1A
102
}
330
1A
100
AcDbPlotSettings
  1

  2
C:\Documents and Settings\basas\Application Data\Autodesk\AutoCAD 2005\R16.1\enu\plotters\Default Windows System Printer.pc3
  4

  6

 40
0.0
 41
0.0
 42
0.0
 43
0.0
 44
0.0
 45
0.0
 46
0.0
 47
0.0
 48
0.0
 49
0.0
140
0.0
141
0.0
142
1.0
143
1.0
 70
   688
 72
     0
 73
     0
 74
     5
  7

 75
    16
147
1.0
148
0.0
149
0.0
100
AcDbLayout
  1
Layout1
 70
     1
 71
     1
 10
0.0
 20
0.0
 11
12.0
 21
9.0
 12
0.0
 22
0.0
 32
0.0
 14
0.0
 24
0.0
 34
0.0
 15
0.0
 25
0.0
 35
0.0
146
0.0
 13
0.0
 23
0.0
 33
0.0
 16
1.0
 26
0.0
 36
0.0
 17
0.0
 27
1.0
 37
0.0
 76
     0
330
D2
  0
LAYOUT
  5
D7
102
{ACAD_XDICTIONARY
360
FFEA
102
}
102
{ACAD_REACTORS
330
1A
102
}
330
1A
100
AcDbPlotSettings
  1

  2
C:\Documents and Settings\basas\Application Data\Autodesk\AutoCAD 2005\R16.1\enu\plotters\Default Windows System Printer.pc3
  4

  6

 40
0.0
 41
0.0
 42
0.0
 43
0.0
 44
0.0
 45
0.0
 46
0.0
 47
0.0
 48
0.0
 49
0.0
140
0.0
141
0.0
142
1.0
143
1.0
 70
   688
 72
     0
 73
     0
 74
     5
  7

 75
    16
147
1.0
148
0.0
149
0.0
100
AcDbLayout
  1
Layout2
 70
     1
 71
     2
 10
0.0
 20
0.0
 11
12.0
 21
9.0
 12
0.0
 22
0.0
 32
0.0
 14
0.0
 24
0.0
 34
0.0
 15
0.0
 25
0.0
 35
0.0
146
0.0
 13
0.0
 23
0.0
 33
0.0
 16
1.0
 26
0.0
 36
0.0
 17
0.0
 27
1.0
 37
0.0
 76
     0
330
D6
  0
LAYOUT
  5
22
102
{ACAD_XDICTIONARY
360
FFE5
102
}
102
{ACAD_REACTORS
330
1A
102
}
330
1A
100
AcDbPlotSettings
  1

  2
none_device
  4
ISO_A4_(210.00_x_297.00_MM)
  6

 40
7.5
 41
20.0
 42
7.5
 43
20.0
 44
210.0
 45
297.0
 46
11.54999923706054
 47
-13.65000009536743
 48
0.0
 49
0.0
140
0.0
141
0.0
142
1.0
143
8.704084754739808
 70
 11952
 72
     1
 73
     0
 74
     0
  7

 75
     0
147
0.1148885871608098
148
0.0
149
0.0
100
AcDbLayout
  1
Model
 70
     1
 71
     0
 10
0.0
 20
0.0
 11
12.0
 21
9.0
 12
0.0
 22
0.0
 32
0.0
 14
0.0
 24
0.0
 34
0.0
 15
0.0
 25
0.0
 35
0.0
146
0.0
 13
0.0
 23
0.0
 33
0.0
 16
1.0
 26
0.0
 36
0.0
 17
0.0
 27
1.0
 37
0.0
 76
     0
330
1F
331
EA
1001
ACAD_PSEXT
1000
None
1000
None
1000
Not applicable
1000
The layout will not be plotted unless a new plotter configuration name is selected.
1070
     0
  0
MATERIAL
  5
ED
102
{ACAD_XDICTIONARY
360
1F9
102
}
102
{ACAD_REACTORS
330
6A
102
}
330
6A
100
AcDbMaterial
  1
ByBlock
  0
MATERIAL
  5
EC
102
{ACAD_XDICTIONARY
360
1F7
102
}
102
{ACAD_REACTORS
330
6A
102
}
330
6A
100
AcDbMaterial
  1
ByLayer
  0
MATERIAL
  5
EE
102
{ACAD_XDICTIONARY
360
173
102
}
102
{ACAD_REACTORS
330
6A
102
}
330
6A
100
AcDbMaterial
  1
Global
 43
0.0007999999797903
 43
0.0
 43
0.0
 43
0.0
 43
0.0
 43
0.0007999999797903
 43
0.0
 43
0.0
 43
0.0
 43
0.0
 43
1.0
 43
0.0
 43
0.0
 43
0.0
 43
0.0
 43
1.0
 49
0.0007999999797903
 49
0.0
 49
0.0
 49
0.0
 49
0.0
 49
0.0007999999797903
 49
0.0
 49
0.0
 49
0.0
 49
0.0
 49
1.0
 49
0.0
 49
0.0
 49
0.0
 49
0.0
 49
1.0
142
0.0007999999797903
142
0.0
142
0.0
142
0.0
142
0.0
142
0.0007999999797903
142
0.0
142
0.0
142
0.0
142
0.0
142
1.0
142
0.0
142
0.0
142
0.0
142
0.0
142
1.0
144
0.0007999999797903
144
0.0
144
0.0
144
0.0
144
0.0
144
0.0007999999797903
144
0.0
144
0.0
144
0.0
144
0.0
144
1.0
144
0.0
144
0.0
144
0.0
144
0.0
144
1.0
1001
ACAD
1070
    -1
1070
     3
1070
     0
1000

1071
        0
1070
     0
  0
MLEADERSTYLE
  5
12E
102
{ACAD_XDICTIONARY
360
1000F
102
}
102
{ACAD_REACTORS
330
12D
102
}
330
12D
100
AcDbMLeaderStyle
170
     2
171
     1
172
     0
 90
        2
 40
0.0
 41
0.0
173
     1
 91
-1056964608
340
14
 92
       -2
290
     1
 42
2.0
291
     1
 43
8.0
  3
Standard
 44
4.0
300

342
11
174
     1
178
     1
175
     1
176
     0
 93
-1056964608
 45
4.0
292
     0
297
     0
 46
4.0
 94
-1056964608
 47
1.0
 49
1.0
140
1.0
293
     1
141
0.0
294
     1
177
     0
142
1.0
295
     0
296
     0
143
3.75
1001
ACAD_MLEADERVER
1070
     2
  0
MLINESTYLE
  5
18
102
{ACAD_REACTORS
330
17
102
}
330
17
100
AcDbMlineStyle
  2
STANDARD
 70
     0
  3

 62
   256
 51
90.0
 52
90.0
 71
     2
 49
0.5
 62
   256
  6
BYLAYER
 49
-0.5
 62
   256
  6
BYLAYER
  0
ACDBPLACEHOLDER
  5
F
102
{ACAD_REACTORS
330
E
102
}
330
E
  0
SCALE
  5
10D
102
{ACAD_REACTORS
330
10C
102
}
330
10C
100
AcDbScale
 70
     0
300
1:1
140
1.0
141
1.0
290
     1
  0
SCALE
  5
1BE
102
{ACAD_REACTORS
330
10C
102
}
330
10C
100
AcDbScale
 70
     0
300
1:2
140
1.0
141
2.0
290
     0
  0
SCALE
  5
1BF
102
{ACAD_REACTORS
330
10C
102
}
330
10C
100
AcDbScale
 70
     0
300
1:4
140
1.0
141
4.0
290
     0
  0
SCALE
  5
1C0
102
{ACAD_REACTORS
330
10C
102
}
330
10C
100
AcDbScale
 70
     0
300
1:5
140
1.0
141
5.0
290
     0
  0
SCALE
  5
1C1
102
{ACAD_REACTORS
330
10C
102
}
330
10C
100
AcDbScale
 70
     0
300
1:8
140
1.0
141
8.0
290
     0
  0
SCALE
  5
1C2
102
{ACAD_REACTORS
330
10C
102
}
330
10C
100
AcDbScale
 70
     0
300
1:10
140
1.0
141
10.0
290
     0
  0
SCALE
  5
1C3
102
{ACAD_REACTORS
330
10C
102
}
330
10C
100
AcDbScale
 70
     0
300
1:16
140
1.0
141
16.0
290
     0
  0
SCALE
  5
1C4
102
{ACAD_REACTORS
330
10C
102
}
330
10C
100
AcDbScale
 70
     0
300
1:20
140
1.0
141
20.0
290
     0
  0
SCALE
  5
1C5
102
{ACAD_REACTORS
330
10C
102
}
330
10C
100
AcDbScale
 70
     0
300
1:30
140
1.0
141
30.0
290
     0
  0
SCALE
  5
1C6
102
{ACAD_REACTORS
330
10C
102
}
330
10C
100
AcDbScale
 70
     0
300
1:40
140
1.0
141
40.0
290
     0
  0
SCALE
  5
1C7
102
{ACAD_REACTORS
330
10C
102
}
330
10C
100
AcDbScale
 70
     0
300
1:50
140
1.0
141
50.0
290
     0
  0
SCALE
  5
1C8
102
{ACAD_REACTORS
330
10C
102
}
330
10C
100
AcDbScale
 70
     0
300
1:100
140
1.0
141
100.0
290
     0
  0
SCALE
  5
1C9
102
{ACAD_REACTORS
330
10C
102
}
330
10C
100
AcDbScale
 70
     0
300
2:1
140
2.0
141
1.0
290
     0
  0
SCALE
  5
1CA
102
{ACAD_REACTORS
330
10C
102
}
330
10C
100
AcDbScale
 70
     0
300
4:1
140
4.0
141
1.0
290
     0
  0
SCALE
  5
1CB
102
{ACAD_REACTORS
330
10C
102
}
330
10C
100
AcDbScale
 70
     0
300
8:1
140
8.0
141
1.0
290
     0
  0
SCALE
  5
1CC
102
{ACAD_REACTORS
330
10C
102
}
330
10C
100
AcDbScale
 70
     0
300
10:1
140
10.0
141
1.0
290
     0
  0
SCALE
  5
1CD
102
{ACAD_REACTORS
330
10C
102
}
330
10C
100
AcDbScale
 70
     0
300
100:1
140
100.0
141
1.0
290
     0
  0
ACDBSECTIONVIEWSTYLE
  5
21A
102
{ACAD_XDICTIONARY
360
10021
102
}
102
{ACAD_REACTORS
330
219
102
}
330
219
100
AcDbModelDocViewStyle
 70
     0
  3
Metric50
290
     0
100
AcDbSectionViewStyle
 70
     0
 71
     0
 90
      102
 71
     1
340
11
 40
5.0
340
0
340
0
 40
5.0
300
I, O, Q, S, X, Z
 40
10.0
 90
        0
 40
2.5
 90
        0
 71
     2
340
16
 90
       25
340
16
 90
       50
 40
5.0
 40
2.5
 40
5.0
 71
     3
340
11
 40
5.0
 90
        0
 40
15.0
 90
        1
300
%<\AcVar ViewSectionStartId>%-%<\AcVar ViewSectionEndId>% (%<\AcVar ViewScale \f "%sn">%)
 71
     4
300
ANSI31
 40
1.0
 90
        0
290
     0
290
     0
 90
        6
 40
0.0
 40
1.570796326794896
 40
0.2617993877991494
 40
1.308996938995747
 40
-0.2617993877991494
 40
1.832595714594046
  0
TABLESTYLE
  5
7F
102
{ACAD_XDICTIONARY
360
162
102
}
102
{ACAD_REACTORS
330
7E
102
}
330
7E
100
AcDbTableStyle
  3
Standard
 70
     0
 71
     0
 40
1.5
 41
1.5
280
     0
281
     0
  7
Standard
140
4.5
170
     2
 62
     0
 63
     7
283
     0
274
    -2
284
     1
 64
     0
275
    -2
285
     1
 65
     0
276
    -2
286
     1
 66
     0
277
    -2
287
     1
 67
     0
278
    -2
288
     1
 68
     0
279
    -2
289
     1
 69
     0
  7
Standard
140
6.0
170
     5
 62
     0
 63
     7
283
     0
274
    -2
284
     1
 64
     0
275
    -2
285
     1
 65
     0
276
    -2
286
     1
 66
     0
277
    -2
287
     1
 67
     0
278
    -2
288
     1
 68
     0
279
    -2
289
     1
 69
     0
  7
Standard
140
4.5
170
     5
 62
     0
 63
     7
283
     0
274
    -2
284
     1
 64
     0
275
    -2
285
     1
 65
     0
276
    -2
286
     1
 66
     0
277
    -2
287
     1
 67
     0
278
    -2
288
     1
 68
     0
279
    -2
289
     1
 69
     0
  0
VISUALSTYLE
  5
F5
102
{ACAD_XDICTIONARY
360
FFF9
102
}
102
{ACAD_REACTORS
330
EF
102
}
330
EF
100
AcDbVisualStyle
  2
2dWireframe
 70
     4
 71
     0
 72
     2
 73
     1
 90
        0
 40
-0.6
 41
-30.0
 62
     5
 63
     7
 74
     1
 91
        4
 64
     7
 65
   257
 75
     1
175
     1
 42
1.0
 92
        0
 66
   257
 43
1.0
 76
     1
 77
     6
 78
     2
 67
     7
 79
     5
170
     0
171
     0
290
     0
174
     0
 93
        1
 44
0.0
173
     0
291
     0
 45
0.0
1001
ACAD
1000
AcDbSavedByObjectVersion
1070
     0
  0
VISUALSTYLE
  5
F4
102
{ACAD_XDICTIONARY
360
FFF7
102
}
102
{ACAD_REACTORS
330
EF
102
}
330
EF
100
AcDbVisualStyle
  2
Basic
 70
     7
 71
     1
 72
     0
 73
     1
 90
        0
 40
-0.6
 41
-30.0
 62
     5
 63
     7
 74
     0
 91
        4
 64
     7
 65
   257
 75
     1
175
     1
 42
1.0
 92
        8
 66
     7
 43
1.0
 76
     1
 77
     6
 78
     2
 67
     7
 79
     5
170
     0
171
     0
290
     0
174
     0
 93
        1
 44
0.0
173
     0
291
     1
 45
0.0
1001
ACAD
1000
AcDbSavedByObjectVersion
1070
     0
  0
VISUALSTYLE
  5
FB
102
{ACAD_XDICTIONARY
360
10005
102
}
102
{ACAD_REACTORS
330
EF
102
}
330
EF
100
AcDbVisualStyle
  2
Brighten
 70
    12
 71
     2
 72
     2
 73
     1
 90
        0
 40
-0.6
 41
-30.0
 62
     5
 63
     7
 74
     1
 91
        4
 64
     7
 65
   257
 75
     1
175
     1
 42
1.0
 92
        8
 66
     7
 43
1.0
 76
     1
 77
     6
 78
     2
 67
     7
 79
     5
170
     0
171
     0
290
     0
174
     0
 93
        1
 44
50.0
173
     0
291
     1
 45
0.0
1001
ACAD
1000
AcDbSavedByObjectVersion
1070
     0
  0
VISUALSTYLE
  5
FF
102
{ACAD_XDICTIONARY
360
1000D
102
}
102
{ACAD_REACTORS
330
EF
102
}
330
EF
100
AcDbVisualStyle
  2
ColorChange
 70
    16
 71
     2
 72
     2
 73
     3
 90
        0
 40
-0.6
 41
-30.0
 62
     5
 63
     8
 74
     1
 91
        4
 64
     7
 65
   257
 75
     1
175
     1
 42
1.0
 92
        8
 66
     8
 43
1.0
 76
     1
 77
     6
 78
     2
 67
     7
 79
     5
170
     0
171
     0
290
     0
174
     0
 93
        1
 44
0.0
173
     0
291
     1
 45
0.0
1001
ACAD
1000
AcDbSavedByObjectVersion
1070
     0
  0
VISUALSTYLE
  5
F8
102
{ACAD_XDICTIONARY
360
FFFF
102
}
102
{ACAD_REACTORS
330
EF
102
}
330
EF
100
AcDbVisualStyle
  2
Conceptual
 70
     9
 71
     3
 72
     2
 73
     1
 90
        0
 40
-0.6
 41
-30.0
 62
     5
 63
     7
 74
     2
 91
        2
 64
     7
 65
   257
 75
     1
175
     1
 42
40.0
 92
        8
 66
     7
 43
1.0
 76
     1
 77
     6
 78
     2
 67
     7
 79
     3
170
     0
171
     0
290
     0
174
     0
 93
        1
 44
0.0
173
     0
291
     0
 45
0.0
1001
ACAD
1000
AcDbSavedByObjectVersion
1070
     0
  0
VISUALSTYLE
  5
FA
102
{ACAD_XDICTIONARY
360
10003
102
}
102
{ACAD_REACTORS
330
EF
102
}
330
EF
100
AcDbVisualStyle
  2
Dim
 70
    11
 71
     2
 72
     2
 73
     1
 90
        0
 40
-0.6
 41
-30.0
 62
     5
 63
     7
 74
     1
 91
        4
 64
     7
 65
   257
 75
     1
175
     1
 42
1.0
 92
        8
 66
     7
 43
1.0
 76
     1
 77
     6
 78
     2
 67
     7
 79
     5
170
     0
171
     0
290
     0
174
     0
 93
        1
 44
-50.0
173
     0
291
     1
 45
0.0
1001
ACAD
1000
AcDbSavedByObjectVersion
1070
     0
  0
VISUALSTYLE
  5
1E6
102
{ACAD_XDICTIONARY
360
10015
102
}
102
{ACAD_REACTORS
330
EF
102
}
330
EF
100
AcDbVisualStyle
  2
EdgeColorOff
 70
    22
 71
     2
 72
     2
 73
     0
 90
        0
 40
-0.6
 41
-30.0
 62
     5
 63
     7
 74
     1
 91
        4
 64
     7
 65
   257
 75
     1
175
     1
 42
1.0
 92
        8
 66
     7
 43
1.0
 76
     1
 77
     6
 78
     2
 67
     7
 79
     5
170
     0
171
     0
290
     0
174
     0
 93
        1
 44
0.0
173
     0
291
     1
 45
0.0
1001
ACAD
1000
AcDbSavedByObjectVersion
1070
     0
  0
VISUALSTYLE
  5
FE
102
{ACAD_XDICTIONARY
360
1000B
102
}
102
{ACAD_REACTORS
330
EF
102
}
330
EF
100
AcDbVisualStyle
  2
Facepattern
 70
    15
 71
     2
 72
     2
 73
     1
 90
        0
 40
-0.6
 41
-30.0
 62
     5
 63
     7
 74
     1
 91
        4
 64
     7
 65
   257
 75
     1
175
     1
 42
1.0
 92
        8
 66
     7
 43
1.0
 76
     1
 77
     6
 78
     2
 67
     7
 79
     5
170
     0
171
     0
290
     0
174
     0
 93
        1
 44
0.0
173
     0
291
     1
 45
0.0
1001
ACAD
1000
AcDbSavedByObjectVersion
1070
     0
  0
VISUALSTYLE
  5
F0
102
{ACAD_XDICTIONARY
360
FFEF
102
}
102
{ACAD_REACTORS
330
EF
102
}
330
EF
100
AcDbVisualStyle
  2
Flat
 70
     0
 71
     2
 72
     1
 73
     1
 90
        2
 40
-0.6
 41
30.0
 62
     5
 63
     7
 74
     0
 91
        0
 64
     7
 65
   257
 75
     1
175
     1
 42
1.0
 92
        8
 66
     7
 43
1.0
 76
     1
 77
     6
 78
     2
 67
     7
 79
     5
170
     0
171
     0
290
     0
174
     0
 93
       13
 44
0.0
173
     0
291
     1
 45
0.0
1001
ACAD
1000
AcDbSavedByObjectVersion
1070
     0
  0
VISUALSTYLE
  5
F1
102
{ACAD_XDICTIONARY
360
FFF1
102
}
102
{ACAD_REACTORS
330
EF
102
}
330
EF
100
AcDbVisualStyle
  2
FlatWithEdges
 70
     1
 71
     2
 72
     1
 73
     1
 90
        2
 40
-0.6
 41
30.0
 62
     5
 63
     7
 74
     1
 91
        0
 64
     7
 65
   257
 75
     1
175
     1
 42
1.0
 92
        0
 66
   257
 43
1.0
 76
     1
 77
     6
 78
     2
 67
     7
 79
     5
170
     0
171
     0
290
     0
174
     0
 93
       13
 44
0.0
173
     0
291
     1
 45
0.0
1001
ACAD
1000
AcDbSavedByObjectVersion
1070
     0
  0
VISUALSTYLE
  5
F2
102
{ACAD_XDICTIONARY
360
FFF3
102
}
102
{ACAD_REACTORS
330
EF
102
}
330
EF
100
AcDbVisualStyle
  2
Gouraud
 70
     2
 71
     2
 72
     2
 73
     1
 90
        2
 40
-0.6
 41
30.0
 62
     5
 63
     7
 74
     0
 91
        0
 64
     7
 65
   257
 75
     1
175
     1
 42
1.0
 92
        0
 66
     7
 43
1.0
 76
     1
 77
     6
 78
     2
 67
     7
 79
     5
170
     0
171
     0
290
     0
174
     0
 93
       13
 44
0.0
173
     0
291
     1
 45
0.0
1001
ACAD
1000
AcDbSavedByObjectVersion
1070
     0
  0
VISUALSTYLE
  5
F3
102
{ACAD_XDICTIONARY
360
FFF5
102
}
102
{ACAD_REACTORS
330
EF
102
}
330
EF
100
AcDbVisualStyle
  2
GouraudWithEdges
 70
     3
 71
     2
 72
     2
 73
     1
 90
        2
 40
-0.6
 41
30.0
 62
     5
 63
     7
 74
     1
 91
        0
 64
     7
 65
   257
 75
     1
175
     1
 42
1.0
 92
        0
 66
   257
 43
1.0
 76
     1
 77
     6
 78
     2
 67
     7
 79
     5
170
     0
171
     0
290
     0
174
     0
 93
       13
 44
0.0
173
     0
291
     1
 45
0.0
1001
ACAD
1000
AcDbSavedByObjectVersion
1070
     0
  0
VISUALSTYLE
  5
F7
102
{ACAD_XDICTIONARY
360
FFFD
102
}
102
{ACAD_REACTORS
330
EF
102
}
330
EF
100
AcDbVisualStyle
  2
Hidden
 70
     6
 71
     1
 72
     2
 73
     2
 90
        0
 40
-0.6
 41
-30.0
 62
     5
 63
     7
 74
     2
 91
        2
 64
     7
 65
   257
 75
     2
175
     1
 42
40.0
 92
        0
 66
   257
 43
1.0
 76
     1
 77
     6
 78
     2
 67
     7
 79
     3
170
     0
171
     0
290
     0
174
     0
 93
        1
 44
0.0
173
     0
291
     0
 45
0.0
1001
ACAD
1000
AcDbSavedByObjectVersion
1070
     0
  0
VISUALSTYLE
  5
1E4
102
{ACAD_XDICTIONARY
360
10011
102
}
102
{ACAD_REACTORS
330
EF
102
}
330
EF
100
AcDbVisualStyle
  2
JitterOff
 70
    20
 71
     2
 72
     2
 73
     0
 90
        0
 40
-0.6
 41
-30.0
 62
     5
 63
     7
 74
     1
 91
        4
 64
     7
 65
   257
 75
     1
175
     1
 42
1.0
 92
       10
 66
     7
 43
1.0
 76
     1
 77
     6
 78
     2
 67
     7
 79
     5
170
     0
171
     0
290
     0
174
     0
 93
        1
 44
0.0
173
     0
291
     1
 45
0.0
1001
ACAD
1000
AcDbSavedByObjectVersion
1070
     0
  0
VISUALSTYLE
  5
FD
102
{ACAD_XDICTIONARY
360
10009
102
}
102
{ACAD_REACTORS
330
EF
102
}
330
EF
100
AcDbVisualStyle
  2
Linepattern
 70
    14
 71
     2
 72
     2
 73
     1
 90
        0
 40
-0.6
 41
-30.0
 62
     5
 63
     7
 74
     1
 91
        4
 64
     7
 65
   257
 75
     7
175
     7
 42
1.0
 92
        8
 66
     7
 43
1.0
 76
     1
 77
     6
 78
     2
 67
     7
 79
     5
170
     0
171
     0
290
     0
174
     0
 93
        1
 44
0.0
173
     0
291
     1
 45
0.0
1001
ACAD
1000
AcDbSavedByObjectVersion
1070
     0
  0
VISUALSTYLE
  5
1E5
102
{ACAD_XDICTIONARY
360
10013
102
}
102
{ACAD_REACTORS
330
EF
102
}
330
EF
100
AcDbVisualStyle
  2
OverhangOff
 70
    21
 71
     2
 72
     2
 73
     0
 90
        0
 40
-0.6
 41
-30.0
 62
     5
 63
     7
 74
     1
 91
        4
 64
     7
 65
   257
 75
     1
175
     1
 42
1.0
 92
        9
 66
     7
 43
1.0
 76
     1
 77
     6
 78
     2
 67
     7
 79
     5
170
     0
171
     0
290
     0
174
     0
 93
        1
 44
0.0
173
     0
291
     1
 45
0.0
1001
ACAD
1000
AcDbSavedByObjectVersion
1070
     0
  0
VISUALSTYLE
  5
F9
102
{ACAD_XDICTIONARY
360
10001
102
}
102
{ACAD_REACTORS
330
EF
102
}
330
EF
100
AcDbVisualStyle
  2
Realistic
 70
     8
 71
     2
 72
     2
 73
     0
 90
        2
 40
-0.6
 41
30.0
 62
     5
 63
     7
 74
     0
 91
        0
 64
     7
 65
   257
 75
     1
175
     1
 42
1.0
 92
        8
 66
   257
 43
1.0
 76
     1
 77
     6
 78
     2
 67
     7
 79
     3
170
     0
171
     0
290
     0
174
     0
 93
       13
 44
0.0
173
     0
291
     0
 45
0.0
1001
ACAD
1000
AcDbSavedByObjectVersion
1070
     0
  0
VISUALSTYLE
  5
1F3
102
{ACAD_XDICTIONARY
360
1001F
102
}
102
{ACAD_REACTORS
330
EF
102
}
330
EF
100
AcDbVisualStyle
  2
Shaded
 70
    27
 71
     2
 72
     2
 73
     1
 90
        2
 40
-0.6
 41
30.0
 62
     5
 63
     7
 74
     0
 91
        4
 64
     7
 65
   257
 75
     1
175
     1
 42
1.0
 92
        8
 66
   257
 43
1.0
 76
     1
 77
     6
 78
     2
 67
     8
 79
     3
170
     0
171
     0
290
     0
174
     0
 93
        5
 44
0.0
173
     0
291
     0
 45
0.0
1001
ACAD
1000
AcDbSavedByObjectVersion
1070
     0
  0
VISUALSTYLE
  5
1F2
102
{ACAD_XDICTIONARY
360
1001D
102
}
102
{ACAD_REACTORS
330
EF
102
}
330
EF
100
AcDbVisualStyle
  2
Shaded with edges
 70
    26
 71
     2
 72
     2
 73
     1
 90
        2
 40
-0.6
 41
30.0
 62
     5
 63
     7
 74
     1
 91
        2
 64
     7
 65
   257
 75
     2
175
     1
 42
1.0
 92
        8
 66
   257
 43
1.0
 76
     1
 77
     6
 78
     2
 67
     7
 79
     3
170
     0
171
     0
290
     0
174
     0
 93
        5
 44
0.0
173
     0
291
     0
 45
0.0
1001
ACAD
1000
AcDbSavedByObjectVersion
1070
     0
  0
VISUALSTYLE
  5
1EF
102
{ACAD_XDICTIONARY
360
10017
102
}
102
{ACAD_REACTORS
330
EF
102
}
330
EF
100
AcDbVisualStyle
  2
Shades of Gray
 70
    23
 71
     2
 72
     2
 73
     3
 90
        0
 40
-0.6
 41
-30.0
 62
     5
 63
     7
 74
     2
 91
        2
 64
     7
 65
     7
 75
     1
175
     1
 42
40.0
 92
        8
 66
     7
 43
1.0
 76
     1
 77
     6
 78
     2
 67
     7
 79
     3
170
     0
171
     0
290
     0
174
     0
 93
        1
 44
0.0
173
     0
291
     0
 45
0.0
1001
ACAD
1000
AcDbSavedByObjectVersion
1070
     0
  0
VISUALSTYLE
  5
1F0
102
{ACAD_XDICTIONARY
360
10019
102
}
102
{ACAD_REACTORS
330
EF
102
}
330
EF
100
AcDbVisualStyle
  2
Sketchy
 70
    24
 71
     1
 72
     2
 73
     2
 90
        0
 40
-0.6
 41
-30.0
 62
     5
 63
     7
 74
     2
 91
        2
 64
     7
 65
     7
 75
     1
175
     1
 42
40.0
 92
       11
 66
     7
 43
1.0
 76
     1
 77
     6
 78
     2
 67
     7
 79
     6
170
     0
171
     0
290
     0
174
     0
 93
        1
 44
0.0
173
     0
291
     0
 45
0.0
1001
ACAD
1000
AcDbSavedByObjectVersion
1070
     0
  0
VISUALSTYLE
  5
FC
102
{ACAD_XDICTIONARY
360
10007
102
}
102
{ACAD_REACTORS
330
EF
102
}
330
EF
100
AcDbVisualStyle
  2
Thicken
 70
    13
 71
     2
 72
     2
 73
     1
 90
        0
 40
-0.6
 41
-30.0
 62
     5
 63
     7
 74
     1
 91
        4
 64
     7
 65
   257
 75
     1
175
     1
 42
1.0
 92
       12
 66
     7
 43
1.0
 76
     1
 77
     6
 78
     2
 67
     7
 79
     5
170
     0
171
     0
290
     0
174
     0
 93
        1
 44
0.0
173
     0
291
     1
 45
0.0
1001
ACAD
1000
AcDbSavedByObjectVersion
1070
     0
  0
VISUALSTYLE
  5
F6
102
{ACAD_XDICTIONARY
360
FFFB
102
}
102
{ACAD_REACTORS
330
EF
102
}
330
EF
100
AcDbVisualStyle
  2
Wireframe
 70
     5
 71
     0
 72
     2
 73
     0
 90
        0
 40
-0.6
 41
-30.0
 62
     5
 63
     7
 74
     1
 91
        4
 64
     7
 65
   257
 75
     1
175
     1
 42
1.0
 92
        0
 66
   257
 43
1.0
 76
     1
 77
     6
 78
     2
 67
     7
 79
     3
170
     0
171
     0
290
     0
174
     0
 93
        1
 44
0.0
173
     0
291
     0
 45
0.0
1001
ACAD
1000
AcDbSavedByObjectVersion
1070
     0
  0
VISUALSTYLE
  5
1F1
102
{ACAD_XDICTIONARY
360
1001B
102
}
102
{ACAD_REACTORS
330
EF
102
}
330
EF
100
AcDbVisualStyle
  2
X-Ray
 70
    25
 71
     2
 72
     2
 73
     1
 90
        1
 40
0.5
 41
-30.0
 62
     5
 63
     7
 74
     1
 91
        0
 64
     7
 65
   257
 75
     1
175
     1
 42
1.0
 92
        8
 66
     7
 43
1.0
 76
     1
 77
     6
 78
     2
 67
     7
 79
     3
170
     0
171
     0
290
     0
174
     0
 93
       13
 44
0.0
173
     0
291
     0
 45
0.0
1001
ACAD
1000
AcDbSavedByObjectVersion
1070
     0
  0
DICTIONARYVAR
  5
146
102
{ACAD_REACTORS
330
5E
102
}
330
5E
100
DictionaryVariables
280
     0
  1
1:1
  0
DICTIONARYVAR
  5
259
102
{ACAD_REACTORS
330
5E
102
}
330
5E
100
DictionaryVariables
280
     0
  1
3.500000
  0
DICTIONARYVAR
  5
25A
102
{ACAD_REACTORS
330
5E
102
}
330
5E
100
DictionaryVariables
280
     0
  1
acadiso.lin
  0
DICTIONARYVAR
  5
145
102
{ACAD_REACTORS
330
5E
102
}
330
5E
100
DictionaryVariables
280
     0
  1
STANDARD
  0
DICTIONARYVAR
  5
84
102
{ACAD_REACTORS
330
5E
102
}
330
5E
100
DictionaryVariables
280
     0
  1
STANDARD
  0
DICTIONARYVAR
  5
227
102
{ACAD_REACTORS
330
5E
102
}
330
5E
100
DictionaryVariables
280
     0
  1
Metric50
  0
DICTIONARYVAR
  5
228
102
{ACAD_REACTORS
330
5E
102
}
330
5E
100
DictionaryVariables
280
     0
  1
Metric50
  0
DICTIONARYVAR
  5
5F
102
{ACAD_REACTORS
330
5E
102
}
330
5E
100
DictionaryVariables
280
     0
  1
2
  0
DICTIONARYVAR
  5
63
102
{ACAD_REACTORS
330
5E
102
}
330
5E
100
DictionaryVariables
280
     0
  1
1
  0
DICTIONARYVAR
  5
FF90
102
{ACAD_REACTORS
330
5E
102
}
330
5E
100
DictionaryVariables
280
     0
  1
0
  0
DICTIONARYVAR
  5
1AE
102
{ACAD_REACTORS
330
5E
102
}
330
5E
100
DictionaryVariables
280
     0
  1
0
  0
DICTIONARYVAR
  5
1AF
102
{ACAD_REACTORS
330
5E
102
}
330
5E
100
DictionaryVariables
280
     0
  1
0
  0
DICTIONARYVAR
  5
FF8E
102
{ACAD_REACTORS
330
5E
102
}
330
5E
100
DictionaryVariables
280
     0
  1
2
  0
DICTIONARYVAR
  5
FF8D
102
{ACAD_REACTORS
330
5E
102
}
330
5E
100
DictionaryVariables
280
     0
  1
1
  0
DICTIONARYVAR
  5
FFE0
102
{ACAD_REACTORS
330
5E
102
}
330
5E
100
DictionaryVariables
280
     0
  1
80.000000
  0
DICTIONARYVAR
  5
FFDF
102
{ACAD_REACTORS
330
5E
102
}
330
5E
100
DictionaryVariables
280
     0
  1
5.000000
  0
DICTIONARYVAR
  5
FF8F
102
{ACAD_REACTORS
330
5E
102
}
330
5E
100
DictionaryVariables
280
     0
  1
127
  0
DICTIONARYVAR
  5
FFE1
102
{ACAD_REACTORS
330
5E
102
}
330
5E
100
DictionaryVariables
280
     0
  1
2
  0
DICTIONARY
  5
10023
330
21C
100
AcDbDictionary
280
     1
281
     1
  3
ACAD_XREC_ROUNDTRIP
360
10024
  0
DICTIONARY
  5
FFE8
330
D3
100
AcDbDictionary
280
     1
281
     1
  3
ACAD_XREC_ROUNDTRIP
360
FFE9
  0
DICTIONARY
  5
FFEA
330
D7
100
AcDbDictionary
280
     1
281
     1
  3
ACAD_XREC_ROUNDTRIP
360
FFEB
  0
DICTIONARY
  5
FFE5
330
22
100
AcDbDictionary
280
     1
281
     1
  3
ACAD_XREC_ROUNDTRIP
360
FFE6
  0
DICTIONARY
  5
1F9
330
ED
100
AcDbDictionary
280
     1
281
     1
  3
ACAD_XREC_ROUNDTRIP
360
FFED
  3
FBXASSET
360
1FA
  0
DICTIONARY
  5
1F7
330
EC
100
AcDbDictionary
280
     1
281
     1
  3
ACAD_XREC_ROUNDTRIP
360
FFEC
  3
FBXASSET
360
1F8
  0
DICTIONARY
  5
173
330
EE
100
AcDbDictionary
280
     1
281
     1
  3
ACAD_XREC_ROUNDTRIP
360
FFEE
  3
BUMPTILE
360
175
  3
DIFFUSETILE
360
174
  3
FBXASSET
360
1FB
  3
OPACITYTILE
360
176
  3
REFLECTIONTILE
360
177
  0
DICTIONARY
  5
1000F
330
12E
100
AcDbDictionary
280
     1
281
     1
  3
ACAD_XREC_ROUNDTRIP
360
10010
  0
DICTIONARY
  5
10021
330
21A
100
AcDbDictionary
280
     1
281
     1
  3
ACAD_XREC_ROUNDTRIP
360
10022
  0
DICTIONARY
  5
162
330
7F
100
AcDbDictionary
280
     1
281
     1
  3
ACAD_ROUNDTRIP_2008_TABLESTYLE_CELLSTYLEMAP
360
FFE2
  3
ACAD_XREC_ROUNDTRIP
360
FFE7
  0
DICTIONARY
  5
FFF9
330
F5
100
AcDbDictionary
280
     1
281
     1
  3
ACAD_XREC_ROUNDTRIP
360
FFFA
  0
DICTIONARY
  5
FFF7
330
F4
100
AcDbDictionary
280
     1
281
     1
  3
ACAD_XREC_ROUNDTRIP
360
FFF8
  0
DICTIONARY
  5
10005
330
FB
100
AcDbDictionary
280
     1
281
     1
  3
ACAD_XREC_ROUNDTRIP
360
10006
  0
DICTIONARY
  5
1000D
330
FF
100
AcDbDictionary
280
     1
281
     1
  3
ACAD_XREC_ROUNDTRIP
360
1000E
  0
DICTIONARY
  5
FFFF
330
F8
100
AcDbDictionary
280
     1
281
     1
  3
ACAD_XREC_ROUNDTRIP
360
10000
  0
DICTIONARY
  5
10003
330
FA
100
AcDbDictionary
280
     1
281
     1
  3
ACAD_XREC_ROUNDTRIP
360
10004
  0
DICTIONARY
  5
10015
330
1E6
100
AcDbDictionary
280
     1
281
     1
  3
ACAD_XREC_ROUNDTRIP
360
10016
  0
DICTIONARY
  5
1000B
330
FE
100
AcDbDictionary
280
     1
281
     1
  3
ACAD_XREC_ROUNDTRIP
360
1000C
  0
DICTIONARY
  5
FFEF
330
F0
100
AcDbDictionary
280
     1
281
     1
  3
ACAD_XREC_ROUNDTRIP
360
FFF0
  0
DICTIONARY
  5
FFF1
330
F1
100
AcDbDictionary
280
     1
281
     1
  3
ACAD_XREC_ROUNDTRIP
360
FFF2
  0
DICTIONARY
  5
FFF3
330
F2
100
AcDbDictionary
280
     1
281
     1
  3
ACAD_XREC_ROUNDTRIP
360
FFF4
  0
DICTIONARY
  5
FFF5
330
F3
100
AcDbDictionary
280
     1
281
     1
  3
ACAD_XREC_ROUNDTRIP
360
FFF6
  0
DICTIONARY
  5
FFFD
330
F7
100
AcDbDictionary
280
     1
281
     1
  3
ACAD_XREC_ROUNDTRIP
360
FFFE
  0
DICTIONARY
  5
10011
330
1E4
100
AcDbDictionary
280
     1
281
     1
  3
ACAD_XREC_ROUNDTRIP
360
10012
  0
DICTIONARY
  5
10009
330
FD
100
AcDbDictionary
280
     1
281
     1
  3
ACAD_XREC_ROUNDTRIP
360
1000A
  0
DICTIONARY
  5
10013
330
1E5
100
AcDbDictionary
280
     1
281
     1
  3
ACAD_XREC_ROUNDTRIP
360
10014
  0
DICTIONARY
  5
10001
330
F9
100
AcDbDictionary
280
     1
281
     1
  3
ACAD_XREC_ROUNDTRIP
360
10002
  0
DICTIONARY
  5
1001F
330
1F3
100
AcDbDictionary
280
     1
281
     1
  3
ACAD_XREC_ROUNDTRIP
360
10020
  0
DICTIONARY
  5
1001D
330
1F2
100
AcDbDictionary
280
     1
281
     1
  3
ACAD_XREC_ROUNDTRIP
360
1001E
  0
DICTIONARY
  5
10017
330
1EF
100
AcDbDictionary
280
     1
281
     1
  3
ACAD_XREC_ROUNDTRIP
360
10018
  0
DICTIONARY
  5
10019
330
1F0
100
AcDbDictionary
280
     1
281
     1
  3
ACAD_XREC_ROUNDTRIP
360
1001A
  0
DICTIONARY
  5
10007
330
FC
100
AcDbDictionary
280
     1
281
     1
  3
ACAD_XREC_ROUNDTRIP
360
10008
  0
DICTIONARY
  5
FFFB
330
F6
100
AcDbDictionary
280
     1
281
     1
  3
ACAD_XREC_ROUNDTRIP
360
FFFC
  0
DICTIONARY
  5
1001B
330
1F1
100
AcDbDictionary
280
     1
281
     1
  3
ACAD_XREC_ROUNDTRIP
360
1001C
  0
XRECORD
  5
10024
102
{ACAD_REACTORS
330
10023
102
}
330
10023
100
AcDbXrecord
280
     1
102
DISPLAYNAME
  1
Metric50
102
FLAGS
 90
        0
  0
XRECORD
  5
FFE9
102
{ACAD_REACTORS
330
FFE8
102
}
330
FFE8
100
AcDbXrecord
280
     1
102
SHADEPLOT
 70
     0
102
SHADEPLOTRESLEVEL
 70
     2
102
SHADEPLOTCUSTOMDPI
 70
   300
  0
XRECORD
  5
FFEB
102
{ACAD_REACTORS
330
FFEA
102
}
330
FFEA
100
AcDbXrecord
280
     1
102
SHADEPLOT
 70
     0
102
SHADEPLOTRESLEVEL
 70
     2
102
SHADEPLOTCUSTOMDPI
 70
   300
  0
XRECORD
  5
FFE6
102
{ACAD_REACTORS
330
FFE5
102
}
330
FFE5
100
AcDbXrecord
280
     1
102
SHADEPLOT
 70
     0
102
SHADEPLOTRESLEVEL
 70
     2
102
SHADEPLOTCUSTOMDPI
 70
   300
  0
XRECORD
  5
FFED
102
{ACAD_REACTORS
330
1F9
102
}
330
1F9
100
AcDbXrecord
280
     1
102
MATERIAL
148
0.0
149
0.0
149
0.0
 93
        0
 94
       63
282
     0
 72
     1
 77
     1
171
     1
175
     1
179
     1
273
     0
  0
XRECORD
  5
1FA
102
{ACAD_REACTORS
330
1F9
102
}
330
1F9
100
AcDbXrecord
280
     1
 70
     1
 90
429727718
  1
D62C5603-E3A1-4AEA-B7FB-FE5D8D0755AF
310
504B03040A0000080000CC70623B3DEE336E79000000790000001B0000006175746F6465736B2D64657369676E2D7061636B6167652E786D6C3C3F786D6C2076657273696F6E3D22312E302220656E636F64696E673D227574662D3822203F3E3C666F726D6174733E3C666F726D61743E687474703A2F2F736368656D612E
310
6175746F6465736B2E636F6D2F64657369676E2D7061636B6167652F323030393C2F666F726D61743E3C2F666F726D6174733E504B0304140006080800CC70623BD486FD9CA0000000F4000000130000005B436F6E74656E745F54797065735D2E786D6C7D8EC10E82300C865F65E91D8A1E8C310C0EEA1BF002731658846E
310
D98AC1B77784ABF1D8FE5FBFBF75BBCE937A534CCEB38643598122B6FEE978D0B0485F9C41B54DDD7D022595594E1A469170414C76A4D9A4D207E29CF43ECE46F218070CC6BECC4078ACAA135ACF422C856C0E68EA1BF5669944DDD7BCDE7B1F8E415D77AECB980613C2E4AC91FC167A2B244592486606FC29C8FD7F045B9A
310
EF7053A7E60B504B0304140006080800CC70623B853B8169EB0000007C01000008000000636F72652E786D6C8D90416EC3201045AF62CDB6C206821CC7C244919D9CA01740401C94182C03558F5F9C3852BBEB6A467FFE9B197D7EFC9E1EC5975982F5AE035262288C535E5B377690E21535501C055FBC8FBF6C503839990E
310
5619041F179FE64D52DE45E362569DD7661365082642A11EB9E920A89B99642953CC8E702F67A9EE7234257977194EC9EAE275C4EABCCF5EAD5940D4AC6F0E35A568B8F43562CD7046CD199FD07E60174276A7BE677B5EADB0E0D14EEFFB6A31321A0D82627C4084204C3F096B71DD52F6819B16635EADF63F509AF53FA164
310
5DDCD1EDDD17164090FCC8732078B56691CB33A85CD7DCC40F504B0304140006080800CC70623B55019EA25F0000007C00000007000000636E782E786D6C4DCB3B0E80201045D1AD90E915ED2CF8AC45050C11660C8261F98AB1B07AC9C97D42D718D865D3E909258CFD00CCE24AC6E326A164D74DC0B4128928FF32603847
310
2BA13128B1252AC747C6BAB984FC68F0B87FE8960A5C09FE86CFB69FBA01504B0304140006080800CC70623BDBABAAF470010000D40300000C0000006662782F636F72652E786D6CC553D16E823014FD95A6AF4B694182CC941A83FA05FB810A9511A125A5257EFE2E82712ECEB8A7F100CD39F7F69E734AF9FADC366850B6
310
AF8DCE7018308C942E4C59EB2AC3DE1D498AD15A706B8CFB56869196ADCAF00863C12B6B7C374385D14E6907A836A59A41D9F7CA615434B0C8705F7CAA5606D23BA8E84F41278B93AC54100640439DE0BDB320004D43C63716C7C399D30917DCFBBA9CD9BA8469F5B156168B24CED3F7248AC8769F27244EB73B92EED8862C
310
B7F13E0C179B3C8F979C8ECD82BBBABDAA2BAC924E9558448CBD9330242CFA08E3154B5651FCC6D215639C8EE5774DBE2B5F6CF2B5768B68963BB5F5588420E442FC700B1139D4CB01F450C1E918227C2E09DF070D8140C84E1E9AAB8F1340832A9CB13130A5F1376A908D57309505ECF2A0DF179C4E9D30F5B239B87E3823
310
7A79C6F31DE1A8A5AEC08474B03C7837EAE4938639B44E5932B833D2C6B6B279CDC613877FA26EE21F4A2A4C63EC7F29A2F301D1F9F7A0E37D145F504B0304140006080800CC70623B9C113CC27E0000009D0000000B0000006662782F636E782E786D6C4DCCDF0A83201C86E15B91DFB94BFB330DD428C8FB886521330DA7
310
6397BF1A1DECE883878F57749FCDA1B7892F1BBC047A23808C7F84D9FA55424E0BE6803A256208E9EF06C84F9B91703228B1C690F78B66B34CD9A5439DF5CF0BFBF65E35BCA1B8D6A5C6F540381E886698B5741C695F9503EBA150A2F8958E3DC3EA0B504B0304140006080800CC70623B7DF2F77C2A010000120200003100
310
00006662782F41393633353835312D344632462D344230382D423046372D3739314545314133324237412F636F72652E786D6C8D51DB8EC22014FC15C2939B0D2DB4B45643319AE817EC0F6041255A68B86CFCFC856D4D76DF7CE190393373060EDB3DC707F856CE6B6B7A480A0C81328395DA5C7B18C3057510EC3873D686
310
3F34088C18550F330C39BB3A1BA7051AAC09CA84841A2BD5020AEF55806078A44B0FFD7053A328440C89E1EFC52486BBB8AA8214A99D789CF9E05200300FC927E4FB4D5B375D43103D5527440FB843077C5AA3F5861C8F645F5787F59E95B390B318B55CE45AA638FAA2957BD7248B390B7A7CC51F9C124149C82B8C378810
310
84AB2F42B7B8DD56F413775B8C5999E9FF4471926F8AA236A1AE96B8B3CC434E5839373893369E1FAF30EA395917409EB7F26AF8801C171837A4A6AC9C89E9F9C9B1A58BA30FD6A5EF5DDDCF894B9AD9B6A59C957943A9FCAE2FD5BC4DFE03504B0304140006080800CC70623BAD7543B64E01000033030000300000006662
310
782F41393633353835312D344632462D344230382D423046372D3739314545314133324237412F636E782E786D6CD593CD6EC32010845F0571AD6CE3D48AD20813A9873E410FBD12D82434182C7EAAE6EDBB2424CD25871E7B41D6EC30B3FA84F9E67BB2E40B4234DE8DB46F1925E094D7C6ED479AD3AE5951B2113C789FEE
310
6C943839C1488B4C05DF079FE72A69D8C96C13AAD6B8631503449F83828872B949AC57D26200B826A308D316B4064D6E46FCDA41C05550DC9E483A00797BFD207EFB092A45DE9514C1BBD22178396BD39D891265658C238DEA00936C654E5E433CB65A26D9F6EDB5EBC14EBF49A45CB856E66048291F6939A9A81BB5C89177
310
38143CA680F4AA299D66A042CEB3354A2684DC9D8D178FE0D9B8B41CAAD720F880EE7EF93C0C18769E099ECC04D5A102C8049A8A05632F4DDF376CF1DE0F6BB65C2F8627B65A33C6BB62177CEBBDAD973006829F89F22E814B54F4BC2BE347F8AA8F681390B50FA73F804400B5F542E796F19FF974E7F78DB802FE05E20750
310
4B0304140006080800CC70623BE75B7789680500003C100000340000006662782F41393633353835312D344632462D344230382D423046372D3739314545314133324237412F6F626A656374732E786D6CAD575B8F9B3818FD2B887D06C22499CB8AA1CA655245D5B455A356FB305264C061D8018C6C3393D95FBFC7600890
310
A4CD5EF210B0B1BFEBF98E3F7B1FF6596ABC522E1296DF9BAE3D320D9A872C4AF2F8DE2CE5CEBA358D0FBEC719939D65A691938CDE9B6ADAF4BD98B3B2D05311DD91329583D9D5FC0F438434A7A611A644887B5384CF34233629258BA878B12322891DEFF6B66BD70BFB62634E8AE781D082709A4B588AF91C528CDA28B73F
310
1C998EEF39EABBEFA97FBD6A7C7E9553F9D3D79FE442923C3C523610337627CB87ABE99D359D4CC6D6E4FACAB5E6ABF9D2726FC6A3C5F56271377BB88362213924694B38DD99FE47C48627A1E7D49F5A8BB5E1A74C0A599ED3B0F21F1E56366B89112D681E218F0915D0D6F17AD41FBA2A369DCF6335D62ABBD39779D5DDD1
310
11D4D8DE3CBB96B2E04FB8202E41051754A1AA8E8F76B4C6DFE810B580B1547F4B84911149794252234D024EF8BBE963A95AE27B3D310A9D5C215C7960FAEE415ED75694C6AFB17BCACA5D99A60A9AA65F217B0BFC53292ACB92BF283FAD0D3621576592CB5BED907C2FA8E9DF794E35E97BEA31BED21FEB401ABB94C44839
310
DCACBF0E1C5DA8DA5B2F4DFFD32AD86F543D9E565E7056502E157C00AD2671CD534549AB752FCA9CDA00677A313F04E51B22FF19E57B300579E3C97EB29F682D92935CEC18CF901B7B54FD8C51F362B56FC72FE0B3C1EAE335EDCCBF5AEC39ADB17DC238973F804BA5E6F6BFE7AF1FB32E523BE9F3BD571418E3631DCA4D48
310
5250CF639223210A9446CA30052EDF057BD35F8329C1ECD84552BF0DC8D18BE7BCE23BFE6BD960AB4A7DE79923A103BEBD80F911CBAA2C60DB19B01CF164A5583B772EE6D3FFA56666CBCDA74DC97724A48F9A58967497E489C4D979006FD7A05E227A1EBDD0F737C623387A9C844D3709995625106D157315F8B8392CD4E0
310
A0B9A720C4BE9829CEF37EA1E13111214D53925356365ADA634861B52519DD27A00AEB808EAF0628E6F435519D446F45CF2C9CF5214F0A15B2F6D06B79DA3EE3CBF7F56780D2F4E7EF73A0F5E5B02A38D07DC852C6B7C1FBB6664213E0C39E3EBA7FF4E1AD23EA2829407C85E586727488B751B2DB9502BC7B228A3FD68B6E
310
A65A22397E690AA8D158D7E404EC8CDA235CC3B7D1898680131CEC2CDF2638C65196279577750F15884AEE19F94199155B92B13297978469D4F8D358DF0AEF7631E28DC8F0D9F437D5D39A83B2231A1D52D543813A824EF8D44BCFF2FA6A31BD1E8DAD87F1CCB526B3879935BF59CDADD5C37479BB1CDD4CA7B3556B516589
310
EF352754B706114D9C885EC9131DE6EFEB43D99AFE2391C2F958179413D7CFEF6B1B6DB1E7600F00DE6E5C67454A339A4BA2E0FBA85ED26F045D454F463DBFCE484C2F90F2E5E3666003662ED8F755951A7D1BECD5B30B550B2785C8E7320B7292A4838DDA71BBC863ED7613CAF659337A3354231D4FF4A182A54904C2898C
310
98B28C4AD0CE056CCF332A80986E571EE9DBC305BB5FEB7E509220A58D25CF042D712A806AC0AD0C657FDEF80D2D9CEAA2EE4D1C76F60BFE74219A06527D6F82DF6412526107381E55E353090704D085B52408A8913C4ED159D79BDA71BB4BC506F4831350EB6F975CD22D69BF7AC49B91A2C0A9DDA3D5CA36AD20FC478E37
310
E61844E2352865EBCB61A275A65283CAAA9DD27703B4102F5AF51EF5F573B75CBB5AD38BC845F7A49F82A0966A49C2E3EA5EA0ECD326CD965F1DB402C6FA8B51A4658C5C5E2EC9E214602E55810345408596591009A82E7E7FFACA19EEA299B14A0081A705CB3296EBC14CDF658DCD336EA6D1136881AAEB87B81AB9EE53D5
310
F5EB8BC8362082DA24122F98680A4E7930C01A0079749CEA14382A0783E5EBA5A10F8C098456A03D6A4AEB6BB881E2513747552A5DB22C7EDAF83BD5528081A365F7FF06504B0304140006080000CC70623B000000000000000000000000350000006662782F41393633353835312D344632462D344230382D423046372D37
310
39314545314133324237412F76657274696365732E62696E504B0304140006080800CC70623BF270F1330600000004000000360000006662782F41393633353835312D344632462D344230382D423046372D3739314545314133324237412F747269616E676C65732E62696E636660600000504B0304140006080000CC7062
310
3B000000000000000000000000370000006662782F41393633353835312D344632462D344230382D423046372D3739314545314133324237412F617474726962757465732E62696E504B0304140006080800CC70623B08DA0BD19000000041010000360000006662782F41393633353835312D344632462D344230382D4230
310
46372D3739314545314133324237412F6469726563746F72792E786D6C858F410AC3201045AF22B36F53E9A60B35CBEEBAE80D244E44489C6234F4F835464A48035D0DF398FF9F8AF63D0E6CC63039F212F8F9020C7D47C6792B21C5FE7403D62A1188E2E60C98D7234A5830286103A55745067B9D86B8A3CF9C7F90C11DE6
310
07FB144396D7B6A82D282E9A152AD114D5EF2CB866EEE831B8EEA07A7BB5A8D7D61A2BAAEB7FD5F70921FF497D00504B0304140006080800CC70623BEDD1DC58FD000000A00100003B0000006662782F41393633353835312D344632462D344230382D423046372D3739314545314133324237412F7265736F75726365732F
310
636F72652E786D6C8D504B6E833010BD0A9A6D65B00922041947112427E8052C33A156828DFCA97AFC9A40A576D7CDCCE87D344F8F9FBFE667F689CE6B6B3A6039850C8DB2A336530731DC4903D95970676DF82583CCC8193B5861107C72362E3BA4AC096842428D1D7107A5F7182053CF7474E0D507CE32973124857FE48B
310
540F3961CEF244279DE03EB81420DB9EAC1384436FA353E879B1B182C7A8C75DA3C7F453DF353A1075D537A7BA6464B8F535A99AE14A9A2BBD90E350DD183B5CFABE3AF262350B1EF4FC9351399401471025A527C218A1E53BAB5A5AB765F5469B96525EACF23FA6B88CFF34456DC2A1DCE36E360F82A5202F42F062ED2BAD
310
579969AFDD8A6F504B010214000A0000080000CC70623B3DEE336E79000000790000001B00000000000000000000000000000000006175746F6465736B2D64657369676E2D7061636B6167652E786D6C504B01021400140006080800CC70623BD486FD9CA0000000F40000001300000000000000000000000000B20000005B
310
436F6E74656E745F54797065735D2E786D6C504B01021400140006080800CC70623B853B8169EB0000007C010000080000000000000000000000000083010000636F72652E786D6C504B01021400140006080800CC70623B55019EA25F0000007C000000070000000000000000000000000094020000636E782E786D6C504B
310
01021400140006080800CC70623BDBABAAF470010000D40300000C00000000000000000000000000180300006662782F636F72652E786D6C504B01021400140006080800CC70623B9C113CC27E0000009D0000000B00000000000000000000000000B20400006662782F636E782E786D6C504B01021400140006080800CC70
310
623B7DF2F77C2A010000120200003100000000000000000000000000590500006662782F41393633353835312D344632462D344230382D423046372D3739314545314133324237412F636F72652E786D6C504B01021400140006080800CC70623BAD7543B64E010000330300003000000000000000000000000000D2060000
310
6662782F41393633353835312D344632462D344230382D423046372D3739314545314133324237412F636E782E786D6C504B01021400140006080800CC70623BE75B7789680500003C10000034000000000000000000000000006E0800006662782F41393633353835312D344632462D344230382D423046372D3739314545
310
314133324237412F6F626A656374732E786D6C504B01021400140006080000CC70623B0000000000000000000000003500000000000000000000000000280E00006662782F41393633353835312D344632462D344230382D423046372D3739314545314133324237412F76657274696365732E62696E504B01021400140006
310
080800CC70623BF270F133060000000400000036000000000000000000000000007B0E00006662782F41393633353835312D344632462D344230382D423046372D3739314545314133324237412F747269616E676C65732E62696E504B01021400140006080000CC70623B0000000000000000000000003700000000000000
310
000000000000D50E00006662782F41393633353835312D344632462D344230382D423046372D3739314545314133324237412F617474726962757465732E62696E504B01021400140006080800CC70623B08DA0BD1900000004101000036000000000000000000000000002A0F00006662782F41393633353835312D344632
310
462D344230382D423046372D3739314545314133324237412F6469726563746F72792E786D6C504B01021400140006080800CC70623BEDD1DC58FD000000A00100003B000000000000000000000000000E1000006662782F41393633353835312D344632462D344230382D423046372D3739314545314133324237412F7265
310
736F75726365732F636F72652E786D6C504B0506000000000E000E0080040000641100000000
  0
XRECORD
  5
FFEC
102
{ACAD_REACTORS
330
1F7
102
}
330
1F7
100
AcDbXrecord
280
     1
102
MATERIAL
148
0.0
149
0.0
149
0.0
 93
        0
 94
       63
282
     0
 72
     1
 77
     1
171
     1
175
     1
179
     1
273
     0
  0
XRECORD
  5
1F8
102
{ACAD_REACTORS
330
1F7
102
}
330
1F7
100
AcDbXrecord
280
     1
 70
     1
 90
429727718
  1
30362254-06B7-45E0-A893-8CFA70E3D6BC
310
504B03040A0000080000CC70623B3DEE336E79000000790000001B0000006175746F6465736B2D64657369676E2D7061636B6167652E786D6C3C3F786D6C2076657273696F6E3D22312E302220656E636F64696E673D227574662D3822203F3E3C666F726D6174733E3C666F726D61743E687474703A2F2F736368656D612E
310
6175746F6465736B2E636F6D2F64657369676E2D7061636B6167652F323030393C2F666F726D61743E3C2F666F726D6174733E504B0304140006080800CC70623BD486FD9CA0000000F4000000130000005B436F6E74656E745F54797065735D2E786D6C7D8EC10E82300C865F65E91D8A1E8C310C0EEA1BF002731658846E
310
D98AC1B77784ABF1D8FE5FBFBF75BBCE937A534CCEB38643598122B6FEE978D0B0485F9C41B54DDD7D022595594E1A469170414C76A4D9A4D207E29CF43ECE46F218070CC6BECC4078ACAA135ACF422C856C0E68EA1BF5669944DDD7BCDE7B1F8E415D77AECB980613C2E4AC91FC167A2B244592486606FC29C8FD7F045B9A
310
EF7053A7E60B504B0304140006080800CC70623B1EC5D7A3EB0000007C01000008000000636F72652E786D6C8D90416EC3201045AF82665B6103C6756C6122AB4D4ED00B204C5C94182C03558F5F9C3852BBEB6A467FFE9B197D71FC9E6FE8CBACC17AD7032D0820E3B41FAD9B7A48F1820F808E52ACDEC75F36404ECDA687
310
4D0629A6D5A76597B477D1B89855E747B38B2A041301E95B6E7A08FAD3CCAA50296647B8168BD2573599823EBB0CA76447F43862C7BCCF5EAC59410E4DDD9C7973C2755553CCCFA4C603E3040F1565ED3B1FDE4E432BCA0D9622DAF9795FAF464533826484B498524CD807E51D79ED187F21878E10516EF63F505AC67F42C9
310
BA58B1FDDD071640D2FCC87D2045B96591CB3DA85CB7DCE40F504B0304140006080800CC70623B55019EA25F0000007C00000007000000636E782E786D6C4DCB3B0E80201045D1AD90E915ED2CF8AC45050C11660C8261F98AB1B07AC9C97D42D718D865D3E909258CFD00CCE24AC6E326A164D74DC0B4128928FF32603847
310
2BA13128B1252AC747C6BAB984FC68F0B87FE8960A5C09FE86CFB69FBA01504B0304140006080800CC70623B8C9102E971010000D40300000C0000006662782F636F72652E786D6CC5535B6E833010BC8AE5DF0A6C08340F1947A84D4ED00B38C6A128602363A31CBFCB234A53A551FA553EC09AD9F5CE8C31DB9E9B1AF5CA
310
7695D1198E428A91D2D214952E33ECDD315861B4E5CC1AE3BE9561A445A3323CC098B3D21ADFCE9034DA29ED00D5A6503328BA4E398C640D8B0C77F253352214DE4145770A5B214FA2546114020D759C75CE8200340D19DE981F0F6746269C33EFAB6266AB02A655C74A59CCF365BADC27CB5D902ED22848F6340DF238A141
310
BE88E2F57B92BFEDF23523433367AE6A2EEAA455C2A902F398D2751045018D3FA264435F3771F242571B4A1919CA6F9A7C5B3CD9E42BED16F12C776AEB308F40C848FC700B1139D4891EF410CEC810227CC6846F8386402064270EF5C5C709A05E49676C024C61FC95EA45ED154CA5211D1FF4FB8291A913A68E9B83EBBB33
310
E2A7673CDE118E5AE8124C0807CB8377834E366998436B950D7A7746DAD846D4CFD978E0F04FD455FC5D49D2D4C6FE9722321F10997F0F32DC47FE05504B0304140006080800CC70623BFFEA85907E0000009D0000000B0000006662782F636E782E786D6C4DCCD10A83201886E15B91FFDC95D95A811AB6F23E625948A6C3
310
E9D8E5AF46073BFAE0E1E365ED67B3E8ADC3CB78C7815C7240DA3DFC64DCC221C519D7805AC182F7F1EF06C88D9BE6703008B6049F9E274D7A1E938DBB5AE3D6131B2589BA0D3D965551E0B2EA732C9B9A624AAEB41E3A557677029960D9AFB4EF11165F504B0304140006080800CC70623B4FEEA4082C0100001202000031
310
0000006662782F39464131463745442D413632322D343644302D413938332D3331353338454246344243312F636F72652E786D6C8D515B6EC32010BC0AE2AB55850DD871ED0813254D72825EC00192A2C460F1A872FC42ED48ED5F7E00CDCECCCEB26C731F6FE05B39AFADE921293004CA082BB5B9F43086336A21D870E6AC
310
0D7F68109861543DCC30E4ECE26C9C164858139409093556AA051CBC570102714B8F1E7AF1A5C6A11862480C7F2DA6415C878B2A4891CA89C7990F2E050073937C42DE1DB7E4F87ED8A36D4329AA9B3D46DBAEAD504556557BD81DEBDD0761E52CE42C462D17B996298E3E6BE59E35C962CE821E1FF18553435012728A7187
310
0841987E927A8D9B35ADDF70BBC6989599FE4F1427F9A4286A132ABAC49D651EF234CD5CE04CDA78BA3DC2A8FB645D00B9DF8B57E215725C60BCA2A463E54C4CE327C7A65E1C7DB02E7DEFCBF594B864C5CA6CDBD49C957943E9FA5D5FBAF336F90F504B0304140006080800CC70623BAD7543B64E01000033030000300000
310
006662782F39464131463745442D413632322D343644302D413938332D3331353338454246344243312F636E782E786D6CD593CD6EC32010845F0571AD6CE3D48AD20813A9873E410FBD12D82434182C7EAAE6EDBB2424CD25871E7B41D6EC30B3FA84F9E67BB2E40B4234DE8DB46F1925E094D7C6ED479AD3AE5951B2113C
310
789FEE6C943839C1488B4C05DF079FE72A69D8C96C13AAD6B8631503449F83828872B949AC57D26200B826A308D316B4064D6E46FCDA41C05550DC9E483A00797BFD207EFB092A45DE9514C1BBD22178396BD39D891265658C238DEA00936C654E5E433CB65A26D9F6EDB5EBC14EBF49A45CB856E66048291F6939A9A81BB5
310
C8917738143CA680F4AA299D66A042CEB3354A2684DC9D8D178FE0D9B8B41CAAD720F880EE7EF93C0C18769E099ECC04D5A102C8049A8A05632F4DDF376CF1DE0F6BB65C2F8627B65A33C6BB62177CEBBDAD973006829F89F22E814B54F4BC2BE347F8AA8F681390B50FA73F804400B5F542E796F19FF974E7F78DB802FE05
310
E207504B0304140006080800CC70623B16AB87BA640500003C100000340000006662782F39464131463745442D413632322D343644302D413938332D3331353338454246344243312F6F626A656374732E786D6CAD575B6FA33818FD2B887DE6924B3BED8A326A92B68A663B534DD4D13E548A0C38942D60649B369D5FBFC7
310
600890A493BDE42160637FD7F31D7FF63E6FB3D478A55C242CBF3247B66B1A340F5994E4F19559CA8D75611A9F7D8F33263BCB4C232719BD32D5B4E97B316765A1A722BA21652A07B3B7B33F0D11D29C9A46981221AE4C113ED38CD8A4942CA2E2C58E882476BCD9DA23BB5ED8171B73523C0F841684D35CC252CCE79062D4
310
468DFA43D7747CCF51DF7D4FFDEB5593E3AB9CCA9FBEFE241792E4E19EB28198C968BAB8199F5D5A67D3E9C49A9E8F47D6EC76B6B0469F26EEFC7C3EBFBCBEB98462213924694B38DD98FE1D62C393D073EA4FADC5DAF04326852CCF6958F90F0F2B9BB5C48816348F90C7840A68EB78EDF68723159BCEE7891A6B95DDE9D3
310
BCEAEEE8086A6C6F9E5D4B59F0175C10A7A0820BAA5055C7473B5AE3CFDD452D602CD5DF12616444529E90D448938013FE6EFA58AA96F85E4F8C42275708571E98FE6827AF6B2B4AE3D7D83D64E5A64C53054DD3AF90BD06FEA9149565C94FCA0F6B834DC85599E4F2423B24DF0B6AFA979E534DFA9E7A4CC6FA631D486393
310
921829879BF5D781A373557BCB85E97FB90DB62B558F8795179C15944B051F40AB495CF35451D26A4727654E6D8033BD98EF82F21D91FF8AF2DD9982BCF1643BDD4EB516C9492E368C67C88DED563FC36D5EACF66DFF057C3658BDBFA69DF9578B3DA735B64F18C7F20770A9D45CFCF7FCF563D6456A277DBEF78A02637CA2
310
43B90A490AEAB94F72244481D24819A6C0E59B606BFA4B3025981DBB48EAB701D97BF19C577CC77F2D1B6C55A9EF3C732474C0B727303F625995056C3B02963D9EAC146BE78EC5FCEC7FA999EBC5EACBAAE41B12D27B4D2C0BBA49F244E2ECDC81B76B502F113D8F5EE8FB1BE3111CDD4FC2AA9B844CAB1288B68AB90A7CDC
310
1C166AB0D3DC5310625FCC14E779BFD0709F8890A629C9292B1B2DED31A4B0DA928CEE135085754027E3018A397D4D5427D15BD1330B677DC8934285AC3DF45A9EB68FF8F2B8FC0A509AFEECFD0FF2DE25CC6047F7214B195F07EFEB9A094D800F7BFAE8FED187B78EA8A3A400F115961BCAD1215E47C966530AF0EE8128FE
310
58CEBB996A8964FFA529A046635D9353B0336A8F700DDF46271A024E70B0B37C9DE01847591E54DED53D54202AB947E4076556AC49C6CA5C9E1226B7F1A7B1BE15DEED62C41B91E1B3E9AFAAA735036547343A925075041DF0A9979E893B391F8FCFA6967B3EFB644DCF6E5CEBFAE272625DCC6FAF3FB93793C5F90CE1EF57
310
407342756B10D1C489E8953CD1617E5CEECAD6F4EF8914CE5D5D504E5C3F1F9736DA62CFC11E00BCDDB8CC8A9466349744C1F75EBDA4DF09BA8A9E8C7A7E9991989E20E5DBDD6A6003664ED8F7A04A8DBE0DF6EAD9B9AA858342E47399053949D2C146EDB85DE4B176BB0965FBAC19BD19AA918E27FA50C1D22402E144464C
310
59462568E704B6E71915404CB72B8FF4EDE184DDAF753F284990D2C6926782963815403548A70C657FDEF80D2D9CEAA2AE4C1C76F60BFE74219A06527D6582DF6412526107381E55E353090704D085B52408D0933C4ED159D79BDA71BB4BC506F4831350EB6F979CD22D69BF7AC49B91A2C0A9DDA3D5CA36AD20FC478E37E6
310
1844E2352865EBCB6EA275A652E3836BE04EFB400BF1A2556F515F1FBB35B2AB35BD889C744FFA1004B5544B121E57F70215746DD2F5E2C1412B602CBF19455AC6C8E5E9922C4E01E65215385004546899059180EAFCF7A707CE7017CD8CDB0410789AB32C63B91E5CEBBBACB17AC6CD347A022D5075FD106377347AAABA7E
310
7D11590744509B44E205134DC1290F06580320F78E537D3D73540E06CB970B431F185308AD40BBD794D6D77003C5A36E8EAA54BA64597CD8F83BD552A080A365F7FF06504B0304140006080000CC70623B000000000000000000000000350000006662782F39464131463745442D413632322D343644302D413938332D3331
310
353338454246344243312F76657274696365732E62696E504B0304140006080800CC70623BF270F1330600000004000000360000006662782F39464131463745442D413632322D343644302D413938332D3331353338454246344243312F747269616E676C65732E62696E636660600000504B0304140006080000CC70623B
310
000000000000000000000000370000006662782F39464131463745442D413632322D343644302D413938332D3331353338454246344243312F617474726962757465732E62696E504B0304140006080800CC70623B08DA0BD19000000041010000360000006662782F39464131463745442D413632322D343644302D413938
310
332D3331353338454246344243312F6469726563746F72792E786D6C858F410AC3201045AF22B36F53E9A60B35CBEEBAE80D244E44489C6234F4F835464A48035D0DF398FF9F8AF63D0E6CC63039F212F8F9020C7D47C6792B21C5FE7403D62A1188E2E60C98D7234A5830286103A55745067B9D86B8A3CF9C7F90C11DE607
310
FB144396D7B6A82D282E9A152AD114D5EF2CB866EEE831B8EEA07A7BB5A8D7D61A2BAAEB7FD5F70921FF497D00504B0304140006080800CC70623B0D6EF93BFE000000A00100003B0000006662782F39464131463745442D413632322D343644302D413938332D3331353338454246344243312F7265736F75726365732F63
310
6F72652E786D6C8D50596E833010BD0A9ADFCA60B334011947A8694ED00B586642AC041B79A97AFC9A40A5F6AF3F33A3B7689E1E3F7DCD8FEC139DD7D6F4C0720A191A65476DA61E62B892236427C19DB5E1970C322367EC618541F0C9D9B8EC90B226A009093576C41D94DE63804C3DD2D18357379C652E63480A7FCF17A9
310
EE72C29CE5894E3AC17D702940B63D59270887DE46A7D0F36263058F518FBB468FE9A7BE6A7420864373B8D4873369AA8691FA421B3294352543C5CAF65C0F6FEF43CB8BD52C78D0F34F46E550061C419494B6843142CB0F5677F4B52BEB177AEC28E5C52AFF638ACBF84F53D42654E51E77B379102C05791282176B5F693D
310
CB4C7BED567C03504B010214000A0000080000CC70623B3DEE336E79000000790000001B00000000000000000000000000000000006175746F6465736B2D64657369676E2D7061636B6167652E786D6C504B01021400140006080800CC70623BD486FD9CA0000000F40000001300000000000000000000000000B20000005B
310
436F6E74656E745F54797065735D2E786D6C504B01021400140006080800CC70623B1EC5D7A3EB0000007C010000080000000000000000000000000083010000636F72652E786D6C504B01021400140006080800CC70623B55019EA25F0000007C000000070000000000000000000000000094020000636E782E786D6C504B
310
01021400140006080800CC70623B8C9102E971010000D40300000C00000000000000000000000000180300006662782F636F72652E786D6C504B01021400140006080800CC70623BFFEA85907E0000009D0000000B00000000000000000000000000B30400006662782F636E782E786D6C504B01021400140006080800CC70
310
623B4FEEA4082C0100001202000031000000000000000000000000005A0500006662782F39464131463745442D413632322D343644302D413938332D3331353338454246344243312F636F72652E786D6C504B01021400140006080800CC70623BAD7543B64E010000330300003000000000000000000000000000D5060000
310
6662782F39464131463745442D413632322D343644302D413938332D3331353338454246344243312F636E782E786D6C504B01021400140006080800CC70623B16AB87BA640500003C1000003400000000000000000000000000710800006662782F39464131463745442D413632322D343644302D413938332D3331353338
310
454246344243312F6F626A656374732E786D6C504B01021400140006080000CC70623B0000000000000000000000003500000000000000000000000000270E00006662782F39464131463745442D413632322D343644302D413938332D3331353338454246344243312F76657274696365732E62696E504B01021400140006
310
080800CC70623BF270F133060000000400000036000000000000000000000000007A0E00006662782F39464131463745442D413632322D343644302D413938332D3331353338454246344243312F747269616E676C65732E62696E504B01021400140006080000CC70623B0000000000000000000000003700000000000000
310
000000000000D40E00006662782F39464131463745442D413632322D343644302D413938332D3331353338454246344243312F617474726962757465732E62696E504B01021400140006080800CC70623B08DA0BD190000000410100003600000000000000000000000000290F00006662782F39464131463745442D413632
310
322D343644302D413938332D3331353338454246344243312F6469726563746F72792E786D6C504B01021400140006080800CC70623B0D6EF93BFE000000A00100003B000000000000000000000000000D1000006662782F39464131463745442D413632322D343644302D413938332D3331353338454246344243312F7265
310
736F75726365732F636F72652E786D6C504B0506000000000E000E0080040000641100000000
  0
XRECORD
  5
FFEE
102
{ACAD_REACTORS
330
173
102
}
330
173
100
AcDbXrecord
280
     1
102
MATERIAL
148
0.0
149
0.0
149
0.0
 93
        0
 94
       63
282
     0
 72
     1
 77
     1
171
     1
175
     1
179
     1
273
     0
  0
XRECORD
  5
175
102
{ACAD_REACTORS
330
173
102
}
330
173
100
AcDbXrecord
280
     1
270
     1
271
     1
  0
XRECORD
  5
174
102
{ACAD_REACTORS
330
173
102
}
330
173
100
AcDbXrecord
280
     1
270
     1
271
     1
  0
XRECORD
  5
1FB
102
{ACAD_REACTORS
330
173
102
}
330
173
100
AcDbXrecord
280
     1
 70
     0
 90
1673772943
  1
ECE7A1D2-D628-4531-984C-D00F80459256
310
504B03040A0000080000CC70623B3DEE336E79000000790000001B0000006175746F6465736B2D64657369676E2D7061636B6167652E786D6C3C3F786D6C2076657273696F6E3D22312E302220656E636F64696E673D227574662D3822203F3E3C666F726D6174733E3C666F726D61743E687474703A2F2F736368656D612E
310
6175746F6465736B2E636F6D2F64657369676E2D7061636B6167652F323030393C2F666F726D61743E3C2F666F726D6174733E504B0304140006080800CC70623BD486FD9CA0000000F4000000130000005B436F6E74656E745F54797065735D2E786D6C7D8EC10E82300C865F65E91D8A1E8C310C0EEA1BF002731658846E
310
D98AC1B77784ABF1D8FE5FBFBF75BBCE937A534CCEB38643598122B6FEE978D0B0485F9C41B54DDD7D022595594E1A469170414C76A4D9A4D207E29CF43ECE46F218070CC6BECC4078ACAA135ACF422C856C0E68EA1BF5669944DDD7BCDE7B1F8E415D77AECB980613C2E4AC91FC167A2B244592486606FC29C8FD7F045B9A
310
EF7053A7E60B504B0304140006080800CC70623BD9DDAED0EC0000007C01000008000000636F72652E786D6C8D90416EC3201045AF82665B61836D9CD8C2444DD39CA01740405C94182C03558F5F9C3852BBEB6A467FFE9B197D7EF89E6EE8CB2CC17A37002D0820E394D7D68D03A478C17B4007C117EFE32F1B20272733C0
310
2A83E0E3E2D3BC49CABB685CCCAAF3DA6CA20CC14440EA969B0182FA34932C648AD911AEC52CD5558EA6A0CF2EC329598D1E47ACCEFBECC59A050463A7EA5833865FEBDD0E37353BE3EE8DBDE3F6786A48D375FBF6CC78B9C282473B3DEFABC5C86834888A900E538A49F5419B9EB47DD5BC907D4F082F57FB1F28CDFA9F50
310
B22ED6D5F6EE030B20687EE43E10BC5CB3C8E51E54AE6B6EE207504B0304140006080800CC70623B55019EA25F0000007C00000007000000636E782E786D6C4DCB3B0E80201045D1AD90E915ED2CF8AC45050C11660C8261F98AB1B07AC9C97D42D718D865D3E909258CFD00CCE24AC6E326A164D74DC0B4128928FF326038
310
472BA13128B1252AC747C6BAB984FC68F0B87FE8960A5C09FE86CFB69FBA01504B0304140006080800CC70623BA24EB22D72010000D40300000C0000006662782F636F72652E786D6CC5535B6E833010BC8AE5DF0A6C5E49888CA3A6694ED00B38E05014B091B1518EDFE511A5A9D228FD2A1F60CDEC7A67C6986DCE4D8D7A
310
69BA4AAB0C073EC548AA5C17952A33ECECD15B61B4E1CC686DBF9561A44423333CC098B3D268D7CE50AE9595CA02AA74216750749DB418E5352C32DCE59FB211BE70162ABA93DF8AFC244AE9073ED050C759670D0840D390E18DF9F1706664C23973AE2A66B62A605A75ACA4C13C4976E1364A12EF355A2EBD384AF65EFA96
310
BC7B8BED2EA6719AAE16FB8491A199335B351775B991C2CA02F390D2D40B028F861F41BCA68B7518BFD0D59A524686F29B26D7164F36B94AD9289CE54E6D1DE6010819891F6E21228B3AD1831EC219194284CF98F06DD01008846CC5A1BEF83801D4CBDC6A1303536877A57A513B0953A94FC707FDBE6064EA84A9E3E6E0FA
310
EE8CF0E9198F7784A316AA0413C2C2F2E0ECA0934D1AE6D05A69BCDE9E91D2A611F573361E38FC1375157F5752AE6B6DFE4B11990F88CCBF0719EE23FF02504B0304140006080800CC70623B408A7D3B7C0000009D0000000B0000006662782F636E782E786D6C4DCCD10A83201886E15B91FFDC552A92A0064DBC8F581632
310
D3703A76F9ABD1C18E3E78F878E5F0D9027ABBFCF2292AE86E2D20171F69F6715550CB827B40839639A5F2770314A7CD293819B45C73AAFB45B35BA61ACAA1C1C7E7855C58C15BC331339661262CC762340413D68D77DA5B42298546CBE6573AF60CEB2F504B0304140006080800CC70623B449FB9BD290100001202000031
310
0000006662782F36394639363044362D344446342D343946362D394244322D3234314243333846323333332F636F72652E786D6C8D515B6EC32010BC0AE22B55850D98B871848994463E412FE002495162B07854397EA176A4F62F3F2C9A9D991D587EB84F37F0AD7D30CEF6905418026DA553C65E7A98E219ED203808EE9D
310
8B7F6810D871D23D2C3014FCE25D9A57483A1BB58D19B54EE9151C43D0110279CB971E06F9A5A7B11A53CC8C70ADE6515EC78BAE4895DB992778883E0700CB907242D17643D7E2538BD869608875438BBAE38922CAC8F1BDD90DB4691A5E2F42C153326A951B95E398B3D1FE599322163C9AE9115F7A3D46ADA0A018778810
310
84E907617BDCEE297BC5BB3DC6BC2EF47FA234AB2745C9D8D8D035EE220B50105E2F0DC1954B9FB747187D9F9D8FA0CCDB042D5FA0C015C65B42DF78BD10F3F3B363CB56C7109DCFDFBBB97E662ED92EB62D13BC2E1BCAE5777DB9966D8A1F504B0304140006080800CC70623BAD7543B64E01000033030000300000006662
310
782F36394639363044362D344446342D343946362D394244322D3234314243333846323333332F636E782E786D6CD593CD6EC32010845F0571AD6CE3D48AD20813A9873E410FBD12D82434182C7EAAE6EDBB2424CD25871E7B41D6EC30B3FA84F9E67BB2E40B4234DE8DB46F1925E094D7C6ED479AD3AE5951B2113C789FEE
310
6C943839C1488B4C05DF079FE72A69D8C96C13AAD6B8631503449F83828872B949AC57D26200B826A308D316B4064D6E46FCDA41C05550DC9E483A00797BFD207EFB092A45DE9514C1BBD22178396BD39D891265658C238DEA00936C654E5E433CB65A26D9F6EDB5EBC14EBF49A45CB856E66048291F6939A9A81BB5C89177
310
38143CA680F4AA299D66A042CEB3354A2684DC9D8D178FE0D9B8B41CAAD720F880EE7EF93C0C18769E099ECC04D5A102C8049A8A05632F4DDF376CF1DE0F6BB65C2F8627B65A33C6BB62177CEBBDAD973006829F89F22E814B54F4BC2BE347F8AA8F681390B50FA73F804400B5F542E796F19FF974E7F78DB802FE05E20750
310
4B0304140006080800CC70623B8D05915C650500003B100000340000006662782F36394639363044362D344446342D343946362D394244322D3234314243333846323333332F6F626A656374732E786D6CAD575B6FA33814FE2B887D06429276DA1565D4266D158D3A339A6846FB502932E050B66023DB74D2FDF5FB190C01
310
9276B2973C046C8ECFF53B17071F77456EBD502133CEAE6CDF9DD81665314F32965ED995DA3A17B6F5310C04E7AA47665B8C14F4CAD6DB7618A48257A5D94AE89654B91AEDDEDDFC61C998326A5B714EA4BCB265FC440BE2924AF184CA6737218AB8E976E7FA6E4338649B0A523E8D98964450A6A029F619B8588D52FE7039
310
B1BD30F0F4F730D0FF866AF6369557DB33949F31A9088B0F848DD8CCFCF9F2767A76E99CCDE733677E3EF59D9BBB9BA5E37F984D16E78BC5E5F5ED25044B25C0C96822E8D60EEFE11B91C581D77CEA34368A1F5329E68CD1B8B61F16D63A1B8E092D294B10C78C4A48EB593D192E7DED9BDEE7995E1B91FDEDD3ACEA9FE831
310
6A756F9F7D4D79F4274C90A7A04248AA51D5F8C718DAE06FB2F75AC4796EBE65D22A88A22223B995679120E2D50E41AA49C260C046A35368846B0BECD0DFF3EBEB8AD4F835768F69B9ADF25C43D30E6B646F807FAA64AD59F61715C7A54127C4AACA98BA3006A9D792DAE165E0D59B61A01FB3A9F9D838D2DAE62445C86166
310
F37564E842E7DE6A69879FEEA2DD5AE7E371E1A5E025154AC307D06A03D73EB5978C58FFA4C8E9033066E0F3BD53BEC1F39F91BE7B55103791EDE6BBB991A2046172CB4581D8B893FA674DDA17A77B3B7C413D1B511FD2743BFF8A38F03A658705E3ADF8015C3A3417FF3D7E439FF591DA0B5F18BC20C1B8981957AE6392A3
310
F43C640C01D1A0B4728E2DD4F26DB4B3C3152A252A3B4E913CEC1C72F012782FF88EFF8637AA552DBEF76408E8A8DE9E50F9E1CB3A2DA0DB1B6039A893B56063DC5B3E3FFB5F72E67AB9FEB4AEC496C4F4C1149625DD662C53E89D7BF0F6151A046260D1337DFDC94502430F83B0EE07A130A224BCAD7DAE1D9FB6CD422FF6
310
920702629C4BB9AE79C12F243C6432A6794E18E5552BA56B431AAB5D91317302B2B071E86C3A42B1A02F999E24061403B5D0EB639195DA655DD3EBEAB4FB862DDF579F014AD0E73C22F99E28DA57FB98E75C6CA2D74D53086D600F4786E0FE3144B771A8A7B900F03594DB8A633CBC49B2EDB69228BB479CF863B5E807AAAB
310
23872F6DFEB4129B949CA33823F58830E86D65621E10047D9DB34D862E8EAC3C2ABC2F7B2C40D67CDFE01F5545B92105AF983AC54D93D69E56FB8E797F88913F898A9FEC705D3F9D1B54EC8426FB500D40A03BD0119B06E1B95DDC7EB8F6975367793EBD70E66733DFB9BC982F9CE564727731999F5D4ECFCE3B8D6A4DC2A0
310
6D50FD148437D110834A64C6CDDF57FBACB5C307A2A477DFE4939736CFEF2B175371E0E10CF0DD1D5C15654E0BCA14D1E87DD02FF93782A162C0A3D95F1524A52770F972BF1EE9809D13CE7DD599467F8ECE9ADD85CE85A34CD45355448C64F9E8A031DC2D596ACC6E5DD93D9B82DE2EF5CAF81363A8E47996A0DE24564A79
310
4115AACE09C55E14540231FDA13C319787134EBF34E3A022514E5B4D9E0826E25C02D5805B15ABE1BEF51B26383D445DD9E875EE33FE4C22DA16427D65A3BCA92CA6D28DD01DF5DC53330704308475351050232CCD31583787BA75774AFB06E5070DD0C8EF484E19968C5D83BA5B90B244D31E54D55A372320FE4786B7EA58
310
44E135AA5467CB7EA333A61683CC6A8C3257034C10CF46F40EF9F5BE59BE5BD30C3C72D235E95D10345C1D45445A5F0BB47E46A5EBE5570F9380B5FA629579952296A773720405982B9DE04011506178964401AA8BDF1FBF0A8EAB6861DD6580C0E38217056766716DAEB2D6FA0917D3E4116581EADB879C4E7CFFB11EFACD
310
3D641311495D92C8676CB409A72D18610D803CE8A626049E8EC1887CB5B44CC39883690DDA8399B4B9855B481E7D71D4A9D22F96E5BB73BF5793020C02137BF837504B0304140006080000CC70623B000000000000000000000000350000006662782F36394639363044362D344446342D343946362D394244322D32343142
310
43333846323333332F76657274696365732E62696E504B0304140006080800CC70623BF270F1330600000004000000360000006662782F36394639363044362D344446342D343946362D394244322D3234314243333846323333332F747269616E676C65732E62696E636660600000504B0304140006080000CC70623B0000
310
00000000000000000000370000006662782F36394639363044362D344446342D343946362D394244322D3234314243333846323333332F617474726962757465732E62696E504B0304140006080800CC70623B08DA0BD19000000041010000360000006662782F36394639363044362D344446342D343946362D394244322D
310
3234314243333846323333332F6469726563746F72792E786D6C858F410AC3201045AF22B36F53E9A60B35CBEEBAE80D244E44489C6234F4F835464A48035D0DF398FF9F8AF63D0E6CC63039F212F8F9020C7D47C6792B21C5FE7403D62A1188E2E60C98D7234A5830286103A55745067B9D86B8A3CF9C7F90C11DE607FB14
310
4396D7B6A82D282E9A152AD114D5EF2CB866EEE831B8EEA07A7BB5A8D7D61A2BAAEB7FD5F70921FF497D00504B0304140006080800CC70623BCA768048FE000000A00100003B0000006662782F36394639363044362D344446342D343946362D394244322D3234314243333846323333332F7265736F75726365732F636F72
310
652E786D6C8D50596E833010BD0A9ADFCA60D600328E9AA639412F609909B1126CE4A5EAF16B0295DABFFECC8CDEA2797AECF8353F924FB44E193D409E5248504B332A3D0D10FC95B4901C39B3C6F85F3248B49871801506CE266BC2B243D2688FDA47549B11775038871E12F988C7004EDE7016A9083E2ADC3D5D84BC8B09
310
D33C8D74D471E6BC8D0192EDC93A815B742658898E651BCB59086ADC356A8C3FD555A1055ED7E7E254D615792D0F075295F585746FF53B694EE78A565DD736979A65AB9933AFE69F8CD2A2F038022F28ED489E135A7CE4554F9BBEA85E68DB53CAB255FEC71496F19FA6A0B42F8B3DEE6673C0F318E4497096AD7DC5F52C33
310
EEB55BFE0D504B010214000A0000080000CC70623B3DEE336E79000000790000001B00000000000000000000000000000000006175746F6465736B2D64657369676E2D7061636B6167652E786D6C504B01021400140006080800CC70623BD486FD9CA0000000F40000001300000000000000000000000000B20000005B436F
310
6E74656E745F54797065735D2E786D6C504B01021400140006080800CC70623BD9DDAED0EC0000007C010000080000000000000000000000000083010000636F72652E786D6C504B01021400140006080800CC70623B55019EA25F0000007C000000070000000000000000000000000095020000636E782E786D6C504B0102
310
1400140006080800CC70623BA24EB22D72010000D40300000C00000000000000000000000000190300006662782F636F72652E786D6C504B01021400140006080800CC70623B408A7D3B7C0000009D0000000B00000000000000000000000000B50400006662782F636E782E786D6C504B01021400140006080800CC70623B
310
449FB9BD290100001202000031000000000000000000000000005A0500006662782F36394639363044362D344446342D343946362D394244322D3234314243333846323333332F636F72652E786D6C504B01021400140006080800CC70623BAD7543B64E010000330300003000000000000000000000000000D20600006662
310
782F36394639363044362D344446342D343946362D394244322D3234314243333846323333332F636E782E786D6C504B01021400140006080800CC70623B8D05915C650500003B10000034000000000000000000000000006E0800006662782F36394639363044362D344446342D343946362D394244322D32343142433338
310
46323333332F6F626A656374732E786D6C504B01021400140006080000CC70623B0000000000000000000000003500000000000000000000000000250E00006662782F36394639363044362D344446342D343946362D394244322D3234314243333846323333332F76657274696365732E62696E504B010214001400060808
310
00CC70623BF270F13306000000040000003600000000000000000000000000780E00006662782F36394639363044362D344446342D343946362D394244322D3234314243333846323333332F747269616E676C65732E62696E504B01021400140006080000CC70623B00000000000000000000000037000000000000000000
310
00000000D20E00006662782F36394639363044362D344446342D343946362D394244322D3234314243333846323333332F617474726962757465732E62696E504B01021400140006080800CC70623B08DA0BD190000000410100003600000000000000000000000000270F00006662782F36394639363044362D344446342D
310
343946362D394244322D3234314243333846323333332F6469726563746F72792E786D6C504B01021400140006080800CC70623BCA768048FE000000A00100003B000000000000000000000000000B1000006662782F36394639363044362D344446342D343946362D394244322D3234314243333846323333332F7265736F
310
75726365732F636F72652E786D6C504B0506000000000E000E0080040000621100000000
  0
XRECORD
  5
176
102
{ACAD_REACTORS
330
173
102
}
330
173
100
AcDbXrecord
280
     1
270
     1
271
     1
  0
XRECORD
  5
177
102
{ACAD_REACTORS
330
173
102
}
330
173
100
AcDbXrecord
280
     1
270
     1
271
     1
  0
XRECORD
  5
10010
102
{ACAD_REACTORS
330
1000F
102
}
330
1000F
100
AcDbXrecord
280
     1
102
ACAD_ROUNDTRIP_2012_MLEADER_STYLE
298
     1
  0
XRECORD
  5
10022
102
{ACAD_REACTORS
330
10021
102
}
330
10021
100
AcDbXrecord
280
     1
102
DISPLAYNAME
  1
Metric50
102
FLAGS
 90
        0
  0
CELLSTYLEMAP
  5
FFE2
102
{ACAD_REACTORS
330
162
102
}
330
162
100
AcDbCellStyleMap
 90
        3
300
CELLSTYLE
  1
TABLEFORMAT_BEGIN
 90
        5
170
     1
 91
        0
 92
    32768
 62
   257
 93
        1
300
CONTENTFORMAT
  1
CONTENTFORMAT_BEGIN
 90
        0
 91
        0
 92
      512
 93
        0
300

 40
0.0
140
1.0
 94
        5
 62
     0
340
11
144
6.0
309
CONTENTFORMAT_END
171
     1
301
MARGIN
  1
CELLMARGIN_BEGIN
 40
1.5
 40
1.5
 40
1.5
 40
1.5
 40
4.5
 40
4.5
309
CELLMARGIN_END
 94
        6
 95
        1
302
GRIDFORMAT
  1
GRIDFORMAT_BEGIN
 90
        0
 91
        1
 62
     0
 92
       -2
340
14
 93
        0
 40
1.125
309
GRIDFORMAT_END
 95
        2
302
GRIDFORMAT
  1
GRIDFORMAT_BEGIN
 90
        0
 91
        1
 62
     0
 92
       -2
340
14
 93
        0
 40
1.125
309
GRIDFORMAT_END
 95
        4
302
GRIDFORMAT
  1
GRIDFORMAT_BEGIN
 90
        0
 91
        1
 62
     0
 92
       -2
340
14
 93
        0
 40
1.125
309
GRIDFORMAT_END
 95
        8
302
GRIDFORMAT
  1
GRIDFORMAT_BEGIN
 90
        0
 91
        1
 62
     0
 92
       -2
340
14
 93
        0
 40
1.125
309
GRIDFORMAT_END
 95
       16
302
GRIDFORMAT
  1
GRIDFORMAT_BEGIN
 90
        0
 91
        1
 62
     0
 92
       -2
340
14
 93
        0
 40
1.125
309
GRIDFORMAT_END
 95
       32
302
GRIDFORMAT
  1
GRIDFORMAT_BEGIN
 90
        0
 91
        1
 62
     0
 92
       -2
340
14
 93
        0
 40
1.125
309
GRIDFORMAT_END
309
TABLEFORMAT_END
  1
CELLSTYLE_BEGIN
 90
        1
 91
        1
300
_TITLE
309
CELLSTYLE_END
300
CELLSTYLE
  1
TABLEFORMAT_BEGIN
 90
        5
170
     1
 91
        0
 92
        0
 62
   257
 93
        1
300
CONTENTFORMAT
  1
CONTENTFORMAT_BEGIN
 90
        0
 91
        0
 92
      512
 93
        0
300

 40
0.0
140
1.0
 94
        5
 62
     0
340
11
144
4.5
309
CONTENTFORMAT_END
171
     1
301
MARGIN
  1
CELLMARGIN_BEGIN
 40
1.5
 40
1.5
 40
1.5
 40
1.5
 40
4.5
 40
4.5
309
CELLMARGIN_END
 94
        6
 95
        1
302
GRIDFORMAT
  1
GRIDFORMAT_BEGIN
 90
        0
 91
        1
 62
     0
 92
       -2
340
14
 93
        0
 40
1.125
309
GRIDFORMAT_END
 95
        2
302
GRIDFORMAT
  1
GRIDFORMAT_BEGIN
 90
        0
 91
        1
 62
     0
 92
       -2
340
14
 93
        0
 40
1.125
309
GRIDFORMAT_END
 95
        4
302
GRIDFORMAT
  1
GRIDFORMAT_BEGIN
 90
        0
 91
        1
 62
     0
 92
       -2
340
14
 93
        0
 40
1.125
309
GRIDFORMAT_END
 95
        8
302
GRIDFORMAT
  1
GRIDFORMAT_BEGIN
 90
        0
 91
        1
 62
     0
 92
       -2
340
14
 93
        0
 40
1.125
309
GRIDFORMAT_END
 95
       16
302
GRIDFORMAT
  1
GRIDFORMAT_BEGIN
 90
        0
 91
        1
 62
     0
 92
       -2
340
14
 93
        0
 40
1.125
309
GRIDFORMAT_END
 95
       32
302
GRIDFORMAT
  1
GRIDFORMAT_BEGIN
 90
        0
 91
        1
 62
     0
 92
       -2
340
14
 93
        0
 40
1.125
309
GRIDFORMAT_END
309
TABLEFORMAT_END
  1
CELLSTYLE_BEGIN
 90
        2
 91
        1
300
_HEADER
309
CELLSTYLE_END
300
CELLSTYLE
  1
TABLEFORMAT_BEGIN
 90
        5
170
     1
 91
        0
 92
        0
 62
   257
 93
        1
300
CONTENTFORMAT
  1
CONTENTFORMAT_BEGIN
 90
        0
 91
        0
 92
      512
 93
        0
300

 40
0.0
140
1.0
 94
        2
 62
     0
340
11
144
4.5
309
CONTENTFORMAT_END
171
     1
301
MARGIN
  1
CELLMARGIN_BEGIN
 40
1.5
 40
1.5
 40
1.5
 40
1.5
 40
4.5
 40
4.5
309
CELLMARGIN_END
 94
        6
 95
        1
302
GRIDFORMAT
  1
GRIDFORMAT_BEGIN
 90
        0
 91
        1
 62
     0
 92
       -2
340
14
 93
        0
 40
1.125
309
GRIDFORMAT_END
 95
        2
302
GRIDFORMAT
  1
GRIDFORMAT_BEGIN
 90
        0
 91
        1
 62
     0
 92
       -2
340
14
 93
        0
 40
1.125
309
GRIDFORMAT_END
 95
        4
302
GRIDFORMAT
  1
GRIDFORMAT_BEGIN
 90
        0
 91
        1
 62
     0
 92
       -2
340
14
 93
        0
 40
1.125
309
GRIDFORMAT_END
 95
        8
302
GRIDFORMAT
  1
GRIDFORMAT_BEGIN
 90
        0
 91
        1
 62
     0
 92
       -2
340
14
 93
        0
 40
1.125
309
GRIDFORMAT_END
 95
       16
302
GRIDFORMAT
  1
GRIDFORMAT_BEGIN
 90
        0
 91
        1
 62
     0
 92
       -2
340
14
 93
        0
 40
1.125
309
GRIDFORMAT_END
 95
       32
302
GRIDFORMAT
  1
GRIDFORMAT_BEGIN
 90
        0
 91
        1
 62
     0
 92
       -2
340
14
 93
        0
 40
1.125
309
GRIDFORMAT_END
309
TABLEFORMAT_END
  1
CELLSTYLE_BEGIN
 90
        3
 91
        2
300
_DATA
309
CELLSTYLE_END
  0
XRECORD
  5
FFE7
102
{ACAD_REACTORS
330
162
102
}
330
162
100
AcDbXrecord
280
     1
102
ACAD_ROUNDTRIP_PRE2007_TABLESTYLE
 90
      512
 91
        0
  1

 92
      512
 93
        0
  2

 94
      512
 95
        0
  3

  0
XRECORD
  5
FFFA
102
{ACAD_REACTORS
330
FFF9
102
}
330
FFF9
100
AcDbXrecord
280
     1
102
RTVSPost2010Prop28
280
     1
102
RTVSPost2010PropOp28
 70
     1
102
RTVSPost2010Prop29
280
     1
102
RTVSPost2010PropOp29
 70
     1
102
RTVSPost2010Prop30
280
     0
102
RTVSPost2010PropOp30
 70
     1
102
RTVSPost2010Prop31
280
     0
102
RTVSPost2010PropOp31
 70
     1
102
RTVSPost2010Prop32
280
     0
102
RTVSPost2010PropOp32
 70
     1
102
RTVSPost2010Prop33
280
     0
102
RTVSPost2010PropOp33
 70
     1
102
RTVSPost2010Prop34
280
     0
102
RTVSPost2010PropOp34
 70
     1
102
RTVSPost2010Prop35
280
     0
102
RTVSPost2010PropOp35
 70
     1
102
RTVSPost2010Prop36
280
     0
102
RTVSPost2010PropOp36
 70
     1
102
RTVSPost2010Prop37
 90
       50
102
RTVSPost2010PropOp37
 70
     1
102
RTVSPost2010Prop38
140
0.0
102
RTVSPost2010PropOp38
 70
     1
102
RTVSPost2010Prop39
140
1.0
102
RTVSPost2010PropOp39
 70
     1
102
RTVSPost2010Prop40
 90
        0
102
RTVSPost2010PropOp40
 70
     1
102
RTVSPost2010Prop41ColorIndex
 90
       18
102
RTVSPost2010Prop41ColorRGB
 90
        0
102
RTVSPost2010PropOp41
 70
     1
102
RTVSPost2010Prop42
 90
       50
102
RTVSPost2010PropOp42
 70
     1
102
RTVSPost2010Prop43
 90
        3
102
RTVSPost2010PropOp43
 70
     1
102
RTVSPost2010Prop44ColorIndex
 90
        5
102
RTVSPost2010Prop44ColorRGB
 90
      255
102
RTVSPost2010PropOp44
 70
     1
102
RTVSPost2010Prop45
280
     0
102
RTVSPost2010PropOp45
 70
     1
102
RTVSPost2010Prop46
 90
       50
102
RTVSPost2010PropOp46
 70
     1
102
RTVSPost2010Prop47
 90
       50
102
RTVSPost2010PropOp47
 70
     1
102
RTVSPost2010Prop48
 90
       50
102
RTVSPost2010PropOp48
 70
     1
102
RTVSPost2010Prop49
280
     0
102
RTVSPost2010PropOp49
 70
     1
102
RTVSPost2010Prop50
 90
       50
102
RTVSPost2010PropOp50
 70
     1
102
RTVSPost2010Prop51ColorIndex
 90
      256
102
RTVSPost2010Prop51ColorRGB
 90
-16777216
102
RTVSPost2010PropOp51
 70
     0
102
RTVSPost2010Prop52
140
1.0
102
RTVSPost2010PropOp52
 70
     0
102
RTVSPost2010Prop53
 90
        2
102
RTVSPost2010PropOp53
 70
     1
102
RTVSPost2010Prop54
  1
strokes_ogs.tif
102
RTVSPost2010PropOp54
 70
     1
102
RTVSPost2010Prop55
280
     0
102
RTVSPost2010PropOp55
 70
     1
102
RTVSPost2010Prop56
140
1.0
102
RTVSPost2010PropOp56
 70
     1
102
RTVSPost2010Prop57
140
1.0
102
RTVSPost2010PropOp57
 70
     1
102
RTVSPropertyOp0
 70
     1
102
RTVSPropertyOp1
 70
     1
102
RTVSPropertyOp2
 70
     1
102
RTVSPropertyOp3
 70
     1
102
RTVSPropertyOp4
 70
     1
102
RTVSPropertyOp5
 70
     1
102
RTVSPropertyOp6
 70
     1
102
RTVSPropertyOp7
 70
     1
102
RTVSPropertyOp8
 70
     1
102
RTVSPropertyOp9
 70
     1
102
RTVSPropertyOp10
 70
     1
102
RTVSPropertyOp11
 70
     1
102
RTVSPropertyOp12
 70
     1
102
RTVSPropertyOp13
 70
     1
102
RTVSPropertyOp14
 70
     1
102
RTVSPropertyOp15
 70
     1
102
RTVSPropertyOp16
 70
     1
102
RTVSPropertyOp17
 70
     1
102
RTVSPropertyOp18
 70
     1
102
RTVSPropertyOp19
 70
     1
102
RTVSPropertyOp20
 70
     1
102
RTVSPropertyOp21
 70
     1
102
RTVSPropertyOp22
 70
     1
102
RTVSPropertyOp23
 70
     1
102
RTVSPropertyOp24
 70
     1
102
RTVSPropertyOp25
 70
     1
102
RTVSPropertyOp26
 70
     1
102
RTVSPropertyOp27
 70
     1
102
RTVSPropertyOp28
 70
     1
102
RTVSPropertyOp29
 70
     1
102
RTVSPropertyOp30
 70
     1
102
RTVSPropertyOp31
 70
     1
102
RTVSPropertyOp32
 70
     1
102
RTVSPropertyOp33
 70
     1
102
RTVSPropertyOp34
 70
     1
102
RTVSPropertyOp35
 70
     1
102
RTVSPropertyOp36
 70
     1
102
RTVSPropertyOp37
 70
     1
102
RTVSPropertyOp38
 70
     1
102
RTVSPropertyOp39
 70
     1
102
RTVSPropertyOp40
 70
     1
102
RTVSPropertyOp41
 70
     1
102
RTVSPropertyOp42
 70
     1
102
RTVSPropertyOp43
 70
     1
102
RTVSPropertyOp44
 70
     1
102
RTVSPropertyOp45
 70
     1
102
RTVSPropertyOp46
 70
     1
102
RTVSPropertyOp47
 70
     1
102
RTVSPropertyOp48
 70
     1
102
RTVSPropertyOp49
 70
     1
102
RTVSPropertyOp50
 70
     1
102
RTVSPropertyOp51
 70
     0
102
RTVSPropertyOp52
 70
     0
102
RTVSPropertyOp53
 70
     1
102
RTVSPropertyOp54
 70
     1
102
RTVSPropertyOp55
 70
     1
102
RTVSPropertyOp56
 70
     1
102
RTVSPropertyOp57
 70
     1
102
RTVSPropertyOp58
 70
     1
102
RTVSPropertyOp59
 70
     1
102
RTVSPropertyOp60
 70
     1
102
RTVSPropertyOp61
 70
     1
102
RTVSPropertyOp62
 70
     1
  0
XRECORD
  5
FFF8
102
{ACAD_REACTORS
330
FFF7
102
}
330
FFF7
100
AcDbXrecord
280
     1
102
RTVSPost2010Prop28
280
     0
102
RTVSPost2010PropOp28
 70
     1
102
RTVSPost2010Prop29
280
     1
102
RTVSPost2010PropOp29
 70
     1
102
RTVSPost2010Prop30
280
     1
102
RTVSPost2010PropOp30
 70
     1
102
RTVSPost2010Prop31
280
     0
102
RTVSPost2010PropOp31
 70
     1
102
RTVSPost2010Prop32
280
     0
102
RTVSPost2010PropOp32
 70
     1
102
RTVSPost2010Prop33
280
     0
102
RTVSPost2010PropOp33
 70
     1
102
RTVSPost2010Prop34
280
     0
102
RTVSPost2010PropOp34
 70
     1
102
RTVSPost2010Prop35
280
     0
102
RTVSPost2010PropOp35
 70
     1
102
RTVSPost2010Prop36
280
     0
102
RTVSPost2010PropOp36
 70
     1
102
RTVSPost2010Prop37
 90
       50
102
RTVSPost2010PropOp37
 70
     1
102
RTVSPost2010Prop38
140
0.0
102
RTVSPost2010PropOp38
 70
     1
102
RTVSPost2010Prop39
140
1.0
102
RTVSPost2010PropOp39
 70
     1
102
RTVSPost2010Prop40
 90
        0
102
RTVSPost2010PropOp40
 70
     1
102
RTVSPost2010Prop41ColorIndex
 90
       18
102
RTVSPost2010Prop41ColorRGB
 90
        0
102
RTVSPost2010PropOp41
 70
     1
102
RTVSPost2010Prop42
 90
       50
102
RTVSPost2010PropOp42
 70
     1
102
RTVSPost2010Prop43
 90
        3
102
RTVSPost2010PropOp43
 70
     1
102
RTVSPost2010Prop44ColorIndex
 90
        5
102
RTVSPost2010Prop44ColorRGB
 90
      255
102
RTVSPost2010PropOp44
 70
     1
102
RTVSPost2010Prop45
280
     0
102
RTVSPost2010PropOp45
 70
     1
102
RTVSPost2010Prop46
 90
       50
102
RTVSPost2010PropOp46
 70
     1
102
RTVSPost2010Prop47
 90
       50
102
RTVSPost2010PropOp47
 70
     1
102
RTVSPost2010Prop48
 90
       50
102
RTVSPost2010PropOp48
 70
     1
102
RTVSPost2010Prop49
280
     0
102
RTVSPost2010PropOp49
 70
     1
102
RTVSPost2010Prop50
 90
       50
102
RTVSPost2010PropOp50
 70
     1
102
RTVSPost2010Prop51ColorIndex
 90
      256
102
RTVSPost2010Prop51ColorRGB
 90
-16777216
102
RTVSPost2010PropOp51
 70
     0
102
RTVSPost2010Prop52
140
1.0
102
RTVSPost2010PropOp52
 70
     0
102
RTVSPost2010Prop53
 90
        2
102
RTVSPost2010PropOp53
 70
     1
102
RTVSPost2010Prop54
  1
strokes_ogs.tif
102
RTVSPost2010PropOp54
 70
     1
102
RTVSPost2010Prop55
280
     0
102
RTVSPost2010PropOp55
 70
     1
102
RTVSPost2010Prop56
140
1.0
102
RTVSPost2010PropOp56
 70
     1
102
RTVSPost2010Prop57
140
1.0
102
RTVSPost2010PropOp57
 70
     1
102
RTVSPropertyOp0
 70
     1
102
RTVSPropertyOp1
 70
     1
102
RTVSPropertyOp2
 70
     1
102
RTVSPropertyOp3
 70
     1
102
RTVSPropertyOp4
 70
     1
102
RTVSPropertyOp5
 70
     1
102
RTVSPropertyOp6
 70
     1
102
RTVSPropertyOp7
 70
     1
102
RTVSPropertyOp8
 70
     1
102
RTVSPropertyOp9
 70
     1
102
RTVSPropertyOp10
 70
     1
102
RTVSPropertyOp11
 70
     1
102
RTVSPropertyOp12
 70
     1
102
RTVSPropertyOp13
 70
     1
102
RTVSPropertyOp14
 70
     1
102
RTVSPropertyOp15
 70
     1
102
RTVSPropertyOp16
 70
     1
102
RTVSPropertyOp17
 70
     1
102
RTVSPropertyOp18
 70
     1
102
RTVSPropertyOp19
 70
     1
102
RTVSPropertyOp20
 70
     1
102
RTVSPropertyOp21
 70
     1
102
RTVSPropertyOp22
 70
     1
102
RTVSPropertyOp23
 70
     1
102
RTVSPropertyOp24
 70
     1
102
RTVSPropertyOp25
 70
     1
102
RTVSPropertyOp26
 70
     1
102
RTVSPropertyOp27
 70
     1
102
RTVSPropertyOp28
 70
     1
102
RTVSPropertyOp29
 70
     1
102
RTVSPropertyOp30
 70
     1
102
RTVSPropertyOp31
 70
     1
102
RTVSPropertyOp32
 70
     1
102
RTVSPropertyOp33
 70
     1
102
RTVSPropertyOp34
 70
     1
102
RTVSPropertyOp35
 70
     1
102
RTVSPropertyOp36
 70
     1
102
RTVSPropertyOp37
 70
     1
102
RTVSPropertyOp38
 70
     1
102
RTVSPropertyOp39
 70
     1
102
RTVSPropertyOp40
 70
     1
102
RTVSPropertyOp41
 70
     1
102
RTVSPropertyOp42
 70
     1
102
RTVSPropertyOp43
 70
     1
102
RTVSPropertyOp44
 70
     1
102
RTVSPropertyOp45
 70
     1
102
RTVSPropertyOp46
 70
     1
102
RTVSPropertyOp47
 70
     1
102
RTVSPropertyOp48
 70
     1
102
RTVSPropertyOp49
 70
     1
102
RTVSPropertyOp50
 70
     1
102
RTVSPropertyOp51
 70
     0
102
RTVSPropertyOp52
 70
     0
102
RTVSPropertyOp53
 70
     1
102
RTVSPropertyOp54
 70
     1
102
RTVSPropertyOp55
 70
     1
102
RTVSPropertyOp56
 70
     1
102
RTVSPropertyOp57
 70
     1
102
RTVSPropertyOp58
 70
     1
102
RTVSPropertyOp59
 70
     1
102
RTVSPropertyOp60
 70
     1
102
RTVSPropertyOp61
 70
     1
102
RTVSPropertyOp62
 70
     1
  0
XRECORD
  5
10006
102
{ACAD_REACTORS
330
10005
102
}
330
10005
100
AcDbXrecord
280
     1
102
RTVSPost2010Prop28
280
     0
102
RTVSPost2010PropOp28
 70
     1
102
RTVSPost2010Prop29
280
     1
102
RTVSPost2010PropOp29
 70
     1
102
RTVSPost2010Prop30
280
     1
102
RTVSPost2010PropOp30
 70
     1
102
RTVSPost2010Prop31
280
     0
102
RTVSPost2010PropOp31
 70
     1
102
RTVSPost2010Prop32
280
     0
102
RTVSPost2010PropOp32
 70
     1
102
RTVSPost2010Prop33
280
     0
102
RTVSPost2010PropOp33
 70
     1
102
RTVSPost2010Prop34
280
     0
102
RTVSPost2010PropOp34
 70
     1
102
RTVSPost2010Prop35
280
     0
102
RTVSPost2010PropOp35
 70
     1
102
RTVSPost2010Prop36
280
     0
102
RTVSPost2010PropOp36
 70
     1
102
RTVSPost2010Prop37
 90
       50
102
RTVSPost2010PropOp37
 70
     1
102
RTVSPost2010Prop38
140
0.0
102
RTVSPost2010PropOp38
 70
     1
102
RTVSPost2010Prop39
140
1.0
102
RTVSPost2010PropOp39
 70
     1
102
RTVSPost2010Prop40
 90
        0
102
RTVSPost2010PropOp40
 70
     1
102
RTVSPost2010Prop41ColorIndex
 90
       18
102
RTVSPost2010Prop41ColorRGB
 90
        0
102
RTVSPost2010PropOp41
 70
     1
102
RTVSPost2010Prop42
 90
       50
102
RTVSPost2010PropOp42
 70
     1
102
RTVSPost2010Prop43
 90
        3
102
RTVSPost2010PropOp43
 70
     1
102
RTVSPost2010Prop44ColorIndex
 90
        5
102
RTVSPost2010Prop44ColorRGB
 90
      255
102
RTVSPost2010PropOp44
 70
     1
102
RTVSPost2010Prop45
280
     0
102
RTVSPost2010PropOp45
 70
     1
102
RTVSPost2010Prop46
 90
       50
102
RTVSPost2010PropOp46
 70
     1
102
RTVSPost2010Prop47
 90
       50
102
RTVSPost2010PropOp47
 70
     1
102
RTVSPost2010Prop48
 90
       50
102
RTVSPost2010PropOp48
 70
     1
102
RTVSPost2010Prop49
280
     0
102
RTVSPost2010PropOp49
 70
     1
102
RTVSPost2010Prop50
 90
       50
102
RTVSPost2010PropOp50
 70
     1
102
RTVSPost2010Prop51ColorIndex
 90
      256
102
RTVSPost2010Prop51ColorRGB
 90
-16777216
102
RTVSPost2010PropOp51
 70
     0
102
RTVSPost2010Prop52
140
1.0
102
RTVSPost2010PropOp52
 70
     0
102
RTVSPost2010Prop53
 90
        2
102
RTVSPost2010PropOp53
 70
     1
102
RTVSPost2010Prop54
  1
strokes_ogs.tif
102
RTVSPost2010PropOp54
 70
     1
102
RTVSPost2010Prop55
280
     0
102
RTVSPost2010PropOp55
 70
     1
102
RTVSPost2010Prop56
140
1.0
102
RTVSPost2010PropOp56
 70
     1
102
RTVSPost2010Prop57
140
1.0
102
RTVSPost2010PropOp57
 70
     1
102
RTVSPropertyOp0
 70
     1
102
RTVSPropertyOp1
 70
     1
102
RTVSPropertyOp2
 70
     1
102
RTVSPropertyOp3
 70
     1
102
RTVSPropertyOp4
 70
     1
102
RTVSPropertyOp5
 70
     1
102
RTVSPropertyOp6
 70
     1
102
RTVSPropertyOp7
 70
     1
102
RTVSPropertyOp8
 70
     1
102
RTVSPropertyOp9
 70
     1
102
RTVSPropertyOp10
 70
     1
102
RTVSPropertyOp11
 70
     1
102
RTVSPropertyOp12
 70
     1
102
RTVSPropertyOp13
 70
     1
102
RTVSPropertyOp14
 70
     1
102
RTVSPropertyOp15
 70
     1
102
RTVSPropertyOp16
 70
     1
102
RTVSPropertyOp17
 70
     1
102
RTVSPropertyOp18
 70
     1
102
RTVSPropertyOp19
 70
     1
102
RTVSPropertyOp20
 70
     1
102
RTVSPropertyOp21
 70
     1
102
RTVSPropertyOp22
 70
     1
102
RTVSPropertyOp23
 70
     1
102
RTVSPropertyOp24
 70
     1
102
RTVSPropertyOp25
 70
     1
102
RTVSPropertyOp26
 70
     1
102
RTVSPropertyOp27
 70
     1
102
RTVSPropertyOp28
 70
     1
102
RTVSPropertyOp29
 70
     1
102
RTVSPropertyOp30
 70
     1
102
RTVSPropertyOp31
 70
     1
102
RTVSPropertyOp32
 70
     1
102
RTVSPropertyOp33
 70
     1
102
RTVSPropertyOp34
 70
     1
102
RTVSPropertyOp35
 70
     1
102
RTVSPropertyOp36
 70
     1
102
RTVSPropertyOp37
 70
     1
102
RTVSPropertyOp38
 70
     1
102
RTVSPropertyOp39
 70
     1
102
RTVSPropertyOp40
 70
     1
102
RTVSPropertyOp41
 70
     1
102
RTVSPropertyOp42
 70
     1
102
RTVSPropertyOp43
 70
     1
102
RTVSPropertyOp44
 70
     1
102
RTVSPropertyOp45
 70
     1
102
RTVSPropertyOp46
 70
     1
102
RTVSPropertyOp47
 70
     1
102
RTVSPropertyOp48
 70
     1
102
RTVSPropertyOp49
 70
     1
102
RTVSPropertyOp50
 70
     1
102
RTVSPropertyOp51
 70
     0
102
RTVSPropertyOp52
 70
     0
102
RTVSPropertyOp53
 70
     1
102
RTVSPropertyOp54
 70
     1
102
RTVSPropertyOp55
 70
     1
102
RTVSPropertyOp56
 70
     1
102
RTVSPropertyOp57
 70
     1
102
RTVSPropertyOp58
 70
     1
102
RTVSPropertyOp59
 70
     1
102
RTVSPropertyOp60
 70
     1
102
RTVSPropertyOp61
 70
     1
102
RTVSPropertyOp62
 70
     1
  0
XRECORD
  5
1000E
102
{ACAD_REACTORS
330
1000D
102
}
330
1000D
100
AcDbXrecord
280
     1
102
RTVSPost2010Prop28
280
     0
102
RTVSPost2010PropOp28
 70
     1
102
RTVSPost2010Prop29
280
     1
102
RTVSPost2010PropOp29
 70
     1
102
RTVSPost2010Prop30
280
     1
102
RTVSPost2010PropOp30
 70
     1
102
RTVSPost2010Prop31
280
     0
102
RTVSPost2010PropOp31
 70
     1
102
RTVSPost2010Prop32
280
     0
102
RTVSPost2010PropOp32
 70
     1
102
RTVSPost2010Prop33
280
     0
102
RTVSPost2010PropOp33
 70
     1
102
RTVSPost2010Prop34
280
     0
102
RTVSPost2010PropOp34
 70
     1
102
RTVSPost2010Prop35
280
     0
102
RTVSPost2010PropOp35
 70
     1
102
RTVSPost2010Prop36
280
     0
102
RTVSPost2010PropOp36
 70
     1
102
RTVSPost2010Prop37
 90
       50
102
RTVSPost2010PropOp37
 70
     1
102
RTVSPost2010Prop38
140
0.0
102
RTVSPost2010PropOp38
 70
     1
102
RTVSPost2010Prop39
140
1.0
102
RTVSPost2010PropOp39
 70
     1
102
RTVSPost2010Prop40
 90
        0
102
RTVSPost2010PropOp40
 70
     1
102
RTVSPost2010Prop41ColorIndex
 90
       18
102
RTVSPost2010Prop41ColorRGB
 90
        0
102
RTVSPost2010PropOp41
 70
     1
102
RTVSPost2010Prop42
 90
       50
102
RTVSPost2010PropOp42
 70
     1
102
RTVSPost2010Prop43
 90
        3
102
RTVSPost2010PropOp43
 70
     1
102
RTVSPost2010Prop44ColorIndex
 90
        5
102
RTVSPost2010Prop44ColorRGB
 90
      255
102
RTVSPost2010PropOp44
 70
     1
102
RTVSPost2010Prop45
280
     0
102
RTVSPost2010PropOp45
 70
     1
102
RTVSPost2010Prop46
 90
       50
102
RTVSPost2010PropOp46
 70
     1
102
RTVSPost2010Prop47
 90
       50
102
RTVSPost2010PropOp47
 70
     1
102
RTVSPost2010Prop48
 90
       50
102
RTVSPost2010PropOp48
 70
     1
102
RTVSPost2010Prop49
280
     0
102
RTVSPost2010PropOp49
 70
     1
102
RTVSPost2010Prop50
 90
       50
102
RTVSPost2010PropOp50
 70
     1
102
RTVSPost2010Prop51ColorIndex
 90
      256
102
RTVSPost2010Prop51ColorRGB
 90
-16777216
102
RTVSPost2010PropOp51
 70
     0
102
RTVSPost2010Prop52
140
1.0
102
RTVSPost2010PropOp52
 70
     0
102
RTVSPost2010Prop53
 90
        2
102
RTVSPost2010PropOp53
 70
     1
102
RTVSPost2010Prop54
  1
strokes_ogs.tif
102
RTVSPost2010PropOp54
 70
     1
102
RTVSPost2010Prop55
280
     0
102
RTVSPost2010PropOp55
 70
     1
102
RTVSPost2010Prop56
140
1.0
102
RTVSPost2010PropOp56
 70
     1
102
RTVSPost2010Prop57
140
1.0
102
RTVSPost2010PropOp57
 70
     1
102
RTVSPropertyOp0
 70
     1
102
RTVSPropertyOp1
 70
     1
102
RTVSPropertyOp2
 70
     1
102
RTVSPropertyOp3
 70
     1
102
RTVSPropertyOp4
 70
     1
102
RTVSPropertyOp5
 70
     1
102
RTVSPropertyOp6
 70
     1
102
RTVSPropertyOp7
 70
     1
102
RTVSPropertyOp8
 70
     1
102
RTVSPropertyOp9
 70
     1
102
RTVSPropertyOp10
 70
     1
102
RTVSPropertyOp11
 70
     1
102
RTVSPropertyOp12
 70
     1
102
RTVSPropertyOp13
 70
     1
102
RTVSPropertyOp14
 70
     1
102
RTVSPropertyOp15
 70
     1
102
RTVSPropertyOp16
 70
     1
102
RTVSPropertyOp17
 70
     1
102
RTVSPropertyOp18
 70
     1
102
RTVSPropertyOp19
 70
     1
102
RTVSPropertyOp20
 70
     1
102
RTVSPropertyOp21
 70
     1
102
RTVSPropertyOp22
 70
     1
102
RTVSPropertyOp23
 70
     1
102
RTVSPropertyOp24
 70
     1
102
RTVSPropertyOp25
 70
     1
102
RTVSPropertyOp26
 70
     1
102
RTVSPropertyOp27
 70
     1
102
RTVSPropertyOp28
 70
     1
102
RTVSPropertyOp29
 70
     1
102
RTVSPropertyOp30
 70
     1
102
RTVSPropertyOp31
 70
     1
102
RTVSPropertyOp32
 70
     1
102
RTVSPropertyOp33
 70
     1
102
RTVSPropertyOp34
 70
     1
102
RTVSPropertyOp35
 70
     1
102
RTVSPropertyOp36
 70
     1
102
RTVSPropertyOp37
 70
     1
102
RTVSPropertyOp38
 70
     1
102
RTVSPropertyOp39
 70
     1
102
RTVSPropertyOp40
 70
     1
102
RTVSPropertyOp41
 70
     1
102
RTVSPropertyOp42
 70
     1
102
RTVSPropertyOp43
 70
     1
102
RTVSPropertyOp44
 70
     1
102
RTVSPropertyOp45
 70
     1
102
RTVSPropertyOp46
 70
     1
102
RTVSPropertyOp47
 70
     1
102
RTVSPropertyOp48
 70
     1
102
RTVSPropertyOp49
 70
     1
102
RTVSPropertyOp50
 70
     1
102
RTVSPropertyOp51
 70
     0
102
RTVSPropertyOp52
 70
     0
102
RTVSPropertyOp53
 70
     1
102
RTVSPropertyOp54
 70
     1
102
RTVSPropertyOp55
 70
     1
102
RTVSPropertyOp56
 70
     1
102
RTVSPropertyOp57
 70
     1
102
RTVSPropertyOp58
 70
     1
102
RTVSPropertyOp59
 70
     1
102
RTVSPropertyOp60
 70
     1
102
RTVSPropertyOp61
 70
     1
102
RTVSPropertyOp62
 70
     1
  0
XRECORD
  5
10000
102
{ACAD_REACTORS
330
FFFF
102
}
330
FFFF
100
AcDbXrecord
280
     1
102
RTVSPost2010Prop28
280
     0
102
RTVSPost2010PropOp28
 70
     1
102
RTVSPost2010Prop29
280
     1
102
RTVSPost2010PropOp29
 70
     1
102
RTVSPost2010Prop30
280
     1
102
RTVSPost2010PropOp30
 70
     1
102
RTVSPost2010Prop31
280
     0
102
RTVSPost2010PropOp31
 70
     1
102
RTVSPost2010Prop32
280
     0
102
RTVSPost2010PropOp32
 70
     1
102
RTVSPost2010Prop33
280
     0
102
RTVSPost2010PropOp33
 70
     1
102
RTVSPost2010Prop34
280
     0
102
RTVSPost2010PropOp34
 70
     1
102
RTVSPost2010Prop35
280
     0
102
RTVSPost2010PropOp35
 70
     1
102
RTVSPost2010Prop36
280
     0
102
RTVSPost2010PropOp36
 70
     1
102
RTVSPost2010Prop37
 90
       50
102
RTVSPost2010PropOp37
 70
     1
102
RTVSPost2010Prop38
140
0.0
102
RTVSPost2010PropOp38
 70
     1
102
RTVSPost2010Prop39
140
1.0
102
RTVSPost2010PropOp39
 70
     1
102
RTVSPost2010Prop40
 90
        0
102
RTVSPost2010PropOp40
 70
     1
102
RTVSPost2010Prop41ColorIndex
 90
       18
102
RTVSPost2010Prop41ColorRGB
 90
        0
102
RTVSPost2010PropOp41
 70
     1
102
RTVSPost2010Prop42
 90
       50
102
RTVSPost2010PropOp42
 70
     1
102
RTVSPost2010Prop43
 90
        3
102
RTVSPost2010PropOp43
 70
     1
102
RTVSPost2010Prop44ColorIndex
 90
        5
102
RTVSPost2010Prop44ColorRGB
 90
      255
102
RTVSPost2010PropOp44
 70
     1
102
RTVSPost2010Prop45
280
     0
102
RTVSPost2010PropOp45
 70
     1
102
RTVSPost2010Prop46
 90
       50
102
RTVSPost2010PropOp46
 70
     1
102
RTVSPost2010Prop47
 90
       50
102
RTVSPost2010PropOp47
 70
     1
102
RTVSPost2010Prop48
 90
       50
102
RTVSPost2010PropOp48
 70
     1
102
RTVSPost2010Prop49
280
     0
102
RTVSPost2010PropOp49
 70
     1
102
RTVSPost2010Prop50
 90
       50
102
RTVSPost2010PropOp50
 70
     1
102
RTVSPost2010Prop51ColorIndex
 90
      256
102
RTVSPost2010Prop51ColorRGB
 90
-16777216
102
RTVSPost2010PropOp51
 70
     0
102
RTVSPost2010Prop52
140
1.0
102
RTVSPost2010PropOp52
 70
     0
102
RTVSPost2010Prop53
 90
        2
102
RTVSPost2010PropOp53
 70
     1
102
RTVSPost2010Prop54
  1
strokes_ogs.tif
102
RTVSPost2010PropOp54
 70
     1
102
RTVSPost2010Prop55
280
     0
102
RTVSPost2010PropOp55
 70
     1
102
RTVSPost2010Prop56
140
1.0
102
RTVSPost2010PropOp56
 70
     1
102
RTVSPost2010Prop57
140
1.0
102
RTVSPost2010PropOp57
 70
     1
102
RTVSPropertyOp0
 70
     1
102
RTVSPropertyOp1
 70
     1
102
RTVSPropertyOp2
 70
     1
102
RTVSPropertyOp3
 70
     1
102
RTVSPropertyOp4
 70
     1
102
RTVSPropertyOp5
 70
     1
102
RTVSPropertyOp6
 70
     1
102
RTVSPropertyOp7
 70
     1
102
RTVSPropertyOp8
 70
     1
102
RTVSPropertyOp9
 70
     1
102
RTVSPropertyOp10
 70
     1
102
RTVSPropertyOp11
 70
     1
102
RTVSPropertyOp12
 70
     1
102
RTVSPropertyOp13
 70
     1
102
RTVSPropertyOp14
 70
     1
102
RTVSPropertyOp15
 70
     1
102
RTVSPropertyOp16
 70
     1
102
RTVSPropertyOp17
 70
     1
102
RTVSPropertyOp18
 70
     1
102
RTVSPropertyOp19
 70
     1
102
RTVSPropertyOp20
 70
     1
102
RTVSPropertyOp21
 70
     1
102
RTVSPropertyOp22
 70
     1
102
RTVSPropertyOp23
 70
     1
102
RTVSPropertyOp24
 70
     1
102
RTVSPropertyOp25
 70
     1
102
RTVSPropertyOp26
 70
     1
102
RTVSPropertyOp27
 70
     1
102
RTVSPropertyOp28
 70
     1
102
RTVSPropertyOp29
 70
     1
102
RTVSPropertyOp30
 70
     1
102
RTVSPropertyOp31
 70
     1
102
RTVSPropertyOp32
 70
     1
102
RTVSPropertyOp33
 70
     1
102
RTVSPropertyOp34
 70
     1
102
RTVSPropertyOp35
 70
     1
102
RTVSPropertyOp36
 70
     1
102
RTVSPropertyOp37
 70
     1
102
RTVSPropertyOp38
 70
     1
102
RTVSPropertyOp39
 70
     1
102
RTVSPropertyOp40
 70
     1
102
RTVSPropertyOp41
 70
     1
102
RTVSPropertyOp42
 70
     1
102
RTVSPropertyOp43
 70
     1
102
RTVSPropertyOp44
 70
     1
102
RTVSPropertyOp45
 70
     1
102
RTVSPropertyOp46
 70
     1
102
RTVSPropertyOp47
 70
     1
102
RTVSPropertyOp48
 70
     1
102
RTVSPropertyOp49
 70
     1
102
RTVSPropertyOp50
 70
     1
102
RTVSPropertyOp51
 70
     0
102
RTVSPropertyOp52
 70
     0
102
RTVSPropertyOp53
 70
     1
102
RTVSPropertyOp54
 70
     1
102
RTVSPropertyOp55
 70
     1
102
RTVSPropertyOp56
 70
     1
102
RTVSPropertyOp57
 70
     1
102
RTVSPropertyOp58
 70
     1
102
RTVSPropertyOp59
 70
     1
102
RTVSPropertyOp60
 70
     1
102
RTVSPropertyOp61
 70
     1
102
RTVSPropertyOp62
 70
     1
  0
XRECORD
  5
10004
102
{ACAD_REACTORS
330
10003
102
}
330
10003
100
AcDbXrecord
280
     1
102
RTVSPost2010Prop28
280
     0
102
RTVSPost2010PropOp28
 70
     1
102
RTVSPost2010Prop29
280
     1
102
RTVSPost2010PropOp29
 70
     1
102
RTVSPost2010Prop30
280
     1
102
RTVSPost2010PropOp30
 70
     1
102
RTVSPost2010Prop31
280
     0
102
RTVSPost2010PropOp31
 70
     1
102
RTVSPost2010Prop32
280
     0
102
RTVSPost2010PropOp32
 70
     1
102
RTVSPost2010Prop33
280
     0
102
RTVSPost2010PropOp33
 70
     1
102
RTVSPost2010Prop34
280
     0
102
RTVSPost2010PropOp34
 70
     1
102
RTVSPost2010Prop35
280
     0
102
RTVSPost2010PropOp35
 70
     1
102
RTVSPost2010Prop36
280
     0
102
RTVSPost2010PropOp36
 70
     1
102
RTVSPost2010Prop37
 90
       50
102
RTVSPost2010PropOp37
 70
     1
102
RTVSPost2010Prop38
140
0.0
102
RTVSPost2010PropOp38
 70
     1
102
RTVSPost2010Prop39
140
1.0
102
RTVSPost2010PropOp39
 70
     1
102
RTVSPost2010Prop40
 90
        0
102
RTVSPost2010PropOp40
 70
     1
102
RTVSPost2010Prop41ColorIndex
 90
       18
102
RTVSPost2010Prop41ColorRGB
 90
        0
102
RTVSPost2010PropOp41
 70
     1
102
RTVSPost2010Prop42
 90
       50
102
RTVSPost2010PropOp42
 70
     1
102
RTVSPost2010Prop43
 90
        3
102
RTVSPost2010PropOp43
 70
     1
102
RTVSPost2010Prop44ColorIndex
 90
        5
102
RTVSPost2010Prop44ColorRGB
 90
      255
102
RTVSPost2010PropOp44
 70
     1
102
RTVSPost2010Prop45
280
     0
102
RTVSPost2010PropOp45
 70
     1
102
RTVSPost2010Prop46
 90
       50
102
RTVSPost2010PropOp46
 70
     1
102
RTVSPost2010Prop47
 90
       50
102
RTVSPost2010PropOp47
 70
     1
102
RTVSPost2010Prop48
 90
       50
102
RTVSPost2010PropOp48
 70
     1
102
RTVSPost2010Prop49
280
     0
102
RTVSPost2010PropOp49
 70
     1
102
RTVSPost2010Prop50
 90
       50
102
RTVSPost2010PropOp50
 70
     1
102
RTVSPost2010Prop51ColorIndex
 90
      256
102
RTVSPost2010Prop51ColorRGB
 90
-16777216
102
RTVSPost2010PropOp51
 70
     0
102
RTVSPost2010Prop52
140
1.0
102
RTVSPost2010PropOp52
 70
     0
102
RTVSPost2010Prop53
 90
        2
102
RTVSPost2010PropOp53
 70
     1
102
RTVSPost2010Prop54
  1
strokes_ogs.tif
102
RTVSPost2010PropOp54
 70
     1
102
RTVSPost2010Prop55
280
     0
102
RTVSPost2010PropOp55
 70
     1
102
RTVSPost2010Prop56
140
1.0
102
RTVSPost2010PropOp56
 70
     1
102
RTVSPost2010Prop57
140
1.0
102
RTVSPost2010PropOp57
 70
     1
102
RTVSPropertyOp0
 70
     1
102
RTVSPropertyOp1
 70
     1
102
RTVSPropertyOp2
 70
     1
102
RTVSPropertyOp3
 70
     1
102
RTVSPropertyOp4
 70
     1
102
RTVSPropertyOp5
 70
     1
102
RTVSPropertyOp6
 70
     1
102
RTVSPropertyOp7
 70
     1
102
RTVSPropertyOp8
 70
     1
102
RTVSPropertyOp9
 70
     1
102
RTVSPropertyOp10
 70
     1
102
RTVSPropertyOp11
 70
     1
102
RTVSPropertyOp12
 70
     1
102
RTVSPropertyOp13
 70
     1
102
RTVSPropertyOp14
 70
     1
102
RTVSPropertyOp15
 70
     1
102
RTVSPropertyOp16
 70
     1
102
RTVSPropertyOp17
 70
     1
102
RTVSPropertyOp18
 70
     1
102
RTVSPropertyOp19
 70
     1
102
RTVSPropertyOp20
 70
     1
102
RTVSPropertyOp21
 70
     1
102
RTVSPropertyOp22
 70
     1
102
RTVSPropertyOp23
 70
     1
102
RTVSPropertyOp24
 70
     1
102
RTVSPropertyOp25
 70
     1
102
RTVSPropertyOp26
 70
     1
102
RTVSPropertyOp27
 70
     1
102
RTVSPropertyOp28
 70
     1
102
RTVSPropertyOp29
 70
     1
102
RTVSPropertyOp30
 70
     1
102
RTVSPropertyOp31
 70
     1
102
RTVSPropertyOp32
 70
     1
102
RTVSPropertyOp33
 70
     1
102
RTVSPropertyOp34
 70
     1
102
RTVSPropertyOp35
 70
     1
102
RTVSPropertyOp36
 70
     1
102
RTVSPropertyOp37
 70
     1
102
RTVSPropertyOp38
 70
     1
102
RTVSPropertyOp39
 70
     1
102
RTVSPropertyOp40
 70
     1
102
RTVSPropertyOp41
 70
     1
102
RTVSPropertyOp42
 70
     1
102
RTVSPropertyOp43
 70
     1
102
RTVSPropertyOp44
 70
     1
102
RTVSPropertyOp45
 70
     1
102
RTVSPropertyOp46
 70
     1
102
RTVSPropertyOp47
 70
     1
102
RTVSPropertyOp48
 70
     1
102
RTVSPropertyOp49
 70
     1
102
RTVSPropertyOp50
 70
     1
102
RTVSPropertyOp51
 70
     0
102
RTVSPropertyOp52
 70
     0
102
RTVSPropertyOp53
 70
     1
102
RTVSPropertyOp54
 70
     1
102
RTVSPropertyOp55
 70
     1
102
RTVSPropertyOp56
 70
     1
102
RTVSPropertyOp57
 70
     1
102
RTVSPropertyOp58
 70
     1
102
RTVSPropertyOp59
 70
     1
102
RTVSPropertyOp60
 70
     1
102
RTVSPropertyOp61
 70
     1
102
RTVSPropertyOp62
 70
     1
  0
XRECORD
  5
10016
102
{ACAD_REACTORS
330
10015
102
}
330
10015
100
AcDbXrecord
280
     1
102
RTVSPost2010Prop28
280
     0
102
RTVSPost2010PropOp28
 70
     1
102
RTVSPost2010Prop29
280
     1
102
RTVSPost2010PropOp29
 70
     1
102
RTVSPost2010Prop30
280
     1
102
RTVSPost2010PropOp30
 70
     1
102
RTVSPost2010Prop31
280
     0
102
RTVSPost2010PropOp31
 70
     1
102
RTVSPost2010Prop32
280
     0
102
RTVSPost2010PropOp32
 70
     1
102
RTVSPost2010Prop33
280
     0
102
RTVSPost2010PropOp33
 70
     1
102
RTVSPost2010Prop34
280
     0
102
RTVSPost2010PropOp34
 70
     1
102
RTVSPost2010Prop35
280
     0
102
RTVSPost2010PropOp35
 70
     1
102
RTVSPost2010Prop36
280
     0
102
RTVSPost2010PropOp36
 70
     1
102
RTVSPost2010Prop37
 90
       50
102
RTVSPost2010PropOp37
 70
     1
102
RTVSPost2010Prop38
140
0.0
102
RTVSPost2010PropOp38
 70
     1
102
RTVSPost2010Prop39
140
1.0
102
RTVSPost2010PropOp39
 70
     1
102
RTVSPost2010Prop40
 90
        0
102
RTVSPost2010PropOp40
 70
     1
102
RTVSPost2010Prop41ColorIndex
 90
       18
102
RTVSPost2010Prop41ColorRGB
 90
        0
102
RTVSPost2010PropOp41
 70
     1
102
RTVSPost2010Prop42
 90
       50
102
RTVSPost2010PropOp42
 70
     1
102
RTVSPost2010Prop43
 90
        3
102
RTVSPost2010PropOp43
 70
     1
102
RTVSPost2010Prop44ColorIndex
 90
        5
102
RTVSPost2010Prop44ColorRGB
 90
      255
102
RTVSPost2010PropOp44
 70
     1
102
RTVSPost2010Prop45
280
     0
102
RTVSPost2010PropOp45
 70
     1
102
RTVSPost2010Prop46
 90
       50
102
RTVSPost2010PropOp46
 70
     1
102
RTVSPost2010Prop47
 90
       50
102
RTVSPost2010PropOp47
 70
     1
102
RTVSPost2010Prop48
 90
       50
102
RTVSPost2010PropOp48
 70
     1
102
RTVSPost2010Prop49
280
     0
102
RTVSPost2010PropOp49
 70
     1
102
RTVSPost2010Prop50
 90
       50
102
RTVSPost2010PropOp50
 70
     1
102
RTVSPost2010Prop51ColorIndex
 90
      256
102
RTVSPost2010Prop51ColorRGB
 90
-16777216
102
RTVSPost2010PropOp51
 70
     0
102
RTVSPost2010Prop52
140
1.0
102
RTVSPost2010PropOp52
 70
     0
102
RTVSPost2010Prop53
 90
        2
102
RTVSPost2010PropOp53
 70
     1
102
RTVSPost2010Prop54
  1
strokes_ogs.tif
102
RTVSPost2010PropOp54
 70
     1
102
RTVSPost2010Prop55
280
     0
102
RTVSPost2010PropOp55
 70
     1
102
RTVSPost2010Prop56
140
1.0
102
RTVSPost2010PropOp56
 70
     1
102
RTVSPost2010Prop57
140
1.0
102
RTVSPost2010PropOp57
 70
     1
102
RTVSPropertyOp0
 70
     0
102
RTVSPropertyOp1
 70
     0
102
RTVSPropertyOp2
 70
     0
102
RTVSPropertyOp3
 70
     0
102
RTVSPropertyOp4
 70
     0
102
RTVSPropertyOp5
 70
     0
102
RTVSPropertyOp6
 70
     0
102
RTVSPropertyOp7
 70
     0
102
RTVSPropertyOp8
 70
     0
102
RTVSPropertyOp9
 70
     0
102
RTVSPropertyOp10
 70
     0
102
RTVSPropertyOp11
 70
     0
102
RTVSPropertyOp12
 70
     0
102
RTVSPropertyOp13
 70
     0
102
RTVSPropertyOp14
 70
     2
102
RTVSPropertyOp15
 70
     0
102
RTVSPropertyOp16
 70
     0
102
RTVSPropertyOp17
 70
     0
102
RTVSPropertyOp18
 70
     0
102
RTVSPropertyOp19
 70
     0
102
RTVSPropertyOp20
 70
     0
102
RTVSPropertyOp21
 70
     0
102
RTVSPropertyOp22
 70
     0
102
RTVSPropertyOp23
 70
     0
102
RTVSPropertyOp24
 70
     0
102
RTVSPropertyOp25
 70
     0
102
RTVSPropertyOp26
 70
     0
102
RTVSPropertyOp27
 70
     0
102
RTVSPropertyOp28
 70
     1
102
RTVSPropertyOp29
 70
     1
102
RTVSPropertyOp30
 70
     1
102
RTVSPropertyOp31
 70
     1
102
RTVSPropertyOp32
 70
     1
102
RTVSPropertyOp33
 70
     1
102
RTVSPropertyOp34
 70
     1
102
RTVSPropertyOp35
 70
     1
102
RTVSPropertyOp36
 70
     1
102
RTVSPropertyOp37
 70
     1
102
RTVSPropertyOp38
 70
     1
102
RTVSPropertyOp39
 70
     1
102
RTVSPropertyOp40
 70
     1
102
RTVSPropertyOp41
 70
     1
102
RTVSPropertyOp42
 70
     1
102
RTVSPropertyOp43
 70
     1
102
RTVSPropertyOp44
 70
     1
102
RTVSPropertyOp45
 70
     1
102
RTVSPropertyOp46
 70
     1
102
RTVSPropertyOp47
 70
     1
102
RTVSPropertyOp48
 70
     1
102
RTVSPropertyOp49
 70
     1
102
RTVSPropertyOp50
 70
     1
102
RTVSPropertyOp51
 70
     0
102
RTVSPropertyOp52
 70
     0
102
RTVSPropertyOp53
 70
     1
102
RTVSPropertyOp54
 70
     1
102
RTVSPropertyOp55
 70
     1
102
RTVSPropertyOp56
 70
     1
102
RTVSPropertyOp57
 70
     1
102
RTVSPropertyOp58
 70
     1
102
RTVSPropertyOp59
 70
     1
102
RTVSPropertyOp60
 70
     1
102
RTVSPropertyOp61
 70
     1
102
RTVSPropertyOp62
 70
     1
  0
XRECORD
  5
1000C
102
{ACAD_REACTORS
330
1000B
102
}
330
1000B
100
AcDbXrecord
280
     1
102
RTVSPost2010Prop28
280
     0
102
RTVSPost2010PropOp28
 70
     1
102
RTVSPost2010Prop29
280
     1
102
RTVSPost2010PropOp29
 70
     1
102
RTVSPost2010Prop30
280
     1
102
RTVSPost2010PropOp30
 70
     1
102
RTVSPost2010Prop31
280
     0
102
RTVSPost2010PropOp31
 70
     1
102
RTVSPost2010Prop32
280
     0
102
RTVSPost2010PropOp32
 70
     1
102
RTVSPost2010Prop33
280
     0
102
RTVSPost2010PropOp33
 70
     1
102
RTVSPost2010Prop34
280
     0
102
RTVSPost2010PropOp34
 70
     1
102
RTVSPost2010Prop35
280
     0
102
RTVSPost2010PropOp35
 70
     1
102
RTVSPost2010Prop36
280
     0
102
RTVSPost2010PropOp36
 70
     1
102
RTVSPost2010Prop37
 90
       50
102
RTVSPost2010PropOp37
 70
     1
102
RTVSPost2010Prop38
140
0.0
102
RTVSPost2010PropOp38
 70
     1
102
RTVSPost2010Prop39
140
1.0
102
RTVSPost2010PropOp39
 70
     1
102
RTVSPost2010Prop40
 90
        0
102
RTVSPost2010PropOp40
 70
     1
102
RTVSPost2010Prop41ColorIndex
 90
       18
102
RTVSPost2010Prop41ColorRGB
 90
        0
102
RTVSPost2010PropOp41
 70
     1
102
RTVSPost2010Prop42
 90
       50
102
RTVSPost2010PropOp42
 70
     1
102
RTVSPost2010Prop43
 90
        3
102
RTVSPost2010PropOp43
 70
     1
102
RTVSPost2010Prop44ColorIndex
 90
        5
102
RTVSPost2010Prop44ColorRGB
 90
      255
102
RTVSPost2010PropOp44
 70
     1
102
RTVSPost2010Prop45
280
     0
102
RTVSPost2010PropOp45
 70
     1
102
RTVSPost2010Prop46
 90
       50
102
RTVSPost2010PropOp46
 70
     1
102
RTVSPost2010Prop47
 90
       50
102
RTVSPost2010PropOp47
 70
     1
102
RTVSPost2010Prop48
 90
       50
102
RTVSPost2010PropOp48
 70
     1
102
RTVSPost2010Prop49
280
     0
102
RTVSPost2010PropOp49
 70
     1
102
RTVSPost2010Prop50
 90
       50
102
RTVSPost2010PropOp50
 70
     1
102
RTVSPost2010Prop51ColorIndex
 90
      256
102
RTVSPost2010Prop51ColorRGB
 90
-16777216
102
RTVSPost2010PropOp51
 70
     0
102
RTVSPost2010Prop52
140
1.0
102
RTVSPost2010PropOp52
 70
     0
102
RTVSPost2010Prop53
 90
        2
102
RTVSPost2010PropOp53
 70
     1
102
RTVSPost2010Prop54
  1
strokes_ogs.tif
102
RTVSPost2010PropOp54
 70
     1
102
RTVSPost2010Prop55
280
     0
102
RTVSPost2010PropOp55
 70
     1
102
RTVSPost2010Prop56
140
1.0
102
RTVSPost2010PropOp56
 70
     1
102
RTVSPost2010Prop57
140
1.0
102
RTVSPost2010PropOp57
 70
     1
102
RTVSPropertyOp0
 70
     1
102
RTVSPropertyOp1
 70
     1
102
RTVSPropertyOp2
 70
     1
102
RTVSPropertyOp3
 70
     1
102
RTVSPropertyOp4
 70
     1
102
RTVSPropertyOp5
 70
     1
102
RTVSPropertyOp6
 70
     1
102
RTVSPropertyOp7
 70
     1
102
RTVSPropertyOp8
 70
     1
102
RTVSPropertyOp9
 70
     1
102
RTVSPropertyOp10
 70
     1
102
RTVSPropertyOp11
 70
     1
102
RTVSPropertyOp12
 70
     1
102
RTVSPropertyOp13
 70
     1
102
RTVSPropertyOp14
 70
     1
102
RTVSPropertyOp15
 70
     1
102
RTVSPropertyOp16
 70
     1
102
RTVSPropertyOp17
 70
     1
102
RTVSPropertyOp18
 70
     1
102
RTVSPropertyOp19
 70
     1
102
RTVSPropertyOp20
 70
     1
102
RTVSPropertyOp21
 70
     1
102
RTVSPropertyOp22
 70
     1
102
RTVSPropertyOp23
 70
     1
102
RTVSPropertyOp24
 70
     1
102
RTVSPropertyOp25
 70
     1
102
RTVSPropertyOp26
 70
     1
102
RTVSPropertyOp27
 70
     1
102
RTVSPropertyOp28
 70
     1
102
RTVSPropertyOp29
 70
     1
102
RTVSPropertyOp30
 70
     1
102
RTVSPropertyOp31
 70
     1
102
RTVSPropertyOp32
 70
     1
102
RTVSPropertyOp33
 70
     1
102
RTVSPropertyOp34
 70
     1
102
RTVSPropertyOp35
 70
     1
102
RTVSPropertyOp36
 70
     1
102
RTVSPropertyOp37
 70
     1
102
RTVSPropertyOp38
 70
     1
102
RTVSPropertyOp39
 70
     1
102
RTVSPropertyOp40
 70
     1
102
RTVSPropertyOp41
 70
     1
102
RTVSPropertyOp42
 70
     1
102
RTVSPropertyOp43
 70
     1
102
RTVSPropertyOp44
 70
     1
102
RTVSPropertyOp45
 70
     1
102
RTVSPropertyOp46
 70
     1
102
RTVSPropertyOp47
 70
     1
102
RTVSPropertyOp48
 70
     1
102
RTVSPropertyOp49
 70
     1
102
RTVSPropertyOp50
 70
     1
102
RTVSPropertyOp51
 70
     0
102
RTVSPropertyOp52
 70
     0
102
RTVSPropertyOp53
 70
     1
102
RTVSPropertyOp54
 70
     1
102
RTVSPropertyOp55
 70
     1
102
RTVSPropertyOp56
 70
     1
102
RTVSPropertyOp57
 70
     1
102
RTVSPropertyOp58
 70
     1
102
RTVSPropertyOp59
 70
     1
102
RTVSPropertyOp60
 70
     1
102
RTVSPropertyOp61
 70
     1
102
RTVSPropertyOp62
 70
     1
  0
XRECORD
  5
FFF0
102
{ACAD_REACTORS
330
FFEF
102
}
330
FFEF
100
AcDbXrecord
280
     1
102
RTVSPost2010Prop28
280
     0
102
RTVSPost2010PropOp28
 70
     1
102
RTVSPost2010Prop29
280
     1
102
RTVSPost2010PropOp29
 70
     1
102
RTVSPost2010Prop30
280
     1
102
RTVSPost2010PropOp30
 70
     1
102
RTVSPost2010Prop31
280
     0
102
RTVSPost2010PropOp31
 70
     1
102
RTVSPost2010Prop32
280
     0
102
RTVSPost2010PropOp32
 70
     1
102
RTVSPost2010Prop33
280
     0
102
RTVSPost2010PropOp33
 70
     1
102
RTVSPost2010Prop34
280
     0
102
RTVSPost2010PropOp34
 70
     1
102
RTVSPost2010Prop35
280
     0
102
RTVSPost2010PropOp35
 70
     1
102
RTVSPost2010Prop36
280
     0
102
RTVSPost2010PropOp36
 70
     1
102
RTVSPost2010Prop37
 90
       50
102
RTVSPost2010PropOp37
 70
     1
102
RTVSPost2010Prop38
140
0.0
102
RTVSPost2010PropOp38
 70
     1
102
RTVSPost2010Prop39
140
1.0
102
RTVSPost2010PropOp39
 70
     1
102
RTVSPost2010Prop40
 90
        0
102
RTVSPost2010PropOp40
 70
     1
102
RTVSPost2010Prop41ColorIndex
 90
       18
102
RTVSPost2010Prop41ColorRGB
 90
        0
102
RTVSPost2010PropOp41
 70
     1
102
RTVSPost2010Prop42
 90
       50
102
RTVSPost2010PropOp42
 70
     1
102
RTVSPost2010Prop43
 90
        3
102
RTVSPost2010PropOp43
 70
     1
102
RTVSPost2010Prop44ColorIndex
 90
        5
102
RTVSPost2010Prop44ColorRGB
 90
      255
102
RTVSPost2010PropOp44
 70
     1
102
RTVSPost2010Prop45
280
     0
102
RTVSPost2010PropOp45
 70
     1
102
RTVSPost2010Prop46
 90
       50
102
RTVSPost2010PropOp46
 70
     1
102
RTVSPost2010Prop47
 90
       50
102
RTVSPost2010PropOp47
 70
     1
102
RTVSPost2010Prop48
 90
       50
102
RTVSPost2010PropOp48
 70
     1
102
RTVSPost2010Prop49
280
     0
102
RTVSPost2010PropOp49
 70
     1
102
RTVSPost2010Prop50
 90
       50
102
RTVSPost2010PropOp50
 70
     1
102
RTVSPost2010Prop51ColorIndex
 90
      256
102
RTVSPost2010Prop51ColorRGB
 90
-16777216
102
RTVSPost2010PropOp51
 70
     0
102
RTVSPost2010Prop52
140
1.0
102
RTVSPost2010PropOp52
 70
     0
102
RTVSPost2010Prop53
 90
        2
102
RTVSPost2010PropOp53
 70
     1
102
RTVSPost2010Prop54
  1
strokes_ogs.tif
102
RTVSPost2010PropOp54
 70
     1
102
RTVSPost2010Prop55
280
     0
102
RTVSPost2010PropOp55
 70
     1
102
RTVSPost2010Prop56
140
1.0
102
RTVSPost2010PropOp56
 70
     1
102
RTVSPost2010Prop57
140
1.0
102
RTVSPost2010PropOp57
 70
     1
102
RTVSPropertyOp0
 70
     1
102
RTVSPropertyOp1
 70
     1
102
RTVSPropertyOp2
 70
     1
102
RTVSPropertyOp3
 70
     1
102
RTVSPropertyOp4
 70
     1
102
RTVSPropertyOp5
 70
     1
102
RTVSPropertyOp6
 70
     1
102
RTVSPropertyOp7
 70
     1
102
RTVSPropertyOp8
 70
     1
102
RTVSPropertyOp9
 70
     1
102
RTVSPropertyOp10
 70
     1
102
RTVSPropertyOp11
 70
     1
102
RTVSPropertyOp12
 70
     1
102
RTVSPropertyOp13
 70
     1
102
RTVSPropertyOp14
 70
     1
102
RTVSPropertyOp15
 70
     1
102
RTVSPropertyOp16
 70
     1
102
RTVSPropertyOp17
 70
     1
102
RTVSPropertyOp18
 70
     1
102
RTVSPropertyOp19
 70
     1
102
RTVSPropertyOp20
 70
     1
102
RTVSPropertyOp21
 70
     1
102
RTVSPropertyOp22
 70
     1
102
RTVSPropertyOp23
 70
     1
102
RTVSPropertyOp24
 70
     1
102
RTVSPropertyOp25
 70
     1
102
RTVSPropertyOp26
 70
     1
102
RTVSPropertyOp27
 70
     1
102
RTVSPropertyOp28
 70
     1
102
RTVSPropertyOp29
 70
     1
102
RTVSPropertyOp30
 70
     1
102
RTVSPropertyOp31
 70
     1
102
RTVSPropertyOp32
 70
     1
102
RTVSPropertyOp33
 70
     1
102
RTVSPropertyOp34
 70
     1
102
RTVSPropertyOp35
 70
     1
102
RTVSPropertyOp36
 70
     1
102
RTVSPropertyOp37
 70
     1
102
RTVSPropertyOp38
 70
     1
102
RTVSPropertyOp39
 70
     1
102
RTVSPropertyOp40
 70
     1
102
RTVSPropertyOp41
 70
     1
102
RTVSPropertyOp42
 70
     1
102
RTVSPropertyOp43
 70
     1
102
RTVSPropertyOp44
 70
     1
102
RTVSPropertyOp45
 70
     1
102
RTVSPropertyOp46
 70
     1
102
RTVSPropertyOp47
 70
     1
102
RTVSPropertyOp48
 70
     1
102
RTVSPropertyOp49
 70
     1
102
RTVSPropertyOp50
 70
     1
102
RTVSPropertyOp51
 70
     0
102
RTVSPropertyOp52
 70
     0
102
RTVSPropertyOp53
 70
     1
102
RTVSPropertyOp54
 70
     1
102
RTVSPropertyOp55
 70
     1
102
RTVSPropertyOp56
 70
     1
102
RTVSPropertyOp57
 70
     1
102
RTVSPropertyOp58
 70
     1
102
RTVSPropertyOp59
 70
     1
102
RTVSPropertyOp60
 70
     1
102
RTVSPropertyOp61
 70
     1
102
RTVSPropertyOp62
 70
     1
  0
XRECORD
  5
FFF2
102
{ACAD_REACTORS
330
FFF1
102
}
330
FFF1
100
AcDbXrecord
280
     1
102
RTVSPost2010Prop28
280
     0
102
RTVSPost2010PropOp28
 70
     1
102
RTVSPost2010Prop29
280
     1
102
RTVSPost2010PropOp29
 70
     1
102
RTVSPost2010Prop30
280
     1
102
RTVSPost2010PropOp30
 70
     1
102
RTVSPost2010Prop31
280
     0
102
RTVSPost2010PropOp31
 70
     1
102
RTVSPost2010Prop32
280
     0
102
RTVSPost2010PropOp32
 70
     1
102
RTVSPost2010Prop33
280
     0
102
RTVSPost2010PropOp33
 70
     1
102
RTVSPost2010Prop34
280
     0
102
RTVSPost2010PropOp34
 70
     1
102
RTVSPost2010Prop35
280
     0
102
RTVSPost2010PropOp35
 70
     1
102
RTVSPost2010Prop36
280
     0
102
RTVSPost2010PropOp36
 70
     1
102
RTVSPost2010Prop37
 90
       50
102
RTVSPost2010PropOp37
 70
     1
102
RTVSPost2010Prop38
140
0.0
102
RTVSPost2010PropOp38
 70
     1
102
RTVSPost2010Prop39
140
1.0
102
RTVSPost2010PropOp39
 70
     1
102
RTVSPost2010Prop40
 90
        0
102
RTVSPost2010PropOp40
 70
     1
102
RTVSPost2010Prop41ColorIndex
 90
       18
102
RTVSPost2010Prop41ColorRGB
 90
        0
102
RTVSPost2010PropOp41
 70
     1
102
RTVSPost2010Prop42
 90
       50
102
RTVSPost2010PropOp42
 70
     1
102
RTVSPost2010Prop43
 90
        3
102
RTVSPost2010PropOp43
 70
     1
102
RTVSPost2010Prop44ColorIndex
 90
        5
102
RTVSPost2010Prop44ColorRGB
 90
      255
102
RTVSPost2010PropOp44
 70
     1
102
RTVSPost2010Prop45
280
     0
102
RTVSPost2010PropOp45
 70
     1
102
RTVSPost2010Prop46
 90
       50
102
RTVSPost2010PropOp46
 70
     1
102
RTVSPost2010Prop47
 90
       50
102
RTVSPost2010PropOp47
 70
     1
102
RTVSPost2010Prop48
 90
       50
102
RTVSPost2010PropOp48
 70
     1
102
RTVSPost2010Prop49
280
     0
102
RTVSPost2010PropOp49
 70
     1
102
RTVSPost2010Prop50
 90
       50
102
RTVSPost2010PropOp50
 70
     1
102
RTVSPost2010Prop51ColorIndex
 90
      256
102
RTVSPost2010Prop51ColorRGB
 90
-16777216
102
RTVSPost2010PropOp51
 70
     0
102
RTVSPost2010Prop52
140
1.0
102
RTVSPost2010PropOp52
 70
     0
102
RTVSPost2010Prop53
 90
        2
102
RTVSPost2010PropOp53
 70
     1
102
RTVSPost2010Prop54
  1
strokes_ogs.tif
102
RTVSPost2010PropOp54
 70
     1
102
RTVSPost2010Prop55
280
     0
102
RTVSPost2010PropOp55
 70
     1
102
RTVSPost2010Prop56
140
1.0
102
RTVSPost2010PropOp56
 70
     1
102
RTVSPost2010Prop57
140
1.0
102
RTVSPost2010PropOp57
 70
     1
102
RTVSPropertyOp0
 70
     1
102
RTVSPropertyOp1
 70
     1
102
RTVSPropertyOp2
 70
     1
102
RTVSPropertyOp3
 70
     1
102
RTVSPropertyOp4
 70
     1
102
RTVSPropertyOp5
 70
     1
102
RTVSPropertyOp6
 70
     1
102
RTVSPropertyOp7
 70
     1
102
RTVSPropertyOp8
 70
     1
102
RTVSPropertyOp9
 70
     1
102
RTVSPropertyOp10
 70
     1
102
RTVSPropertyOp11
 70
     1
102
RTVSPropertyOp12
 70
     1
102
RTVSPropertyOp13
 70
     1
102
RTVSPropertyOp14
 70
     1
102
RTVSPropertyOp15
 70
     1
102
RTVSPropertyOp16
 70
     1
102
RTVSPropertyOp17
 70
     1
102
RTVSPropertyOp18
 70
     1
102
RTVSPropertyOp19
 70
     1
102
RTVSPropertyOp20
 70
     1
102
RTVSPropertyOp21
 70
     1
102
RTVSPropertyOp22
 70
     1
102
RTVSPropertyOp23
 70
     1
102
RTVSPropertyOp24
 70
     1
102
RTVSPropertyOp25
 70
     1
102
RTVSPropertyOp26
 70
     1
102
RTVSPropertyOp27
 70
     1
102
RTVSPropertyOp28
 70
     1
102
RTVSPropertyOp29
 70
     1
102
RTVSPropertyOp30
 70
     1
102
RTVSPropertyOp31
 70
     1
102
RTVSPropertyOp32
 70
     1
102
RTVSPropertyOp33
 70
     1
102
RTVSPropertyOp34
 70
     1
102
RTVSPropertyOp35
 70
     1
102
RTVSPropertyOp36
 70
     1
102
RTVSPropertyOp37
 70
     1
102
RTVSPropertyOp38
 70
     1
102
RTVSPropertyOp39
 70
     1
102
RTVSPropertyOp40
 70
     1
102
RTVSPropertyOp41
 70
     1
102
RTVSPropertyOp42
 70
     1
102
RTVSPropertyOp43
 70
     1
102
RTVSPropertyOp44
 70
     1
102
RTVSPropertyOp45
 70
     1
102
RTVSPropertyOp46
 70
     1
102
RTVSPropertyOp47
 70
     1
102
RTVSPropertyOp48
 70
     1
102
RTVSPropertyOp49
 70
     1
102
RTVSPropertyOp50
 70
     1
102
RTVSPropertyOp51
 70
     0
102
RTVSPropertyOp52
 70
     0
102
RTVSPropertyOp53
 70
     1
102
RTVSPropertyOp54
 70
     1
102
RTVSPropertyOp55
 70
     1
102
RTVSPropertyOp56
 70
     1
102
RTVSPropertyOp57
 70
     1
102
RTVSPropertyOp58
 70
     1
102
RTVSPropertyOp59
 70
     1
102
RTVSPropertyOp60
 70
     1
102
RTVSPropertyOp61
 70
     1
102
RTVSPropertyOp62
 70
     1
  0
XRECORD
  5
FFF4
102
{ACAD_REACTORS
330
FFF3
102
}
330
FFF3
100
AcDbXrecord
280
     1
102
RTVSPost2010Prop28
280
     0
102
RTVSPost2010PropOp28
 70
     1
102
RTVSPost2010Prop29
280
     1
102
RTVSPost2010PropOp29
 70
     1
102
RTVSPost2010Prop30
280
     1
102
RTVSPost2010PropOp30
 70
     1
102
RTVSPost2010Prop31
280
     0
102
RTVSPost2010PropOp31
 70
     1
102
RTVSPost2010Prop32
280
     0
102
RTVSPost2010PropOp32
 70
     1
102
RTVSPost2010Prop33
280
     0
102
RTVSPost2010PropOp33
 70
     1
102
RTVSPost2010Prop34
280
     0
102
RTVSPost2010PropOp34
 70
     1
102
RTVSPost2010Prop35
280
     0
102
RTVSPost2010PropOp35
 70
     1
102
RTVSPost2010Prop36
280
     0
102
RTVSPost2010PropOp36
 70
     1
102
RTVSPost2010Prop37
 90
       50
102
RTVSPost2010PropOp37
 70
     1
102
RTVSPost2010Prop38
140
0.0
102
RTVSPost2010PropOp38
 70
     1
102
RTVSPost2010Prop39
140
1.0
102
RTVSPost2010PropOp39
 70
     1
102
RTVSPost2010Prop40
 90
        0
102
RTVSPost2010PropOp40
 70
     1
102
RTVSPost2010Prop41ColorIndex
 90
       18
102
RTVSPost2010Prop41ColorRGB
 90
        0
102
RTVSPost2010PropOp41
 70
     1
102
RTVSPost2010Prop42
 90
       50
102
RTVSPost2010PropOp42
 70
     1
102
RTVSPost2010Prop43
 90
        3
102
RTVSPost2010PropOp43
 70
     1
102
RTVSPost2010Prop44ColorIndex
 90
        5
102
RTVSPost2010Prop44ColorRGB
 90
      255
102
RTVSPost2010PropOp44
 70
     1
102
RTVSPost2010Prop45
280
     0
102
RTVSPost2010PropOp45
 70
     1
102
RTVSPost2010Prop46
 90
       50
102
RTVSPost2010PropOp46
 70
     1
102
RTVSPost2010Prop47
 90
       50
102
RTVSPost2010PropOp47
 70
     1
102
RTVSPost2010Prop48
 90
       50
102
RTVSPost2010PropOp48
 70
     1
102
RTVSPost2010Prop49
280
     0
102
RTVSPost2010PropOp49
 70
     1
102
RTVSPost2010Prop50
 90
       50
102
RTVSPost2010PropOp50
 70
     1
102
RTVSPost2010Prop51ColorIndex
 90
      256
102
RTVSPost2010Prop51ColorRGB
 90
-16777216
102
RTVSPost2010PropOp51
 70
     0
102
RTVSPost2010Prop52
140
1.0
102
RTVSPost2010PropOp52
 70
     0
102
RTVSPost2010Prop53
 90
        2
102
RTVSPost2010PropOp53
 70
     1
102
RTVSPost2010Prop54
  1
strokes_ogs.tif
102
RTVSPost2010PropOp54
 70
     1
102
RTVSPost2010Prop55
280
     0
102
RTVSPost2010PropOp55
 70
     1
102
RTVSPost2010Prop56
140
1.0
102
RTVSPost2010PropOp56
 70
     1
102
RTVSPost2010Prop57
140
1.0
102
RTVSPost2010PropOp57
 70
     1
102
RTVSPropertyOp0
 70
     1
102
RTVSPropertyOp1
 70
     1
102
RTVSPropertyOp2
 70
     1
102
RTVSPropertyOp3
 70
     1
102
RTVSPropertyOp4
 70
     1
102
RTVSPropertyOp5
 70
     1
102
RTVSPropertyOp6
 70
     1
102
RTVSPropertyOp7
 70
     1
102
RTVSPropertyOp8
 70
     1
102
RTVSPropertyOp9
 70
     1
102
RTVSPropertyOp10
 70
     1
102
RTVSPropertyOp11
 70
     1
102
RTVSPropertyOp12
 70
     1
102
RTVSPropertyOp13
 70
     1
102
RTVSPropertyOp14
 70
     1
102
RTVSPropertyOp15
 70
     1
102
RTVSPropertyOp16
 70
     1
102
RTVSPropertyOp17
 70
     1
102
RTVSPropertyOp18
 70
     1
102
RTVSPropertyOp19
 70
     1
102
RTVSPropertyOp20
 70
     1
102
RTVSPropertyOp21
 70
     1
102
RTVSPropertyOp22
 70
     1
102
RTVSPropertyOp23
 70
     1
102
RTVSPropertyOp24
 70
     1
102
RTVSPropertyOp25
 70
     1
102
RTVSPropertyOp26
 70
     1
102
RTVSPropertyOp27
 70
     1
102
RTVSPropertyOp28
 70
     1
102
RTVSPropertyOp29
 70
     1
102
RTVSPropertyOp30
 70
     1
102
RTVSPropertyOp31
 70
     1
102
RTVSPropertyOp32
 70
     1
102
RTVSPropertyOp33
 70
     1
102
RTVSPropertyOp34
 70
     1
102
RTVSPropertyOp35
 70
     1
102
RTVSPropertyOp36
 70
     1
102
RTVSPropertyOp37
 70
     1
102
RTVSPropertyOp38
 70
     1
102
RTVSPropertyOp39
 70
     1
102
RTVSPropertyOp40
 70
     1
102
RTVSPropertyOp41
 70
     1
102
RTVSPropertyOp42
 70
     1
102
RTVSPropertyOp43
 70
     1
102
RTVSPropertyOp44
 70
     1
102
RTVSPropertyOp45
 70
     1
102
RTVSPropertyOp46
 70
     1
102
RTVSPropertyOp47
 70
     1
102
RTVSPropertyOp48
 70
     1
102
RTVSPropertyOp49
 70
     1
102
RTVSPropertyOp50
 70
     1
102
RTVSPropertyOp51
 70
     0
102
RTVSPropertyOp52
 70
     0
102
RTVSPropertyOp53
 70
     1
102
RTVSPropertyOp54
 70
     1
102
RTVSPropertyOp55
 70
     1
102
RTVSPropertyOp56
 70
     1
102
RTVSPropertyOp57
 70
     1
102
RTVSPropertyOp58
 70
     1
102
RTVSPropertyOp59
 70
     1
102
RTVSPropertyOp60
 70
     1
102
RTVSPropertyOp61
 70
     1
102
RTVSPropertyOp62
 70
     1
  0
XRECORD
  5
FFF6
102
{ACAD_REACTORS
330
FFF5
102
}
330
FFF5
100
AcDbXrecord
280
     1
102
RTVSPost2010Prop28
280
     0
102
RTVSPost2010PropOp28
 70
     1
102
RTVSPost2010Prop29
280
     1
102
RTVSPost2010PropOp29
 70
     1
102
RTVSPost2010Prop30
280
     1
102
RTVSPost2010PropOp30
 70
     1
102
RTVSPost2010Prop31
280
     0
102
RTVSPost2010PropOp31
 70
     1
102
RTVSPost2010Prop32
280
     0
102
RTVSPost2010PropOp32
 70
     1
102
RTVSPost2010Prop33
280
     0
102
RTVSPost2010PropOp33
 70
     1
102
RTVSPost2010Prop34
280
     0
102
RTVSPost2010PropOp34
 70
     1
102
RTVSPost2010Prop35
280
     0
102
RTVSPost2010PropOp35
 70
     1
102
RTVSPost2010Prop36
280
     0
102
RTVSPost2010PropOp36
 70
     1
102
RTVSPost2010Prop37
 90
       50
102
RTVSPost2010PropOp37
 70
     1
102
RTVSPost2010Prop38
140
0.0
102
RTVSPost2010PropOp38
 70
     1
102
RTVSPost2010Prop39
140
1.0
102
RTVSPost2010PropOp39
 70
     1
102
RTVSPost2010Prop40
 90
        0
102
RTVSPost2010PropOp40
 70
     1
102
RTVSPost2010Prop41ColorIndex
 90
       18
102
RTVSPost2010Prop41ColorRGB
 90
        0
102
RTVSPost2010PropOp41
 70
     1
102
RTVSPost2010Prop42
 90
       50
102
RTVSPost2010PropOp42
 70
     1
102
RTVSPost2010Prop43
 90
        3
102
RTVSPost2010PropOp43
 70
     1
102
RTVSPost2010Prop44ColorIndex
 90
        5
102
RTVSPost2010Prop44ColorRGB
 90
      255
102
RTVSPost2010PropOp44
 70
     1
102
RTVSPost2010Prop45
280
     0
102
RTVSPost2010PropOp45
 70
     1
102
RTVSPost2010Prop46
 90
       50
102
RTVSPost2010PropOp46
 70
     1
102
RTVSPost2010Prop47
 90
       50
102
RTVSPost2010PropOp47
 70
     1
102
RTVSPost2010Prop48
 90
       50
102
RTVSPost2010PropOp48
 70
     1
102
RTVSPost2010Prop49
280
     0
102
RTVSPost2010PropOp49
 70
     1
102
RTVSPost2010Prop50
 90
       50
102
RTVSPost2010PropOp50
 70
     1
102
RTVSPost2010Prop51ColorIndex
 90
      256
102
RTVSPost2010Prop51ColorRGB
 90
-16777216
102
RTVSPost2010PropOp51
 70
     0
102
RTVSPost2010Prop52
140
1.0
102
RTVSPost2010PropOp52
 70
     0
102
RTVSPost2010Prop53
 90
        2
102
RTVSPost2010PropOp53
 70
     1
102
RTVSPost2010Prop54
  1
strokes_ogs.tif
102
RTVSPost2010PropOp54
 70
     1
102
RTVSPost2010Prop55
280
     0
102
RTVSPost2010PropOp55
 70
     1
102
RTVSPost2010Prop56
140
1.0
102
RTVSPost2010PropOp56
 70
     1
102
RTVSPost2010Prop57
140
1.0
102
RTVSPost2010PropOp57
 70
     1
102
RTVSPropertyOp0
 70
     1
102
RTVSPropertyOp1
 70
     1
102
RTVSPropertyOp2
 70
     1
102
RTVSPropertyOp3
 70
     1
102
RTVSPropertyOp4
 70
     1
102
RTVSPropertyOp5
 70
     1
102
RTVSPropertyOp6
 70
     1
102
RTVSPropertyOp7
 70
     1
102
RTVSPropertyOp8
 70
     1
102
RTVSPropertyOp9
 70
     1
102
RTVSPropertyOp10
 70
     1
102
RTVSPropertyOp11
 70
     1
102
RTVSPropertyOp12
 70
     1
102
RTVSPropertyOp13
 70
     1
102
RTVSPropertyOp14
 70
     1
102
RTVSPropertyOp15
 70
     1
102
RTVSPropertyOp16
 70
     1
102
RTVSPropertyOp17
 70
     1
102
RTVSPropertyOp18
 70
     1
102
RTVSPropertyOp19
 70
     1
102
RTVSPropertyOp20
 70
     1
102
RTVSPropertyOp21
 70
     1
102
RTVSPropertyOp22
 70
     1
102
RTVSPropertyOp23
 70
     1
102
RTVSPropertyOp24
 70
     1
102
RTVSPropertyOp25
 70
     1
102
RTVSPropertyOp26
 70
     1
102
RTVSPropertyOp27
 70
     1
102
RTVSPropertyOp28
 70
     1
102
RTVSPropertyOp29
 70
     1
102
RTVSPropertyOp30
 70
     1
102
RTVSPropertyOp31
 70
     1
102
RTVSPropertyOp32
 70
     1
102
RTVSPropertyOp33
 70
     1
102
RTVSPropertyOp34
 70
     1
102
RTVSPropertyOp35
 70
     1
102
RTVSPropertyOp36
 70
     1
102
RTVSPropertyOp37
 70
     1
102
RTVSPropertyOp38
 70
     1
102
RTVSPropertyOp39
 70
     1
102
RTVSPropertyOp40
 70
     1
102
RTVSPropertyOp41
 70
     1
102
RTVSPropertyOp42
 70
     1
102
RTVSPropertyOp43
 70
     1
102
RTVSPropertyOp44
 70
     1
102
RTVSPropertyOp45
 70
     1
102
RTVSPropertyOp46
 70
     1
102
RTVSPropertyOp47
 70
     1
102
RTVSPropertyOp48
 70
     1
102
RTVSPropertyOp49
 70
     1
102
RTVSPropertyOp50
 70
     1
102
RTVSPropertyOp51
 70
     0
102
RTVSPropertyOp52
 70
     0
102
RTVSPropertyOp53
 70
     1
102
RTVSPropertyOp54
 70
     1
102
RTVSPropertyOp55
 70
     1
102
RTVSPropertyOp56
 70
     1
102
RTVSPropertyOp57
 70
     1
102
RTVSPropertyOp58
 70
     1
102
RTVSPropertyOp59
 70
     1
102
RTVSPropertyOp60
 70
     1
102
RTVSPropertyOp61
 70
     1
102
RTVSPropertyOp62
 70
     1
  0
XRECORD
  5
FFFE
102
{ACAD_REACTORS
330
FFFD
102
}
330
FFFD
100
AcDbXrecord
280
     1
102
RTVSPost2010Prop28
280
     0
102
RTVSPost2010PropOp28
 70
     1
102
RTVSPost2010Prop29
280
     1
102
RTVSPost2010PropOp29
 70
     1
102
RTVSPost2010Prop30
280
     1
102
RTVSPost2010PropOp30
 70
     1
102
RTVSPost2010Prop31
280
     0
102
RTVSPost2010PropOp31
 70
     1
102
RTVSPost2010Prop32
280
     0
102
RTVSPost2010PropOp32
 70
     1
102
RTVSPost2010Prop33
280
     0
102
RTVSPost2010PropOp33
 70
     1
102
RTVSPost2010Prop34
280
     0
102
RTVSPost2010PropOp34
 70
     1
102
RTVSPost2010Prop35
280
     0
102
RTVSPost2010PropOp35
 70
     1
102
RTVSPost2010Prop36
280
     0
102
RTVSPost2010PropOp36
 70
     1
102
RTVSPost2010Prop37
 90
       50
102
RTVSPost2010PropOp37
 70
     1
102
RTVSPost2010Prop38
140
0.0
102
RTVSPost2010PropOp38
 70
     1
102
RTVSPost2010Prop39
140
1.0
102
RTVSPost2010PropOp39
 70
     1
102
RTVSPost2010Prop40
 90
        0
102
RTVSPost2010PropOp40
 70
     1
102
RTVSPost2010Prop41ColorIndex
 90
       18
102
RTVSPost2010Prop41ColorRGB
 90
        0
102
RTVSPost2010PropOp41
 70
     1
102
RTVSPost2010Prop42
 90
       50
102
RTVSPost2010PropOp42
 70
     1
102
RTVSPost2010Prop43
 90
        3
102
RTVSPost2010PropOp43
 70
     1
102
RTVSPost2010Prop44ColorIndex
 90
        5
102
RTVSPost2010Prop44ColorRGB
 90
      255
102
RTVSPost2010PropOp44
 70
     1
102
RTVSPost2010Prop45
280
     0
102
RTVSPost2010PropOp45
 70
     1
102
RTVSPost2010Prop46
 90
       50
102
RTVSPost2010PropOp46
 70
     1
102
RTVSPost2010Prop47
 90
       50
102
RTVSPost2010PropOp47
 70
     1
102
RTVSPost2010Prop48
 90
       50
102
RTVSPost2010PropOp48
 70
     1
102
RTVSPost2010Prop49
280
     0
102
RTVSPost2010PropOp49
 70
     1
102
RTVSPost2010Prop50
 90
       50
102
RTVSPost2010PropOp50
 70
     1
102
RTVSPost2010Prop51ColorIndex
 90
      256
102
RTVSPost2010Prop51ColorRGB
 90
-16777216
102
RTVSPost2010PropOp51
 70
     0
102
RTVSPost2010Prop52
140
1.0
102
RTVSPost2010PropOp52
 70
     0
102
RTVSPost2010Prop53
 90
        2
102
RTVSPost2010PropOp53
 70
     1
102
RTVSPost2010Prop54
  1
strokes_ogs.tif
102
RTVSPost2010PropOp54
 70
     1
102
RTVSPost2010Prop55
280
     0
102
RTVSPost2010PropOp55
 70
     1
102
RTVSPost2010Prop56
140
1.0
102
RTVSPost2010PropOp56
 70
     1
102
RTVSPost2010Prop57
140
1.0
102
RTVSPost2010PropOp57
 70
     1
102
RTVSPropertyOp0
 70
     1
102
RTVSPropertyOp1
 70
     1
102
RTVSPropertyOp2
 70
     1
102
RTVSPropertyOp3
 70
     1
102
RTVSPropertyOp4
 70
     1
102
RTVSPropertyOp5
 70
     1
102
RTVSPropertyOp6
 70
     1
102
RTVSPropertyOp7
 70
     1
102
RTVSPropertyOp8
 70
     1
102
RTVSPropertyOp9
 70
     1
102
RTVSPropertyOp10
 70
     1
102
RTVSPropertyOp11
 70
     1
102
RTVSPropertyOp12
 70
     1
102
RTVSPropertyOp13
 70
     1
102
RTVSPropertyOp14
 70
     1
102
RTVSPropertyOp15
 70
     1
102
RTVSPropertyOp16
 70
     1
102
RTVSPropertyOp17
 70
     1
102
RTVSPropertyOp18
 70
     1
102
RTVSPropertyOp19
 70
     1
102
RTVSPropertyOp20
 70
     1
102
RTVSPropertyOp21
 70
     1
102
RTVSPropertyOp22
 70
     1
102
RTVSPropertyOp23
 70
     1
102
RTVSPropertyOp24
 70
     1
102
RTVSPropertyOp25
 70
     1
102
RTVSPropertyOp26
 70
     1
102
RTVSPropertyOp27
 70
     1
102
RTVSPropertyOp28
 70
     1
102
RTVSPropertyOp29
 70
     1
102
RTVSPropertyOp30
 70
     1
102
RTVSPropertyOp31
 70
     1
102
RTVSPropertyOp32
 70
     1
102
RTVSPropertyOp33
 70
     1
102
RTVSPropertyOp34
 70
     1
102
RTVSPropertyOp35
 70
     1
102
RTVSPropertyOp36
 70
     1
102
RTVSPropertyOp37
 70
     1
102
RTVSPropertyOp38
 70
     1
102
RTVSPropertyOp39
 70
     1
102
RTVSPropertyOp40
 70
     1
102
RTVSPropertyOp41
 70
     1
102
RTVSPropertyOp42
 70
     1
102
RTVSPropertyOp43
 70
     1
102
RTVSPropertyOp44
 70
     1
102
RTVSPropertyOp45
 70
     1
102
RTVSPropertyOp46
 70
     1
102
RTVSPropertyOp47
 70
     1
102
RTVSPropertyOp48
 70
     1
102
RTVSPropertyOp49
 70
     1
102
RTVSPropertyOp50
 70
     1
102
RTVSPropertyOp51
 70
     0
102
RTVSPropertyOp52
 70
     0
102
RTVSPropertyOp53
 70
     1
102
RTVSPropertyOp54
 70
     1
102
RTVSPropertyOp55
 70
     1
102
RTVSPropertyOp56
 70
     1
102
RTVSPropertyOp57
 70
     1
102
RTVSPropertyOp58
 70
     1
102
RTVSPropertyOp59
 70
     1
102
RTVSPropertyOp60
 70
     1
102
RTVSPropertyOp61
 70
     1
102
RTVSPropertyOp62
 70
     1
  0
XRECORD
  5
10012
102
{ACAD_REACTORS
330
10011
102
}
330
10011
100
AcDbXrecord
280
     1
102
RTVSPost2010Prop28
280
     0
102
RTVSPost2010PropOp28
 70
     1
102
RTVSPost2010Prop29
280
     1
102
RTVSPost2010PropOp29
 70
     1
102
RTVSPost2010Prop30
280
     1
102
RTVSPost2010PropOp30
 70
     1
102
RTVSPost2010Prop31
280
     0
102
RTVSPost2010PropOp31
 70
     1
102
RTVSPost2010Prop32
280
     0
102
RTVSPost2010PropOp32
 70
     1
102
RTVSPost2010Prop33
280
     0
102
RTVSPost2010PropOp33
 70
     1
102
RTVSPost2010Prop34
280
     0
102
RTVSPost2010PropOp34
 70
     1
102
RTVSPost2010Prop35
280
     0
102
RTVSPost2010PropOp35
 70
     1
102
RTVSPost2010Prop36
280
     0
102
RTVSPost2010PropOp36
 70
     1
102
RTVSPost2010Prop37
 90
       50
102
RTVSPost2010PropOp37
 70
     1
102
RTVSPost2010Prop38
140
0.0
102
RTVSPost2010PropOp38
 70
     1
102
RTVSPost2010Prop39
140
1.0
102
RTVSPost2010PropOp39
 70
     1
102
RTVSPost2010Prop40
 90
        0
102
RTVSPost2010PropOp40
 70
     1
102
RTVSPost2010Prop41ColorIndex
 90
       18
102
RTVSPost2010Prop41ColorRGB
 90
        0
102
RTVSPost2010PropOp41
 70
     1
102
RTVSPost2010Prop42
 90
       50
102
RTVSPost2010PropOp42
 70
     1
102
RTVSPost2010Prop43
 90
        3
102
RTVSPost2010PropOp43
 70
     1
102
RTVSPost2010Prop44ColorIndex
 90
        5
102
RTVSPost2010Prop44ColorRGB
 90
      255
102
RTVSPost2010PropOp44
 70
     1
102
RTVSPost2010Prop45
280
     0
102
RTVSPost2010PropOp45
 70
     1
102
RTVSPost2010Prop46
 90
       50
102
RTVSPost2010PropOp46
 70
     1
102
RTVSPost2010Prop47
 90
       50
102
RTVSPost2010PropOp47
 70
     1
102
RTVSPost2010Prop48
 90
       50
102
RTVSPost2010PropOp48
 70
     1
102
RTVSPost2010Prop49
280
     0
102
RTVSPost2010PropOp49
 70
     1
102
RTVSPost2010Prop50
 90
       50
102
RTVSPost2010PropOp50
 70
     1
102
RTVSPost2010Prop51ColorIndex
 90
      256
102
RTVSPost2010Prop51ColorRGB
 90
-16777216
102
RTVSPost2010PropOp51
 70
     0
102
RTVSPost2010Prop52
140
1.0
102
RTVSPost2010PropOp52
 70
     0
102
RTVSPost2010Prop53
 90
        2
102
RTVSPost2010PropOp53
 70
     1
102
RTVSPost2010Prop54
  1
strokes_ogs.tif
102
RTVSPost2010PropOp54
 70
     1
102
RTVSPost2010Prop55
280
     0
102
RTVSPost2010PropOp55
 70
     1
102
RTVSPost2010Prop56
140
1.0
102
RTVSPost2010PropOp56
 70
     1
102
RTVSPost2010Prop57
140
1.0
102
RTVSPost2010PropOp57
 70
     1
102
RTVSPropertyOp0
 70
     0
102
RTVSPropertyOp1
 70
     0
102
RTVSPropertyOp2
 70
     0
102
RTVSPropertyOp3
 70
     0
102
RTVSPropertyOp4
 70
     0
102
RTVSPropertyOp5
 70
     0
102
RTVSPropertyOp6
 70
     0
102
RTVSPropertyOp7
 70
     0
102
RTVSPropertyOp8
 70
     0
102
RTVSPropertyOp9
 70
     0
102
RTVSPropertyOp10
 70
     0
102
RTVSPropertyOp11
 70
     0
102
RTVSPropertyOp12
 70
     0
102
RTVSPropertyOp13
 70
     0
102
RTVSPropertyOp14
 70
     2
102
RTVSPropertyOp15
 70
     0
102
RTVSPropertyOp16
 70
     0
102
RTVSPropertyOp17
 70
     0
102
RTVSPropertyOp18
 70
     0
102
RTVSPropertyOp19
 70
     0
102
RTVSPropertyOp20
 70
     0
102
RTVSPropertyOp21
 70
     0
102
RTVSPropertyOp22
 70
     0
102
RTVSPropertyOp23
 70
     0
102
RTVSPropertyOp24
 70
     0
102
RTVSPropertyOp25
 70
     0
102
RTVSPropertyOp26
 70
     0
102
RTVSPropertyOp27
 70
     0
102
RTVSPropertyOp28
 70
     1
102
RTVSPropertyOp29
 70
     1
102
RTVSPropertyOp30
 70
     1
102
RTVSPropertyOp31
 70
     1
102
RTVSPropertyOp32
 70
     1
102
RTVSPropertyOp33
 70
     1
102
RTVSPropertyOp34
 70
     1
102
RTVSPropertyOp35
 70
     1
102
RTVSPropertyOp36
 70
     1
102
RTVSPropertyOp37
 70
     1
102
RTVSPropertyOp38
 70
     1
102
RTVSPropertyOp39
 70
     1
102
RTVSPropertyOp40
 70
     1
102
RTVSPropertyOp41
 70
     1
102
RTVSPropertyOp42
 70
     1
102
RTVSPropertyOp43
 70
     1
102
RTVSPropertyOp44
 70
     1
102
RTVSPropertyOp45
 70
     1
102
RTVSPropertyOp46
 70
     1
102
RTVSPropertyOp47
 70
     1
102
RTVSPropertyOp48
 70
     1
102
RTVSPropertyOp49
 70
     1
102
RTVSPropertyOp50
 70
     1
102
RTVSPropertyOp51
 70
     0
102
RTVSPropertyOp52
 70
     0
102
RTVSPropertyOp53
 70
     1
102
RTVSPropertyOp54
 70
     1
102
RTVSPropertyOp55
 70
     1
102
RTVSPropertyOp56
 70
     1
102
RTVSPropertyOp57
 70
     1
102
RTVSPropertyOp58
 70
     1
102
RTVSPropertyOp59
 70
     1
102
RTVSPropertyOp60
 70
     1
102
RTVSPropertyOp61
 70
     1
102
RTVSPropertyOp62
 70
     1
  0
XRECORD
  5
1000A
102
{ACAD_REACTORS
330
10009
102
}
330
10009
100
AcDbXrecord
280
     1
102
RTVSPost2010Prop28
280
     0
102
RTVSPost2010PropOp28
 70
     1
102
RTVSPost2010Prop29
280
     1
102
RTVSPost2010PropOp29
 70
     1
102
RTVSPost2010Prop30
280
     1
102
RTVSPost2010PropOp30
 70
     1
102
RTVSPost2010Prop31
280
     0
102
RTVSPost2010PropOp31
 70
     1
102
RTVSPost2010Prop32
280
     0
102
RTVSPost2010PropOp32
 70
     1
102
RTVSPost2010Prop33
280
     0
102
RTVSPost2010PropOp33
 70
     1
102
RTVSPost2010Prop34
280
     0
102
RTVSPost2010PropOp34
 70
     1
102
RTVSPost2010Prop35
280
     0
102
RTVSPost2010PropOp35
 70
     1
102
RTVSPost2010Prop36
280
     0
102
RTVSPost2010PropOp36
 70
     1
102
RTVSPost2010Prop37
 90
       50
102
RTVSPost2010PropOp37
 70
     1
102
RTVSPost2010Prop38
140
0.0
102
RTVSPost2010PropOp38
 70
     1
102
RTVSPost2010Prop39
140
1.0
102
RTVSPost2010PropOp39
 70
     1
102
RTVSPost2010Prop40
 90
        0
102
RTVSPost2010PropOp40
 70
     1
102
RTVSPost2010Prop41ColorIndex
 90
       18
102
RTVSPost2010Prop41ColorRGB
 90
        0
102
RTVSPost2010PropOp41
 70
     1
102
RTVSPost2010Prop42
 90
       50
102
RTVSPost2010PropOp42
 70
     1
102
RTVSPost2010Prop43
 90
        3
102
RTVSPost2010PropOp43
 70
     1
102
RTVSPost2010Prop44ColorIndex
 90
        5
102
RTVSPost2010Prop44ColorRGB
 90
      255
102
RTVSPost2010PropOp44
 70
     1
102
RTVSPost2010Prop45
280
     0
102
RTVSPost2010PropOp45
 70
     1
102
RTVSPost2010Prop46
 90
       50
102
RTVSPost2010PropOp46
 70
     1
102
RTVSPost2010Prop47
 90
       50
102
RTVSPost2010PropOp47
 70
     1
102
RTVSPost2010Prop48
 90
       50
102
RTVSPost2010PropOp48
 70
     1
102
RTVSPost2010Prop49
280
     0
102
RTVSPost2010PropOp49
 70
     1
102
RTVSPost2010Prop50
 90
       50
102
RTVSPost2010PropOp50
 70
     1
102
RTVSPost2010Prop51ColorIndex
 90
      256
102
RTVSPost2010Prop51ColorRGB
 90
-16777216
102
RTVSPost2010PropOp51
 70
     0
102
RTVSPost2010Prop52
140
1.0
102
RTVSPost2010PropOp52
 70
     0
102
RTVSPost2010Prop53
 90
        2
102
RTVSPost2010PropOp53
 70
     1
102
RTVSPost2010Prop54
  1
strokes_ogs.tif
102
RTVSPost2010PropOp54
 70
     1
102
RTVSPost2010Prop55
280
     0
102
RTVSPost2010PropOp55
 70
     1
102
RTVSPost2010Prop56
140
1.0
102
RTVSPost2010PropOp56
 70
     1
102
RTVSPost2010Prop57
140
1.0
102
RTVSPost2010PropOp57
 70
     1
102
RTVSPropertyOp0
 70
     1
102
RTVSPropertyOp1
 70
     1
102
RTVSPropertyOp2
 70
     1
102
RTVSPropertyOp3
 70
     1
102
RTVSPropertyOp4
 70
     1
102
RTVSPropertyOp5
 70
     1
102
RTVSPropertyOp6
 70
     1
102
RTVSPropertyOp7
 70
     1
102
RTVSPropertyOp8
 70
     1
102
RTVSPropertyOp9
 70
     1
102
RTVSPropertyOp10
 70
     1
102
RTVSPropertyOp11
 70
     1
102
RTVSPropertyOp12
 70
     1
102
RTVSPropertyOp13
 70
     1
102
RTVSPropertyOp14
 70
     1
102
RTVSPropertyOp15
 70
     1
102
RTVSPropertyOp16
 70
     1
102
RTVSPropertyOp17
 70
     1
102
RTVSPropertyOp18
 70
     1
102
RTVSPropertyOp19
 70
     1
102
RTVSPropertyOp20
 70
     1
102
RTVSPropertyOp21
 70
     1
102
RTVSPropertyOp22
 70
     1
102
RTVSPropertyOp23
 70
     1
102
RTVSPropertyOp24
 70
     1
102
RTVSPropertyOp25
 70
     1
102
RTVSPropertyOp26
 70
     1
102
RTVSPropertyOp27
 70
     1
102
RTVSPropertyOp28
 70
     1
102
RTVSPropertyOp29
 70
     1
102
RTVSPropertyOp30
 70
     1
102
RTVSPropertyOp31
 70
     1
102
RTVSPropertyOp32
 70
     1
102
RTVSPropertyOp33
 70
     1
102
RTVSPropertyOp34
 70
     1
102
RTVSPropertyOp35
 70
     1
102
RTVSPropertyOp36
 70
     1
102
RTVSPropertyOp37
 70
     1
102
RTVSPropertyOp38
 70
     1
102
RTVSPropertyOp39
 70
     1
102
RTVSPropertyOp40
 70
     1
102
RTVSPropertyOp41
 70
     1
102
RTVSPropertyOp42
 70
     1
102
RTVSPropertyOp43
 70
     1
102
RTVSPropertyOp44
 70
     1
102
RTVSPropertyOp45
 70
     1
102
RTVSPropertyOp46
 70
     1
102
RTVSPropertyOp47
 70
     1
102
RTVSPropertyOp48
 70
     1
102
RTVSPropertyOp49
 70
     1
102
RTVSPropertyOp50
 70
     1
102
RTVSPropertyOp51
 70
     0
102
RTVSPropertyOp52
 70
     0
102
RTVSPropertyOp53
 70
     1
102
RTVSPropertyOp54
 70
     1
102
RTVSPropertyOp55
 70
     1
102
RTVSPropertyOp56
 70
     1
102
RTVSPropertyOp57
 70
     1
102
RTVSPropertyOp58
 70
     1
102
RTVSPropertyOp59
 70
     1
102
RTVSPropertyOp60
 70
     1
102
RTVSPropertyOp61
 70
     1
102
RTVSPropertyOp62
 70
     1
  0
XRECORD
  5
10014
102
{ACAD_REACTORS
330
10013
102
}
330
10013
100
AcDbXrecord
280
     1
102
RTVSPost2010Prop28
280
     0
102
RTVSPost2010PropOp28
 70
     1
102
RTVSPost2010Prop29
280
     1
102
RTVSPost2010PropOp29
 70
     1
102
RTVSPost2010Prop30
280
     1
102
RTVSPost2010PropOp30
 70
     1
102
RTVSPost2010Prop31
280
     0
102
RTVSPost2010PropOp31
 70
     1
102
RTVSPost2010Prop32
280
     0
102
RTVSPost2010PropOp32
 70
     1
102
RTVSPost2010Prop33
280
     0
102
RTVSPost2010PropOp33
 70
     1
102
RTVSPost2010Prop34
280
     0
102
RTVSPost2010PropOp34
 70
     1
102
RTVSPost2010Prop35
280
     0
102
RTVSPost2010PropOp35
 70
     1
102
RTVSPost2010Prop36
280
     0
102
RTVSPost2010PropOp36
 70
     1
102
RTVSPost2010Prop37
 90
       50
102
RTVSPost2010PropOp37
 70
     1
102
RTVSPost2010Prop38
140
0.0
102
RTVSPost2010PropOp38
 70
     1
102
RTVSPost2010Prop39
140
1.0
102
RTVSPost2010PropOp39
 70
     1
102
RTVSPost2010Prop40
 90
        0
102
RTVSPost2010PropOp40
 70
     1
102
RTVSPost2010Prop41ColorIndex
 90
       18
102
RTVSPost2010Prop41ColorRGB
 90
        0
102
RTVSPost2010PropOp41
 70
     1
102
RTVSPost2010Prop42
 90
       50
102
RTVSPost2010PropOp42
 70
     1
102
RTVSPost2010Prop43
 90
        3
102
RTVSPost2010PropOp43
 70
     1
102
RTVSPost2010Prop44ColorIndex
 90
        5
102
RTVSPost2010Prop44ColorRGB
 90
      255
102
RTVSPost2010PropOp44
 70
     1
102
RTVSPost2010Prop45
280
     0
102
RTVSPost2010PropOp45
 70
     1
102
RTVSPost2010Prop46
 90
       50
102
RTVSPost2010PropOp46
 70
     1
102
RTVSPost2010Prop47
 90
       50
102
RTVSPost2010PropOp47
 70
     1
102
RTVSPost2010Prop48
 90
       50
102
RTVSPost2010PropOp48
 70
     1
102
RTVSPost2010Prop49
280
     0
102
RTVSPost2010PropOp49
 70
     1
102
RTVSPost2010Prop50
 90
       50
102
RTVSPost2010PropOp50
 70
     1
102
RTVSPost2010Prop51ColorIndex
 90
      256
102
RTVSPost2010Prop51ColorRGB
 90
-16777216
102
RTVSPost2010PropOp51
 70
     0
102
RTVSPost2010Prop52
140
1.0
102
RTVSPost2010PropOp52
 70
     0
102
RTVSPost2010Prop53
 90
        2
102
RTVSPost2010PropOp53
 70
     1
102
RTVSPost2010Prop54
  1
strokes_ogs.tif
102
RTVSPost2010PropOp54
 70
     1
102
RTVSPost2010Prop55
280
     0
102
RTVSPost2010PropOp55
 70
     1
102
RTVSPost2010Prop56
140
1.0
102
RTVSPost2010PropOp56
 70
     1
102
RTVSPost2010Prop57
140
1.0
102
RTVSPost2010PropOp57
 70
     1
102
RTVSPropertyOp0
 70
     0
102
RTVSPropertyOp1
 70
     0
102
RTVSPropertyOp2
 70
     0
102
RTVSPropertyOp3
 70
     0
102
RTVSPropertyOp4
 70
     0
102
RTVSPropertyOp5
 70
     0
102
RTVSPropertyOp6
 70
     0
102
RTVSPropertyOp7
 70
     0
102
RTVSPropertyOp8
 70
     0
102
RTVSPropertyOp9
 70
     0
102
RTVSPropertyOp10
 70
     0
102
RTVSPropertyOp11
 70
     0
102
RTVSPropertyOp12
 70
     0
102
RTVSPropertyOp13
 70
     0
102
RTVSPropertyOp14
 70
     2
102
RTVSPropertyOp15
 70
     0
102
RTVSPropertyOp16
 70
     0
102
RTVSPropertyOp17
 70
     0
102
RTVSPropertyOp18
 70
     0
102
RTVSPropertyOp19
 70
     0
102
RTVSPropertyOp20
 70
     0
102
RTVSPropertyOp21
 70
     0
102
RTVSPropertyOp22
 70
     0
102
RTVSPropertyOp23
 70
     0
102
RTVSPropertyOp24
 70
     0
102
RTVSPropertyOp25
 70
     0
102
RTVSPropertyOp26
 70
     0
102
RTVSPropertyOp27
 70
     0
102
RTVSPropertyOp28
 70
     1
102
RTVSPropertyOp29
 70
     1
102
RTVSPropertyOp30
 70
     1
102
RTVSPropertyOp31
 70
     1
102
RTVSPropertyOp32
 70
     1
102
RTVSPropertyOp33
 70
     1
102
RTVSPropertyOp34
 70
     1
102
RTVSPropertyOp35
 70
     1
102
RTVSPropertyOp36
 70
     1
102
RTVSPropertyOp37
 70
     1
102
RTVSPropertyOp38
 70
     1
102
RTVSPropertyOp39
 70
     1
102
RTVSPropertyOp40
 70
     1
102
RTVSPropertyOp41
 70
     1
102
RTVSPropertyOp42
 70
     1
102
RTVSPropertyOp43
 70
     1
102
RTVSPropertyOp44
 70
     1
102
RTVSPropertyOp45
 70
     1
102
RTVSPropertyOp46
 70
     1
102
RTVSPropertyOp47
 70
     1
102
RTVSPropertyOp48
 70
     1
102
RTVSPropertyOp49
 70
     1
102
RTVSPropertyOp50
 70
     1
102
RTVSPropertyOp51
 70
     0
102
RTVSPropertyOp52
 70
     0
102
RTVSPropertyOp53
 70
     1
102
RTVSPropertyOp54
 70
     1
102
RTVSPropertyOp55
 70
     1
102
RTVSPropertyOp56
 70
     1
102
RTVSPropertyOp57
 70
     1
102
RTVSPropertyOp58
 70
     1
102
RTVSPropertyOp59
 70
     1
102
RTVSPropertyOp60
 70
     1
102
RTVSPropertyOp61
 70
     1
102
RTVSPropertyOp62
 70
     1
  0
XRECORD
  5
10002
102
{ACAD_REACTORS
330
10001
102
}
330
10001
100
AcDbXrecord
280
     1
102
RTVSPost2010Prop28
280
     0
102
RTVSPost2010PropOp28
 70
     1
102
RTVSPost2010Prop29
280
     1
102
RTVSPost2010PropOp29
 70
     1
102
RTVSPost2010Prop30
280
     1
102
RTVSPost2010PropOp30
 70
     1
102
RTVSPost2010Prop31
280
     0
102
RTVSPost2010PropOp31
 70
     1
102
RTVSPost2010Prop32
280
     0
102
RTVSPost2010PropOp32
 70
     1
102
RTVSPost2010Prop33
280
     0
102
RTVSPost2010PropOp33
 70
     1
102
RTVSPost2010Prop34
280
     0
102
RTVSPost2010PropOp34
 70
     1
102
RTVSPost2010Prop35
280
     0
102
RTVSPost2010PropOp35
 70
     1
102
RTVSPost2010Prop36
280
     0
102
RTVSPost2010PropOp36
 70
     1
102
RTVSPost2010Prop37
 90
       50
102
RTVSPost2010PropOp37
 70
     1
102
RTVSPost2010Prop38
140
0.0
102
RTVSPost2010PropOp38
 70
     1
102
RTVSPost2010Prop39
140
1.0
102
RTVSPost2010PropOp39
 70
     1
102
RTVSPost2010Prop40
 90
        0
102
RTVSPost2010PropOp40
 70
     1
102
RTVSPost2010Prop41ColorIndex
 90
       18
102
RTVSPost2010Prop41ColorRGB
 90
        0
102
RTVSPost2010PropOp41
 70
     1
102
RTVSPost2010Prop42
 90
       50
102
RTVSPost2010PropOp42
 70
     1
102
RTVSPost2010Prop43
 90
        3
102
RTVSPost2010PropOp43
 70
     1
102
RTVSPost2010Prop44ColorIndex
 90
        5
102
RTVSPost2010Prop44ColorRGB
 90
      255
102
RTVSPost2010PropOp44
 70
     1
102
RTVSPost2010Prop45
280
     0
102
RTVSPost2010PropOp45
 70
     1
102
RTVSPost2010Prop46
 90
       50
102
RTVSPost2010PropOp46
 70
     1
102
RTVSPost2010Prop47
 90
       50
102
RTVSPost2010PropOp47
 70
     1
102
RTVSPost2010Prop48
 90
       50
102
RTVSPost2010PropOp48
 70
     1
102
RTVSPost2010Prop49
280
     0
102
RTVSPost2010PropOp49
 70
     1
102
RTVSPost2010Prop50
 90
       50
102
RTVSPost2010PropOp50
 70
     1
102
RTVSPost2010Prop51ColorIndex
 90
      256
102
RTVSPost2010Prop51ColorRGB
 90
-16777216
102
RTVSPost2010PropOp51
 70
     0
102
RTVSPost2010Prop52
140
1.0
102
RTVSPost2010PropOp52
 70
     0
102
RTVSPost2010Prop53
 90
        2
102
RTVSPost2010PropOp53
 70
     1
102
RTVSPost2010Prop54
  1
strokes_ogs.tif
102
RTVSPost2010PropOp54
 70
     1
102
RTVSPost2010Prop55
280
     0
102
RTVSPost2010PropOp55
 70
     1
102
RTVSPost2010Prop56
140
1.0
102
RTVSPost2010PropOp56
 70
     1
102
RTVSPost2010Prop57
140
1.0
102
RTVSPost2010PropOp57
 70
     1
102
RTVSPropertyOp0
 70
     1
102
RTVSPropertyOp1
 70
     1
102
RTVSPropertyOp2
 70
     1
102
RTVSPropertyOp3
 70
     1
102
RTVSPropertyOp4
 70
     1
102
RTVSPropertyOp5
 70
     1
102
RTVSPropertyOp6
 70
     1
102
RTVSPropertyOp7
 70
     1
102
RTVSPropertyOp8
 70
     1
102
RTVSPropertyOp9
 70
     1
102
RTVSPropertyOp10
 70
     1
102
RTVSPropertyOp11
 70
     1
102
RTVSPropertyOp12
 70
     1
102
RTVSPropertyOp13
 70
     1
102
RTVSPropertyOp14
 70
     1
102
RTVSPropertyOp15
 70
     1
102
RTVSPropertyOp16
 70
     1
102
RTVSPropertyOp17
 70
     1
102
RTVSPropertyOp18
 70
     1
102
RTVSPropertyOp19
 70
     1
102
RTVSPropertyOp20
 70
     1
102
RTVSPropertyOp21
 70
     1
102
RTVSPropertyOp22
 70
     1
102
RTVSPropertyOp23
 70
     1
102
RTVSPropertyOp24
 70
     1
102
RTVSPropertyOp25
 70
     1
102
RTVSPropertyOp26
 70
     1
102
RTVSPropertyOp27
 70
     1
102
RTVSPropertyOp28
 70
     1
102
RTVSPropertyOp29
 70
     1
102
RTVSPropertyOp30
 70
     1
102
RTVSPropertyOp31
 70
     1
102
RTVSPropertyOp32
 70
     1
102
RTVSPropertyOp33
 70
     1
102
RTVSPropertyOp34
 70
     1
102
RTVSPropertyOp35
 70
     1
102
RTVSPropertyOp36
 70
     1
102
RTVSPropertyOp37
 70
     1
102
RTVSPropertyOp38
 70
     1
102
RTVSPropertyOp39
 70
     1
102
RTVSPropertyOp40
 70
     1
102
RTVSPropertyOp41
 70
     1
102
RTVSPropertyOp42
 70
     1
102
RTVSPropertyOp43
 70
     1
102
RTVSPropertyOp44
 70
     1
102
RTVSPropertyOp45
 70
     1
102
RTVSPropertyOp46
 70
     1
102
RTVSPropertyOp47
 70
     1
102
RTVSPropertyOp48
 70
     1
102
RTVSPropertyOp49
 70
     1
102
RTVSPropertyOp50
 70
     1
102
RTVSPropertyOp51
 70
     0
102
RTVSPropertyOp52
 70
     0
102
RTVSPropertyOp53
 70
     1
102
RTVSPropertyOp54
 70
     1
102
RTVSPropertyOp55
 70
     1
102
RTVSPropertyOp56
 70
     1
102
RTVSPropertyOp57
 70
     1
102
RTVSPropertyOp58
 70
     1
102
RTVSPropertyOp59
 70
     1
102
RTVSPropertyOp60
 70
     1
102
RTVSPropertyOp61
 70
     1
102
RTVSPropertyOp62
 70
     1
  0
XRECORD
  5
10020
102
{ACAD_REACTORS
330
1001F
102
}
330
1001F
100
AcDbXrecord
280
     1
102
RTVSPost2010Prop28
280
     0
102
RTVSPost2010PropOp28
 70
     1
102
RTVSPost2010Prop29
280
     1
102
RTVSPost2010PropOp29
 70
     1
102
RTVSPost2010Prop30
280
     1
102
RTVSPost2010PropOp30
 70
     1
102
RTVSPost2010Prop31
280
     0
102
RTVSPost2010PropOp31
 70
     1
102
RTVSPost2010Prop32
280
     0
102
RTVSPost2010PropOp32
 70
     1
102
RTVSPost2010Prop33
280
     0
102
RTVSPost2010PropOp33
 70
     1
102
RTVSPost2010Prop34
280
     0
102
RTVSPost2010PropOp34
 70
     1
102
RTVSPost2010Prop35
280
     0
102
RTVSPost2010PropOp35
 70
     1
102
RTVSPost2010Prop36
280
     0
102
RTVSPost2010PropOp36
 70
     1
102
RTVSPost2010Prop37
 90
       50
102
RTVSPost2010PropOp37
 70
     1
102
RTVSPost2010Prop38
140
0.0
102
RTVSPost2010PropOp38
 70
     1
102
RTVSPost2010Prop39
140
1.0
102
RTVSPost2010PropOp39
 70
     1
102
RTVSPost2010Prop40
 90
        0
102
RTVSPost2010PropOp40
 70
     1
102
RTVSPost2010Prop41ColorIndex
 90
       18
102
RTVSPost2010Prop41ColorRGB
 90
        0
102
RTVSPost2010PropOp41
 70
     1
102
RTVSPost2010Prop42
 90
       50
102
RTVSPost2010PropOp42
 70
     1
102
RTVSPost2010Prop43
 90
        3
102
RTVSPost2010PropOp43
 70
     1
102
RTVSPost2010Prop44ColorIndex
 90
        5
102
RTVSPost2010Prop44ColorRGB
 90
      255
102
RTVSPost2010PropOp44
 70
     1
102
RTVSPost2010Prop45
280
     0
102
RTVSPost2010PropOp45
 70
     1
102
RTVSPost2010Prop46
 90
       50
102
RTVSPost2010PropOp46
 70
     1
102
RTVSPost2010Prop47
 90
       50
102
RTVSPost2010PropOp47
 70
     1
102
RTVSPost2010Prop48
 90
       50
102
RTVSPost2010PropOp48
 70
     1
102
RTVSPost2010Prop49
280
     0
102
RTVSPost2010PropOp49
 70
     1
102
RTVSPost2010Prop50
 90
       50
102
RTVSPost2010PropOp50
 70
     1
102
RTVSPost2010Prop51ColorIndex
 90
      256
102
RTVSPost2010Prop51ColorRGB
 90
-16777216
102
RTVSPost2010PropOp51
 70
     0
102
RTVSPost2010Prop52
140
1.0
102
RTVSPost2010PropOp52
 70
     0
102
RTVSPost2010Prop53
 90
        2
102
RTVSPost2010PropOp53
 70
     1
102
RTVSPost2010Prop54
  1
strokes_ogs.tif
102
RTVSPost2010PropOp54
 70
     1
102
RTVSPost2010Prop55
280
     0
102
RTVSPost2010PropOp55
 70
     1
102
RTVSPost2010Prop56
140
1.0
102
RTVSPost2010PropOp56
 70
     1
102
RTVSPost2010Prop57
140
1.0
102
RTVSPost2010PropOp57
 70
     1
102
RTVSPropertyOp0
 70
     1
102
RTVSPropertyOp1
 70
     1
102
RTVSPropertyOp2
 70
     1
102
RTVSPropertyOp3
 70
     1
102
RTVSPropertyOp4
 70
     1
102
RTVSPropertyOp5
 70
     1
102
RTVSPropertyOp6
 70
     1
102
RTVSPropertyOp7
 70
     1
102
RTVSPropertyOp8
 70
     1
102
RTVSPropertyOp9
 70
     1
102
RTVSPropertyOp10
 70
     1
102
RTVSPropertyOp11
 70
     1
102
RTVSPropertyOp12
 70
     1
102
RTVSPropertyOp13
 70
     1
102
RTVSPropertyOp14
 70
     1
102
RTVSPropertyOp15
 70
     1
102
RTVSPropertyOp16
 70
     1
102
RTVSPropertyOp17
 70
     1
102
RTVSPropertyOp18
 70
     1
102
RTVSPropertyOp19
 70
     1
102
RTVSPropertyOp20
 70
     1
102
RTVSPropertyOp21
 70
     1
102
RTVSPropertyOp22
 70
     1
102
RTVSPropertyOp23
 70
     1
102
RTVSPropertyOp24
 70
     1
102
RTVSPropertyOp25
 70
     1
102
RTVSPropertyOp26
 70
     1
102
RTVSPropertyOp27
 70
     1
102
RTVSPropertyOp28
 70
     1
102
RTVSPropertyOp29
 70
     1
102
RTVSPropertyOp30
 70
     1
102
RTVSPropertyOp31
 70
     1
102
RTVSPropertyOp32
 70
     1
102
RTVSPropertyOp33
 70
     1
102
RTVSPropertyOp34
 70
     1
102
RTVSPropertyOp35
 70
     1
102
RTVSPropertyOp36
 70
     1
102
RTVSPropertyOp37
 70
     1
102
RTVSPropertyOp38
 70
     1
102
RTVSPropertyOp39
 70
     1
102
RTVSPropertyOp40
 70
     1
102
RTVSPropertyOp41
 70
     1
102
RTVSPropertyOp42
 70
     1
102
RTVSPropertyOp43
 70
     1
102
RTVSPropertyOp44
 70
     1
102
RTVSPropertyOp45
 70
     1
102
RTVSPropertyOp46
 70
     1
102
RTVSPropertyOp47
 70
     1
102
RTVSPropertyOp48
 70
     1
102
RTVSPropertyOp49
 70
     1
102
RTVSPropertyOp50
 70
     1
102
RTVSPropertyOp51
 70
     0
102
RTVSPropertyOp52
 70
     0
102
RTVSPropertyOp53
 70
     1
102
RTVSPropertyOp54
 70
     1
102
RTVSPropertyOp55
 70
     1
102
RTVSPropertyOp56
 70
     1
102
RTVSPropertyOp57
 70
     1
102
RTVSPropertyOp58
 70
     1
102
RTVSPropertyOp59
 70
     1
102
RTVSPropertyOp60
 70
     1
102
RTVSPropertyOp61
 70
     1
102
RTVSPropertyOp62
 70
     1
  0
XRECORD
  5
1001E
102
{ACAD_REACTORS
330
1001D
102
}
330
1001D
100
AcDbXrecord
280
     1
102
RTVSPost2010Prop28
280
     0
102
RTVSPost2010PropOp28
 70
     1
102
RTVSPost2010Prop29
280
     1
102
RTVSPost2010PropOp29
 70
     1
102
RTVSPost2010Prop30
280
     1
102
RTVSPost2010PropOp30
 70
     1
102
RTVSPost2010Prop31
280
     0
102
RTVSPost2010PropOp31
 70
     1
102
RTVSPost2010Prop32
280
     0
102
RTVSPost2010PropOp32
 70
     1
102
RTVSPost2010Prop33
280
     0
102
RTVSPost2010PropOp33
 70
     1
102
RTVSPost2010Prop34
280
     0
102
RTVSPost2010PropOp34
 70
     1
102
RTVSPost2010Prop35
280
     0
102
RTVSPost2010PropOp35
 70
     1
102
RTVSPost2010Prop36
280
     0
102
RTVSPost2010PropOp36
 70
     1
102
RTVSPost2010Prop37
 90
       50
102
RTVSPost2010PropOp37
 70
     1
102
RTVSPost2010Prop38
140
0.0
102
RTVSPost2010PropOp38
 70
     1
102
RTVSPost2010Prop39
140
1.0
102
RTVSPost2010PropOp39
 70
     1
102
RTVSPost2010Prop40
 90
        0
102
RTVSPost2010PropOp40
 70
     1
102
RTVSPost2010Prop41ColorIndex
 90
       18
102
RTVSPost2010Prop41ColorRGB
 90
        0
102
RTVSPost2010PropOp41
 70
     1
102
RTVSPost2010Prop42
 90
       50
102
RTVSPost2010PropOp42
 70
     1
102
RTVSPost2010Prop43
 90
        3
102
RTVSPost2010PropOp43
 70
     1
102
RTVSPost2010Prop44ColorIndex
 90
        5
102
RTVSPost2010Prop44ColorRGB
 90
      255
102
RTVSPost2010PropOp44
 70
     1
102
RTVSPost2010Prop45
280
     0
102
RTVSPost2010PropOp45
 70
     1
102
RTVSPost2010Prop46
 90
       50
102
RTVSPost2010PropOp46
 70
     1
102
RTVSPost2010Prop47
 90
       50
102
RTVSPost2010PropOp47
 70
     1
102
RTVSPost2010Prop48
 90
       50
102
RTVSPost2010PropOp48
 70
     1
102
RTVSPost2010Prop49
280
     0
102
RTVSPost2010PropOp49
 70
     1
102
RTVSPost2010Prop50
 90
       50
102
RTVSPost2010PropOp50
 70
     1
102
RTVSPost2010Prop51ColorIndex
 90
      256
102
RTVSPost2010Prop51ColorRGB
 90
-16777216
102
RTVSPost2010PropOp51
 70
     0
102
RTVSPost2010Prop52
140
1.0
102
RTVSPost2010PropOp52
 70
     0
102
RTVSPost2010Prop53
 90
        2
102
RTVSPost2010PropOp53
 70
     1
102
RTVSPost2010Prop54
  1
strokes_ogs.tif
102
RTVSPost2010PropOp54
 70
     1
102
RTVSPost2010Prop55
280
     0
102
RTVSPost2010PropOp55
 70
     1
102
RTVSPost2010Prop56
140
1.0
102
RTVSPost2010PropOp56
 70
     1
102
RTVSPost2010Prop57
140
1.0
102
RTVSPost2010PropOp57
 70
     1
102
RTVSPropertyOp0
 70
     1
102
RTVSPropertyOp1
 70
     1
102
RTVSPropertyOp2
 70
     1
102
RTVSPropertyOp3
 70
     1
102
RTVSPropertyOp4
 70
     1
102
RTVSPropertyOp5
 70
     1
102
RTVSPropertyOp6
 70
     1
102
RTVSPropertyOp7
 70
     1
102
RTVSPropertyOp8
 70
     1
102
RTVSPropertyOp9
 70
     1
102
RTVSPropertyOp10
 70
     1
102
RTVSPropertyOp11
 70
     1
102
RTVSPropertyOp12
 70
     1
102
RTVSPropertyOp13
 70
     1
102
RTVSPropertyOp14
 70
     1
102
RTVSPropertyOp15
 70
     1
102
RTVSPropertyOp16
 70
     1
102
RTVSPropertyOp17
 70
     1
102
RTVSPropertyOp18
 70
     1
102
RTVSPropertyOp19
 70
     1
102
RTVSPropertyOp20
 70
     1
102
RTVSPropertyOp21
 70
     1
102
RTVSPropertyOp22
 70
     1
102
RTVSPropertyOp23
 70
     1
102
RTVSPropertyOp24
 70
     1
102
RTVSPropertyOp25
 70
     1
102
RTVSPropertyOp26
 70
     1
102
RTVSPropertyOp27
 70
     1
102
RTVSPropertyOp28
 70
     1
102
RTVSPropertyOp29
 70
     1
102
RTVSPropertyOp30
 70
     1
102
RTVSPropertyOp31
 70
     1
102
RTVSPropertyOp32
 70
     1
102
RTVSPropertyOp33
 70
     1
102
RTVSPropertyOp34
 70
     1
102
RTVSPropertyOp35
 70
     1
102
RTVSPropertyOp36
 70
     1
102
RTVSPropertyOp37
 70
     1
102
RTVSPropertyOp38
 70
     1
102
RTVSPropertyOp39
 70
     1
102
RTVSPropertyOp40
 70
     1
102
RTVSPropertyOp41
 70
     1
102
RTVSPropertyOp42
 70
     1
102
RTVSPropertyOp43
 70
     1
102
RTVSPropertyOp44
 70
     1
102
RTVSPropertyOp45
 70
     1
102
RTVSPropertyOp46
 70
     1
102
RTVSPropertyOp47
 70
     1
102
RTVSPropertyOp48
 70
     1
102
RTVSPropertyOp49
 70
     1
102
RTVSPropertyOp50
 70
     1
102
RTVSPropertyOp51
 70
     0
102
RTVSPropertyOp52
 70
     0
102
RTVSPropertyOp53
 70
     1
102
RTVSPropertyOp54
 70
     1
102
RTVSPropertyOp55
 70
     1
102
RTVSPropertyOp56
 70
     1
102
RTVSPropertyOp57
 70
     1
102
RTVSPropertyOp58
 70
     1
102
RTVSPropertyOp59
 70
     1
102
RTVSPropertyOp60
 70
     1
102
RTVSPropertyOp61
 70
     1
102
RTVSPropertyOp62
 70
     1
  0
XRECORD
  5
10018
102
{ACAD_REACTORS
330
10017
102
}
330
10017
100
AcDbXrecord
280
     1
102
RTVSPost2010Prop28
280
     0
102
RTVSPost2010PropOp28
 70
     1
102
RTVSPost2010Prop29
280
     1
102
RTVSPost2010PropOp29
 70
     1
102
RTVSPost2010Prop30
280
     1
102
RTVSPost2010PropOp30
 70
     1
102
RTVSPost2010Prop31
280
     0
102
RTVSPost2010PropOp31
 70
     1
102
RTVSPost2010Prop32
280
     0
102
RTVSPost2010PropOp32
 70
     1
102
RTVSPost2010Prop33
280
     0
102
RTVSPost2010PropOp33
 70
     1
102
RTVSPost2010Prop34
280
     0
102
RTVSPost2010PropOp34
 70
     1
102
RTVSPost2010Prop35
280
     0
102
RTVSPost2010PropOp35
 70
     1
102
RTVSPost2010Prop36
280
     0
102
RTVSPost2010PropOp36
 70
     1
102
RTVSPost2010Prop37
 90
       50
102
RTVSPost2010PropOp37
 70
     1
102
RTVSPost2010Prop38
140
0.0
102
RTVSPost2010PropOp38
 70
     1
102
RTVSPost2010Prop39
140
1.0
102
RTVSPost2010PropOp39
 70
     1
102
RTVSPost2010Prop40
 90
        0
102
RTVSPost2010PropOp40
 70
     1
102
RTVSPost2010Prop41ColorIndex
 90
       18
102
RTVSPost2010Prop41ColorRGB
 90
        0
102
RTVSPost2010PropOp41
 70
     1
102
RTVSPost2010Prop42
 90
       50
102
RTVSPost2010PropOp42
 70
     1
102
RTVSPost2010Prop43
 90
        3
102
RTVSPost2010PropOp43
 70
     1
102
RTVSPost2010Prop44ColorIndex
 90
        5
102
RTVSPost2010Prop44ColorRGB
 90
      255
102
RTVSPost2010PropOp44
 70
     1
102
RTVSPost2010Prop45
280
     0
102
RTVSPost2010PropOp45
 70
     1
102
RTVSPost2010Prop46
 90
       50
102
RTVSPost2010PropOp46
 70
     1
102
RTVSPost2010Prop47
 90
       50
102
RTVSPost2010PropOp47
 70
     1
102
RTVSPost2010Prop48
 90
       50
102
RTVSPost2010PropOp48
 70
     1
102
RTVSPost2010Prop49
280
     0
102
RTVSPost2010PropOp49
 70
     1
102
RTVSPost2010Prop50
 90
       50
102
RTVSPost2010PropOp50
 70
     1
102
RTVSPost2010Prop51ColorIndex
 90
      256
102
RTVSPost2010Prop51ColorRGB
 90
-16777216
102
RTVSPost2010PropOp51
 70
     0
102
RTVSPost2010Prop52
140
1.0
102
RTVSPost2010PropOp52
 70
     0
102
RTVSPost2010Prop53
 90
        2
102
RTVSPost2010PropOp53
 70
     1
102
RTVSPost2010Prop54
  1
strokes_ogs.tif
102
RTVSPost2010PropOp54
 70
     1
102
RTVSPost2010Prop55
280
     0
102
RTVSPost2010PropOp55
 70
     1
102
RTVSPost2010Prop56
140
1.0
102
RTVSPost2010PropOp56
 70
     1
102
RTVSPost2010Prop57
140
1.0
102
RTVSPost2010PropOp57
 70
     1
102
RTVSPropertyOp0
 70
     1
102
RTVSPropertyOp1
 70
     1
102
RTVSPropertyOp2
 70
     1
102
RTVSPropertyOp3
 70
     1
102
RTVSPropertyOp4
 70
     1
102
RTVSPropertyOp5
 70
     1
102
RTVSPropertyOp6
 70
     1
102
RTVSPropertyOp7
 70
     1
102
RTVSPropertyOp8
 70
     1
102
RTVSPropertyOp9
 70
     1
102
RTVSPropertyOp10
 70
     1
102
RTVSPropertyOp11
 70
     1
102
RTVSPropertyOp12
 70
     1
102
RTVSPropertyOp13
 70
     1
102
RTVSPropertyOp14
 70
     1
102
RTVSPropertyOp15
 70
     1
102
RTVSPropertyOp16
 70
     1
102
RTVSPropertyOp17
 70
     1
102
RTVSPropertyOp18
 70
     1
102
RTVSPropertyOp19
 70
     1
102
RTVSPropertyOp20
 70
     1
102
RTVSPropertyOp21
 70
     1
102
RTVSPropertyOp22
 70
     1
102
RTVSPropertyOp23
 70
     1
102
RTVSPropertyOp24
 70
     1
102
RTVSPropertyOp25
 70
     1
102
RTVSPropertyOp26
 70
     1
102
RTVSPropertyOp27
 70
     1
102
RTVSPropertyOp28
 70
     1
102
RTVSPropertyOp29
 70
     1
102
RTVSPropertyOp30
 70
     1
102
RTVSPropertyOp31
 70
     1
102
RTVSPropertyOp32
 70
     1
102
RTVSPropertyOp33
 70
     1
102
RTVSPropertyOp34
 70
     1
102
RTVSPropertyOp35
 70
     1
102
RTVSPropertyOp36
 70
     1
102
RTVSPropertyOp37
 70
     1
102
RTVSPropertyOp38
 70
     1
102
RTVSPropertyOp39
 70
     1
102
RTVSPropertyOp40
 70
     1
102
RTVSPropertyOp41
 70
     1
102
RTVSPropertyOp42
 70
     1
102
RTVSPropertyOp43
 70
     1
102
RTVSPropertyOp44
 70
     1
102
RTVSPropertyOp45
 70
     1
102
RTVSPropertyOp46
 70
     1
102
RTVSPropertyOp47
 70
     1
102
RTVSPropertyOp48
 70
     1
102
RTVSPropertyOp49
 70
     1
102
RTVSPropertyOp50
 70
     1
102
RTVSPropertyOp51
 70
     0
102
RTVSPropertyOp52
 70
     0
102
RTVSPropertyOp53
 70
     1
102
RTVSPropertyOp54
 70
     1
102
RTVSPropertyOp55
 70
     1
102
RTVSPropertyOp56
 70
     1
102
RTVSPropertyOp57
 70
     1
102
RTVSPropertyOp58
 70
     1
102
RTVSPropertyOp59
 70
     1
102
RTVSPropertyOp60
 70
     1
102
RTVSPropertyOp61
 70
     1
102
RTVSPropertyOp62
 70
     1
  0
XRECORD
  5
1001A
102
{ACAD_REACTORS
330
10019
102
}
330
10019
100
AcDbXrecord
280
     1
102
RTVSPost2010Prop28
280
     0
102
RTVSPost2010PropOp28
 70
     1
102
RTVSPost2010Prop29
280
     1
102
RTVSPost2010PropOp29
 70
     1
102
RTVSPost2010Prop30
280
     1
102
RTVSPost2010PropOp30
 70
     1
102
RTVSPost2010Prop31
280
     0
102
RTVSPost2010PropOp31
 70
     1
102
RTVSPost2010Prop32
280
     0
102
RTVSPost2010PropOp32
 70
     1
102
RTVSPost2010Prop33
280
     0
102
RTVSPost2010PropOp33
 70
     1
102
RTVSPost2010Prop34
280
     0
102
RTVSPost2010PropOp34
 70
     1
102
RTVSPost2010Prop35
280
     0
102
RTVSPost2010PropOp35
 70
     1
102
RTVSPost2010Prop36
280
     0
102
RTVSPost2010PropOp36
 70
     1
102
RTVSPost2010Prop37
 90
       50
102
RTVSPost2010PropOp37
 70
     1
102
RTVSPost2010Prop38
140
0.0
102
RTVSPost2010PropOp38
 70
     1
102
RTVSPost2010Prop39
140
1.0
102
RTVSPost2010PropOp39
 70
     1
102
RTVSPost2010Prop40
 90
        0
102
RTVSPost2010PropOp40
 70
     1
102
RTVSPost2010Prop41ColorIndex
 90
       18
102
RTVSPost2010Prop41ColorRGB
 90
        0
102
RTVSPost2010PropOp41
 70
     1
102
RTVSPost2010Prop42
 90
       50
102
RTVSPost2010PropOp42
 70
     1
102
RTVSPost2010Prop43
 90
        3
102
RTVSPost2010PropOp43
 70
     1
102
RTVSPost2010Prop44ColorIndex
 90
        5
102
RTVSPost2010Prop44ColorRGB
 90
      255
102
RTVSPost2010PropOp44
 70
     1
102
RTVSPost2010Prop45
280
     0
102
RTVSPost2010PropOp45
 70
     1
102
RTVSPost2010Prop46
 90
       50
102
RTVSPost2010PropOp46
 70
     1
102
RTVSPost2010Prop47
 90
       50
102
RTVSPost2010PropOp47
 70
     1
102
RTVSPost2010Prop48
 90
       50
102
RTVSPost2010PropOp48
 70
     1
102
RTVSPost2010Prop49
280
     0
102
RTVSPost2010PropOp49
 70
     1
102
RTVSPost2010Prop50
 90
       50
102
RTVSPost2010PropOp50
 70
     1
102
RTVSPost2010Prop51ColorIndex
 90
      256
102
RTVSPost2010Prop51ColorRGB
 90
-16777216
102
RTVSPost2010PropOp51
 70
     0
102
RTVSPost2010Prop52
140
1.0
102
RTVSPost2010PropOp52
 70
     0
102
RTVSPost2010Prop53
 90
        2
102
RTVSPost2010PropOp53
 70
     1
102
RTVSPost2010Prop54
  1
strokes_ogs.tif
102
RTVSPost2010PropOp54
 70
     1
102
RTVSPost2010Prop55
280
     0
102
RTVSPost2010PropOp55
 70
     1
102
RTVSPost2010Prop56
140
1.0
102
RTVSPost2010PropOp56
 70
     1
102
RTVSPost2010Prop57
140
1.0
102
RTVSPost2010PropOp57
 70
     1
102
RTVSPropertyOp0
 70
     1
102
RTVSPropertyOp1
 70
     1
102
RTVSPropertyOp2
 70
     1
102
RTVSPropertyOp3
 70
     1
102
RTVSPropertyOp4
 70
     1
102
RTVSPropertyOp5
 70
     1
102
RTVSPropertyOp6
 70
     1
102
RTVSPropertyOp7
 70
     1
102
RTVSPropertyOp8
 70
     1
102
RTVSPropertyOp9
 70
     1
102
RTVSPropertyOp10
 70
     1
102
RTVSPropertyOp11
 70
     1
102
RTVSPropertyOp12
 70
     1
102
RTVSPropertyOp13
 70
     1
102
RTVSPropertyOp14
 70
     1
102
RTVSPropertyOp15
 70
     1
102
RTVSPropertyOp16
 70
     1
102
RTVSPropertyOp17
 70
     1
102
RTVSPropertyOp18
 70
     1
102
RTVSPropertyOp19
 70
     1
102
RTVSPropertyOp20
 70
     1
102
RTVSPropertyOp21
 70
     1
102
RTVSPropertyOp22
 70
     1
102
RTVSPropertyOp23
 70
     1
102
RTVSPropertyOp24
 70
     1
102
RTVSPropertyOp25
 70
     1
102
RTVSPropertyOp26
 70
     1
102
RTVSPropertyOp27
 70
     1
102
RTVSPropertyOp28
 70
     1
102
RTVSPropertyOp29
 70
     1
102
RTVSPropertyOp30
 70
     1
102
RTVSPropertyOp31
 70
     1
102
RTVSPropertyOp32
 70
     1
102
RTVSPropertyOp33
 70
     1
102
RTVSPropertyOp34
 70
     1
102
RTVSPropertyOp35
 70
     1
102
RTVSPropertyOp36
 70
     1
102
RTVSPropertyOp37
 70
     1
102
RTVSPropertyOp38
 70
     1
102
RTVSPropertyOp39
 70
     1
102
RTVSPropertyOp40
 70
     1
102
RTVSPropertyOp41
 70
     1
102
RTVSPropertyOp42
 70
     1
102
RTVSPropertyOp43
 70
     1
102
RTVSPropertyOp44
 70
     1
102
RTVSPropertyOp45
 70
     1
102
RTVSPropertyOp46
 70
     1
102
RTVSPropertyOp47
 70
     1
102
RTVSPropertyOp48
 70
     1
102
RTVSPropertyOp49
 70
     1
102
RTVSPropertyOp50
 70
     1
102
RTVSPropertyOp51
 70
     0
102
RTVSPropertyOp52
 70
     0
102
RTVSPropertyOp53
 70
     1
102
RTVSPropertyOp54
 70
     1
102
RTVSPropertyOp55
 70
     1
102
RTVSPropertyOp56
 70
     1
102
RTVSPropertyOp57
 70
     1
102
RTVSPropertyOp58
 70
     1
102
RTVSPropertyOp59
 70
     1
102
RTVSPropertyOp60
 70
     1
102
RTVSPropertyOp61
 70
     1
102
RTVSPropertyOp62
 70
     1
  0
XRECORD
  5
10008
102
{ACAD_REACTORS
330
10007
102
}
330
10007
100
AcDbXrecord
280
     1
102
RTVSPost2010Prop28
280
     0
102
RTVSPost2010PropOp28
 70
     1
102
RTVSPost2010Prop29
280
     1
102
RTVSPost2010PropOp29
 70
     1
102
RTVSPost2010Prop30
280
     1
102
RTVSPost2010PropOp30
 70
     1
102
RTVSPost2010Prop31
280
     0
102
RTVSPost2010PropOp31
 70
     1
102
RTVSPost2010Prop32
280
     0
102
RTVSPost2010PropOp32
 70
     1
102
RTVSPost2010Prop33
280
     0
102
RTVSPost2010PropOp33
 70
     1
102
RTVSPost2010Prop34
280
     0
102
RTVSPost2010PropOp34
 70
     1
102
RTVSPost2010Prop35
280
     0
102
RTVSPost2010PropOp35
 70
     1
102
RTVSPost2010Prop36
280
     0
102
RTVSPost2010PropOp36
 70
     1
102
RTVSPost2010Prop37
 90
       50
102
RTVSPost2010PropOp37
 70
     1
102
RTVSPost2010Prop38
140
0.0
102
RTVSPost2010PropOp38
 70
     1
102
RTVSPost2010Prop39
140
1.0
102
RTVSPost2010PropOp39
 70
     1
102
RTVSPost2010Prop40
 90
        0
102
RTVSPost2010PropOp40
 70
     1
102
RTVSPost2010Prop41ColorIndex
 90
       18
102
RTVSPost2010Prop41ColorRGB
 90
        0
102
RTVSPost2010PropOp41
 70
     1
102
RTVSPost2010Prop42
 90
       50
102
RTVSPost2010PropOp42
 70
     1
102
RTVSPost2010Prop43
 90
        3
102
RTVSPost2010PropOp43
 70
     1
102
RTVSPost2010Prop44ColorIndex
 90
        5
102
RTVSPost2010Prop44ColorRGB
 90
      255
102
RTVSPost2010PropOp44
 70
     1
102
RTVSPost2010Prop45
280
     0
102
RTVSPost2010PropOp45
 70
     1
102
RTVSPost2010Prop46
 90
       50
102
RTVSPost2010PropOp46
 70
     1
102
RTVSPost2010Prop47
 90
       50
102
RTVSPost2010PropOp47
 70
     1
102
RTVSPost2010Prop48
 90
       50
102
RTVSPost2010PropOp48
 70
     1
102
RTVSPost2010Prop49
280
     0
102
RTVSPost2010PropOp49
 70
     1
102
RTVSPost2010Prop50
 90
       50
102
RTVSPost2010PropOp50
 70
     1
102
RTVSPost2010Prop51ColorIndex
 90
      256
102
RTVSPost2010Prop51ColorRGB
 90
-16777216
102
RTVSPost2010PropOp51
 70
     0
102
RTVSPost2010Prop52
140
1.0
102
RTVSPost2010PropOp52
 70
     0
102
RTVSPost2010Prop53
 90
        2
102
RTVSPost2010PropOp53
 70
     1
102
RTVSPost2010Prop54
  1
strokes_ogs.tif
102
RTVSPost2010PropOp54
 70
     1
102
RTVSPost2010Prop55
280
     0
102
RTVSPost2010PropOp55
 70
     1
102
RTVSPost2010Prop56
140
1.0
102
RTVSPost2010PropOp56
 70
     1
102
RTVSPost2010Prop57
140
1.0
102
RTVSPost2010PropOp57
 70
     1
102
RTVSPropertyOp0
 70
     1
102
RTVSPropertyOp1
 70
     1
102
RTVSPropertyOp2
 70
     1
102
RTVSPropertyOp3
 70
     1
102
RTVSPropertyOp4
 70
     1
102
RTVSPropertyOp5
 70
     1
102
RTVSPropertyOp6
 70
     1
102
RTVSPropertyOp7
 70
     1
102
RTVSPropertyOp8
 70
     1
102
RTVSPropertyOp9
 70
     1
102
RTVSPropertyOp10
 70
     1
102
RTVSPropertyOp11
 70
     1
102
RTVSPropertyOp12
 70
     1
102
RTVSPropertyOp13
 70
     1
102
RTVSPropertyOp14
 70
     1
102
RTVSPropertyOp15
 70
     1
102
RTVSPropertyOp16
 70
     1
102
RTVSPropertyOp17
 70
     1
102
RTVSPropertyOp18
 70
     1
102
RTVSPropertyOp19
 70
     1
102
RTVSPropertyOp20
 70
     1
102
RTVSPropertyOp21
 70
     1
102
RTVSPropertyOp22
 70
     1
102
RTVSPropertyOp23
 70
     1
102
RTVSPropertyOp24
 70
     1
102
RTVSPropertyOp25
 70
     1
102
RTVSPropertyOp26
 70
     1
102
RTVSPropertyOp27
 70
     1
102
RTVSPropertyOp28
 70
     1
102
RTVSPropertyOp29
 70
     1
102
RTVSPropertyOp30
 70
     1
102
RTVSPropertyOp31
 70
     1
102
RTVSPropertyOp32
 70
     1
102
RTVSPropertyOp33
 70
     1
102
RTVSPropertyOp34
 70
     1
102
RTVSPropertyOp35
 70
     1
102
RTVSPropertyOp36
 70
     1
102
RTVSPropertyOp37
 70
     1
102
RTVSPropertyOp38
 70
     1
102
RTVSPropertyOp39
 70
     1
102
RTVSPropertyOp40
 70
     1
102
RTVSPropertyOp41
 70
     1
102
RTVSPropertyOp42
 70
     1
102
RTVSPropertyOp43
 70
     1
102
RTVSPropertyOp44
 70
     1
102
RTVSPropertyOp45
 70
     1
102
RTVSPropertyOp46
 70
     1
102
RTVSPropertyOp47
 70
     1
102
RTVSPropertyOp48
 70
     1
102
RTVSPropertyOp49
 70
     1
102
RTVSPropertyOp50
 70
     1
102
RTVSPropertyOp51
 70
     0
102
RTVSPropertyOp52
 70
     0
102
RTVSPropertyOp53
 70
     1
102
RTVSPropertyOp54
 70
     1
102
RTVSPropertyOp55
 70
     1
102
RTVSPropertyOp56
 70
     1
102
RTVSPropertyOp57
 70
     1
102
RTVSPropertyOp58
 70
     1
102
RTVSPropertyOp59
 70
     1
102
RTVSPropertyOp60
 70
     1
102
RTVSPropertyOp61
 70
     1
102
RTVSPropertyOp62
 70
     1
  0
XRECORD
  5
FFFC
102
{ACAD_REACTORS
330
FFFB
102
}
330
FFFB
100
AcDbXrecord
280
     1
102
RTVSPost2010Prop28
280
     0
102
RTVSPost2010PropOp28
 70
     1
102
RTVSPost2010Prop29
280
     1
102
RTVSPost2010PropOp29
 70
     1
102
RTVSPost2010Prop30
280
     1
102
RTVSPost2010PropOp30
 70
     1
102
RTVSPost2010Prop31
280
     0
102
RTVSPost2010PropOp31
 70
     1
102
RTVSPost2010Prop32
280
     0
102
RTVSPost2010PropOp32
 70
     1
102
RTVSPost2010Prop33
280
     0
102
RTVSPost2010PropOp33
 70
     1
102
RTVSPost2010Prop34
280
     0
102
RTVSPost2010PropOp34
 70
     1
102
RTVSPost2010Prop35
280
     0
102
RTVSPost2010PropOp35
 70
     1
102
RTVSPost2010Prop36
280
     0
102
RTVSPost2010PropOp36
 70
     1
102
RTVSPost2010Prop37
 90
       50
102
RTVSPost2010PropOp37
 70
     1
102
RTVSPost2010Prop38
140
0.0
102
RTVSPost2010PropOp38
 70
     1
102
RTVSPost2010Prop39
140
1.0
102
RTVSPost2010PropOp39
 70
     1
102
RTVSPost2010Prop40
 90
        0
102
RTVSPost2010PropOp40
 70
     1
102
RTVSPost2010Prop41ColorIndex
 90
       18
102
RTVSPost2010Prop41ColorRGB
 90
        0
102
RTVSPost2010PropOp41
 70
     1
102
RTVSPost2010Prop42
 90
       50
102
RTVSPost2010PropOp42
 70
     1
102
RTVSPost2010Prop43
 90
        3
102
RTVSPost2010PropOp43
 70
     1
102
RTVSPost2010Prop44ColorIndex
 90
        5
102
RTVSPost2010Prop44ColorRGB
 90
      255
102
RTVSPost2010PropOp44
 70
     1
102
RTVSPost2010Prop45
280
     0
102
RTVSPost2010PropOp45
 70
     1
102
RTVSPost2010Prop46
 90
       50
102
RTVSPost2010PropOp46
 70
     1
102
RTVSPost2010Prop47
 90
       50
102
RTVSPost2010PropOp47
 70
     1
102
RTVSPost2010Prop48
 90
       50
102
RTVSPost2010PropOp48
 70
     1
102
RTVSPost2010Prop49
280
     0
102
RTVSPost2010PropOp49
 70
     1
102
RTVSPost2010Prop50
 90
       50
102
RTVSPost2010PropOp50
 70
     1
102
RTVSPost2010Prop51ColorIndex
 90
      256
102
RTVSPost2010Prop51ColorRGB
 90
-16777216
102
RTVSPost2010PropOp51
 70
     0
102
RTVSPost2010Prop52
140
1.0
102
RTVSPost2010PropOp52
 70
     0
102
RTVSPost2010Prop53
 90
        2
102
RTVSPost2010PropOp53
 70
     1
102
RTVSPost2010Prop54
  1
strokes_ogs.tif
102
RTVSPost2010PropOp54
 70
     1
102
RTVSPost2010Prop55
280
     0
102
RTVSPost2010PropOp55
 70
     1
102
RTVSPost2010Prop56
140
1.0
102
RTVSPost2010PropOp56
 70
     1
102
RTVSPost2010Prop57
140
1.0
102
RTVSPost2010PropOp57
 70
     1
102
RTVSPropertyOp0
 70
     1
102
RTVSPropertyOp1
 70
     1
102
RTVSPropertyOp2
 70
     1
102
RTVSPropertyOp3
 70
     1
102
RTVSPropertyOp4
 70
     1
102
RTVSPropertyOp5
 70
     1
102
RTVSPropertyOp6
 70
     1
102
RTVSPropertyOp7
 70
     1
102
RTVSPropertyOp8
 70
     1
102
RTVSPropertyOp9
 70
     1
102
RTVSPropertyOp10
 70
     1
102
RTVSPropertyOp11
 70
     1
102
RTVSPropertyOp12
 70
     1
102
RTVSPropertyOp13
 70
     1
102
RTVSPropertyOp14
 70
     1
102
RTVSPropertyOp15
 70
     1
102
RTVSPropertyOp16
 70
     1
102
RTVSPropertyOp17
 70
     1
102
RTVSPropertyOp18
 70
     1
102
RTVSPropertyOp19
 70
     1
102
RTVSPropertyOp20
 70
     1
102
RTVSPropertyOp21
 70
     1
102
RTVSPropertyOp22
 70
     1
102
RTVSPropertyOp23
 70
     1
102
RTVSPropertyOp24
 70
     1
102
RTVSPropertyOp25
 70
     1
102
RTVSPropertyOp26
 70
     1
102
RTVSPropertyOp27
 70
     1
102
RTVSPropertyOp28
 70
     1
102
RTVSPropertyOp29
 70
     1
102
RTVSPropertyOp30
 70
     1
102
RTVSPropertyOp31
 70
     1
102
RTVSPropertyOp32
 70
     1
102
RTVSPropertyOp33
 70
     1
102
RTVSPropertyOp34
 70
     1
102
RTVSPropertyOp35
 70
     1
102
RTVSPropertyOp36
 70
     1
102
RTVSPropertyOp37
 70
     1
102
RTVSPropertyOp38
 70
     1
102
RTVSPropertyOp39
 70
     1
102
RTVSPropertyOp40
 70
     1
102
RTVSPropertyOp41
 70
     1
102
RTVSPropertyOp42
 70
     1
102
RTVSPropertyOp43
 70
     1
102
RTVSPropertyOp44
 70
     1
102
RTVSPropertyOp45
 70
     1
102
RTVSPropertyOp46
 70
     1
102
RTVSPropertyOp47
 70
     1
102
RTVSPropertyOp48
 70
     1
102
RTVSPropertyOp49
 70
     1
102
RTVSPropertyOp50
 70
     1
102
RTVSPropertyOp51
 70
     0
102
RTVSPropertyOp52
 70
     0
102
RTVSPropertyOp53
 70
     1
102
RTVSPropertyOp54
 70
     1
102
RTVSPropertyOp55
 70
     1
102
RTVSPropertyOp56
 70
     1
102
RTVSPropertyOp57
 70
     1
102
RTVSPropertyOp58
 70
     1
102
RTVSPropertyOp59
 70
     1
102
RTVSPropertyOp60
 70
     1
102
RTVSPropertyOp61
 70
     1
102
RTVSPropertyOp62
 70
     1
  0
XRECORD
  5
1001C
102
{ACAD_REACTORS
330
1001B
102
}
330
1001B
100
AcDbXrecord
280
     1
102
RTVSPost2010Prop28
280
     0
102
RTVSPost2010PropOp28
 70
     1
102
RTVSPost2010Prop29
280
     1
102
RTVSPost2010PropOp29
 70
     1
102
RTVSPost2010Prop30
280
     1
102
RTVSPost2010PropOp30
 70
     1
102
RTVSPost2010Prop31
280
     0
102
RTVSPost2010PropOp31
 70
     1
102
RTVSPost2010Prop32
280
     0
102
RTVSPost2010PropOp32
 70
     1
102
RTVSPost2010Prop33
280
     0
102
RTVSPost2010PropOp33
 70
     1
102
RTVSPost2010Prop34
280
     0
102
RTVSPost2010PropOp34
 70
     1
102
RTVSPost2010Prop35
280
     0
102
RTVSPost2010PropOp35
 70
     1
102
RTVSPost2010Prop36
280
     0
102
RTVSPost2010PropOp36
 70
     1
102
RTVSPost2010Prop37
 90
       50
102
RTVSPost2010PropOp37
 70
     1
102
RTVSPost2010Prop38
140
0.0
102
RTVSPost2010PropOp38
 70
     1
102
RTVSPost2010Prop39
140
1.0
102
RTVSPost2010PropOp39
 70
     1
102
RTVSPost2010Prop40
 90
        0
102
RTVSPost2010PropOp40
 70
     1
102
RTVSPost2010Prop41ColorIndex
 90
       18
102
RTVSPost2010Prop41ColorRGB
 90
        0
102
RTVSPost2010PropOp41
 70
     1
102
RTVSPost2010Prop42
 90
       50
102
RTVSPost2010PropOp42
 70
     1
102
RTVSPost2010Prop43
 90
        3
102
RTVSPost2010PropOp43
 70
     1
102
RTVSPost2010Prop44ColorIndex
 90
        5
102
RTVSPost2010Prop44ColorRGB
 90
      255
102
RTVSPost2010PropOp44
 70
     1
102
RTVSPost2010Prop45
280
     0
102
RTVSPost2010PropOp45
 70
     1
102
RTVSPost2010Prop46
 90
       50
102
RTVSPost2010PropOp46
 70
     1
102
RTVSPost2010Prop47
 90
       50
102
RTVSPost2010PropOp47
 70
     1
102
RTVSPost2010Prop48
 90
       50
102
RTVSPost2010PropOp48
 70
     1
102
RTVSPost2010Prop49
280
     0
102
RTVSPost2010PropOp49
 70
     1
102
RTVSPost2010Prop50
 90
       50
102
RTVSPost2010PropOp50
 70
     1
102
RTVSPost2010Prop51ColorIndex
 90
      256
102
RTVSPost2010Prop51ColorRGB
 90
-16777216
102
RTVSPost2010PropOp51
 70
     0
102
RTVSPost2010Prop52
140
1.0
102
RTVSPost2010PropOp52
 70
     0
102
RTVSPost2010Prop53
 90
        2
102
RTVSPost2010PropOp53
 70
     1
102
RTVSPost2010Prop54
  1
strokes_ogs.tif
102
RTVSPost2010PropOp54
 70
     1
102
RTVSPost2010Prop55
280
     0
102
RTVSPost2010PropOp55
 70
     1
102
RTVSPost2010Prop56
140
1.0
102
RTVSPost2010PropOp56
 70
     1
102
RTVSPost2010Prop57
140
1.0
102
RTVSPost2010PropOp57
 70
     1
102
RTVSPropertyOp0
 70
     1
102
RTVSPropertyOp1
 70
     1
102
RTVSPropertyOp2
 70
     1
102
RTVSPropertyOp3
 70
     1
102
RTVSPropertyOp4
 70
     1
102
RTVSPropertyOp5
 70
     1
102
RTVSPropertyOp6
 70
     1
102
RTVSPropertyOp7
 70
     1
102
RTVSPropertyOp8
 70
     1
102
RTVSPropertyOp9
 70
     1
102
RTVSPropertyOp10
 70
     1
102
RTVSPropertyOp11
 70
     1
102
RTVSPropertyOp12
 70
     1
102
RTVSPropertyOp13
 70
     1
102
RTVSPropertyOp14
 70
     1
102
RTVSPropertyOp15
 70
     1
102
RTVSPropertyOp16
 70
     1
102
RTVSPropertyOp17
 70
     1
102
RTVSPropertyOp18
 70
     1
102
RTVSPropertyOp19
 70
     1
102
RTVSPropertyOp20
 70
     1
102
RTVSPropertyOp21
 70
     1
102
RTVSPropertyOp22
 70
     1
102
RTVSPropertyOp23
 70
     1
102
RTVSPropertyOp24
 70
     1
102
RTVSPropertyOp25
 70
     1
102
RTVSPropertyOp26
 70
     1
102
RTVSPropertyOp27
 70
     1
102
RTVSPropertyOp28
 70
     1
102
RTVSPropertyOp29
 70
     1
102
RTVSPropertyOp30
 70
     1
102
RTVSPropertyOp31
 70
     1
102
RTVSPropertyOp32
 70
     1
102
RTVSPropertyOp33
 70
     1
102
RTVSPropertyOp34
 70
     1
102
RTVSPropertyOp35
 70
     1
102
RTVSPropertyOp36
 70
     1
102
RTVSPropertyOp37
 70
     1
102
RTVSPropertyOp38
 70
     1
102
RTVSPropertyOp39
 70
     1
102
RTVSPropertyOp40
 70
     1
102
RTVSPropertyOp41
 70
     1
102
RTVSPropertyOp42
 70
     1
102
RTVSPropertyOp43
 70
     1
102
RTVSPropertyOp44
 70
     1
102
RTVSPropertyOp45
 70
     1
102
RTVSPropertyOp46
 70
     1
102
RTVSPropertyOp47
 70
     1
102
RTVSPropertyOp48
 70
     1
102
RTVSPropertyOp49
 70
     1
102
RTVSPropertyOp50
 70
     1
102
RTVSPropertyOp51
 70
     0
102
RTVSPropertyOp52
 70
     0
102
RTVSPropertyOp53
 70
     1
102
RTVSPropertyOp54
 70
     1
102
RTVSPropertyOp55
 70
     1
102
RTVSPropertyOp56
 70
     1
102
RTVSPropertyOp57
 70
     1
102
RTVSPropertyOp58
 70
     1
102
RTVSPropertyOp59
 70
     1
102
RTVSPropertyOp60
 70
     1
102
RTVSPropertyOp61
 70
     1
102
RTVSPropertyOp62
 70
     1
  0
ENDSEC
  0
EOF
