  0
SECTION
  2
HEADER
  9
$ACADVER
  1
AC1015
  9
$ACADMAINTVER
 70
    18
  9
$DWGCODEPAGE
  3
ANSI_1252
  9
$INSBASE
 10
0.0
 20
0.0
 30
0.0
  9
$EXTMIN
 10
-144.8171988977319
 20
-155.0440058366442
 30
-0.0015258207003583
  9
$EXTMAX
 10
177.6361090941775
 20
179.8151555843827
 30
0.0000000349246037
  9
$LIMMIN
 10
0.0
 20
0.0
  9
$LIMMAX
 10
420.0
 20
297.0
  9
$ORTHOMODE
 70
     0
  9
$REGENMODE
 70
     1
  9
$FILLMODE
 70
     1
  9
$QTEXTMODE
 70
     0
  9
$MIRRTEXT
 70
     0
  9
$LTSCALE
 40
1.0
  9
$ATTMODE
 70
     1
  9
$TEXTSIZE
 40
2.5
  9
$TRACEWID
 40
1.0
  9
$TEXTSTYLE
  7
Standard
  9
$CLAYER
  8
0
  9
$CELTYPE
  6
ByLayer
  9
$CECOLOR
 62
   256
  9
$CELTSCALE
 40
1.0
  9
$DISPSILH
 70
     0
  9
$DIMSCALE
 40
1.0
  9
$DIMASZ
 40
2.5
  9
$DIMEXO
 40
0.625
  9
$DIMDLI
 40
3.75
  9
$DIMRND
 40
0.0
  9
$DIMDLE
 40
0.0
  9
$DIMEXE
 40
1.25
  9
$DIMTP
 40
0.0
  9
$DIMTM
 40
0.0
  9
$DIMTXT
 40
2.5
  9
$DIMCEN
 40
2.5
  9
$DIMTSZ
 40
0.0
  9
$DIMTOL
 70
     0
  9
$DIMLIM
 70
     0
  9
$DIMTIH
 70
     0
  9
$DIMTOH
 70
     0
  9
$DIMSE1
 70
     0
  9
$DIMSE2
 70
     0
  9
$DIMTAD
 70
     1
  9
$DIMZIN
 70
     8
  9
$DIMBLK
  1

  9
$DIMASO
 70
     1
  9
$DIMSHO
 70
     1
  9
$DIMPOST
  1

  9
$DIMAPOST
  1

  9
$DIMALT
 70
     0
  9
$DIMALTD
 70
     3
  9
$DIMALTF
 40
0.03937007874016
  9
$DIMLFAC
 40
1.0
  9
$DIMTOFL
 70
     1
  9
$DIMTVP
 40
0.0
  9
$DIMTIX
 70
     0
  9
$DIMSOXD
 70
     0
  9
$DIMSAH
 70
     0
  9
$DIMBLK1
  1

  9
$DIMBLK2
  1

  9
$DIMSTYLE
  2
ISO-25
  9
$DIMCLRD
 70
     0
  9
$DIMCLRE
 70
     0
  9
$DIMCLRT
 70
     0
  9
$DIMTFAC
 40
1.0
  9
$DIMGAP
 40
0.625
  9
$DIMJUST
 70
     0
  9
$DIMSD1
 70
     0
  9
$DIMSD2
 70
     0
  9
$DIMTOLJ
 70
     0
  9
$DIMTZIN
 70
     8
  9
$DIMALTZ
 70
     0
  9
$DIMALTTZ
 70
     0
  9
$DIMUPT
 70
     0
  9
$DIMDEC
 70
     2
  9
$DIMTDEC
 70
     2
  9
$DIMALTU
 70
     2
  9
$DIMALTTD
 70
     3
  9
$DIMTXSTY
  7
Standard
  9
$DIMAUNIT
 70
     0
  9
$DIMADEC
 70
     0
  9
$DIMALTRND
 40
0.0
  9
$DIMAZIN
 70
     0
  9
$DIMDSEP
 70
    44
  9
$DIMATFIT
 70
     3
  9
$DIMFRAC
 70
     0
  9
$DIMLDRBLK
  1

  9
$DIMLUNIT
 70
     2
  9
$DIMLWD
 70
    -2
  9
$DIMLWE
 70
    -2
  9
$DIMTMOVE
 70
     0
  9
$LUNITS
 70
     2
  9
$LUPREC
 70
     4
  9
$SKETCHINC
 40
1.0
  9
$FILLETRAD
 40
0.0
  9
$AUNITS
 70
     0
  9
$AUPREC
 70
     0
  9
$MENU
  1
.
  9
$ELEVATION
 40
0.0
  9
$PELEVATION
 40
0.0
  9
$THICKNESS
 40
0.0
  9
$LIMCHECK
 70
     0
  9
$CHAMFERA
 40
0.0
  9
$CHAMFERB
 40
0.0
  9
$CHAMFERC
 40
0.0
  9
$CHAMFERD
 40
0.0
  9
$SKPOLY
 70
     0
  9
$TDCREATE
 40
2460286.622500000
  9
$TDUCREATE
 40
2460286.330833334
  9
$TDUPDATE
 40
2460286.640196760
  9
$TDUUPDATE
 40
2460286.348530093
  9
$TDINDWG
 40
0.0050115741
  9
$TDUSRTIMER
 40
0.0050115741
  9
$USRTIMER
 70
     1
  9
$ANGBASE
 50
0.0
  9
$ANGDIR
 70
     0
  9
$PDMODE
 70
     0
  9
$PDSIZE
 40
0.0
  9
$PLINEWID
 40
0.0
  9
$SPLFRAME
 70
     0
  9
$SPLINETYPE
 70
     6
  9
$SPLINESEGS
 70
     8
  9
$HANDSEED
  5
10DA6
  9
$SURFTAB1
 70
     6
  9
$SURFTAB2
 70
     6
  9
$SURFTYPE
 70
     6
  9
$SURFU
 70
     6
  9
$SURFV
 70
     6
  9
$UCSBASE
  2

  9
$UCSNAME
  2

  9
$UCSORG
 10
0.0
 20
0.0
 30
0.0
  9
$UCSXDIR
 10
1.0
 20
0.0
 30
0.0
  9
$UCSYDIR
 10
0.0
 20
1.0
 30
0.0
  9
$UCSORTHOREF
  2

  9
$UCSORTHOVIEW
 70
     0
  9
$UCSORGTOP
 10
0.0
 20
0.0
 30
0.0
  9
$UCSORGBOTTOM
 10
0.0
 20
0.0
 30
0.0
  9
$UCSORGLEFT
 10
0.0
 20
0.0
 30
0.0
  9
$UCSORGRIGHT
 10
0.0
 20
0.0
 30
0.0
  9
$UCSORGFRONT
 10
0.0
 20
0.0
 30
0.0
  9
$UCSORGBACK
 10
0.0
 20
0.0
 30
0.0
  9
$PUCSBASE
  2

  9
$PUCSNAME
  2

  9
$PUCSORG
 10
0.0
 20
0.0
 30
0.0
  9
$PUCSXDIR
 10
1.0
 20
0.0
 30
0.0
  9
$PUCSYDIR
 10
0.0
 20
1.0
 30
0.0
  9
$PUCSORTHOREF
  2

  9
$PUCSORTHOVIEW
 70
     0
  9
$PUCSORGTOP
 10
0.0
 20
0.0
 30
0.0
  9
$PUCSORGBOTTOM
 10
0.0
 20
0.0
 30
0.0
  9
$PUCSORGLEFT
 10
0.0
 20
0.0
 30
0.0
  9
$PUCSORGRIGHT
 10
0.0
 20
0.0
 30
0.0
  9
$PUCSORGFRONT
 10
0.0
 20
0.0
 30
0.0
  9
$PUCSORGBACK
 10
0.0
 20
0.0
 30
0.0
  9
$USERI1
 70
     0
  9
$USERI2
 70
     0
  9
$USERI3
 70
     0
  9
$USERI4
 70
     0
  9
$USERI5
 70
     0
  9
$USERR1
 40
0.0
  9
$USERR2
 40
0.0
  9
$USERR3
 40
0.0
  9
$USERR4
 40
0.0
  9
$USERR5
 40
0.0
  9
$WORLDVIEW
 70
     1
  9
$SHADEDGE
 70
     3
  9
$SHADEDIF
 70
    70
  9
$TILEMODE
 70
     1
  9
$MAXACTVP
 70
    48
  9
$PINSBASE
 10
0.0
 20
0.0
 30
0.0
  9
$PLIMCHECK
 70
     0
  9
$PEXTMIN
 10
0.0
 20
0.0
 30
0.0
  9
$PEXTMAX
 10
0.0
 20
0.0
 30
0.0
  9
$PLIMMIN
 10
0.0
 20
0.0
  9
$PLIMMAX
 10
12.0
 20
9.0
  9
$UNITMODE
 70
     0
  9
$VISRETAIN
 70
     1
  9
$PLINEGEN
 70
     0
  9
$PSLTSCALE
 70
     1
  9
$TREEDEPTH
 70
  3020
  9
$CMLSTYLE
  2
Standard
  9
$CMLJUST
 70
     0
  9
$CMLSCALE
 40
20.0
  9
$PROXYGRAPHICS
 70
     1
  9
$MEASUREMENT
 70
     1
  9
$CELWEIGHT
370
    -1
  9
$ENDCAPS
280
     0
  9
$JOINSTYLE
280
     0
  9
$LWDISPLAY
290
     0
  9
$INSUNITS
 70
     4
  9
$HYPERLINKBASE
  1

  9
$STYLESHEET
  1

  9
$XEDIT
290
     1
  9
$CEPSNTYPE
380
     0
  9
$PSTYLEMODE
290
     1
  9
$FINGERPRINTGUID
  2
{F076C30E-3F10-754B-AD36-B589FE558AAC}
  9
$VERSIONGUID
  2
{0A5CB0EF-69AB-7B4E-829A-1726FAECA106}
  9
$EXTNAMES
290
     1
  9
$PSVPSCALE
 40
0.0
  9
$OLESTARTUP
290
     0
  0
ENDSEC
  0
SECTION
  2
CLASSES
  0
CLASS
  1
ACDBDICTIONARYWDFLT
  2
AcDbDictionaryWithDefault
  3
ObjectDBX Classes
 90
        0
280
     0
281
     0
  0
CLASS
  1
ACDBPLACEHOLDER
  2
AcDbPlaceHolder
  3
ObjectDBX Classes
 90
        0
280
     0
281
     0
  0
CLASS
  1
LAYOUT
  2
AcDbLayout
  3
ObjectDBX Classes
 90
        0
280
     0
281
     0
  0
CLASS
  1
DICTIONARYVAR
  2
AcDbDictionaryVar
  3
ObjectDBX Classes
 90
        0
280
     0
281
     0
  0
CLASS
  1
TABLESTYLE
  2
AcDbTableStyle
  3
ObjectDBX Classes
 90
     4095
280
     0
281
     0
  0
CLASS
  1
MATERIAL
  2
AcDbMaterial
  3
ObjectDBX Classes
 90
     1153
280
     0
281
     0
  0
CLASS
  1
VISUALSTYLE
  2
AcDbVisualStyle
  3
ObjectDBX Classes
 90
     4095
280
     0
281
     0
  0
CLASS
  1
SCALE
  2
AcDbScale
  3
ObjectDBX Classes
 90
     1153
280
     0
281
     0
  0
CLASS
  1
MLEADERSTYLE
  2
AcDbMLeaderStyle
  3
ACDB_MLEADERSTYLE_CLASS
 90
     4095
280
     0
281
     0
  0
CLASS
  1
CELLSTYLEMAP
  2
AcDbCellStyleMap
  3
ObjectDBX Classes
 90
     1152
280
     0
281
     0
  0
CLASS
  1
EXACXREFPANELOBJECT
  2
ExAcXREFPanelObject
  3
EXAC_ESW
 90
    33793
280
     0
281
     0
  0
CLASS
  1
NPOCOLLECTION
  2
AcDbImpNonPersistentObjectsCollection
  3
ObjectDBX Classes
 90
    33921
280
     0
281
     0
  0
CLASS
  1
LAYER_INDEX
  2
AcDbLayerIndex
  3
ObjectDBX Classes
 90
    32768
280
     0
281
     0
  0
CLASS
  1
SPATIAL_INDEX
  2
AcDbSpatialIndex
  3
ObjectDBX Classes
 90
    32768
280
     0
281
     0
  0
CLASS
  1
IDBUFFER
  2
AcDbIdBuffer
  3
ObjectDBX Classes
 90
    32768
280
     0
281
     0
  0
CLASS
  1
ACDBSECTIONVIEWSTYLE
  2
AcDbSectionViewStyle
  3
ObjectDBX Classes
 90
     1025
280
     0
281
     0
  0
CLASS
  1
ACDBDETAILVIEWSTYLE
  2
AcDbDetailViewStyle
  3
ObjectDBX Classes
 90
     1025
280
     0
281
     0
  0
CLASS
  1
XRECORD
  2
AcDbXrecord
  3
ObjectDBX Classes
 90
        0
280
     0
281
     0
  0
ENDSEC
  0
SECTION
  2
TABLES
  0
TABLE
  2
VPORT
  5
8
102
{ACAD_XDICTIONARY
360
10CB4
102
}
330
0
100
AcDbSymbolTable
 70
     1
  0
VPORT
  5
EA
330
8
100
AcDbSymbolTableRecord
100
AcDbViewportTableRecord
  2
*Active
 70
     0
 10
0.0
 20
0.0
 11
1.0
 21
1.0
 12
16.4094550982228
 22
12.38557487386927
 13
0.0
 23
0.0
 14
10.0
 24
10.0
 15
10.0
 25
10.0
 16
0.0
 26
0.0
 36
1.0
 17
0.0
 27
0.0
 37
0.0
 40
356.0923721236716
 41
0.9846153846153844
 42
50.0
 43
0.0
 44
0.0
 50
0.0
 51
0.0
 71
     0
 72
  1000
 73
     1
 74
     3
 75
     0
 76
     1
 77
     0
 78
     0
281
     0
 65
     1
110
0.0
120
0.0
130
0.0
111
1.0
121
0.0
131
0.0
112
0.0
122
1.0
132
0.0
 79
     0
146
0.0
1001
ACAD_NAV_VCDISPLAY
1070
     3
  0
ENDTAB
  0
TABLE
  2
LTYPE
  5
5
330
0
100
AcDbSymbolTable
 70
     1
  0
LTYPE
  5
14
330
5
100
AcDbSymbolTableRecord
100
AcDbLinetypeTableRecord
  2
ByBlock
 70
     0
  3

 72
    65
 73
     0
 40
0.0
  0
LTYPE
  5
15
330
5
100
AcDbSymbolTableRecord
100
AcDbLinetypeTableRecord
  2
ByLayer
 70
     0
  3

 72
    65
 73
     0
 40
0.0
  0
LTYPE
  5
16
330
5
100
AcDbSymbolTableRecord
100
AcDbLinetypeTableRecord
  2
Continuous
 70
     0
  3
Solid line
 72
    65
 73
     0
 40
0.0
  0
ENDTAB
  0
TABLE
  2
LAYER
  5
2
102
{ACAD_XDICTIONARY
360
1FF
102
}
330
0
100
AcDbSymbolTable
 70
     1
  0
LAYER
  5
10
102
{ACAD_XDICTIONARY
360
13C
102
}
330
2
100
AcDbSymbolTableRecord
100
AcDbLayerTableRecord
  2
0
 70
     0
 62
     7
  6
Continuous
370
    -3
390
F
  0
ENDTAB
  0
TABLE
  2
STYLE
  5
3
330
0
100
AcDbSymbolTable
 70
     1
  0
STYLE
  5
11
330
3
100
AcDbSymbolTableRecord
100
AcDbTextStyleTableRecord
  2
Standard
 70
     0
 40
0.0
 41
1.0
 50
0.0
 71
     0
 42
2.5
  3
arial.ttf
  4

1001
ACAD
1000
Arial
1071
       34
  0
ENDTAB
  0
TABLE
  2
VIEW
  5
6
330
0
100
AcDbSymbolTable
 70
     0
  0
ENDTAB
  0
TABLE
  2
UCS
  5
7
330
0
100
AcDbSymbolTable
 70
     0
  0
ENDTAB
  0
TABLE
  2
APPID
  5
9
330
0
100
AcDbSymbolTable
 70
     8
  0
APPID
  5
12
330
9
100
AcDbSymbolTableRecord
100
AcDbRegAppTableRecord
  2
ACAD
 70
     0
  0
APPID
  5
9E
330
9
100
AcDbSymbolTableRecord
100
AcDbRegAppTableRecord
  2
ACAD_PSEXT
 70
     0
  0
APPID
  5
133
330
9
100
AcDbSymbolTableRecord
100
AcDbRegAppTableRecord
  2
AcadAnnoPO
 70
     0
  0
APPID
  5
134
330
9
100
AcDbSymbolTableRecord
100
AcDbRegAppTableRecord
  2
AcadAnnotative
 70
     0
  0
APPID
  5
135
330
9
100
AcDbSymbolTableRecord
100
AcDbRegAppTableRecord
  2
ACAD_DSTYLE_DIMJAG
 70
     0
  0
APPID
  5
136
330
9
100
AcDbSymbolTableRecord
100
AcDbRegAppTableRecord
  2
ACAD_DSTYLE_DIMTALN
 70
     0
  0
APPID
  5
165
330
9
100
AcDbSymbolTableRecord
100
AcDbRegAppTableRecord
  2
ACAD_MLEADERVER
 70
     0
  0
APPID
  5
217
330
9
100
AcDbSymbolTableRecord
100
AcDbRegAppTableRecord
  2
ACAD_NAV_VCDISPLAY
 70
     0
  0
ENDTAB
  0
TABLE
  2
DIMSTYLE
  5
A
330
0
100
AcDbSymbolTable
 70
     1
100
AcDbDimStyleTable
 71
     0
  0
DIMSTYLE
105
27
330
A
100
AcDbSymbolTableRecord
100
AcDbDimStyleTableRecord
  2
ISO-25
 70
     0
 41
2.5
 42
0.625
 43
3.75
 44
1.25
 73
     0
 74
     0
 77
     1
 78
     8
140
2.5
141
2.5
143
0.03937007874016
147
0.625
171
     3
172
     1
271
     2
272
     2
274
     3
278
    44
283
     0
284
     8
340
11
  0
ENDTAB
  0
TABLE
  2
BLOCK_RECORD
  5
1
330
0
100
AcDbSymbolTable
 70
     7
  0
BLOCK_RECORD
  5
1F
102
{ACAD_XDICTIONARY
360
1CE
102
}
330
1
100
AcDbSymbolTableRecord
100
AcDbBlockTableRecord
  2
*Model_Space
340
22
  0
BLOCK_RECORD
  5
D2
102
{ACAD_XDICTIONARY
360
10C67
102
}
330
1
100
AcDbSymbolTableRecord
100
AcDbBlockTableRecord
  2
*Paper_Space
340
D3
  0
BLOCK_RECORD
  5
D6
102
{ACAD_XDICTIONARY
360
10C69
102
}
330
1
100
AcDbSymbolTableRecord
100
AcDbBlockTableRecord
  2
*Paper_Space0
340
D7
  0
BLOCK_RECORD
  5
10A0B
330
1
100
AcDbSymbolTableRecord
100
AcDbBlockTableRecord
  2
SBE51_90-F-Front
340
0
102
{BLKREFS
331
10C5D
102
}
  0
BLOCK_RECORD
  5
10A73
330
1
100
AcDbSymbolTableRecord
100
AcDbBlockTableRecord
  2
SBE51_90-F-Left
340
0
102
{BLKREFS
331
10C5E
102
}
  0
BLOCK_RECORD
  5
10AA6
330
1
100
AcDbSymbolTableRecord
100
AcDbBlockTableRecord
  2
SBE51_90-F-Right
340
0
102
{BLKREFS
331
10C5F
102
}
  0
BLOCK_RECORD
  5
10AD9
330
1
100
AcDbSymbolTableRecord
100
AcDbBlockTableRecord
  2
SBE51_90-F-Top
340
0
102
{BLKREFS
331
10C60
102
}
  0
BLOCK_RECORD
  5
10B2D
330
1
100
AcDbSymbolTableRecord
100
AcDbBlockTableRecord
  2
SBE51_90-F-Bottom
340
0
102
{BLKREFS
331
10C61
102
}
  0
BLOCK_RECORD
  5
10B62
330
1
100
AcDbSymbolTableRecord
100
AcDbBlockTableRecord
  2
SBE51_90-F-ISO
340
0
102
{BLKREFS
331
10C62
102
}
  0
ENDTAB
  0
ENDSEC
  0
SECTION
  2
BLOCKS
  0
BLOCK
  5
20
330
1F
100
AcDbEntity
  8
0
100
AcDbBlockBegin
  2
*Model_Space
 70
     0
 10
0.0
 20
0.0
 30
0.0
  3
*Model_Space
  1

  0
ENDBLK
  5
21
330
1F
100
AcDbEntity
  8
0
100
AcDbBlockEnd
  0
BLOCK
  5
D4
330
D2
100
AcDbEntity
 67
     1
  8
0
100
AcDbBlockBegin
  2
*Paper_Space
 70
     0
 10
0.0
 20
0.0
 30
0.0
  3
*Paper_Space
  1

  0
ENDBLK
  5
D5
330
D2
100
AcDbEntity
 67
     1
  8
0
100
AcDbBlockEnd
  0
BLOCK
  5
D8
330
D6
100
AcDbEntity
 67
     1
  8
0
100
AcDbBlockBegin
  2
*Paper_Space0
 70
     0
 10
0.0
 20
0.0
 30
0.0
  3
*Paper_Space0
  1

  0
ENDBLK
  5
D9
330
D6
100
AcDbEntity
 67
     1
  8
0
100
AcDbBlockEnd
  0
BLOCK
  5
10A0C
330
10A0B
100
AcDbEntity
  8
0
100
AcDbBlockBegin
  2
SBE51_90-F-Front
 70
     0
 10
0.0
 20
0.0
 30
0.0
  3
SBE51_90-F-Front
  1

  0
LINE
  5
10A0E
330
10A0B
100
AcDbEntity
  8
0
100
AcDbLine
 10
-27.00000000000003
 20
89.50000000000001
 30
0.0
 11
-28.50000000000004
 21
89.50000000000001
 31
0.0
  0
LINE
  5
10A0F
330
10A0B
100
AcDbEntity
  8
0
100
AcDbLine
 10
27.00000000000014
 20
89.50000000000002
 30
0.0
 11
28.50000000000014
 21
89.50000000000002
 31
0.0
  0
LINE
  5
10A10
330
10A0B
100
AcDbEntity
  8
0
100
AcDbLine
 10
-27.00000000000001
 20
19.50610095525755
 30
0.0
 11
-27.0
 21
1.500000000000003
 31
0.0
  0
LINE
  5
10A11
330
10A0B
100
AcDbEntity
  8
0
100
AcDbLine
 10
-25.50000000000001
 20
19.50610095525754
 30
0.0
 11
-25.50000000000001
 21
1.500000000000003
 31
0.0
  0
LINE
  5
10A12
330
10A0B
100
AcDbEntity
  8
0
100
AcDbLine
 10
25.5
 20
1.500000000000021
 30
0.0
 11
25.50000000000003
 21
19.50610095525755
 31
0.0
  0
LINE
  5
10A13
330
10A0B
100
AcDbEntity
  8
0
100
AcDbLine
 10
26.99999999999999
 20
1.500000000000012
 30
0.0
 11
27.00000000000003
 21
19.50610095525755
 31
0.0
  0
LINE
  5
10A14
330
10A0B
100
AcDbEntity
  8
0
100
AcDbLine
 10
-24.0
 20
-1.49999999999999
 30
0.0
 11
24.0
 21
-1.499999999999981
 31
0.0
  0
LINE
  5
10A15
330
10A0B
100
AcDbEntity
  8
0
100
AcDbLine
 10
-23.99999999999999
 20
0.0
 30
0.0
 11
24.00000000000002
 21
0.0
 31
0.0
  0
LINE
  5
10A16
330
10A0B
100
AcDbEntity
  8
0
100
AcDbLine
 10
-27.00000000000001
 20
19.50610095525755
 30
0.0
 11
-27.00000000000001
 21
27.74206230927726
 31
0.0
  0
LINE
  5
10A17
330
10A0B
100
AcDbEntity
  8
0
100
AcDbLine
 10
-27.00000000000001
 20
37.69051317993777
 30
0.0
 11
-27.00000000000003
 21
83.50000000000001
 31
0.0
  0
LINE
  5
10A18
330
10A0B
100
AcDbEntity
  8
0
100
AcDbLine
 10
-25.50000000000003
 20
83.50000000000001
 30
0.0
 11
-25.50000000000002
 21
37.69051317993777
 31
0.0
  0
LINE
  5
10A19
330
10A0B
100
AcDbEntity
  8
0
100
AcDbLine
 10
-25.50000000000002
 20
27.74206230927726
 30
0.0
 11
-25.50000000000001
 21
19.50610095525754
 31
0.0
  0
LINE
  5
10A1A
330
10A0B
100
AcDbEntity
  8
0
100
AcDbLine
 10
25.50000000000003
 20
19.50610095525755
 30
0.0
 11
25.50000000000005
 21
27.74206230927726
 31
0.0
  0
LINE
  5
10A1B
330
10A0B
100
AcDbEntity
  8
0
100
AcDbLine
 10
25.50000000000006
 20
37.69051317993777
 30
0.0
 11
25.50000000000014
 21
83.50000000000003
 31
0.0
  0
LINE
  5
10A1C
330
10A0B
100
AcDbEntity
  8
0
100
AcDbLine
 10
27.00000000000013
 20
83.50000000000001
 30
0.0
 11
27.00000000000006
 21
37.69051317993777
 31
0.0
  0
LINE
  5
10A1D
330
10A0B
100
AcDbEntity
  8
0
100
AcDbLine
 10
27.00000000000005
 20
27.74206230927726
 30
0.0
 11
27.00000000000003
 21
19.50610095525755
 31
0.0
  0
LINE
  5
10A1E
330
10A0B
100
AcDbEntity
  8
0
100
AcDbLine
 10
27.00000000000003
 20
19.50610095525755
 30
0.0
 11
25.50000000000003
 21
19.50610095525755
 31
0.0
  0
LINE
  5
10A1F
330
10A0B
100
AcDbEntity
  8
0
100
AcDbLine
 10
-25.50000000000001
 20
19.50610095525754
 30
0.0
 11
-27.00000000000001
 21
19.50610095525755
 31
0.0
  0
LINE
  5
10A20
330
10A0B
100
AcDbEntity
  8
0
100
AcDbLine
 10
-27.0
 20
37.69051317993777
 30
0.0
 11
-26.99999999999999
 21
27.74206230927726
 31
0.0
  0
LINE
  5
10A21
330
10A0B
100
AcDbEntity
  8
0
100
AcDbLine
 10
-25.5
 20
27.74206230927726
 30
0.0
 11
-25.5
 21
37.69051317993777
 31
0.0
  0
LINE
  5
10A22
330
10A0B
100
AcDbEntity
  8
0
100
AcDbLine
 10
25.49999999999997
 20
37.69051317993777
 30
0.0
 11
25.49999999999994
 21
27.74206230927726
 31
0.0
  0
LINE
  5
10A23
330
10A0B
100
AcDbEntity
  8
0
100
AcDbLine
 10
26.99999999999995
 20
27.74206230927726
 30
0.0
 11
26.99999999999996
 21
37.69051317993777
 31
0.0
  0
ARC
  5
10A24
330
10A0B
100
AcDbEntity
  8
0
100
AcDbCircle
 10
-42.50000000000003
 20
37.69051317993771
 30
0.0
 40
12.0
100
AcDbArc
 50
180.0
 51
236.0
  0
ARC
  5
10A25
330
10A0B
100
AcDbEntity
  8
0
100
AcDbCircle
 10
42.50000000000007
 20
37.69051317993774
 30
0.0
 40
12.0
100
AcDbArc
 50
304.0
 51
0.0
  0
LINE
  5
10A26
330
10A0B
100
AcDbEntity
  8
0
100
AcDbLine
 10
-27.00000000000003
 20
89.50000000000001
 30
0.0
 11
-27.00000000000003
 21
83.50000000000001
 31
0.0
  0
LINE
  5
10A27
330
10A0B
100
AcDbEntity
  8
0
100
AcDbLine
 10
-25.50000000000003
 20
83.50000000000001
 30
0.0
 11
-25.50000000000002
 21
89.50000000000001
 31
0.0
  0
LINE
  5
10A28
330
10A0B
100
AcDbEntity
  8
0
100
AcDbLine
 10
25.50000000000014
 20
89.50000000000002
 30
0.0
 11
25.50000000000014
 21
83.50000000000003
 31
0.0
  0
LINE
  5
10A29
330
10A0B
100
AcDbEntity
  8
0
100
AcDbLine
 10
27.00000000000013
 20
83.50000000000001
 30
0.0
 11
27.00000000000014
 21
89.50000000000002
 31
0.0
  0
LINE
  5
10A2A
330
10A0B
100
AcDbEntity
  8
0
100
AcDbLine
 10
-54.50000000000004
 20
83.49999999999999
 30
0.0
 11
-48.50000000000004
 21
89.50000000000011
 31
0.0
  0
LINE
  5
10A2B
330
10A0B
100
AcDbEntity
  8
0
100
AcDbLine
 10
-25.50000000000002
 20
89.50000000000001
 30
0.0
 11
-27.00000000000003
 21
89.50000000000001
 31
0.0
  0
LINE
  5
10A2C
330
10A0B
100
AcDbEntity
  8
0
100
AcDbLine
 10
-27.00000000000003
 20
83.50000000000001
 30
0.0
 11
-25.50000000000003
 21
83.50000000000001
 31
0.0
  0
LINE
  5
10A2D
330
10A0B
100
AcDbEntity
  8
0
100
AcDbLine
 10
27.00000000000014
 20
89.50000000000002
 30
0.0
 11
25.50000000000014
 21
89.50000000000002
 31
0.0
  0
LINE
  5
10A2E
330
10A0B
100
AcDbEntity
  8
0
100
AcDbLine
 10
25.50000000000014
 20
83.50000000000003
 30
0.0
 11
27.00000000000013
 21
83.50000000000001
 31
0.0
  0
LINE
  5
10A2F
330
10A0B
100
AcDbEntity
  8
0
100
AcDbLine
 10
48.50000000000015
 20
89.50000000000015
 30
0.0
 11
54.50000000000014
 21
83.49999999999997
 31
0.0
  0
SPLINE
  5
10A30
330
10A0B
100
AcDbEntity
  8
0
100
AcDbSpline
210
0.0
220
0.0
230
1.0
 70
     8
 71
     3
 72
    11
 73
     7
 74
     0
 42
0.000000001
 43
0.0000000001
 40
-1.0
 40
-1.0
 40
-1.0
 40
-1.0
 40
-0.8649350770683613
 40
-0.8649350770683613
 40
-0.8649350770683613
 40
0.0
 40
0.0
 40
0.0
 40
0.0
 10
27.00000000000007
 20
54.00000000000003
 30
0.0
 10
27.00000000000007
 20
54.08691438702512
 30
0.0
 10
27.00838271405306
 20
54.16373009290075
 30
0.0
 10
27.02783688767255
 20
54.22929168059514
 30
0.0
 10
27.15241843552109
 20
54.64913804539762
 30
0.0
 10
27.91714410067414
 20
54.55658642087262
 30
0.0
 10
28.50000000000009
 20
54.00000000000002
 30
0.0
  0
ARC
  5
10A31
330
10A0B
100
AcDbEntity
  8
0
100
AcDbCircle
 10
27.00000000000008
 20
52.00000000000002
 30
0.0
 40
2.5
100
AcDbArc
 50
306.8698976458442
 51
53.13010235415575
  0
LINE
  5
10A32
330
10A0B
100
AcDbEntity
  8
0
100
AcDbLine
 10
39.99492000000008
 20
43.50000000000001
 30
0.0
 11
39.99000000000008
 21
43.5
 31
0.0
  0
LINE
  5
10A33
330
10A0B
100
AcDbEntity
  8
0
100
AcDbLine
 10
39.99000000000008
 20
43.5
 30
0.0
 11
39.99000000000009
 21
46.88043947198591
 31
0.0
  0
ARC
  5
10A34
330
10A0B
100
AcDbEntity
  8
0
100
AcDbCircle
 10
42.00000000000009
 20
52.00000000000001
 30
0.0
 40
5.5
100
AcDbArc
 50
291.4355588797962
 51
248.5644411202037
  0
LINE
  5
10A35
330
10A0B
100
AcDbEntity
  8
0
100
AcDbLine
 10
44.01000000000009
 20
46.88043947198591
 30
0.0
 11
44.01000000000006
 21
43.5
 31
0.0
  0
LINE
  5
10A36
330
10A0B
100
AcDbEntity
  8
0
100
AcDbLine
 10
44.01000000000006
 20
43.5
 30
0.0
 11
44.00508000000008
 21
43.49999999999998
 31
0.0
  0
SPLINE
  5
10A37
330
10A0B
100
AcDbEntity
  8
0
100
AcDbSpline
210
0.0
220
0.0
230
1.0
 70
     8
 71
     3
 72
    11
 73
     7
 74
     0
 42
0.000000001
 43
0.0000000001
 40
0.6929633215164435
 40
0.6929633215164435
 40
0.6929633215164435
 40
0.6929633215164435
 40
0.8649350770692951
 40
0.8649350770692951
 40
0.8649350770692951
 40
1.0
 40
1.0
 40
1.0
 40
1.0
 10
27.18702953183048
 20
49.58066694697046
 30
0.0
 10
27.42259161675283
 20
49.62401144857962
 30
0.0
 10
27.67117172657517
 20
49.6872318616559
 30
0.0
 10
27.92472347275101
 20
49.77070831940626
 30
0.0
 10
28.1238605167737
 20
49.83626990710035
 30
0.0
 10
28.31796694524406
 20
49.91308561297545
 30
0.0
 10
28.50000000000008
 20
50.00000000000003
 30
0.0
  0
SPLINE
  5
10A38
330
10A0B
100
AcDbEntity
  8
0
100
AcDbSpline
210
0.0
220
0.0
230
1.0
 70
     8
 71
     3
 72
     8
 73
     4
 74
     0
 42
0.000000001
 43
0.0000000001
 40
0.0
 40
0.0
 40
0.0
 40
0.0
 40
0.3070366784835786
 40
0.3070366784835786
 40
0.3070366784835786
 40
0.3070366784835786
 10
28.50000000000009
 20
54.00000000000002
 30
0.0
 10
28.08619289676602
 20
54.19757835065844
 30
0.0
 10
27.62655007946421
 20
54.33668253397481
 30
0.0
 10
27.19461252515082
 20
54.41514915798073
 30
0.0
  0
SPLINE
  5
10A39
330
10A0B
100
AcDbEntity
  8
0
100
AcDbSpline
210
0.0
220
0.0
230
1.0
 70
     8
 71
     3
 72
    11
 73
     7
 74
     0
 42
0.000000001
 43
0.0000000001
 40
-1.0
 40
-1.0
 40
-1.0
 40
-1.0
 40
-0.8649350770692951
 40
-0.8649350770692951
 40
-0.8649350770692951
 40
0.0
 40
0.0
 40
0.0
 40
0.0
 10
28.50000000000008
 20
50.00000000000003
 30
0.0
 10
28.40898347262207
 20
49.91308561297545
 30
0.0
 10
28.31193025838689
 20
49.83626990710035
 30
0.0
 10
28.21236173637555
 20
49.77070831940626
 30
0.0
 10
27.57474017341993
 20
49.35086195460251
 30
0.0
 10
27.00000000000007
 20
49.44341357912678
 30
0.0
 10
27.00000000000006
 20
50.00000000000001
 30
0.0
  0
LINE
  5
10A3A
330
10A0B
100
AcDbEntity
  8
0
100
AcDbLine
 10
-28.50000000000004
 20
89.50000000000002
 30
0.0
 11
-48.50000000000004
 21
89.50000000000011
 31
0.0
  0
LINE
  5
10A3B
330
10A0B
100
AcDbEntity
  8
0
100
AcDbLine
 10
-54.50000000000004
 20
83.49999999999999
 30
0.0
 11
-54.50000000000003
 21
37.69051317993771
 31
0.0
  0
LINE
  5
10A3C
330
10A0B
100
AcDbEntity
  8
0
100
AcDbLine
 10
28.50000000000014
 20
89.50000000000002
 30
0.0
 11
48.50000000000015
 21
89.50000000000015
 31
0.0
  0
LINE
  5
10A3D
330
10A0B
100
AcDbEntity
  8
0
100
AcDbLine
 10
54.50000000000009
 20
37.69051317993772
 30
0.0
 11
54.50000000000014
 21
83.49999999999997
 31
0.0
  0
LINE
  5
10A3E
330
10A0B
100
AcDbEntity
  8
0
100
AcDbLine
 10
-49.21031484164899
 20
27.74206230927721
 30
0.0
 11
-28.50000000000002
 21
13.77277856209688
 31
0.0
  0
ARC
  5
10A3F
330
10A0B
100
AcDbEntity
  8
0
100
AcDbCircle
 10
-27.00000000000008
 20
52.00000000000002
 30
0.0
 40
2.5
100
AcDbArc
 50
126.8698976458443
 51
233.1301023541559
  0
CIRCLE
  5
10A40
330
10A0B
100
AcDbEntity
  8
0
100
AcDbCircle
 10
-45.50000000000006
 20
35.0
 30
0.0
 40
2.5
  0
CIRCLE
  5
10A41
330
10A0B
100
AcDbEntity
  8
0
100
AcDbCircle
 10
-35.50000000000011
 20
62.00000000000002
 30
0.0
 40
2.5
  0
CIRCLE
  5
10A42
330
10A0B
100
AcDbEntity
  8
0
100
AcDbCircle
 10
-35.50000000000014
 20
82.00000000000001
 30
0.0
 40
2.5
  0
CIRCLE
  5
10A43
330
10A0B
100
AcDbEntity
  8
0
100
AcDbCircle
 10
-45.50000000000012
 20
72.00000000000001
 30
0.0
 40
2.5
  0
CIRCLE
  5
10A44
330
10A0B
100
AcDbEntity
  8
0
100
AcDbCircle
 10
-35.50000000000009
 20
42.00000000000001
 30
0.0
 40
2.5
  0
CIRCLE
  5
10A45
330
10A0B
100
AcDbEntity
  8
0
100
AcDbCircle
 10
-35.50000000000006
 20
28.00000000000002
 30
0.0
 40
2.5
  0
LINE
  5
10A46
330
10A0B
100
AcDbEntity
  8
0
100
AcDbLine
 10
-40.00000000000007
 20
43.49492000000002
 30
0.0
 11
-40.00000000000007
 21
43.5
 31
0.0
  0
LINE
  5
10A47
330
10A0B
100
AcDbEntity
  8
0
100
AcDbLine
 10
-44.00000000000007
 20
43.49999999999998
 30
0.0
 11
-44.00000000000007
 21
43.49492000000001
 31
0.0
  0
LINE
  5
10A48
330
10A0B
100
AcDbEntity
  8
0
100
AcDbLine
 10
-44.00000000000007
 20
43.49492000000001
 30
0.0
 11
-44.00508000000008
 21
43.49492000000001
 31
0.0
  0
LINE
  5
10A49
330
10A0B
100
AcDbEntity
  8
0
100
AcDbLine
 10
-44.00508000000008
 20
43.49492000000001
 30
0.0
 11
-44.00508000000008
 21
43.49999999999998
 31
0.0
  0
LINE
  5
10A4A
330
10A0B
100
AcDbEntity
  8
0
100
AcDbLine
 10
-44.00508000000008
 20
43.49999999999998
 30
0.0
 11
-44.01000000000006
 21
43.5
 31
0.0
  0
LINE
  5
10A4B
330
10A0B
100
AcDbEntity
  8
0
100
AcDbLine
 10
-44.01000000000006
 20
43.5
 30
0.0
 11
-44.01000000000009
 21
46.88043947198591
 31
0.0
  0
ARC
  5
10A4C
330
10A0B
100
AcDbEntity
  8
0
100
AcDbCircle
 10
-42.00000000000009
 20
52.00000000000001
 30
0.0
 40
5.5
100
AcDbArc
 50
291.4355588797964
 51
248.5644411202037
  0
LINE
  5
10A4D
330
10A0B
100
AcDbEntity
  8
0
100
AcDbLine
 10
-39.99000000000009
 20
46.88043947198591
 30
0.0
 11
-39.99000000000008
 21
43.5
 31
0.0
  0
LINE
  5
10A4E
330
10A0B
100
AcDbEntity
  8
0
100
AcDbLine
 10
-39.99000000000008
 20
43.5
 30
0.0
 11
-39.99492000000008
 21
43.5
 31
0.0
  0
LINE
  5
10A4F
330
10A0B
100
AcDbEntity
  8
0
100
AcDbLine
 10
-39.99492000000008
 20
43.5
 30
0.0
 11
-39.99492000000008
 21
43.49492000000002
 31
0.0
  0
LINE
  5
10A50
330
10A0B
100
AcDbEntity
  8
0
100
AcDbLine
 10
-39.99492000000008
 20
43.49492000000002
 30
0.0
 11
-40.00000000000007
 21
43.49492000000002
 31
0.0
  0
LINE
  5
10A51
330
10A0B
100
AcDbEntity
  8
0
100
AcDbLine
 10
-44.00000000000008
 20
43.50000000000002
 30
0.0
 11
-44.00000000000013
 21
46.50000000000001
 31
0.0
  0
LINE
  5
10A52
330
10A0B
100
AcDbEntity
  8
0
100
AcDbLine
 10
-40.00000000000006
 20
46.50000000000002
 30
0.0
 11
-40.00000000000006
 21
43.50000000000002
 31
0.0
  0
LINE
  5
10A53
330
10A0B
100
AcDbEntity
  8
0
100
AcDbLine
 10
-44.00000000000008
 20
46.50000000000003
 30
0.0
 11
-40.00000000000006
 21
46.50000000000004
 31
0.0
  0
SPLINE
  5
10A54
330
10A0B
100
AcDbEntity
  8
0
100
AcDbSpline
210
0.0
220
0.0
230
1.0
 70
     8
 71
     3
 72
     8
 73
     4
 74
     0
 42
0.000000001
 43
0.0000000001
 40
-0.307036678483555
 40
-0.307036678483555
 40
-0.307036678483555
 40
-0.307036678483555
 40
0.0
 40
0.0
 40
0.0
 40
0.0
 10
-27.19461252515092
 20
54.41514915798073
 30
0.0
 10
-27.62655007946428
 20
54.33668253397478
 30
0.0
 10
-28.08619289676606
 20
54.19757835065843
 30
0.0
 10
-28.50000000000009
 20
54.00000000000002
 30
0.0
  0
SPLINE
  5
10A55
330
10A0B
100
AcDbEntity
  8
0
100
AcDbSpline
210
0.0
220
0.0
230
1.0
 70
     8
 71
     3
 72
    11
 73
     7
 74
     0
 42
0.000000001
 43
0.0000000001
 40
0.0
 40
0.0
 40
0.0
 40
0.0
 40
0.8649350770683613
 40
0.8649350770683613
 40
0.8649350770683613
 40
1.0
 40
1.0
 40
1.0
 40
1.0
 10
-28.50000000000009
 20
54.00000000000002
 30
0.0
 10
-27.91714410067414
 20
54.55658642087262
 30
0.0
 10
-27.15241843552109
 20
54.64913804539762
 30
0.0
 10
-27.02783688767255
 20
54.22929168059514
 30
0.0
 10
-27.00838271405306
 20
54.16373009290075
 30
0.0
 10
-27.00000000000007
 20
54.08691438702512
 30
0.0
 10
-27.00000000000007
 20
54.00000000000003
 30
0.0
  0
SPLINE
  5
10A56
330
10A0B
100
AcDbEntity
  8
0
100
AcDbSpline
210
0.0
220
0.0
230
1.0
 70
     8
 71
     3
 72
    11
 73
     7
 74
     0
 42
0.000000001
 43
0.0000000001
 40
-1.0
 40
-1.0
 40
-1.0
 40
-1.0
 40
-0.8649350770692951
 40
-0.8649350770692951
 40
-0.8649350770692951
 40
-0.6929633215164167
 40
-0.6929633215164167
 40
-0.6929633215164167
 40
-0.6929633215164167
 10
-28.50000000000008
 20
50.00000000000003
 30
0.0
 10
-28.31796694524406
 20
49.91308561297545
 30
0.0
 10
-28.1238605167737
 20
49.83626990710035
 30
0.0
 10
-27.92472347275101
 20
49.77070831940626
 30
0.0
 10
-27.67117172657513
 20
49.68723186165589
 30
0.0
 10
-27.42259161675275
 20
49.6240114485796
 30
0.0
 10
-27.18702953183037
 20
49.58066694697044
 30
0.0
  0
SPLINE
  5
10A57
330
10A0B
100
AcDbEntity
  8
0
100
AcDbSpline
210
0.0
220
0.0
230
1.0
 70
     8
 71
     3
 72
    11
 73
     7
 74
     0
 42
0.000000001
 43
0.0000000001
 40
0.0
 40
0.0
 40
0.0
 40
0.0
 40
0.8649350770692951
 40
0.8649350770692951
 40
0.8649350770692951
 40
1.0
 40
1.0
 40
1.0
 40
1.0
 10
-27.00000000000006
 20
50.00000000000001
 30
0.0
 10
-27.00000000000007
 20
49.44341357912678
 30
0.0
 10
-27.57474017341993
 20
49.35086195460251
 30
0.0
 10
-28.21236173637555
 20
49.77070831940626
 30
0.0
 10
-28.31193025838689
 20
49.83626990710035
 30
0.0
 10
-28.40898347262207
 20
49.91308561297545
 30
0.0
 10
-28.50000000000008
 20
50.00000000000003
 30
0.0
  0
SPLINE
  5
10A58
330
10A0B
100
AcDbEntity
  8
0
100
AcDbSpline
210
0.0
220
0.0
230
1.0
 70
     8
 71
     3
 72
     8
 73
     4
 74
     0
 42
0.000000001
 43
0.0000000001
 40
0.0
 40
0.0
 40
0.0
 40
0.0
 40
1.0
 40
1.0
 40
1.0
 40
1.0
 10
-28.50000000000002
 20
13.77277856209686
 30
0.0
 10
-27.7146018366026
 20
13.09827004525458
 30
0.0
 10
-27.00000000000002
 20
12.42376152841205
 30
0.0
 10
-27.00000000000001
 20
11.74925301156962
 30
0.0
  0
LINE
  5
10A59
330
10A0B
100
AcDbEntity
  8
0
100
AcDbLine
 10
28.50000000000002
 20
13.77277856209688
 30
0.0
 11
49.21031484164903
 21
27.74206230927724
 31
0.0
  0
SPLINE
  5
10A5A
330
10A0B
100
AcDbEntity
  8
0
100
AcDbSpline
210
0.0
220
0.0
230
1.0
 70
     8
 71
     3
 72
     8
 73
     4
 74
     0
 42
0.000000001
 43
0.0000000001
 40
-1.0
 40
-1.0
 40
-1.0
 40
-1.0
 40
0.0
 40
0.0
 40
0.0
 40
0.0
 10
27.00000000000001
 20
11.74925301156962
 30
0.0
 10
27.00000000000002
 20
12.42376152841205
 30
0.0
 10
27.7146018366026
 20
13.09827004525458
 30
0.0
 10
28.50000000000002
 20
13.77277856209686
 30
0.0
  0
CIRCLE
  5
10A5B
330
10A0B
100
AcDbEntity
  8
0
100
AcDbCircle
 10
35.50000000000006
 20
28.00000000000002
 30
0.0
 40
2.5
  0
CIRCLE
  5
10A5C
330
10A0B
100
AcDbEntity
  8
0
100
AcDbCircle
 10
45.50000000000006
 20
35.0
 30
0.0
 40
2.5
  0
CIRCLE
  5
10A5D
330
10A0B
100
AcDbEntity
  8
0
100
AcDbCircle
 10
35.50000000000009
 20
42.00000000000001
 30
0.0
 40
2.5
  0
CIRCLE
  5
10A5E
330
10A0B
100
AcDbEntity
  8
0
100
AcDbCircle
 10
45.50000000000012
 20
72.00000000000001
 30
0.0
 40
2.5
  0
CIRCLE
  5
10A5F
330
10A0B
100
AcDbEntity
  8
0
100
AcDbCircle
 10
35.50000000000014
 20
82.00000000000001
 30
0.0
 40
2.5
  0
CIRCLE
  5
10A60
330
10A0B
100
AcDbEntity
  8
0
100
AcDbCircle
 10
35.50000000000011
 20
62.00000000000002
 30
0.0
 40
2.5
  0
LINE
  5
10A61
330
10A0B
100
AcDbEntity
  8
0
100
AcDbLine
 10
39.99492000000008
 20
43.49492000000002
 30
0.0
 11
39.99492000000008
 21
43.50000000000001
 31
0.0
  0
LINE
  5
10A62
330
10A0B
100
AcDbEntity
  8
0
100
AcDbLine
 10
44.00508000000008
 20
43.49999999999998
 30
0.0
 11
44.00508000000008
 21
43.49492000000001
 31
0.0
  0
LINE
  5
10A63
330
10A0B
100
AcDbEntity
  8
0
100
AcDbLine
 10
44.00508000000008
 20
43.49492000000001
 30
0.0
 11
44.00000000000007
 21
43.49492000000001
 31
0.0
  0
LINE
  5
10A64
330
10A0B
100
AcDbEntity
  8
0
100
AcDbLine
 10
44.00000000000007
 20
43.49492000000001
 30
0.0
 11
44.00000000000007
 21
43.49999999999998
 31
0.0
  0
LINE
  5
10A65
330
10A0B
100
AcDbEntity
  8
0
100
AcDbLine
 10
40.00000000000007
 20
43.50000000000001
 30
0.0
 11
40.00000000000007
 21
43.49492000000002
 31
0.0
  0
LINE
  5
10A66
330
10A0B
100
AcDbEntity
  8
0
100
AcDbLine
 10
40.00000000000007
 20
43.49492000000002
 30
0.0
 11
39.99492000000008
 21
43.49492000000002
 31
0.0
  0
LINE
  5
10A67
330
10A0B
100
AcDbEntity
  8
0
100
AcDbLine
 10
40.00000000000007
 20
43.50000000000004
 30
0.0
 11
40.00000000000007
 21
46.50000000000002
 31
0.0
  0
LINE
  5
10A68
330
10A0B
100
AcDbEntity
  8
0
100
AcDbLine
 10
44.00000000000007
 20
46.50000000000001
 30
0.0
 11
44.00000000000008
 21
43.50000000000001
 31
0.0
  0
LINE
  5
10A69
330
10A0B
100
AcDbEntity
  8
0
100
AcDbLine
 10
40.00000000000006
 20
46.50000000000002
 30
0.0
 11
44.00000000000006
 21
46.50000000000002
 31
0.0
  0
SPLINE
  5
10A6A
330
10A0B
100
AcDbEntity
  8
0
100
AcDbSpline
210
0.0
220
0.0
230
1.0
 70
     8
 71
     3
 72
     8
 73
     4
 74
     0
 42
0.000000001
 43
0.0000000001
 40
0.0
 40
0.0
 40
0.0
 40
0.0
 40
1.0
 40
1.0
 40
1.0
 40
1.0
 10
-20.62500000000003
 20
1.499999999999999
 30
0.0
 10
-21.74999999999958
 20
0.714601836602582
 30
0.0
 10
-22.87499999999994
 20
0.0000000000000064
 30
0.0
 10
-24.0
 20
0.0000000000000039
 30
0.0
  0
LINE
  5
10A6B
330
10A0B
100
AcDbEntity
  8
0
100
AcDbLine
 10
-12.75
 20
8.5
 30
0.0
 11
-20.625
 21
1.5
 31
0.0
  0
SPLINE
  5
10A6C
330
10A0B
100
AcDbEntity
  8
0
100
AcDbSpline
210
0.0
220
0.0
230
1.0
 70
     8
 71
     3
 72
     8
 73
     4
 74
     0
 42
0.000000001
 43
0.0000000001
 40
0.0
 40
0.0
 40
0.0
 40
0.0
 40
1.0
 40
1.0
 40
1.0
 40
1.0
 10
24.00000000000002
 20
0.0000000000000139
 30
0.0
 10
22.87500000000002
 20
0.0000000000000128
 30
0.0
 10
21.75000000000031
 20
0.7146018366025459
 30
0.0
 10
20.62500000000001
 20
1.500000000000008
 30
0.0
  0
LINE
  5
10A6D
330
10A0B
100
AcDbEntity
  8
0
100
AcDbLine
 10
20.62500000000001
 20
1.500000000000007
 30
0.0
 11
12.75
 21
8.500000000000005
 31
0.0
  0
LINE
  5
10A6E
330
10A0B
100
AcDbEntity
  8
0
100
AcDbLine
 10
12.75
 20
8.500000000000005
 30
0.0
 11
-12.75
 21
8.5
 31
0.0
  0
ARC
  5
10A6F
330
10A0B
100
AcDbEntity
  8
0
100
AcDbCircle
 10
-24.0
 20
1.500000000000003
 30
0.0
 40
1.499999999999999
100
AcDbArc
 50
180.0
 51
270.0000000000003
  0
ARC
  5
10A70
330
10A0B
100
AcDbEntity
  8
0
100
AcDbCircle
 10
24.0
 20
1.500000000000016
 30
0.0
 40
2.999999999999993
100
AcDbArc
 50
270.0
 51
0.0
  0
ARC
  5
10A71
330
10A0B
100
AcDbEntity
  8
0
100
AcDbCircle
 10
24.0
 20
1.500000000000016
 30
0.0
 40
1.499999999999999
100
AcDbArc
 50
270.0000000000003
 51
0.0
  0
ARC
  5
10A72
330
10A0B
100
AcDbEntity
  8
0
100
AcDbCircle
 10
-24.0
 20
1.500000000000003
 30
0.0
 40
2.999999999999993
100
AcDbArc
 50
180.0
 51
270.0
  0
ENDBLK
  5
10A0D
330
10A0B
100
AcDbEntity
  8
0
100
AcDbBlockEnd
  0
BLOCK
  5
10A74
330
10A73
100
AcDbEntity
  8
0
100
AcDbBlockBegin
  2
SBE51_90-F-Left
 70
     0
 10
0.0
 20
0.0
 30
0.0
  3
SBE51_90-F-Left
  1

  0
LINE
  5
10A76
330
10A73
100
AcDbEntity
  8
0
100
AcDbLine
 10
3.000000000000002
 20
89.50000000000001
 30
0.0
 11
1.500000000000005
 21
89.50000000000001
 31
0.0
  0
LINE
  5
10A77
330
10A73
100
AcDbEntity
  8
0
100
AcDbLine
 10
2.999999999999984
 20
11.74925301156961
 30
0.0
 11
3.000000000000002
 21
1.500000000000003
 31
0.0
  0
LINE
  5
10A78
330
10A73
100
AcDbEntity
  8
0
100
AcDbLine
 10
3.000000000000002
 20
-1.499999999999992
 30
0.0
 11
3.000000000000002
 21
1.500000000000003
 31
0.0
  0
CIRCLE
  5
10A79
330
10A73
100
AcDbEntity
  8
0
100
AcDbCircle
 10
29.00000000000002
 20
42.00000000000001
 30
0.0
 40
2.5
  0
CIRCLE
  5
10A7A
330
10A73
100
AcDbEntity
  8
0
100
AcDbCircle
 10
29.00000000000002
 20
82.00000000000001
 30
0.0
 40
2.5
  0
CIRCLE
  5
10A7B
330
10A73
100
AcDbEntity
  8
0
100
AcDbCircle
 10
29.00000000000002
 20
62.00000000000001
 30
0.0
 40
2.5
  0
ARC
  5
10A7C
330
10A73
100
AcDbEntity
  8
0
100
AcDbCircle
 10
1.500000000000007
 20
52.00000000000002
 30
0.0
 40
2.5
100
AcDbArc
 50
306.8698976458435
 51
53.13010235415607
  0
LINE
  5
10A7D
330
10A73
100
AcDbEntity
  8
0
100
AcDbLine
 10
1.500000000000008
 20
27.74206230927721
 30
0.0
 11
1.499999999999987
 21
13.77277856209688
 31
0.0
  0
ARC
  5
10A7E
330
10A73
100
AcDbEntity
  8
0
100
AcDbCircle
 10
-1.500000000000005
 20
43.50000000000001
 30
0.0
 40
3.0
100
AcDbArc
 50
59.9999999999996
 51
90.00000000000021
  0
ARC
  5
10A7F
330
10A73
100
AcDbEntity
  8
0
100
AcDbCircle
 10
-1.500000000000005
 20
43.50000000000001
 30
0.0
 40
1.5
100
AcDbArc
 50
0.0
 51
90.00000000000019
  0
LINE
  5
10A80
330
10A73
100
AcDbEntity
  8
0
100
AcDbLine
 10
0.0
 20
13.77277856209688
 30
0.0
 11
0.0
 21
27.74206230927721
 31
0.0
  0
SPLINE
  5
10A81
330
10A73
100
AcDbEntity
  8
0
100
AcDbSpline
210
0.0
220
0.0
230
1.0
 70
     8
 71
     3
 72
    11
 73
     7
 74
     0
 42
0.000000001
 43
0.0000000001
 40
-1.0
 40
-1.0
 40
-1.0
 40
-1.0
 40
-0.8649350770683613
 40
-0.8649350770683613
 40
-0.8649350770683613
 40
-0.692963321516427
 40
-0.692963321516427
 40
-0.692963321516427
 40
-0.692963321516427
 10
2.999999999999982
 20
54.00000000000003
 30
0.0
 10
2.817966945242687
 20
54.08691438702512
 30
0.0
 10
2.6238605167709
 20
54.16373009290075
 30
0.0
 10
2.424723472746781
 20
54.22929168059514
 30
0.0
 10
2.171171726572212
 20
54.3127681383449
 30
0.0
 10
1.922591616751197
 20
54.37598855142077
 30
0.0
 10
1.687029531830066
 20
54.41933305302971
 30
0.0
  0
SPLINE
  5
10A82
330
10A73
100
AcDbEntity
  8
0
100
AcDbSpline
210
0.0
220
0.0
230
1.0
 70
     8
 71
     3
 72
    11
 73
     7
 74
     0
 42
0.000000001
 43
0.0000000001
 40
0.0
 40
0.0
 40
0.0
 40
0.0
 40
0.8649350770683613
 40
0.8649350770683613
 40
0.8649350770683613
 40
1.0
 40
1.0
 40
1.0
 40
1.0
 10
1.49999999999999
 20
54.00000000000002
 30
0.0
 10
1.499999999999988
 20
54.55658642087262
 30
0.0
 10
2.074740173418274
 20
54.64913804539762
 30
0.0
 10
2.712361736373391
 20
54.22929168059514
 30
0.0
 10
2.811930258385451
 20
54.16373009290075
 30
0.0
 10
2.908983472621345
 20
54.08691438702512
 30
0.0
 10
2.999999999999992
 20
54.00000000000003
 30
0.0
  0
SPLINE
  5
10A83
330
10A73
100
AcDbEntity
  8
0
100
AcDbSpline
210
0.0
220
0.0
230
1.0
 70
     8
 71
     3
 72
     8
 73
     4
 74
     0
 42
0.000000001
 43
0.0000000001
 40
-0.3070366784835455
 40
-0.3070366784835455
 40
-0.3070366784835455
 40
-0.3070366784835455
 40
0.0
 40
0.0
 40
0.0
 40
0.0
 10
1.694612525150965
 20
49.58485084201939
 30
0.0
 10
2.126550079464212
 20
49.66331746602528
 30
0.0
 10
2.586192896765886
 20
49.80242164934161
 30
0.0
 10
2.999999999999982
 20
50.00000000000001
 30
0.0
  0
SPLINE
  5
10A84
330
10A73
100
AcDbEntity
  8
0
100
AcDbSpline
210
0.0
220
0.0
230
1.0
 70
     8
 71
     3
 72
    11
 73
     7
 74
     0
 42
0.000000001
 43
0.0000000001
 40
0.0
 40
0.0
 40
0.0
 40
0.0
 40
0.8649350770692951
 40
0.8649350770692951
 40
0.8649350770692951
 40
1.0
 40
1.0
 40
1.0
 40
1.0
 10
2.999999999999992
 20
50.00000000000001
 30
0.0
 10
2.417144100673315
 20
49.44341357912678
 30
0.0
 10
1.652418435519764
 20
49.35086195460251
 30
0.0
 10
1.527836887672058
 20
49.77070831940626
 30
0.0
 10
1.508382714052862
 20
49.83626990710035
 30
0.0
 10
1.49999999999999
 20
49.91308561297545
 30
0.0
 10
1.49999999999999
 20
50.00000000000003
 30
0.0
  0
SPLINE
  5
10A85
330
10A73
100
AcDbEntity
  8
0
100
AcDbSpline
210
0.0
220
0.0
230
1.0
 70
     8
 71
     3
 72
     8
 73
     4
 74
     0
 42
0.000000001
 43
0.0000000001
 40
-1.0
 40
-1.0
 40
-1.0
 40
-1.0
 40
0.0
 40
0.0
 40
0.0
 40
0.0
 10
2.999999999999964
 20
11.74925301156962
 30
0.0
 10
1.429203673205108
 20
12.42376152841206
 30
0.0
 10
-0.0000000000000123
 20
13.09827004525459
 30
0.0
 10
-0.0000000000000094
 20
13.77277856209686
 30
0.0
  0
SPLINE
  5
10A86
330
10A73
100
AcDbEntity
  8
0
100
AcDbSpline
210
0.0
220
0.0
230
1.0
 70
     8
 71
     3
 72
     8
 73
     4
 74
     0
 42
0.000000001
 43
0.0000000001
 40
0.0
 40
0.0
 40
0.0
 40
0.0
 40
1.0
 40
1.0
 40
1.0
 40
1.0
 10
1.49999999999999
 20
13.77277856209686
 30
0.0
 10
1.499999999999989
 20
13.09827004525458
 30
0.0
 10
2.214601836602553
 20
12.42376152841205
 30
0.0
 10
2.999999999999984
 20
11.74925301156962
 30
0.0
  0
LINE
  5
10A87
330
10A73
100
AcDbEntity
  8
0
100
AcDbLine
 10
1.499999999999987
 20
13.77277856209688
 30
0.0
 11
1.090140682897629
 21
13.77277856209688
 31
0.0
  0
LINE
  5
10A88
330
10A73
100
AcDbEntity
  8
0
100
AcDbLine
 10
1.090140682897629
 20
13.77277856209688
 30
0.0
 11
0.0
 21
13.77277856209688
 31
0.0
  0
LINE
  5
10A89
330
10A73
100
AcDbEntity
  8
0
100
AcDbLine
 10
-8.999999999999985
 20
46.50000000000001
 30
0.0
 11
-6.999999999999992
 21
46.50000000000001
 31
0.0
  0
LINE
  5
10A8A
330
10A73
100
AcDbEntity
  8
0
100
AcDbLine
 10
-6.999999999999992
 20
46.50000000000001
 30
0.0
 11
-1.500000000000003
 21
46.50000000000003
 31
0.0
  0
LINE
  5
10A8B
330
10A73
100
AcDbEntity
  8
0
100
AcDbLine
 10
-8.999999999999985
 20
46.50000000000001
 30
0.0
 11
-8.999999999999985
 21
45.00000000000001
 31
0.0
  0
LINE
  5
10A8C
330
10A73
100
AcDbEntity
  8
0
100
AcDbLine
 10
-6.999999999999992
 20
46.50000000000001
 30
0.0
 11
-6.999999999999992
 21
45.0
 31
0.0
  0
LINE
  5
10A8D
330
10A73
100
AcDbEntity
  8
0
100
AcDbLine
 10
-1.500000000000003
 20
45.00000000000003
 30
0.0
 11
-6.999999999999992
 21
45.0
 31
0.0
  0
LINE
  5
10A8E
330
10A73
100
AcDbEntity
  8
0
100
AcDbLine
 10
-6.999999999999992
 20
45.0
 30
0.0
 11
-8.999999999999985
 21
45.00000000000001
 31
0.0
  0
LINE
  5
10A8F
330
10A73
100
AcDbEntity
  8
0
100
AcDbLine
 10
53.99999999999999
 20
19.50610095525755
 30
0.0
 11
54.0
 21
1.500000000000003
 31
0.0
  0
LINE
  5
10A90
330
10A73
100
AcDbEntity
  8
0
100
AcDbLine
 10
3.000000000000002
 20
89.50000000000001
 30
0.0
 11
30.50000000000002
 21
89.50000000000001
 31
0.0
  0
LINE
  5
10A91
330
10A73
100
AcDbEntity
  8
0
100
AcDbLine
 10
53.99999999999999
 20
19.50610095525755
 30
0.0
 11
41.78968515835104
 21
27.74206230927726
 31
0.0
  0
LINE
  5
10A92
330
10A73
100
AcDbEntity
  8
0
100
AcDbLine
 10
36.50000000000002
 20
37.69051317993777
 30
0.0
 11
36.50000000000002
 21
83.50000000000001
 31
0.0
  0
ARC
  5
10A93
330
10A73
100
AcDbEntity
  8
0
100
AcDbCircle
 10
48.50000000000001
 20
37.69051317993777
 30
0.0
 40
12.0
100
AcDbArc
 50
180.0
 51
236.0
  0
LINE
  5
10A94
330
10A73
100
AcDbEntity
  8
0
100
AcDbLine
 10
1.500000000000006
 20
37.69051317993771
 30
0.0
 11
1.500000000000004
 21
27.74206230927721
 31
0.0
  0
LINE
  5
10A95
330
10A73
100
AcDbEntity
  8
0
100
AcDbLine
 10
0.0
 20
27.74206230927721
 30
0.0
 11
0.0
 21
37.69051317993771
 31
0.0
  0
LINE
  5
10A96
330
10A73
100
AcDbEntity
  8
0
100
AcDbLine
 10
30.50000000000002
 20
89.50000000000001
 30
0.0
 11
36.50000000000002
 21
83.50000000000001
 31
0.0
  0
LINE
  5
10A97
330
10A73
100
AcDbEntity
  8
0
100
AcDbLine
 10
0.0
 20
89.50000000000001
 30
0.0
 11
0.0
 21
83.49999999999999
 31
0.0
  0
LINE
  5
10A98
330
10A73
100
AcDbEntity
  8
0
100
AcDbLine
 10
0.0
 20
83.49999999999999
 30
0.0
 11
1.500000000000012
 21
83.49999999999999
 31
0.0
  0
LINE
  5
10A99
330
10A73
100
AcDbEntity
  8
0
100
AcDbLine
 10
1.500000000000012
 20
83.49999999999999
 30
0.0
 11
1.50000000000007
 21
89.50000000000011
 31
0.0
  0
LINE
  5
10A9A
330
10A73
100
AcDbEntity
  8
0
100
AcDbLine
 10
1.50000000000007
 20
89.50000000000011
 30
0.0
 11
0.0
 21
89.50000000000001
 31
0.0
  0
LINE
  5
10A9B
330
10A73
100
AcDbEntity
  8
0
100
AcDbLine
 10
1.500000000000012
 20
83.49999999999999
 30
0.0
 11
1.50000000000001
 21
37.69051317993771
 31
0.0
  0
LINE
  5
10A9C
330
10A73
100
AcDbEntity
  8
0
100
AcDbLine
 10
0.0
 20
83.49999999999999
 30
0.0
 11
0.0
 21
37.69051317993771
 31
0.0
  0
LINE
  5
10A9D
330
10A73
100
AcDbEntity
  8
0
100
AcDbLine
 10
0.0
 20
1.5
 30
0.0
 11
1.090140682897966
 21
1.5
 31
0.0
  0
SPLINE
  5
10A9E
330
10A73
100
AcDbEntity
  8
0
100
AcDbSpline
210
0.0
220
0.0
230
1.0
 70
     8
 71
     3
 72
     8
 73
     4
 74
     0
 42
0.000000001
 43
0.0000000001
 40
-1.0
 40
-1.0
 40
-1.0
 40
-1.0
 40
0.0
 40
0.0
 40
0.0
 40
0.0
 10
2.999999999999993
 20
-1.499999999999996
 30
0.0
 10
1.429203673205081
 20
-1.499999999999991
 30
0.0
 10
0.0000000000000071
 20
-0.0707963267948383
 30
0.0
 10
0.0000000000000067
 20
1.499999999999998
 30
0.0
  0
SPLINE
  5
10A9F
330
10A73
100
AcDbEntity
  8
0
100
AcDbSpline
210
0.0
220
0.0
230
1.0
 70
     8
 71
     3
 72
     8
 73
     4
 74
     0
 42
0.000000001
 43
0.0000000001
 40
0.0
 40
0.0
 40
0.0
 40
0.0
 40
1.0
 40
1.0
 40
1.0
 40
1.0
 10
1.500000000000006
 20
1.499999999999999
 30
0.0
 10
1.500000000000007
 20
0.714601836602582
 30
0.0
 10
2.214601836602542
 20
0.0000000000000064
 30
0.0
 10
2.999999999999997
 20
0.0000000000000039
 30
0.0
  0
LINE
  5
10AA0
330
10A73
100
AcDbEntity
  8
0
100
AcDbLine
 10
1.090140682897966
 20
1.5
 30
0.0
 11
1.500000000000007
 21
1.5
 31
0.0
  0
LINE
  5
10AA1
330
10A73
100
AcDbEntity
  8
0
100
AcDbLine
 10
1.500000000000006
 20
8.5
 30
0.0
 11
1.500000000000007
 21
1.5
 31
0.0
  0
LINE
  5
10AA2
330
10A73
100
AcDbEntity
  8
0
100
AcDbLine
 10
0.0
 20
8.5
 30
0.0
 11
1.500000000000006
 21
8.5
 31
0.0
  0
LINE
  5
10AA3
330
10A73
100
AcDbEntity
  8
0
100
AcDbLine
 10
0.0
 20
1.5
 30
0.0
 11
0.0
 21
8.5
 31
0.0
  0
LINE
  5
10AA4
330
10A73
100
AcDbEntity
  8
0
100
AcDbLine
 10
54.0
 20
-1.49999999999999
 30
0.0
 11
3.000000000000007
 21
-1.499999999999994
 31
0.0
  0
LINE
  5
10AA5
330
10A73
100
AcDbEntity
  8
0
100
AcDbLine
 10
54.0
 20
-1.499999999999989
 30
0.0
 11
54.0
 21
1.500000000000003
 31
0.0
  0
ENDBLK
  5
10A75
330
10A73
100
AcDbEntity
  8
0
100
AcDbBlockEnd
  0
BLOCK
  5
10AA7
330
10AA6
100
AcDbEntity
  8
0
100
AcDbBlockBegin
  2
SBE51_90-F-Right
 70
     0
 10
0.0
 20
0.0
 30
0.0
  3
SBE51_90-F-Right
  1

  0
SPLINE
  5
10AA9
330
10AA6
100
AcDbEntity
  8
0
100
AcDbSpline
210
0.0
220
0.0
230
1.0
 70
     8
 71
     3
 72
    11
 73
     7
 74
     0
 42
0.000000001
 43
0.0000000001
 40
-1.0
 40
-1.0
 40
-1.0
 40
-1.0
 40
-0.8649350770683613
 40
-0.8649350770683613
 40
-0.8649350770683613
 40
0.0
 40
0.0
 40
0.0
 40
0.0
 10
-2.999999999999992
 20
54.00000000000003
 30
0.0
 10
-2.908983472621345
 20
54.08691438702512
 30
0.0
 10
-2.811930258385451
 20
54.16373009290075
 30
0.0
 10
-2.712361736373391
 20
54.22929168059514
 30
0.0
 10
-2.074740173418274
 20
54.64913804539762
 30
0.0
 10
-1.499999999999988
 20
54.55658642087262
 30
0.0
 10
-1.49999999999999
 20
54.00000000000002
 30
0.0
  0
ARC
  5
10AAA
330
10AA6
100
AcDbEntity
  8
0
100
AcDbCircle
 10
-1.500000000000007
 20
52.00000000000002
 30
0.0
 40
2.5
100
AcDbArc
 50
126.8698976458437
 51
233.1301023541564
  0
SPLINE
  5
10AAB
330
10AA6
100
AcDbEntity
  8
0
100
AcDbSpline
210
0.0
220
0.0
230
1.0
 70
     8
 71
     3
 72
     8
 73
     4
 74
     0
 42
0.000000001
 43
0.0000000001
 40
0.0
 40
0.0
 40
0.0
 40
0.0
 40
0.3070366784835703
 40
0.3070366784835703
 40
0.3070366784835703
 40
0.3070366784835703
 10
-2.999999999999982
 20
50.00000000000001
 30
0.0
 10
-2.586192896765853
 20
49.8024216493416
 30
0.0
 10
-2.126550079464138
 20
49.66331746602527
 30
0.0
 10
-1.69461252515086
 20
49.58485084201938
 30
0.0
  0
SPLINE
  5
10AAC
330
10AA6
100
AcDbEntity
  8
0
100
AcDbSpline
210
0.0
220
0.0
230
1.0
 70
     8
 71
     3
 72
    11
 73
     7
 74
     0
 42
0.000000001
 43
0.0000000001
 40
0.6929633215164493
 40
0.6929633215164493
 40
0.6929633215164493
 40
0.6929633215164493
 40
0.8649350770683613
 40
0.8649350770683613
 40
0.8649350770683613
 40
1.0
 40
1.0
 40
1.0
 40
1.0
 10
-1.687029531830158
 20
54.41933305302969
 30
0.0
 10
-1.922591616751262
 20
54.37598855142074
 30
0.0
 10
-2.171171726572245
 20
54.31276813834488
 30
0.0
 10
-2.424723472746781
 20
54.22929168059514
 30
0.0
 10
-2.6238605167709
 20
54.16373009290075
 30
0.0
 10
-2.817966945242687
 20
54.08691438702512
 30
0.0
 10
-2.999999999999982
 20
54.00000000000003
 30
0.0
  0
SPLINE
  5
10AAD
330
10AA6
100
AcDbEntity
  8
0
100
AcDbSpline
210
0.0
220
0.0
230
1.0
 70
     8
 71
     3
 72
    11
 73
     7
 74
     0
 42
0.000000001
 43
0.0000000001
 40
-1.0
 40
-1.0
 40
-1.0
 40
-1.0
 40
-0.8649350770692951
 40
-0.8649350770692951
 40
-0.8649350770692951
 40
0.0
 40
0.0
 40
0.0
 40
0.0
 10
-1.49999999999999
 20
50.00000000000003
 30
0.0
 10
-1.49999999999999
 20
49.91308561297545
 30
0.0
 10
-1.508382714052862
 20
49.83626990710035
 30
0.0
 10
-1.527836887672058
 20
49.77070831940626
 30
0.0
 10
-1.652418435519764
 20
49.35086195460251
 30
0.0
 10
-2.417144100673315
 20
49.44341357912678
 30
0.0
 10
-2.999999999999992
 20
50.00000000000001
 30
0.0
  0
LINE
  5
10AAE
330
10AA6
100
AcDbEntity
  8
0
100
AcDbLine
 10
1.500000000000003
 20
46.50000000000002
 30
0.0
 11
6.999999999999992
 21
46.50000000000001
 31
0.0
  0
LINE
  5
10AAF
330
10AA6
100
AcDbEntity
  8
0
100
AcDbLine
 10
6.999999999999992
 20
46.50000000000001
 30
0.0
 11
8.999999999999985
 21
46.50000000000001
 31
0.0
  0
LINE
  5
10AB0
330
10AA6
100
AcDbEntity
  8
0
100
AcDbLine
 10
8.999999999999985
 20
46.50000000000001
 30
0.0
 11
8.999999999999985
 21
45.00000000000001
 31
0.0
  0
LINE
  5
10AB1
330
10AA6
100
AcDbEntity
  8
0
100
AcDbLine
 10
8.999999999999985
 20
45.00000000000001
 30
0.0
 11
6.999999999999992
 21
45.0
 31
0.0
  0
LINE
  5
10AB2
330
10AA6
100
AcDbEntity
  8
0
100
AcDbLine
 10
6.999999999999992
 20
46.50000000000001
 30
0.0
 11
6.999999999999992
 21
45.0
 31
0.0
  0
LINE
  5
10AB3
330
10AA6
100
AcDbEntity
  8
0
100
AcDbLine
 10
6.999999999999992
 20
45.0
 30
0.0
 11
1.500000000000003
 21
45.00000000000001
 31
0.0
  0
CIRCLE
  5
10AB4
330
10AA6
100
AcDbEntity
  8
0
100
AcDbCircle
 10
-29.00000000000002
 20
32.0
 30
0.0
 40
2.5
  0
CIRCLE
  5
10AB5
330
10AA6
100
AcDbEntity
  8
0
100
AcDbCircle
 10
-29.00000000000002
 20
72.0
 30
0.0
 40
2.5
  0
CIRCLE
  5
10AB6
330
10AA6
100
AcDbEntity
  8
0
100
AcDbCircle
 10
-29.00000000000002
 20
52.0
 30
0.0
 40
2.5
  0
LINE
  5
10AB7
330
10AA6
100
AcDbEntity
  8
0
100
AcDbLine
 10
-30.50000000000002
 20
89.50000000000002
 30
0.0
 11
-3.000000000000002
 21
89.50000000000002
 31
0.0
  0
LINE
  5
10AB8
330
10AA6
100
AcDbEntity
  8
0
100
AcDbLine
 10
-54.0
 20
1.500000000000012
 30
0.0
 11
-53.99999999999999
 21
19.50610095525755
 31
0.0
  0
LINE
  5
10AB9
330
10AA6
100
AcDbEntity
  8
0
100
AcDbLine
 10
-36.50000000000002
 20
83.50000000000001
 30
0.0
 11
-30.50000000000002
 21
89.50000000000002
 31
0.0
  0
LINE
  5
10ABA
330
10AA6
100
AcDbEntity
  8
0
100
AcDbLine
 10
0.0
 20
83.49999999999997
 30
0.0
 11
0.0
 21
89.50000000000015
 31
0.0
  0
LINE
  5
10ABB
330
10AA6
100
AcDbEntity
  8
0
100
AcDbLine
 10
0.0
 20
89.50000000000015
 30
0.0
 11
-1.500000000000002
 21
89.50000000000015
 31
0.0
  0
LINE
  5
10ABC
330
10AA6
100
AcDbEntity
  8
0
100
AcDbLine
 10
-1.500000000000002
 20
89.50000000000015
 30
0.0
 11
-1.500000000000001
 21
83.49999999999997
 31
0.0
  0
LINE
  5
10ABD
330
10AA6
100
AcDbEntity
  8
0
100
AcDbLine
 10
-1.500000000000001
 20
83.49999999999997
 30
0.0
 11
0.0
 21
83.49999999999997
 31
0.0
  0
LINE
  5
10ABE
330
10AA6
100
AcDbEntity
  8
0
100
AcDbLine
 10
-36.50000000000002
 20
83.50000000000001
 30
0.0
 11
-36.50000000000002
 21
37.69051317993777
 31
0.0
  0
LINE
  5
10ABF
330
10AA6
100
AcDbEntity
  8
0
100
AcDbLine
 10
-41.78968515835104
 20
27.74206230927726
 30
0.0
 11
-53.99999999999999
 21
19.50610095525755
 31
0.0
  0
ARC
  5
10AC0
330
10AA6
100
AcDbEntity
  8
0
100
AcDbCircle
 10
-48.50000000000001
 20
37.69051317993777
 30
0.0
 40
12.0
100
AcDbArc
 50
304.0
 51
0.0
  0
LINE
  5
10AC1
330
10AA6
100
AcDbEntity
  8
0
100
AcDbLine
 10
0.0
 20
37.69051317993772
 30
0.0
 11
0.0
 21
27.74206230927723
 31
0.0
  0
LINE
  5
10AC2
330
10AA6
100
AcDbEntity
  8
0
100
AcDbLine
 10
-1.499999999999987
 20
27.74206230927724
 30
0.0
 11
-1.499999999999987
 21
37.69051317993772
 31
0.0
  0
LINE
  5
10AC3
330
10AA6
100
AcDbEntity
  8
0
100
AcDbLine
 10
-3.000000000000002
 20
1.500000000000012
 30
0.0
 11
-2.999999999999984
 21
11.74925301156961
 31
0.0
  0
LINE
  5
10AC4
330
10AA6
100
AcDbEntity
  8
0
100
AcDbLine
 10
-3.000000000000002
 20
89.50000000000002
 30
0.0
 11
-1.500000000000003
 21
89.50000000000002
 31
0.0
  0
LINE
  5
10AC5
330
10AA6
100
AcDbEntity
  8
0
100
AcDbLine
 10
-3.000000000000002
 20
1.500000000000012
 30
0.0
 11
-3.000000000000002
 21
-1.499999999999983
 31
0.0
  0
LINE
  5
10AC6
330
10AA6
100
AcDbEntity
  8
0
100
AcDbLine
 10
0.0
 20
37.69051317993772
 30
0.0
 11
0.0
 21
83.49999999999997
 31
0.0
  0
LINE
  5
10AC7
330
10AA6
100
AcDbEntity
  8
0
100
AcDbLine
 10
-1.499999999999995
 20
37.69051317993772
 30
0.0
 11
-1.500000000000001
 21
83.49999999999997
 31
0.0
  0
LINE
  5
10AC8
330
10AA6
100
AcDbEntity
  8
0
100
AcDbLine
 10
0.0
 20
27.74206230927724
 30
0.0
 11
0.0
 21
13.77277856209688
 31
0.0
  0
LINE
  5
10AC9
330
10AA6
100
AcDbEntity
  8
0
100
AcDbLine
 10
-1.499999999999987
 20
13.77277856209688
 30
0.0
 11
-1.499999999999987
 21
27.74206230927724
 31
0.0
  0
LINE
  5
10ACA
330
10AA6
100
AcDbEntity
  8
0
100
AcDbLine
 10
-1.499999999999987
 20
13.77277856209688
 30
0.0
 11
-1.090140682897629
 21
13.77277856209688
 31
0.0
  0
LINE
  5
10ACB
330
10AA6
100
AcDbEntity
  8
0
100
AcDbLine
 10
-1.090140682897629
 20
13.77277856209688
 30
0.0
 11
0.0
 21
13.77277856209688
 31
0.0
  0
SPLINE
  5
10ACC
330
10AA6
100
AcDbEntity
  8
0
100
AcDbSpline
210
0.0
220
0.0
230
1.0
 70
     8
 71
     3
 72
     8
 73
     4
 74
     0
 42
0.000000001
 43
0.0000000001
 40
0.0
 40
0.0
 40
0.0
 40
0.0
 40
1.0
 40
1.0
 40
1.0
 40
1.0
 10
0.0000000000000094
 20
13.77277856209686
 30
0.0
 10
0.0000000000000123
 20
13.09827004525459
 30
0.0
 10
-1.429203673205108
 20
12.42376152841206
 30
0.0
 10
-2.999999999999964
 20
11.74925301156962
 30
0.0
  0
SPLINE
  5
10ACD
330
10AA6
100
AcDbEntity
  8
0
100
AcDbSpline
210
0.0
220
0.0
230
1.0
 70
     8
 71
     3
 72
     8
 73
     4
 74
     0
 42
0.000000001
 43
0.0000000001
 40
-1.0
 40
-1.0
 40
-1.0
 40
-1.0
 40
0.0
 40
0.0
 40
0.0
 40
0.0
 10
-2.999999999999984
 20
11.74925301156962
 30
0.0
 10
-2.214601836602553
 20
12.42376152841205
 30
0.0
 10
-1.499999999999989
 20
13.09827004525458
 30
0.0
 10
-1.49999999999999
 20
13.77277856209686
 30
0.0
  0
SPLINE
  5
10ACE
330
10AA6
100
AcDbEntity
  8
0
100
AcDbSpline
210
0.0
220
0.0
230
1.0
 70
     8
 71
     3
 72
     8
 73
     4
 74
     0
 42
0.000000001
 43
0.0000000001
 40
-1.0
 40
-1.0
 40
-1.0
 40
-1.0
 40
0.0
 40
0.0
 40
0.0
 40
0.0
 10
-0.0000000000000067
 20
1.500000000000008
 30
0.0
 10
-0.0000000000000069
 20
-0.0707963267949194
 30
0.0
 10
-1.429203673205036
 20
-1.499999999999988
 30
0.0
 10
-3.000000000000005
 20
-1.499999999999986
 30
0.0
  0
LINE
  5
10ACF
330
10AA6
100
AcDbEntity
  8
0
100
AcDbLine
 10
0.0
 20
1.500000000000007
 30
0.0
 11
-1.090140682896789
 21
1.500000000000007
 31
0.0
  0
LINE
  5
10AD0
330
10AA6
100
AcDbEntity
  8
0
100
AcDbLine
 10
-1.090140682896789
 20
1.500000000000007
 30
0.0
 11
-1.500000000000006
 21
1.500000000000007
 31
0.0
  0
SPLINE
  5
10AD1
330
10AA6
100
AcDbEntity
  8
0
100
AcDbSpline
210
0.0
220
0.0
230
1.0
 70
     8
 71
     3
 72
     8
 73
     4
 74
     0
 42
0.000000001
 43
0.0000000001
 40
0.0
 40
0.0
 40
0.0
 40
0.0
 40
1.0
 40
1.0
 40
1.0
 40
1.0
 10
-3.000000000000003
 20
0.0000000000000139
 30
0.0
 10
-2.21460183660252
 20
0.0000000000000128
 30
0.0
 10
-1.500000000000007
 20
0.7146018366025459
 30
0.0
 10
-1.500000000000006
 20
1.500000000000008
 30
0.0
  0
LINE
  5
10AD2
330
10AA6
100
AcDbEntity
  8
0
100
AcDbLine
 10
-1.500000000000006
 20
1.500000000000007
 30
0.0
 11
-1.500000000000006
 21
8.500000000000005
 31
0.0
  0
LINE
  5
10AD3
330
10AA6
100
AcDbEntity
  8
0
100
AcDbLine
 10
0.0
 20
8.500000000000005
 30
0.0
 11
0.0
 21
1.500000000000007
 31
0.0
  0
LINE
  5
10AD4
330
10AA6
100
AcDbEntity
  8
0
100
AcDbLine
 10
-1.500000000000006
 20
8.500000000000005
 30
0.0
 11
0.0
 21
8.500000000000005
 31
0.0
  0
LINE
  5
10AD5
330
10AA6
100
AcDbEntity
  8
0
100
AcDbLine
 10
-54.0
 20
-1.499999999999981
 30
0.0
 11
-3.000000000000007
 21
-1.49999999999999
 31
0.0
  0
LINE
  5
10AD6
330
10AA6
100
AcDbEntity
  8
0
100
AcDbLine
 10
-54.0
 20
1.500000000000012
 30
0.0
 11
-54.0
 21
-1.499999999999976
 31
0.0
  0
ARC
  5
10AD7
330
10AA6
100
AcDbEntity
  8
0
100
AcDbCircle
 10
1.500000000000005
 20
43.50000000000001
 30
0.0
 40
3.0
100
AcDbArc
 50
90.0000000000006
 51
119.9999999999999
  0
ARC
  5
10AD8
330
10AA6
100
AcDbEntity
  8
0
100
AcDbCircle
 10
1.500000000000005
 20
43.50000000000001
 30
0.0
 40
1.5
100
AcDbArc
 50
90.00000000000115
 51
180.0
  0
ENDBLK
  5
10AA8
330
10AA6
100
AcDbEntity
  8
0
100
AcDbBlockEnd
  0
BLOCK
  5
10ADA
330
10AD9
100
AcDbEntity
  8
0
100
AcDbBlockBegin
  2
SBE51_90-F-Top
 70
     0
 10
0.0
 20
0.0
 30
0.0
  3
SBE51_90-F-Top
  1

  0
ARC
  5
10ADC
330
10AD9
100
AcDbEntity
  8
0
100
AcDbCircle
 10
-28.50000000000004
 20
-3.000000000000008
 30
0.0
 40
1.500000000000003
100
AcDbArc
 50
0.0
 51
90.0
  0
ARC
  5
10ADD
330
10AD9
100
AcDbEntity
  8
0
100
AcDbCircle
 10
-28.50000000000004
 20
-3.000000000000008
 30
0.0
 40
2.999999999999993
100
AcDbArc
 50
0.0
 51
90.0
  0
ARC
  5
10ADE
330
10AD9
100
AcDbEntity
  8
0
100
AcDbCircle
 10
28.50000000000014
 20
-3.000000000000003
 30
0.0
 40
2.999999999999998
100
AcDbArc
 50
90.0
 51
180.0
  0
LINE
  5
10ADF
330
10AD9
100
AcDbEntity
  8
0
100
AcDbLine
 10
-24.0
 20
-3.000000000000002
 30
0.0
 11
-25.5
 21
-3.000000000000002
 31
0.0
  0
ARC
  5
10AE0
330
10AD9
100
AcDbEntity
  8
0
100
AcDbCircle
 10
28.50000000000014
 20
-3.000000000000003
 30
0.0
 40
1.499999999999999
100
AcDbArc
 50
90.0
 51
180.0
  0
LINE
  5
10AE1
330
10AD9
100
AcDbEntity
  8
0
100
AcDbLine
 10
25.50000000000001
 20
-3.000000000000002
 30
0.0
 11
24.0
 21
-3.000000000000002
 31
0.0
  0
LINE
  5
10AE2
330
10AD9
100
AcDbEntity
  8
0
100
AcDbLine
 10
-27.00000000000001
 20
-53.99999999999999
 30
0.0
 11
-27.00000000000001
 21
-41.78968515835104
 31
0.0
  0
LINE
  5
10AE3
330
10AD9
100
AcDbEntity
  8
0
100
AcDbLine
 10
-25.50000000000002
 20
-41.78968515835104
 30
0.0
 11
-25.50000000000001
 21
-54.0
 31
0.0
  0
LINE
  5
10AE4
330
10AD9
100
AcDbEntity
  8
0
100
AcDbLine
 10
25.50000000000003
 20
-53.99999999999999
 30
0.0
 11
25.50000000000005
 21
-41.78968515835104
 31
0.0
  0
LINE
  5
10AE5
330
10AD9
100
AcDbEntity
  8
0
100
AcDbLine
 10
27.00000000000005
 20
-41.78968515835104
 30
0.0
 11
27.00000000000003
 21
-53.99999999999999
 31
0.0
  0
LINE
  5
10AE6
330
10AD9
100
AcDbEntity
  8
0
100
AcDbLine
 10
27.00000000000003
 20
-53.99999999999999
 30
0.0
 11
25.50000000000003
 21
-53.99999999999999
 31
0.0
  0
LINE
  5
10AE7
330
10AD9
100
AcDbEntity
  8
0
100
AcDbLine
 10
-25.50000000000001
 20
-54.0
 30
0.0
 11
-27.00000000000001
 21
-53.99999999999999
 31
0.0
  0
LINE
  5
10AE8
330
10AD9
100
AcDbEntity
  8
0
100
AcDbLine
 10
-27.0
 20
-36.50000000000002
 30
0.0
 11
-26.99999999999999
 21
-41.78968515835104
 31
0.0
  0
LINE
  5
10AE9
330
10AD9
100
AcDbEntity
  8
0
100
AcDbLine
 10
-25.5
 20
-41.78968515835104
 30
0.0
 11
-25.5
 21
-36.50000000000002
 31
0.0
  0
LINE
  5
10AEA
330
10AD9
100
AcDbEntity
  8
0
100
AcDbLine
 10
25.49999999999997
 20
-36.50000000000002
 30
0.0
 11
25.49999999999994
 21
-41.78968515835104
 31
0.0
  0
LINE
  5
10AEB
330
10AD9
100
AcDbEntity
  8
0
100
AcDbLine
 10
26.99999999999995
 20
-41.78968515835104
 30
0.0
 11
26.99999999999996
 21
-36.50000000000002
 31
0.0
  0
LINE
  5
10AEC
330
10AD9
100
AcDbEntity
  8
0
100
AcDbLine
 10
-27.00000000000003
 20
-30.50000000000002
 30
0.0
 11
-27.00000000000003
 21
-36.50000000000002
 31
0.0
  0
LINE
  5
10AED
330
10AD9
100
AcDbEntity
  8
0
100
AcDbLine
 10
-25.50000000000003
 20
-36.50000000000002
 30
0.0
 11
-25.50000000000002
 21
-30.50000000000002
 31
0.0
  0
LINE
  5
10AEE
330
10AD9
100
AcDbEntity
  8
0
100
AcDbLine
 10
25.50000000000014
 20
-30.50000000000002
 30
0.0
 11
25.50000000000014
 21
-36.50000000000002
 31
0.0
  0
LINE
  5
10AEF
330
10AD9
100
AcDbEntity
  8
0
100
AcDbLine
 10
27.00000000000013
 20
-36.50000000000002
 30
0.0
 11
27.00000000000014
 21
-30.50000000000002
 31
0.0
  0
LINE
  5
10AF0
330
10AD9
100
AcDbEntity
  8
0
100
AcDbLine
 10
-48.50000000000004
 20
0.0
 30
0.0
 11
-54.50000000000004
 21
0.0
 31
0.0
  0
LINE
  5
10AF1
330
10AD9
100
AcDbEntity
  8
0
100
AcDbLine
 10
-54.50000000000004
 20
0.0
 30
0.0
 11
-54.50000000000004
 21
-1.500000000000012
 31
0.0
  0
LINE
  5
10AF2
330
10AD9
100
AcDbEntity
  8
0
100
AcDbLine
 10
-54.50000000000004
 20
-1.500000000000012
 30
0.0
 11
-48.50000000000004
 21
-1.50000000000007
 31
0.0
  0
LINE
  5
10AF3
330
10AD9
100
AcDbEntity
  8
0
100
AcDbLine
 10
-48.50000000000004
 20
-1.50000000000007
 30
0.0
 11
-48.50000000000004
 21
0.0
 31
0.0
  0
LINE
  5
10AF4
330
10AD9
100
AcDbEntity
  8
0
100
AcDbLine
 10
-25.50000000000002
 20
-30.50000000000002
 30
0.0
 11
-27.00000000000003
 21
-30.50000000000002
 31
0.0
  0
LINE
  5
10AF5
330
10AD9
100
AcDbEntity
  8
0
100
AcDbLine
 10
-27.00000000000003
 20
-36.50000000000002
 30
0.0
 11
-25.50000000000003
 21
-36.50000000000002
 31
0.0
  0
LINE
  5
10AF6
330
10AD9
100
AcDbEntity
  8
0
100
AcDbLine
 10
27.00000000000014
 20
-30.50000000000002
 30
0.0
 11
25.50000000000014
 21
-30.50000000000002
 31
0.0
  0
LINE
  5
10AF7
330
10AD9
100
AcDbEntity
  8
0
100
AcDbLine
 10
25.50000000000014
 20
-36.50000000000002
 30
0.0
 11
27.00000000000013
 21
-36.50000000000002
 31
0.0
  0
LINE
  5
10AF8
330
10AD9
100
AcDbEntity
  8
0
100
AcDbLine
 10
54.50000000000014
 20
0.0
 30
0.0
 11
48.50000000000015
 21
0.0
 31
0.0
  0
LINE
  5
10AF9
330
10AD9
100
AcDbEntity
  8
0
100
AcDbLine
 10
48.50000000000015
 20
0.0
 30
0.0
 11
48.50000000000015
 21
-1.500000000000002
 31
0.0
  0
LINE
  5
10AFA
330
10AD9
100
AcDbEntity
  8
0
100
AcDbLine
 10
48.50000000000015
 20
-1.500000000000002
 30
0.0
 11
54.50000000000014
 21
-1.500000000000001
 31
0.0
  0
LINE
  5
10AFB
330
10AD9
100
AcDbEntity
  8
0
100
AcDbLine
 10
54.50000000000014
 20
-1.500000000000001
 30
0.0
 11
54.50000000000014
 21
0.0
 31
0.0
  0
LINE
  5
10AFC
330
10AD9
100
AcDbEntity
  8
0
100
AcDbLine
 10
-27.00000000000003
 20
-3.000000000000002
 30
0.0
 11
-27.00000000000003
 21
-30.50000000000002
 31
0.0
  0
LINE
  5
10AFD
330
10AD9
100
AcDbEntity
  8
0
100
AcDbLine
 10
-25.50000000000004
 20
-3.000000000000002
 30
0.0
 11
-25.50000000000002
 21
-30.50000000000002
 31
0.0
  0
LINE
  5
10AFE
330
10AD9
100
AcDbEntity
  8
0
100
AcDbLine
 10
25.50000000000014
 20
-3.000000000000002
 30
0.0
 11
25.50000000000014
 21
-30.50000000000002
 31
0.0
  0
LINE
  5
10AFF
330
10AD9
100
AcDbEntity
  8
0
100
AcDbLine
 10
27.00000000000014
 20
-30.50000000000002
 30
0.0
 11
27.00000000000014
 21
-3.000000000000002
 31
0.0
  0
LINE
  5
10B00
330
10AD9
100
AcDbEntity
  8
0
100
AcDbLine
 10
-23.99999999999999
 20
-54.0
 30
0.0
 11
24.00000000000002
 21
-54.0
 31
0.0
  0
LINE
  5
10B01
330
10AD9
100
AcDbEntity
  8
0
100
AcDbLine
 10
-28.50000000000004
 20
-1.500000000000012
 30
0.0
 11
-48.50000000000004
 21
-1.50000000000007
 31
0.0
  0
LINE
  5
10B02
330
10AD9
100
AcDbEntity
  8
0
100
AcDbLine
 10
48.50000000000015
 20
0.0
 30
0.0
 11
28.50000000000014
 21
0.0
 31
0.0
  0
LINE
  5
10B03
330
10AD9
100
AcDbEntity
  8
0
100
AcDbLine
 10
28.50000000000014
 20
-1.500000000000003
 30
0.0
 11
48.50000000000015
 21
-1.500000000000002
 31
0.0
  0
LINE
  5
10B04
330
10AD9
100
AcDbEntity
  8
0
100
AcDbLine
 10
-28.50000000000004
 20
0.0
 30
0.0
 11
-48.50000000000004
 21
0.0
 31
0.0
  0
LINE
  5
10B05
330
10AD9
100
AcDbEntity
  8
0
100
AcDbLine
 10
-44.00000000000012
 20
0.0
 30
0.0
 11
-44.00000000000013
 21
1.500000000000015
 31
0.0
  0
LINE
  5
10B06
330
10AD9
100
AcDbEntity
  8
0
100
AcDbLine
 10
-40.00000000000007
 20
1.499999999999936
 30
0.0
 11
-40.00000000000006
 21
0.0
 31
0.0
  0
LINE
  5
10B07
330
10AD9
100
AcDbEntity
  8
0
100
AcDbLine
 10
-40.00000000000006
 20
1.500000000000003
 30
0.0
 11
-40.00000000000007
 21
6.999999999999984
 31
0.0
  0
LINE
  5
10B08
330
10AD9
100
AcDbEntity
  8
0
100
AcDbLine
 10
-40.00000000000007
 20
6.999999999999984
 30
0.0
 11
-42.00000000000007
 21
8.999999999999985
 31
0.0
  0
LINE
  5
10B09
330
10AD9
100
AcDbEntity
  8
0
100
AcDbLine
 10
-42.00000000000007
 20
8.999999999999985
 30
0.0
 11
-44.00000000000006
 21
6.999999999999992
 31
0.0
  0
LINE
  5
10B0A
330
10AD9
100
AcDbEntity
  8
0
100
AcDbLine
 10
-44.00000000000006
 20
6.999999999999992
 30
0.0
 11
-44.00000000000008
 21
1.500000000000003
 31
0.0
  0
ARC
  5
10B0B
330
10AD9
100
AcDbEntity
  8
0
100
AcDbCircle
 10
-34.82677949145487
 20
-7.495925238298273
 30
0.0
 40
5.0
100
AcDbArc
 50
9.000000000000065
 51
72.00000000000009
  0
LINE
  5
10B0C
330
10AD9
100
AcDbEntity
  8
0
100
AcDbLine
 10
-29.88833778847918
 20
-6.713752913097108
 30
0.0
 11
-27.01846748910732
 21
-24.83340086267714
 31
0.0
  0
LINE
  5
10B0D
330
10AD9
100
AcDbEntity
  8
0
100
AcDbLine
 10
-36.8740511689245
 20
-1.573415225557276
 30
0.0
 11
-33.28169451958014
 21
-2.740642656822506
 31
0.0
  0
LINE
  5
10B0E
330
10AD9
100
AcDbEntity
  8
0
100
AcDbLine
 10
-20.625
 20
0.0
 30
0.0
 11
-20.625
 21
-1.090140682897966
 31
0.0
  0
SPLINE
  5
10B0F
330
10AD9
100
AcDbEntity
  8
0
100
AcDbSpline
210
0.0
220
0.0
230
1.0
 70
     8
 71
     3
 72
     8
 73
     4
 74
     0
 42
0.000000001
 43
0.0000000001
 40
-1.0
 40
-1.0
 40
-1.0
 40
-1.0
 40
0.0
 40
0.0
 40
0.0
 40
0.0
 10
-24.0
 20
-2.999999999999993
 30
0.0
 10
-22.87499999999994
 20
-1.429203673205081
 30
0.0
 10
-21.74999999999958
 20
-0.0000000000000071
 30
0.0
 10
-20.62500000000003
 20
-0.0000000000000067
 30
0.0
  0
SPLINE
  5
10B10
330
10AD9
100
AcDbEntity
  8
0
100
AcDbSpline
210
0.0
220
0.0
230
1.0
 70
     8
 71
     3
 72
     8
 73
     4
 74
     0
 42
0.000000001
 43
0.0000000001
 40
0.0
 40
0.0
 40
0.0
 40
0.0
 40
1.0
 40
1.0
 40
1.0
 40
1.0
 10
-20.62500000000003
 20
-1.500000000000006
 30
0.0
 10
-21.74999999999958
 20
-1.500000000000007
 30
0.0
 10
-22.87499999999994
 20
-2.214601836602542
 30
0.0
 10
-24.0
 20
-2.999999999999997
 30
0.0
  0
LINE
  5
10B11
330
10AD9
100
AcDbEntity
  8
0
100
AcDbLine
 10
-20.625
 20
-1.090140682897966
 30
0.0
 11
-20.625
 21
-1.500000000000007
 31
0.0
  0
LINE
  5
10B12
330
10AD9
100
AcDbEntity
  8
0
100
AcDbLine
 10
-12.75
 20
-1.500000000000006
 30
0.0
 11
-20.625
 21
-1.500000000000007
 31
0.0
  0
LINE
  5
10B13
330
10AD9
100
AcDbEntity
  8
0
100
AcDbLine
 10
-12.75
 20
0.0
 30
0.0
 11
-12.75
 21
-1.500000000000006
 31
0.0
  0
LINE
  5
10B14
330
10AD9
100
AcDbEntity
  8
0
100
AcDbLine
 10
-20.625
 20
0.0
 30
0.0
 11
-12.75
 21
0.0
 31
0.0
  0
SPLINE
  5
10B15
330
10AD9
100
AcDbEntity
  8
0
100
AcDbSpline
210
0.0
220
0.0
230
1.0
 70
     8
 71
     3
 72
     8
 73
     4
 74
     0
 42
0.000000001
 43
0.0000000001
 40
-1.0
 40
-1.0
 40
-1.0
 40
-1.0
 40
0.0
 40
0.0
 40
0.0
 40
0.0
 10
20.62500000000001
 20
-0.0000000000000067
 30
0.0
 10
21.75000000000031
 20
-0.0000000000000069
 30
0.0
 10
22.87500000000002
 20
-1.429203673205036
 30
0.0
 10
24.00000000000002
 20
-3.000000000000005
 30
0.0
  0
LINE
  5
10B16
330
10AD9
100
AcDbEntity
  8
0
100
AcDbLine
 10
20.62500000000001
 20
0.0
 30
0.0
 11
20.62500000000001
 21
-1.090140682896789
 31
0.0
  0
LINE
  5
10B17
330
10AD9
100
AcDbEntity
  8
0
100
AcDbLine
 10
20.62500000000001
 20
-1.090140682896789
 30
0.0
 11
20.62500000000001
 21
-1.500000000000006
 31
0.0
  0
SPLINE
  5
10B18
330
10AD9
100
AcDbEntity
  8
0
100
AcDbSpline
210
0.0
220
0.0
230
1.0
 70
     8
 71
     3
 72
     8
 73
     4
 74
     0
 42
0.000000001
 43
0.0000000001
 40
0.0
 40
0.0
 40
0.0
 40
0.0
 40
1.0
 40
1.0
 40
1.0
 40
1.0
 10
24.00000000000002
 20
-3.000000000000003
 30
0.0
 10
22.87500000000002
 20
-2.21460183660252
 30
0.0
 10
21.75000000000031
 20
-1.500000000000007
 30
0.0
 10
20.62500000000001
 20
-1.500000000000006
 30
0.0
  0
LINE
  5
10B19
330
10AD9
100
AcDbEntity
  8
0
100
AcDbLine
 10
20.62500000000001
 20
-1.500000000000006
 30
0.0
 11
12.75
 21
-1.500000000000006
 31
0.0
  0
LINE
  5
10B1A
330
10AD9
100
AcDbEntity
  8
0
100
AcDbLine
 10
12.75
 20
0.0
 30
0.0
 11
20.62500000000001
 21
0.0
 31
0.0
  0
LINE
  5
10B1B
330
10AD9
100
AcDbEntity
  8
0
100
AcDbLine
 10
12.75
 20
-1.500000000000006
 30
0.0
 11
12.75
 21
0.0
 31
0.0
  0
LINE
  5
10B1C
330
10AD9
100
AcDbEntity
  8
0
100
AcDbLine
 10
12.75
 20
-1.500000000000006
 30
0.0
 11
-12.75
 21
-1.500000000000006
 31
0.0
  0
LINE
  5
10B1D
330
10AD9
100
AcDbEntity
  8
0
100
AcDbLine
 10
12.75
 20
0.0
 30
0.0
 11
-12.75
 21
0.0
 31
0.0
  0
LINE
  5
10B1E
330
10AD9
100
AcDbEntity
  8
0
100
AcDbLine
 10
40.00000000000007
 20
0.0
 30
0.0
 11
40.00000000000007
 21
1.500000000000003
 31
0.0
  0
LINE
  5
10B1F
330
10AD9
100
AcDbEntity
  8
0
100
AcDbLine
 10
44.00000000000005
 20
1.499999999999973
 30
0.0
 11
44.00000000000007
 21
0.0
 31
0.0
  0
LINE
  5
10B20
330
10AD9
100
AcDbEntity
  8
0
100
AcDbLine
 10
-25.50000000000001
 20
-54.0
 30
0.0
 11
-23.99999999999999
 21
-54.0
 31
0.0
  0
LINE
  5
10B21
330
10AD9
100
AcDbEntity
  8
0
100
AcDbLine
 10
24.00000000000002
 20
-54.0
 30
0.0
 11
25.50000000000001
 21
-54.0
 31
0.0
  0
LINE
  5
10B22
330
10AD9
100
AcDbEntity
  8
0
100
AcDbLine
 10
44.00000000000006
 20
1.500000000000003
 30
0.0
 11
44.00000000000005
 21
6.999999999999992
 31
0.0
  0
LINE
  5
10B23
330
10AD9
100
AcDbEntity
  8
0
100
AcDbLine
 10
44.00000000000005
 20
6.999999999999992
 30
0.0
 11
42.00000000000006
 21
8.999999999999985
 31
0.0
  0
LINE
  5
10B24
330
10AD9
100
AcDbEntity
  8
0
100
AcDbLine
 10
42.00000000000006
 20
8.999999999999985
 30
0.0
 11
40.00000000000007
 21
6.999999999999984
 31
0.0
  0
LINE
  5
10B25
330
10AD9
100
AcDbEntity
  8
0
100
AcDbLine
 10
40.00000000000007
 20
6.999999999999984
 30
0.0
 11
40.00000000000006
 21
1.500000000000003
 31
0.0
  0
ARC
  5
10B26
330
10AD9
100
AcDbEntity
  8
0
100
AcDbCircle
 10
-37.33757666048692
 20
-3.000000000000007
 30
0.0
 40
1.5
100
AcDbArc
 50
72.00000000000006
 51
90.0
  0
ARC
  5
10B27
330
10AD9
100
AcDbEntity
  8
0
100
AcDbCircle
 10
-28.50000000000002
 20
-25.06805256023748
 30
0.0
 40
1.5
100
AcDbArc
 50
0.0
 51
8.999999999999902
  0
ARC
  5
10B28
330
10AD9
100
AcDbEntity
  8
0
100
AcDbCircle
 10
28.50000000000012
 20
-25.0680525602369
 30
0.0
 40
1.5
100
AcDbArc
 50
170.9999999999999
 51
180.0
  0
ARC
  5
10B29
330
10AD9
100
AcDbEntity
  8
0
100
AcDbCircle
 10
37.33757666048695
 20
-2.999999999999994
 30
0.0
 40
1.5
100
AcDbArc
 50
90.0
 51
107.9999999999999
  0
LINE
  5
10B2A
330
10AD9
100
AcDbEntity
  8
0
100
AcDbLine
 10
33.28169451958014
 20
-2.740642656822506
 30
0.0
 11
36.87405116892454
 21
-1.573415225557263
 31
0.0
  0
LINE
  5
10B2B
330
10AD9
100
AcDbEntity
  8
0
100
AcDbLine
 10
27.01846748910741
 20
-24.83340086267656
 30
0.0
 11
29.88833778847918
 21
-6.713752913097108
 31
0.0
  0
ARC
  5
10B2C
330
10AD9
100
AcDbEntity
  8
0
100
AcDbCircle
 10
34.82677949145487
 20
-7.495925238298273
 30
0.0
 40
5.0
100
AcDbArc
 50
107.9999999999999
 51
170.9999999999999
  0
ENDBLK
  5
10ADB
330
10AD9
100
AcDbEntity
  8
0
100
AcDbBlockEnd
  0
BLOCK
  5
10B2E
330
10B2D
100
AcDbEntity
  8
0
100
AcDbBlockBegin
  2
SBE51_90-F-Bottom
 70
     0
 10
0.0
 20
0.0
 30
0.0
  3
SBE51_90-F-Bottom
  1

  0
LINE
  5
10B30
330
10B2D
100
AcDbEntity
  8
0
100
AcDbLine
 10
-27.0
 20
54.0
 30
0.0
 11
-27.0
 21
3.000000000000007
 31
0.0
  0
LINE
  5
10B31
330
10B2D
100
AcDbEntity
  8
0
100
AcDbLine
 10
26.99999999999999
 20
54.0
 30
0.0
 11
27.0
 21
3.000000000000007
 31
0.0
  0
LINE
  5
10B32
330
10B2D
100
AcDbEntity
  8
0
100
AcDbLine
 10
27.0
 20
54.0
 30
0.0
 11
24.0
 21
54.0
 31
0.0
  0
LINE
  5
10B33
330
10B2D
100
AcDbEntity
  8
0
100
AcDbLine
 10
-24.0
 20
54.0
 30
0.0
 11
-27.0
 21
54.0
 31
0.0
  0
LINE
  5
10B34
330
10B2D
100
AcDbEntity
  8
0
100
AcDbLine
 10
-54.50000000000003
 20
1.500000000000006
 30
0.0
 11
-49.21031484164899
 21
1.500000000000004
 31
0.0
  0
LINE
  5
10B35
330
10B2D
100
AcDbEntity
  8
0
100
AcDbLine
 10
-54.50000000000003
 20
1.50000000000001
 30
0.0
 11
-54.50000000000003
 21
0.0
 31
0.0
  0
LINE
  5
10B36
330
10B2D
100
AcDbEntity
  8
0
100
AcDbLine
 10
54.50000000000009
 20
0.0
 30
0.0
 11
49.21031484164903
 21
0.0
 31
0.0
  0
LINE
  5
10B37
330
10B2D
100
AcDbEntity
  8
0
100
AcDbLine
 10
-49.21031484164899
 20
0.0
 30
0.0
 11
-54.50000000000003
 21
0.0
 31
0.0
  0
LINE
  5
10B38
330
10B2D
100
AcDbEntity
  8
0
100
AcDbLine
 10
54.50000000000009
 20
0.0
 30
0.0
 11
54.50000000000009
 21
1.499999999999995
 31
0.0
  0
LINE
  5
10B39
330
10B2D
100
AcDbEntity
  8
0
100
AcDbLine
 10
49.21031484164903
 20
1.499999999999987
 30
0.0
 11
54.50000000000009
 21
1.499999999999987
 31
0.0
  0
LINE
  5
10B3A
330
10B2D
100
AcDbEntity
  8
0
100
AcDbLine
 10
-49.21031484164899
 20
1.500000000000008
 30
0.0
 11
-28.50000000000002
 21
1.499999999999987
 31
0.0
  0
LINE
  5
10B3B
330
10B2D
100
AcDbEntity
  8
0
100
AcDbLine
 10
-44.00000000000009
 20
0.0
 30
0.0
 11
-44.00000000000011
 21
-1.50000000000001
 31
0.0
  0
LINE
  5
10B3C
330
10B2D
100
AcDbEntity
  8
0
100
AcDbLine
 10
-40.00000000000006
 20
-1.499999999999932
 30
0.0
 11
-40.00000000000006
 21
0.0
 31
0.0
  0
LINE
  5
10B3D
330
10B2D
100
AcDbEntity
  8
0
100
AcDbLine
 10
-28.50000000000002
 20
0.0
 30
0.0
 11
-49.21031484164899
 21
0.0
 31
0.0
  0
SPLINE
  5
10B3E
330
10B2D
100
AcDbEntity
  8
0
100
AcDbSpline
210
0.0
220
0.0
230
1.0
 70
     8
 71
     3
 72
     8
 73
     4
 74
     0
 42
0.000000001
 43
0.0000000001
 40
-1.0
 40
-1.0
 40
-1.0
 40
-1.0
 40
0.0
 40
0.0
 40
0.0
 40
0.0
 10
-25.50000000000001
 20
2.999999999999964
 30
0.0
 10
-25.50000000000003
 20
1.429203673205108
 30
0.0
 10
-26.92920367320518
 20
-0.0000000000000123
 30
0.0
 10
-28.50000000000003
 20
-0.0000000000000094
 30
0.0
  0
SPLINE
  5
10B3F
330
10B2D
100
AcDbEntity
  8
0
100
AcDbSpline
210
0.0
220
0.0
230
1.0
 70
     8
 71
     3
 72
     8
 73
     4
 74
     0
 42
0.000000001
 43
0.0000000001
 40
0.0
 40
0.0
 40
0.0
 40
0.0
 40
1.0
 40
1.0
 40
1.0
 40
1.0
 10
-28.50000000000002
 20
1.49999999999999
 30
0.0
 10
-27.7146018366026
 20
1.499999999999989
 30
0.0
 10
-27.00000000000002
 20
2.214601836602553
 30
0.0
 10
-27.00000000000001
 20
2.999999999999984
 30
0.0
  0
LINE
  5
10B40
330
10B2D
100
AcDbEntity
  8
0
100
AcDbLine
 10
-28.50000000000002
 20
1.499999999999987
 30
0.0
 11
-28.50000000000002
 21
1.090140682897629
 31
0.0
  0
LINE
  5
10B41
330
10B2D
100
AcDbEntity
  8
0
100
AcDbLine
 10
-28.50000000000002
 20
1.090140682897629
 30
0.0
 11
-28.50000000000002
 21
0.0
 31
0.0
  0
LINE
  5
10B42
330
10B2D
100
AcDbEntity
  8
0
100
AcDbLine
 10
-42.00000000000007
 20
-8.999999999999985
 30
0.0
 11
-40.00000000000007
 21
-6.999999999999984
 31
0.0
  0
LINE
  5
10B43
330
10B2D
100
AcDbEntity
  8
0
100
AcDbLine
 10
-40.00000000000007
 20
-6.999999999999984
 30
0.0
 11
-40.00000000000006
 21
-1.500000000000003
 31
0.0
  0
LINE
  5
10B44
330
10B2D
100
AcDbEntity
  8
0
100
AcDbLine
 10
-44.00000000000008
 20
-1.500000000000003
 30
0.0
 11
-44.00000000000006
 21
-6.999999999999992
 31
0.0
  0
LINE
  5
10B45
330
10B2D
100
AcDbEntity
  8
0
100
AcDbLine
 10
-44.00000000000006
 20
-6.999999999999992
 30
0.0
 11
-42.00000000000007
 21
-8.999999999999985
 31
0.0
  0
ARC
  5
10B46
330
10B2D
100
AcDbEntity
  8
0
100
AcDbCircle
 10
-34.82677949145487
 20
7.495925238298273
 30
0.0
 40
5.0
100
AcDbArc
 50
287.9999999999999
 51
350.9999999999998
  0
LINE
  5
10B47
330
10B2D
100
AcDbEntity
  8
0
100
AcDbLine
 10
-29.88833778847918
 20
6.713752913097108
 30
0.0
 11
-27.01846748910732
 21
24.83340086267714
 31
0.0
  0
LINE
  5
10B48
330
10B2D
100
AcDbEntity
  8
0
100
AcDbLine
 10
-36.8740511689245
 20
1.573415225557276
 30
0.0
 11
-33.28169451958014
 21
2.740642656822506
 31
0.0
  0
LINE
  5
10B49
330
10B2D
100
AcDbEntity
  8
0
100
AcDbLine
 10
49.21031484164903
 20
0.0
 30
0.0
 11
28.50000000000002
 21
0.0
 31
0.0
  0
LINE
  5
10B4A
330
10B2D
100
AcDbEntity
  8
0
100
AcDbLine
 10
28.50000000000002
 20
1.499999999999987
 30
0.0
 11
49.21031484164903
 21
1.499999999999987
 31
0.0
  0
LINE
  5
10B4B
330
10B2D
100
AcDbEntity
  8
0
100
AcDbLine
 10
28.50000000000002
 20
1.499999999999987
 30
0.0
 11
28.50000000000002
 21
1.090140682897629
 31
0.0
  0
LINE
  5
10B4C
330
10B2D
100
AcDbEntity
  8
0
100
AcDbLine
 10
28.50000000000002
 20
1.090140682897629
 30
0.0
 11
28.50000000000002
 21
0.0
 31
0.0
  0
SPLINE
  5
10B4D
330
10B2D
100
AcDbEntity
  8
0
100
AcDbSpline
210
0.0
220
0.0
230
1.0
 70
     8
 71
     3
 72
     8
 73
     4
 74
     0
 42
0.000000001
 43
0.0000000001
 40
0.0
 40
0.0
 40
0.0
 40
0.0
 40
1.0
 40
1.0
 40
1.0
 40
1.0
 10
28.50000000000003
 20
-0.0000000000000094
 30
0.0
 10
26.92920367320518
 20
-0.0000000000000123
 30
0.0
 10
25.50000000000003
 20
1.429203673205108
 30
0.0
 10
25.50000000000001
 20
2.999999999999964
 30
0.0
  0
SPLINE
  5
10B4E
330
10B2D
100
AcDbEntity
  8
0
100
AcDbSpline
210
0.0
220
0.0
230
1.0
 70
     8
 71
     3
 72
     8
 73
     4
 74
     0
 42
0.000000001
 43
0.0000000001
 40
-1.0
 40
-1.0
 40
-1.0
 40
-1.0
 40
0.0
 40
0.0
 40
0.0
 40
0.0
 10
27.00000000000001
 20
2.999999999999984
 30
0.0
 10
27.00000000000002
 20
2.214601836602553
 30
0.0
 10
27.7146018366026
 20
1.499999999999989
 30
0.0
 10
28.50000000000002
 20
1.49999999999999
 30
0.0
  0
SPLINE
  5
10B4F
330
10B2D
100
AcDbEntity
  8
0
100
AcDbSpline
210
0.0
220
0.0
230
1.0
 70
     8
 71
     3
 72
     8
 73
     4
 74
     0
 42
0.000000001
 43
0.0000000001
 40
-1.0
 40
-1.0
 40
-1.0
 40
-1.0
 40
0.0
 40
0.0
 40
0.0
 40
0.0
 10
-24.0
 20
2.999999999999993
 30
0.0
 10
-22.87499999999994
 20
1.429203673205081
 30
0.0
 10
-21.74999999999958
 20
0.0000000000000071
 30
0.0
 10
-20.62500000000003
 20
0.0000000000000067
 30
0.0
  0
SPLINE
  5
10B50
330
10B2D
100
AcDbEntity
  8
0
100
AcDbSpline
210
0.0
220
0.0
230
1.0
 70
     8
 71
     3
 72
     8
 73
     4
 74
     0
 42
0.000000001
 43
0.0000000001
 40
-1.0
 40
-1.0
 40
-1.0
 40
-1.0
 40
0.0
 40
0.0
 40
0.0
 40
0.0
 10
20.62500000000001
 20
0.0000000000000067
 30
0.0
 10
21.75000000000031
 20
0.0000000000000069
 30
0.0
 10
22.87500000000002
 20
1.429203673205036
 30
0.0
 10
24.00000000000002
 20
3.000000000000005
 30
0.0
  0
LINE
  5
10B51
330
10B2D
100
AcDbEntity
  8
0
100
AcDbLine
 10
20.62500000000001
 20
0.0
 30
0.0
 11
-20.62500000000001
 21
0.0
 31
0.0
  0
LINE
  5
10B52
330
10B2D
100
AcDbEntity
  8
0
100
AcDbLine
 10
-24.0
 20
3.000000000000002
 30
0.0
 11
-27.0
 21
3.000000000000002
 31
0.0
  0
LINE
  5
10B53
330
10B2D
100
AcDbEntity
  8
0
100
AcDbLine
 10
27.0
 20
3.000000000000002
 30
0.0
 11
24.0
 21
3.000000000000002
 31
0.0
  0
LINE
  5
10B54
330
10B2D
100
AcDbEntity
  8
0
100
AcDbLine
 10
-24.0
 20
54.0
 30
0.0
 11
24.0
 21
54.0
 31
0.0
  0
LINE
  5
10B55
330
10B2D
100
AcDbEntity
  8
0
100
AcDbLine
 10
40.00000000000007
 20
0.0
 30
0.0
 11
40.00000000000007
 21
-1.500000000000003
 31
0.0
  0
LINE
  5
10B56
330
10B2D
100
AcDbEntity
  8
0
100
AcDbLine
 10
44.00000000000008
 20
-1.499999999999975
 30
0.0
 11
44.00000000000011
 21
0.0
 31
0.0
  0
LINE
  5
10B57
330
10B2D
100
AcDbEntity
  8
0
100
AcDbLine
 10
40.00000000000007
 20
-6.999999999999984
 30
0.0
 11
42.00000000000006
 21
-8.999999999999985
 31
0.0
  0
LINE
  5
10B58
330
10B2D
100
AcDbEntity
  8
0
100
AcDbLine
 10
42.00000000000006
 20
-8.999999999999985
 30
0.0
 11
44.00000000000005
 21
-6.999999999999992
 31
0.0
  0
LINE
  5
10B59
330
10B2D
100
AcDbEntity
  8
0
100
AcDbLine
 10
40.00000000000006
 20
-1.500000000000003
 30
0.0
 11
40.00000000000007
 21
-6.999999999999984
 31
0.0
  0
LINE
  5
10B5A
330
10B2D
100
AcDbEntity
  8
0
100
AcDbLine
 10
44.00000000000005
 20
-6.999999999999992
 30
0.0
 11
44.00000000000006
 21
-1.500000000000003
 31
0.0
  0
ARC
  5
10B5B
330
10B2D
100
AcDbEntity
  8
0
100
AcDbCircle
 10
-37.33757666048692
 20
3.000000000000007
 30
0.0
 40
1.5
100
AcDbArc
 50
270.0
 51
287.9999999999999
  0
ARC
  5
10B5C
330
10B2D
100
AcDbEntity
  8
0
100
AcDbCircle
 10
-28.50000000000002
 20
25.06805256023748
 30
0.0
 40
1.5
100
AcDbArc
 50
351.0000000000001
 51
0.0
  0
ARC
  5
10B5D
330
10B2D
100
AcDbEntity
  8
0
100
AcDbCircle
 10
28.50000000000012
 20
25.0680525602369
 30
0.0
 40
1.5
100
AcDbArc
 50
180.0
 51
189.0
  0
ARC
  5
10B5E
330
10B2D
100
AcDbEntity
  8
0
100
AcDbCircle
 10
37.33757666048695
 20
2.999999999999994
 30
0.0
 40
1.5
100
AcDbArc
 50
252.0
 51
270.0
  0
LINE
  5
10B5F
330
10B2D
100
AcDbEntity
  8
0
100
AcDbLine
 10
33.28169451958014
 20
2.740642656822506
 30
0.0
 11
36.87405116892454
 21
1.573415225557263
 31
0.0
  0
LINE
  5
10B60
330
10B2D
100
AcDbEntity
  8
0
100
AcDbLine
 10
27.01846748910741
 20
24.83340086267656
 30
0.0
 11
29.88833778847918
 21
6.713752913097108
 31
0.0
  0
ARC
  5
10B61
330
10B2D
100
AcDbEntity
  8
0
100
AcDbCircle
 10
34.82677949145487
 20
7.495925238298273
 30
0.0
 40
5.0
100
AcDbArc
 50
189.0
 51
252.0000000000001
  0
ENDBLK
  5
10B2F
330
10B2D
100
AcDbEntity
  8
0
100
AcDbBlockEnd
  0
BLOCK
  5
10B63
330
10B62
100
AcDbEntity
  8
0
100
AcDbBlockBegin
  2
SBE51_90-F-ISO
 70
     0
 10
0.0
 20
0.0
 30
0.0
  3
SBE51_90-F-ISO
  1

  0
ELLIPSE
  5
10B65
330
10B62
100
AcDbEntity
  8
0
100
AcDbEllipse
 10
-6.363961030679008
 20
56.76514446129019
 30
0.0
 11
1.500000000000003
 21
-0.0000000000000001
 31
0.0
210
0.0
220
0.0
230
1.0
 40
0.5773502691896259
 41
5.497787143782147
 42
7.068583470577038
  0
LINE
  5
10B66
330
10B62
100
AcDbEntity
  8
0
100
AcDbLine
 10
-5.303300858899189
 20
56.1527720255944
 30
0.0
 11
-5.303300858899189
 21
57.37751689698601
 31
0.0
  0
LINE
  5
10B67
330
10B62
100
AcDbEntity
  8
0
100
AcDbLine
 10
-4.242640687101308
 20
44.90475288437431
 30
0.0
 11
-4.242640687119361
 21
55.54039958989861
 31
0.0
  0
LINE
  5
10B68
330
10B62
100
AcDbEntity
  8
0
100
AcDbLine
 10
-4.242640687119343
 20
-16.31129953174129
 30
0.0
 11
-4.242640687119316
 21
-7.942819490731487
 31
0.0
  0
LINE
  5
10B69
330
10B62
100
AcDbEntity
  8
0
100
AcDbLine
 10
-4.242640687119316
 20
-7.942819490731487
 30
0.0
 11
-4.24264068711937
 21
23.28878464325346
 31
0.0
  0
LINE
  5
10B6A
330
10B62
100
AcDbEntity
  8
0
100
AcDbLine
 10
-4.242640687119374
 20
26.55477096696438
 30
0.0
 11
-4.242640687108405
 21
37.59866596292754
 31
0.0
  0
ELLIPSE
  5
10B6B
330
10B62
100
AcDbEntity
  8
0
100
AcDbEllipse
 10
-6.363961030679008
 20
56.76514446129022
 30
0.0
 11
2.999999999999993
 21
0.0
 31
0.0
210
0.0
220
0.0
230
1.0
 40
0.5773502691896259
 41
5.497787143782137
 42
7.068583470577034
  0
ELLIPSE
  5
10B6C
330
10B62
100
AcDbEntity
  8
0
100
AcDbEllipse
 10
33.94112549695433
 20
33.49499190484996
 30
0.0
 11
-2.999999999999998
 21
-0.0000000000001747
 31
0.0
210
0.0
220
0.0
230
1.0
 40
0.5773502691896267
 41
3.926990816987
 42
5.497787143781897
  0
LINE
  5
10B6D
330
10B62
100
AcDbEntity
  8
0
100
AcDbLine
 10
32.88046532517447
 20
5.121735717611506
 30
0.0
 11
32.88046532517449
 21
15.26768116437614
 31
0.0
  0
LINE
  5
10B6E
330
10B62
100
AcDbEntity
  8
0
100
AcDbLine
 10
35.00178566873414
 20
15.26768116437615
 30
0.0
 11
35.00178566873412
 21
5.121735717611497
 31
0.0
  0
LINE
  5
10B6F
330
10B62
100
AcDbEntity
  8
0
100
AcDbLine
 10
32.8804653251745
 20
24.36966718424491
 30
0.0
 11
32.88046532517451
 21
34.10736434054576
 31
0.0
  0
LINE
  5
10B70
330
10B62
100
AcDbEntity
  8
0
100
AcDbLine
 10
32.88046532517441
 20
-37.74433478109409
 30
0.0
 11
32.88046532517443
 21
-29.37585474008431
 31
0.0
  0
LINE
  5
10B71
330
10B62
100
AcDbEntity
  8
0
100
AcDbLine
 10
32.88046532517443
 20
-29.37585474008431
 30
0.0
 11
32.88046532517447
 21
1.855749393900598
 31
0.0
  0
LINE
  5
10B72
330
10B62
100
AcDbEntity
  8
0
100
AcDbLine
 10
32.88046532517451
 20
34.10736434054576
 30
0.0
 11
31.81980515339469
 21
34.71973677624155
 31
0.0
  0
LINE
  5
10B73
330
10B62
100
AcDbEntity
  8
0
100
AcDbLine
 10
36.06244584051398
 20
34.71973677624155
 30
0.0
 11
35.00178566873415
 21
34.10736434054576
 31
0.0
  0
LINE
  5
10B74
330
10B62
100
AcDbEntity
  8
0
100
AcDbLine
 10
35.00178566873412
 20
1.855749393900607
 30
0.0
 11
35.00178566873408
 21
-27.72365304665891
 31
0.0
  0
LINE
  5
10B75
330
10B62
100
AcDbEntity
  8
0
100
AcDbLine
 10
35.00178566873415
 20
34.10736434054576
 30
0.0
 11
35.00178566873415
 21
24.36966718424491
 31
0.0
  0
ELLIPSE
  5
10B76
330
10B62
100
AcDbEntity
  8
0
100
AcDbEllipse
 10
-3.181980515339519
 20
-16.92367196743709
 30
0.0
 11
-0.7499999999999215
 21
1.299038105676699
 31
0.0
210
0.0
220
0.0
230
1.0
 40
0.5773502691896259
 41
0.7853981633976881
 42
2.356194490192585
  0
ELLIPSE
  5
10B77
330
10B62
100
AcDbEntity
  8
0
100
AcDbEllipse
 10
33.94112549695433
 20
33.49499190484996
 30
0.0
 11
1.499999999999999
 21
-0.0000000000000894
 31
0.0
210
0.0
220
0.0
230
1.0
 40
0.5773502691896259
 41
0.7853981633976899
 42
2.356194490192585
  0
LINE
  5
10B78
330
10B62
100
AcDbEntity
  8
0
100
AcDbLine
 10
-5.303300858899189
 20
57.37751689698601
 30
0.0
 11
-4.24264068711937
 21
57.9898893326818
 31
0.0
  0
LINE
  5
10B79
330
10B62
100
AcDbEntity
  8
0
100
AcDbLine
 10
-4.242640687119361
 20
55.54039958989861
 30
0.0
 11
-5.30330085889918
 21
56.1527720255944
 31
0.0
  0
ELLIPSE
  5
10B7A
330
10B62
100
AcDbEntity
  8
0
100
AcDbEllipse
 10
30.75914498161477
 20
-36.5195899097025
 30
0.0
 11
1.5
 21
-2.598076211353316
 31
0.0
210
0.0
220
0.0
230
0.9999999999999998
 40
0.5773502691896259
 41
0.0000000000000002
 42
0.7853981633974473
  0
LINE
  5
10B7B
330
10B62
100
AcDbEntity
  8
0
100
AcDbLine
 10
-3.363961030679005
 20
46.20313748394708
 30
0.0
 11
-3.36396103067901
 21
56.76514446129022
 31
0.0
  0
LINE
  5
10B7C
330
10B62
100
AcDbEntity
  8
0
100
AcDbLine
 10
-3.363961030679003
 20
28.18776412881472
 30
0.0
 11
-3.363961030679003
 21
38.7497711061201
 31
0.0
  0
LINE
  5
10B7D
330
10B62
100
AcDbEntity
  8
0
100
AcDbLine
 10
-3.363961030678994
 20
-5.891973772627228
 30
0.0
 11
-3.363961030678999
 21
24.10528122418626
 31
0.0
  0
ELLIPSE
  5
10B7E
330
10B62
100
AcDbEntity
  8
0
100
AcDbEllipse
 10
-23.68807716974941
 20
6.754728879466966
 30
0.0
 11
1.249999999999871
 21
2.165063509461171
 31
0.0
210
0.0
220
0.0
230
1.0
 40
0.5773502691896259
 41
3.579741684173544
 42
5.845036276594998
  0
ELLIPSE
  5
10B7F
330
10B62
100
AcDbEntity
  8
0
100
AcDbEllipse
 10
-23.68807716974943
 20
39.41459211657602
 30
0.0
 11
1.24999999999987
 21
2.16506350946117
 31
0.0
210
0.0
220
0.0
230
1.0
 40
0.5773502691896258
 41
3.579741684173544
 42
5.845036276594996
  0
ELLIPSE
  5
10B80
330
10B62
100
AcDbEntity
  8
0
100
AcDbEllipse
 10
-23.68807716974942
 20
23.08466049802149
 30
0.0
 11
1.24999999999987
 21
2.16506350946117
 31
0.0
210
0.0
220
0.0
230
1.0
 40
0.5773502691896258
 41
3.579741684173544
 42
5.845036276594996
  0
ELLIPSE
  5
10B81
330
10B62
100
AcDbEntity
  8
0
100
AcDbEllipse
 10
-22.6274169979696
 20
22.4722880623257
 30
0.0
 11
1.249999999999999
 21
2.165063509461097
 31
0.0
210
0.0
220
0.0
230
0.9999999999999998
 40
0.5773502691896259
 41
0.0
 42
6.283185307179586
  0
ELLIPSE
  5
10B82
330
10B62
100
AcDbEntity
  8
0
100
AcDbEllipse
 10
-22.6274169979696
 20
38.80221968088023
 30
0.0
 11
1.249999999999999
 21
2.165063509461097
 31
0.0
210
0.0
220
0.0
230
0.9999999999999998
 40
0.5773502691896259
 41
0.0
 42
6.283185307179586
  0
ELLIPSE
  5
10B83
330
10B62
100
AcDbEntity
  8
0
100
AcDbEllipse
 10
-22.6274169979696
 20
6.142356443771173
 30
0.0
 11
1.249999999999999
 21
2.165063509461097
 31
0.0
210
0.0
220
0.0
230
0.9999999999999998
 40
0.5773502691896259
 41
0.0
 42
6.283185307179586
  0
LINE
  5
10B84
330
10B62
100
AcDbEntity
  8
0
100
AcDbLine
 10
-41.36574669941308
 20
-21.81767004389526
 30
0.0
 11
-41.36574669941308
 21
-36.51958990970252
 31
0.0
  0
LINE
  5
10B85
330
10B62
100
AcDbEntity
  8
0
100
AcDbLine
 10
-5.30330085889918
 20
56.1527720255944
 30
0.0
 11
-24.74873734152924
 21
44.92594403783815
 31
0.0
  0
LINE
  5
10B86
330
10B62
100
AcDbEntity
  8
0
100
AcDbLine
 10
-4.242640687119361
 20
55.54039958989861
 30
0.0
 11
-23.68807716974942
 21
44.31357160214236
 31
0.0
  0
LINE
  5
10B87
330
10B62
100
AcDbEntity
  8
0
100
AcDbLine
 10
-40.30508652763326
 20
-22.43004247959107
 30
0.0
 11
-40.30508652763326
 21
-37.13196234539831
 31
0.0
  0
LINE
  5
10B88
330
10B62
100
AcDbEntity
  8
0
100
AcDbLine
 10
-4.242640687119334
 20
-57.9526251590553
 30
0.0
 11
-4.242640687119303
 21
-43.25070529324808
 31
0.0
  0
LINE
  5
10B89
330
10B62
100
AcDbEntity
  8
0
100
AcDbLine
 10
31.81980515339469
 20
34.71973677624155
 30
0.0
 11
12.37436867076462
 21
23.49290878848531
 31
0.0
  0
LINE
  5
10B8A
330
10B62
100
AcDbEntity
  8
0
100
AcDbLine
 10
13.43502884254444
 20
22.88053635278951
 30
0.0
 11
32.88046532517451
 21
34.10736434054576
 31
0.0
  0
LINE
  5
10B8B
330
10B62
100
AcDbEntity
  8
0
100
AcDbLine
 10
-3.181980515339517
 20
-58.56499759475112
 30
0.0
 11
-3.181980515339482
 21
-43.86307772894388
 31
0.0
  0
LINE
  5
10B8C
330
10B62
100
AcDbEntity
  8
0
100
AcDbLine
 10
-39.24442635585344
 20
-40.19382452387727
 30
0.0
 11
-5.303300858899149
 21
-59.7897424661427
 31
0.0
  0
LINE
  5
10B8D
330
10B62
100
AcDbEntity
  8
0
100
AcDbLine
 10
-39.24442635585343
 20
-38.96907965248569
 30
0.0
 11
-5.303300858899144
 21
-58.56499759475112
 31
0.0
  0
LINE
  5
10B8E
330
10B62
100
AcDbEntity
  8
0
100
AcDbLine
 10
-41.36574669941308
 20
-21.81767004389526
 30
0.0
 11
-32.73175027446037
 21
-10.10819559755656
 31
0.0
  0
LINE
  5
10B8F
330
10B62
100
AcDbEntity
  8
0
100
AcDbLine
 10
-28.99137802864851
 20
0.174185446854076
 30
0.0
 11
-28.99137802864853
 21
37.57747480948864
 31
0.0
  0
LINE
  5
10B90
330
10B62
100
AcDbEntity
  8
0
100
AcDbLine
 10
-27.93071785686871
 20
36.96510237379285
 30
0.0
 11
-27.9307178568687
 21
-0.4381869888417178
 31
0.0
  0
LINE
  5
10B91
330
10B62
100
AcDbEntity
  8
0
100
AcDbLine
 10
-31.67109010268055
 20
-10.72056803325235
 30
0.0
 11
-40.30508652763326
 21
-22.43004247959107
 31
0.0
  0
LINE
  5
10B92
330
10B62
100
AcDbEntity
  8
0
100
AcDbLine
 10
-4.242640687119303
 20
-43.25070529324808
 30
0.0
 11
4.391355737833424
 21
-31.54123084690939
 31
0.0
  0
LINE
  5
10B93
330
10B62
100
AcDbEntity
  8
0
100
AcDbLine
 10
8.131727983645287
 20
-21.25884980249876
 30
0.0
 11
8.131727983645335
 21
16.14443956013577
 31
0.0
  0
LINE
  5
10B94
330
10B62
100
AcDbEntity
  8
0
100
AcDbLine
 10
9.192388155425154
 20
15.53206712443996
 30
0.0
 11
9.192388155425106
 21
-21.87122223819455
 31
0.0
  0
LINE
  5
10B95
330
10B62
100
AcDbEntity
  8
0
100
AcDbLine
 10
5.452015909613241
 20
-32.15360328260519
 30
0.0
 11
-3.181980515339482
 21
-43.86307772894388
 31
0.0
  0
LINE
  5
10B96
330
10B62
100
AcDbEntity
  8
0
100
AcDbLine
 10
-3.181980515339482
 20
-43.86307772894388
 30
0.0
 11
-4.242640687119303
 21
-43.25070529324808
 31
0.0
  0
LINE
  5
10B97
330
10B62
100
AcDbEntity
  8
0
100
AcDbLine
 10
-40.30508652763326
 20
-22.43004247959107
 30
0.0
 11
-41.36574669941308
 21
-21.81767004389526
 31
0.0
  0
ELLIPSE
  5
10B98
330
10B62
100
AcDbEntity
  8
0
100
AcDbEllipse
 10
-37.47665940288708
 20
-4.724794038712287
 30
0.0
 11
-6.000000000000621
 21
-10.39230484541291
 31
0.0
210
0.0
220
0.0
230
0.9999999999999998
 40
0.5773502691896259
 41
1.378810109075633
 42
2.356194490192585
  0
ELLIPSE
  5
10B99
330
10B62
100
AcDbEntity
  8
0
100
AcDbEllipse
 10
-36.41599923110725
 20
-5.337166474408081
 30
0.0
 11
5.999999999999996
 21
10.39230484541327
 31
0.0
210
0.0
220
0.0
230
1.0
 40
0.5773502691896259
 41
4.520402762665313
 42
5.497787143782137
  0
ELLIPSE
  5
10B9A
330
10B62
100
AcDbEntity
  8
0
100
AcDbEllipse
 10
-0.3535533905933597
 20
-26.15782928806508
 30
0.0
 11
-6.000000000000644
 21
-10.3923048454129
 31
0.0
210
0.0
220
0.0
230
1.0
 40
0.5773502691896251
 41
1.378810109075635
 42
2.356194490192587
  0
ELLIPSE
  5
10B9B
330
10B62
100
AcDbEntity
  8
0
100
AcDbEllipse
 10
0.7071067811864618
 20
-26.77020172376087
 30
0.0
 11
6.000000000000014
 21
10.39230484541326
 31
0.0
210
0.0
220
0.0
230
1.0
 40
0.5773502691896253
 41
4.520402762665314
 42
5.497787143782138
  0
ELLIPSE
  5
10B9C
330
10B62
100
AcDbEntity
  8
0
100
AcDbEllipse
 10
-15.20279579551085
 20
20.79072411527912
 30
0.0
 11
-6.0
 21
10.39230484541326
 31
0.0
210
0.0
220
0.0
230
0.9999999999999998
 40
0.5773502691896257
 41
0.9794938541811761
 42
1.178784220247862
  0
LINE
  5
10B9D
330
10B62
100
AcDbEntity
  8
0
100
AcDbLine
 10
-27.9307178568687
 20
-0.4381869888417178
 30
0.0
 11
-28.99137802864851
 21
0.174185446854076
 31
0.0
  0
ELLIPSE
  5
10B9E
330
10B62
100
AcDbEntity
  8
0
100
AcDbEllipse
 10
45.9619407771256
 20
-13.29800813845345
 30
0.0
 11
6.000000000000002
 21
-10.39230484541326
 31
0.0
210
0.0
220
0.0
230
0.9999999999999998
 40
0.5773502691896259
 41
0.000000000000001
 42
0.7853981633974479
  0
LINE
  5
10B9F
330
10B62
100
AcDbEntity
  8
0
100
AcDbLine
 10
-32.73175027446037
 20
-10.10819559755656
 30
0.0
 11
-31.67109010268055
 21
-10.72056803325235
 31
0.0
  0
LINE
  5
10BA0
330
10B62
100
AcDbEntity
  8
0
100
AcDbLine
 10
9.192388155425106
 20
-21.87122223819455
 30
0.0
 11
8.131727983645287
 21
-21.25884980249876
 31
0.0
  0
LINE
  5
10BA1
330
10B62
100
AcDbEntity
  8
0
100
AcDbLine
 10
4.391355737833424
 20
-31.54123084690939
 30
0.0
 11
5.452015909613241
 21
-32.15360328260519
 31
0.0
  0
LINE
  5
10BA2
330
10B62
100
AcDbEntity
  8
0
100
AcDbLine
 10
54.44722215136417
 20
-18.19698762401982
 30
0.0
 11
53.38656197958435
 21
-18.80936005971562
 31
0.0
  0
ELLIPSE
  5
10BA3
330
10B62
100
AcDbEntity
  8
0
100
AcDbEllipse
 10
44.90128060534579
 20
-13.91038057414924
 30
0.0
 11
6.000000000000007
 21
-10.39230484541326
 31
0.0
210
0.0
220
0.0
230
1.0
 40
0.5773502691896257
 41
6.091199089460209
 42
7.068583470577031
  0
LINE
  5
10BA4
330
10B62
100
AcDbEntity
  8
0
100
AcDbLine
 10
50.90128060534579
 20
-24.30268541956252
 30
0.0
 11
51.96194077712561
 21
-23.69031298386672
 31
0.0
  0
LINE
  5
10BA5
330
10B62
100
AcDbEntity
  8
0
100
AcDbLine
 10
-24.74873734152924
 20
44.92594403783815
 30
0.0
 11
-28.99137802864853
 21
37.57747480948864
 31
0.0
  0
LINE
  5
10BA6
330
10B62
100
AcDbEntity
  8
0
100
AcDbLine
 10
-27.93071785686871
 20
36.96510237379285
 30
0.0
 11
-23.68807716974942
 21
44.31357160214236
 31
0.0
  0
LINE
  5
10BA7
330
10B62
100
AcDbEntity
  8
0
100
AcDbLine
 10
12.37436867076462
 20
23.49290878848531
 30
0.0
 11
8.131727983645335
 21
16.14443956013577
 31
0.0
  0
LINE
  5
10BA8
330
10B62
100
AcDbEntity
  8
0
100
AcDbLine
 10
9.192388155425154
 20
15.53206712443996
 30
0.0
 11
13.43502884254444
 21
22.88053635278951
 31
0.0
  0
LINE
  5
10BA9
330
10B62
100
AcDbEntity
  8
0
100
AcDbLine
 10
-23.68807716974943
 20
63.09299296348007
 30
0.0
 11
-19.44543648263019
 21
65.54248270626333
 31
0.0
  0
LINE
  5
10BAA
330
10B62
100
AcDbEntity
  8
0
100
AcDbLine
 10
-19.44543648263019
 20
65.54248270626333
 30
0.0
 11
-18.38477631085033
 21
66.15485514195905
 31
0.0
  0
LINE
  5
10BAB
330
10B62
100
AcDbEntity
  8
0
100
AcDbLine
 10
-23.68807716974942
 20
44.31357160214236
 30
0.0
 11
-24.74873734152924
 21
44.92594403783815
 31
0.0
  0
LINE
  5
10BAC
330
10B62
100
AcDbEntity
  8
0
100
AcDbLine
 10
-28.99137802864853
 20
37.57747480948864
 30
0.0
 11
-27.93071785686871
 21
36.96510237379285
 31
0.0
  0
LINE
  5
10BAD
330
10B62
100
AcDbEntity
  8
0
100
AcDbLine
 10
13.43502884254444
 20
22.88053635278951
 30
0.0
 11
12.37436867076462
 21
23.49290878848531
 31
0.0
  0
LINE
  5
10BAE
330
10B62
100
AcDbEntity
  8
0
100
AcDbLine
 10
8.131727983645335
 20
16.14443956013577
 30
0.0
 11
9.192388155425154
 21
15.53206712443996
 31
0.0
  0
LINE
  5
10BAF
330
10B62
100
AcDbEntity
  8
0
100
AcDbLine
 10
54.44722215136422
 20
19.20630173861472
 30
0.0
 11
50.20458146424494
 21
26.55477096696437
 31
0.0
  0
LINE
  5
10BB0
330
10B62
100
AcDbEntity
  8
0
100
AcDbLine
 10
50.20458146424494
 20
26.55477096696437
 30
0.0
 11
49.14392129246511
 21
25.94239853126858
 31
0.0
  0
LINE
  5
10BB1
330
10B62
100
AcDbEntity
  8
0
100
AcDbLine
 10
49.14392129246511
 20
25.94239853126858
 30
0.0
 11
53.38656197958439
 21
18.59392930291892
 31
0.0
  0
LINE
  5
10BB2
330
10B62
100
AcDbEntity
  8
0
100
AcDbLine
 10
53.38656197958439
 20
18.59392930291892
 30
0.0
 11
54.44722215136422
 21
19.20630173861472
 31
0.0
  0
ELLIPSE
  5
10BB3
330
10B62
100
AcDbEntity
  8
0
100
AcDbEllipse
 10
-6.483195407915274
 20
40.60179235229546
 30
0.0
 11
0.9850528317504799
 21
1.131225405767199
 31
0.0
210
0.0
220
0.0
230
1.0
 40
0.4173680013367555
 41
0.0
 42
0.5753553954488151
  0
SPLINE
  5
10BB4
330
10B62
100
AcDbEntity
  8
0
100
AcDbSpline
210
0.0
220
0.0
230
1.0
 70
     8
 71
     3
 72
    10
 73
     6
 74
     0
 42
0.000000001
 43
0.0000000001
 40
0.13968434365431
 40
0.13968434365431
 40
0.13968434365431
 40
0.13968434365431
 40
0.1418729186708974
 40
0.1418729186708974
 40
0.2837458373417947
 40
0.2837458373417947
 40
0.2837458373417947
 40
0.2837458373417947
 10
-6.64817242283763
 20
42.64960718899529
 30
0.0
 10
-6.644198522555639
 20
42.64497641566318
 30
0.0
 10
-6.640229291497434
 20
42.64034802582989
 30
0.0
 10
-6.379261634712025
 20
42.33584800678961
 30
0.0
 10
-6.14150452422201
 20
42.04575123669333
 30
0.0
 10
-5.91364257259602
 20
41.77459845200285
 30
0.0
  0
ELLIPSE
  5
10BB5
330
10B62
100
AcDbEntity
  8
0
100
AcDbEllipse
 10
-5.303300858899175
 20
39.54047972742822
 30
0.0
 11
1.018271863351766
 21
1.101418363886371
 31
0.0
210
0.0
220
0.0
230
1.0
 40
0.3866729749328017
 41
0.0
 42
0.6279471263398913
  0
SPLINE
  5
10BB6
330
10B62
100
AcDbEntity
  8
0
100
AcDbSpline
210
0.0
220
0.0
230
1.0
 70
     8
 71
     3
 72
    10
 73
     6
 74
     0
 42
0.000000001
 43
0.0000000001
 40
0.0
 40
0.0
 40
0.0
 40
0.0
 40
0.0866240026525007
 40
0.0866240026525007
 40
0.1732480053050014
 40
0.1732480053050014
 40
0.1732480053050014
 40
0.1732480053050014
 10
-5.913642572528341
 20
41.77459845195535
 30
0.0
 10
-5.713675796595119
 20
41.59271208819599
 30
0.0
 10
-5.515249723700725
 20
41.40879513430923
 30
0.0
 10
-5.12074946649526
 20
41.03799035706864
 30
0.0
 10
-4.924675278419914
 20
40.85109927377488
 30
0.0
 10
-4.729482499448725
 20
40.66310147658455
 30
0.0
  0
ELLIPSE
  5
10BB7
330
10B62
100
AcDbEntity
  8
0
100
AcDbEllipse
 10
-5.303300858888242
 20
38.21103839862333
 30
0.0
 11
0.4817249453119342
 21
-1.420542529129004
 31
0.0
210
0.0
220
0.0
230
1.0
 40
0.6821022831553188
 41
0.9100452509959948
 42
2.142595991522567
  0
SPLINE
  5
10BB8
330
10B62
100
AcDbEntity
  8
0
100
AcDbSpline
210
0.0
220
0.0
230
1.0
 70
     8
 71
     3
 72
    10
 73
     6
 74
     0
 42
0.000000001
 43
0.0000000001
 40
-0.2385842614456942
 40
-0.2385842614456942
 40
-0.2385842614456942
 40
-0.2385842614456942
 40
-0.1421416204810505
 40
-0.1421416204810505
 40
-0.120089773566874
 40
-0.120089773566874
 40
-0.120089773566874
 40
-0.120089773566874
 10
-4.242640687097471
 20
37.59866596293385
 30
0.0
 10
-3.797383722436802
 20
37.80269686907041
 30
0.0
 10
-3.490417320211687
 20
38.12121370507155
 30
0.0
 10
-3.37475972325101
 20
38.57473171873399
 30
0.0
 10
-3.364156609970521
 20
38.66155850122368
 30
0.0
 10
-3.364242570370004
 20
38.74976894128643
 30
0.0
  0
SPLINE
  5
10BB9
330
10B62
100
AcDbEntity
  8
0
100
AcDbSpline
210
0.0
220
0.0
230
1.0
 70
     8
 71
     3
 72
    14
 73
    10
 74
     0
 42
0.000000001
 43
0.0000000001
 40
0.0000000000000001
 40
0.0000000000000001
 40
0.0000000000000001
 40
0.0000000000000001
 40
0.0303721411284297
 40
0.0303721411284297
 40
0.078967566933917
 40
0.078967566933917
 40
0.1421416204810505
 40
0.1421416204810505
 40
0.2385842614456942
 40
0.2385842614456942
 40
0.2385842614456942
 40
0.2385842614456942
 10
-4.729482499448711
 20
40.66310147658455
 30
0.0
 10
-4.661043932208346
 20
40.59718561662361
 30
0.0
 10
-4.598871667147528
 20
40.52871466055854
 30
0.0
 10
-4.457350153777599
 20
40.34680680514004
 30
0.0
 10
-4.390273056491511
 20
40.23105600714794
 30
0.0
 10
-4.293169520773458
 20
39.96868692302339
 30
0.0
 10
-4.280856895910449
 20
39.82339131680571
 30
0.0
 10
-4.364145916723187
 20
39.49759867068332
 30
0.0
 10
-4.522003540808028
 20
39.34124983496405
 30
0.0
 10
-4.74916245120037
 20
39.25607680411558
 30
0.0
  0
ELLIPSE
  5
10BBA
330
10B62
100
AcDbEntity
  8
0
100
AcDbEllipse
 10
-7.605842169234562
 20
37.25430981146509
 30
0.0
 11
0.6735304878558983
 21
-1.340282314263912
 31
0.0
210
0.0
220
0.0
230
1.0
 40
0.6134744499317045
 41
0.8199141697227281
 42
2.003105718372866
  0
SPLINE
  5
10BBB
330
10B62
100
AcDbEntity
  8
0
100
AcDbSpline
210
0.0
220
0.0
230
1.0
 70
     8
 71
     3
 72
    10
 73
     6
 74
     0
 42
0.000000001
 43
0.0000000001
 40
-0.329077185922576
 40
-0.329077185922576
 40
-0.329077185922576
 40
-0.329077185922576
 40
-0.1645385929612886
 40
-0.1645385929612886
 40
-0.0000000000000013
 40
-0.0000000000000013
 40
-0.0000000000000013
 40
-0.0000000000000013
 10
-6.545181997454734
 20
36.64193737576929
 30
0.0
 10
-6.158172429627231
 20
36.83642083664145
 30
0.0
 10
-5.772254128579161
 20
37.01149846325828
 30
0.0
 10
-5.004405773626636
 20
37.32815890220336
 30
0.0
 10
-4.622462069742674
 20
37.46986345893632
 30
0.0
 10
-4.242640687108409
 20
37.59866596292753
 30
0.0
  0
SPLINE
  5
10BBC
330
10B62
100
AcDbEntity
  8
0
100
AcDbSpline
210
0.0
220
0.0
230
1.0
 70
     8
 71
     3
 72
    10
 73
     6
 74
     0
 42
0.000000001
 43
0.0000000001
 40
0.0000000000000013
 40
0.0000000000000013
 40
0.0000000000000013
 40
0.0000000000000013
 40
0.1645385929612886
 40
0.1645385929612886
 40
0.329077185922576
 40
0.329077185922576
 40
0.329077185922576
 40
0.329077185922576
 10
-4.749162451200357
 20
39.25607680411559
 30
0.0
 10
-5.136713093956228
 20
39.11076503627631
 30
0.0
 10
-5.529357136333961
 20
38.95128401392323
 30
0.0
 10
-6.3266667962769
 20
38.59785534094047
 30
0.0
 10
-6.73141980088765
 20
38.40380030409571
 30
0.0
 10
-7.141446068892181
 20
38.19102651949047
 30
0.0
  0
ELLIPSE
  5
10BBD
330
10B62
100
AcDbEntity
  8
0
100
AcDbEllipse
 10
-9.104775798322526
 20
36.50105246581559
 30
0.0
 11
0.6735304878559069
 21
-1.340282314263932
 31
0.0
210
0.0
220
0.0
230
1.0
 40
0.6134744499317061
 41
0.8199141697227343
 42
2.003105718372864
  0
LINE
  5
10BBE
330
10B62
100
AcDbEntity
  8
0
100
AcDbLine
 10
-8.044115626542707
 20
35.8886800301198
 30
0.0
 11
-6.545181997454743
 21
36.6419373757693
 31
0.0
  0
LINE
  5
10BBF
330
10B62
100
AcDbEntity
  8
0
100
AcDbLine
 10
-7.141446068892181
 20
38.19102651949047
 30
0.0
 11
-8.640379697980137
 21
37.43776917384099
 31
0.0
  0
ELLIPSE
  5
10BC0
330
10B62
100
AcDbEntity
  8
0
100
AcDbEllipse
 10
-9.104775800051747
 20
42.83754609255246
 30
0.0
 11
0.8193997375741236
 21
-1.256417156128777
 31
0.0
210
0.0
220
0.0
230
1.0
 40
0.5388095822648808
 41
0.0000000001435069
 42
0.7550720329637603
  0
ELLIPSE
  5
10BC1
330
10B62
100
AcDbEntity
  8
0
100
AcDbEllipse
 10
-0.7790170445355749
 20
43.25143346608071
 30
0.0
 11
-18.92465153915224
 21
-11.19850234446446
 31
0.0
210
0.0
220
0.0
230
0.9999999999999998
 40
0.1346372153812724
 41
5.025585556707156
 42
7.381780046922147
  0
ELLIPSE
  5
10BC2
330
10B62
100
AcDbEntity
  8
0
100
AcDbEllipse
 10
-1.839677216315398
 20
43.8638059017765
 30
0.0
 11
-17.74233703997128
 21
-11.57661130405069
 31
0.0
210
0.0
220
0.0
230
1.0
 40
0.0872913523692789
 41
5.532780666771422
 42
7.40438771144566
  0
ELLIPSE
  5
10BC3
330
10B62
100
AcDbEntity
  8
0
100
AcDbEllipse
 10
-7.605842169234566
 20
43.81510821649623
 30
0.0
 11
0.8193997375596797
 21
-1.256417156078024
 31
0.0
210
0.0
220
0.0
230
1.0
 40
0.5388095822689463
 41
0.0000000000000507
 42
0.7550720328373429
  0
LINE
  5
10BC4
330
10B62
100
AcDbEntity
  8
0
100
AcDbLine
 10
-6.545181997454738
 20
43.20273578080043
 30
0.0
 11
-8.044115628271928
 21
42.22517365685667
 31
0.0
  0
ELLIPSE
  5
10BC5
330
10B62
100
AcDbEntity
  8
0
100
AcDbEllipse
 10
-5.303300858863089
 20
45.51712532008051
 30
0.0
 11
0.9480488983984216
 21
-1.162412700483576
 31
0.0
210
0.0
220
0.0
230
1.0
 40
0.4487796140200815
 41
0.0000000000000019
 42
0.7024165027826114
  0
SPLINE
  5
10BC6
330
10B62
100
AcDbEntity
  8
0
100
AcDbSpline
210
0.0
220
0.0
230
1.0
 70
     8
 71
     3
 72
    10
 73
     6
 74
     0
 42
0.000000001
 43
0.0000000001
 40
-0.3290771859266588
 40
-0.3290771859266588
 40
-0.3290771859266588
 40
-0.3290771859266588
 40
-0.1645385929633294
 40
-0.1645385929633294
 40
0.0
 40
0.0
 40
0.0
 40
0.0
 10
-4.242640687083265
 20
44.90475288438472
 30
0.0
 10
-4.622462069721131
 20
44.59497543335074
 30
0.0
 10
-5.004405773609001
 20
44.29564938956954
 30
0.0
 10
-5.772254128569946
 20
43.72567491964194
 30
0.0
 10
-6.158172429622537
 20
43.45513247626158
 30
0.0
 10
-6.545181997454738
 20
43.20273578080042
 30
0.0
  0
SPLINE
  5
10BC7
330
10B62
100
AcDbEntity
  8
0
100
AcDbSpline
210
0.0
220
0.0
230
1.0
 70
     8
 71
     3
 72
    12
 73
     8
 74
     0
 42
0.000000001
 43
0.0000000001
 40
-0.118491443632364
 40
-0.118491443632364
 40
-0.118491443632364
 40
-0.118491443632364
 40
-0.0753627829472241
 40
-0.0753627829472241
 40
-0.0289856857501224
 40
-0.0289856857501224
 40
-0.0000000000019338
 40
-0.0000000000019338
 40
-0.0000000000019338
 40
-0.0000000000019338
 10
-3.36415736177829
 20
46.20311190869732
 30
0.0
 10
-3.364356847456597
 20
46.04415941599512
 30
0.0
 10
-3.405579700607102
 20
45.87899699092055
 30
0.0
 10
-3.574596433270669
 20
45.53877062456855
 30
0.0
 10
-3.708176507644329
 20
45.3640885483968
 30
0.0
 10
-3.986930296303947
 20
45.09678339168416
 30
0.0
 10
-4.108819398838674
 20
44.99795522644788
 30
0.0
 10
-4.242640687073686
 20
44.90475288438709
 30
0.0
  0
ELLIPSE
  5
10BC8
330
10B62
100
AcDbEntity
  8
0
100
AcDbEllipse
 10
31.47059211893703
 20
13.72353855921755
 30
0.0
 11
-0.6444133738665759
 21
1.354522574039241
 31
0.0
210
0.0
220
0.0
230
1.0
 40
0.6257331206090916
 41
0.3725120245364017
 42
0.8333043077522699
  0
ELLIPSE
  5
10BC9
330
10B62
100
AcDbEntity
  8
0
100
AcDbEllipse
 10
44.10149390566885
 20
25.07239317445186
 30
0.0
 11
-26.60789148696049
 21
-14.33873511477723
 31
0.0
210
0.0
220
0.0
230
1.0
 40
0.1000225409266445
 41
5.17090266861509
 42
7.081851048126981
  0
ELLIPSE
  5
10BCA
330
10B62
100
AcDbEntity
  8
0
100
AcDbEllipse
 10
31.47059211893705
 20
21.83633869633148
 30
0.0
 11
-0.8425747043855631
 21
1.240994708904749
 31
0.0
210
0.0
220
0.0
230
1.0
 40
0.5245233345042666
 41
0.7452041137883523
 42
1.810549179579982
  0
ELLIPSE
  5
10BCB
330
10B62
100
AcDbEntity
  8
0
100
AcDbEllipse
 10
43.04083373388902
 20
25.68476561014765
 30
0.0
 11
-25.68345566027805
 21
-15.19796746748749
 31
0.0
210
0.0
220
0.0
230
1.0
 40
0.1346372153812722
 41
5.145249232568375
 42
7.262116370962243
  0
ELLIPSE
  5
10BCC
330
10B62
100
AcDbEntity
  8
0
100
AcDbEllipse
 10
32.91075534175141
 20
14.31165371908133
 30
0.0
 11
0.520850521899088
 21
-1.406667954365004
 31
0.0
210
0.0
220
0.0
230
1.0
 40
0.6701973449423547
 41
3.592562058822018
 42
4.032922845143481
  0
SPLINE
  5
10BCD
330
10B62
100
AcDbEntity
  8
0
100
AcDbSpline
210
0.0
220
0.0
230
1.0
 70
     8
 71
     3
 72
    10
 73
     6
 74
     0
 42
0.000000001
 43
0.0000000001
 40
-0.148950502086316
 40
-0.148950502086316
 40
-0.148950502086316
 40
-0.148950502086316
 40
-0.074475251043158
 40
-0.074475251043158
 40
0.0
 40
0.0
 40
0.0
 40
0.0
 10
31.85009516997159
 20
14.92402615477713
 30
0.0
 10
32.02287857331647
 20
14.98800310507901
 30
0.0
 10
32.1951317663569
 20
15.04827921653675
 30
0.0
 10
32.53857711259066
 20
15.16248759806785
 30
0.0
 10
32.70977012846279
 20
15.21642208956812
 30
0.0
 10
32.88046532517449
 20
15.26768116437615
 30
0.0
  0
ELLIPSE
  5
10BCE
330
10B62
100
AcDbEntity
  8
0
100
AcDbEllipse
 10
33.94112549695431
 20
14.65530872868036
 30
0.0
 11
-0.4314118640183589
 21
1.436622359419552
 31
0.0
210
0.0
220
0.0
230
1.0
 40
0.6961202208620331
 41
0.5876585946227167
 42
0.9343160604978004
  0
ELLIPSE
  5
10BCF
330
10B62
100
AcDbEntity
  8
0
100
AcDbEllipse
 10
34.6037406211458
 20
23.12350425135574
 30
0.0
 11
1.030044369542933
 21
1.09041670785665
 31
0.0
210
0.0
220
0.0
230
0.9999999999999998
 40
0.375186415147654
 41
4.287665715117299
 42
5.610805162114775
  0
SPLINE
  5
10BD0
330
10B62
100
AcDbEntity
  8
0
100
AcDbSpline
210
0.0
220
0.0
230
1.0
 70
     8
 71
     3
 72
    10
 73
     6
 74
     0
 42
0.000000001
 43
0.0000000001
 40
-0.0986315057595738
 40
-0.0986315057595738
 40
-0.0986315057595738
 40
-0.0986315057595738
 40
-0.0493157528797869
 40
-0.0493157528797869
 40
0.0
 40
0.0
 40
0.0
 40
0.0
 10
35.66440079292562
 20
23.73587668705154
 30
0.0
 10
35.55363091687692
 20
23.84051364493823
 30
0.0
 10
35.44304284052407
 20
23.94570492045222
 30
0.0
 10
35.22218526740848
 20
24.15702110342712
 30
0.0
 10
35.11191579261406
 20
24.26314623232707
 30
0.0
 10
35.00178566873415
 20
24.36966718424491
 30
0.0
  0
ELLIPSE
  5
10BD1
330
10B62
100
AcDbEntity
  8
0
100
AcDbEllipse
 10
33.94112549695433
 20
23.75729474854912
 30
0.0
 11
-1.042846028619087
 21
-1.078180022349422
 31
0.0
210
0.0
220
0.0
230
1.0
 40
0.362315975059222
 41
1.126298842996767
 42
2.473566334048442
  0
SPLINE
  5
10BD2
330
10B62
100
AcDbEntity
  8
0
100
AcDbSpline
210
0.0
220
0.0
230
1.0
 70
     8
 71
     3
 72
    10
 73
     6
 74
     0
 42
0.000000001
 43
0.0000000001
 40
0.0
 40
0.0
 40
0.0
 40
0.0
 40
0.0493157528797869
 40
0.0493157528797869
 40
0.0986315057595738
 40
0.0986315057595738
 40
0.0986315057595738
 40
0.0986315057595738
 10
33.84537922573464
 20
22.95254885763708
 30
0.0
 10
33.96208817655026
 20
22.84667045404721
 30
0.0
 10
34.07928665324118
 20
22.74115446717016
 30
0.0
 10
34.31479734348638
 20
22.53095185869441
 30
0.0
 10
34.43310961044155
 20
22.42626513625073
 30
0.0
 10
34.55205292798999
 20
22.32205482503613
 30
0.0
  0
ELLIPSE
  5
10BD3
330
10B62
100
AcDbEntity
  8
0
100
AcDbEllipse
 10
37.38188222437234
 20
20.10478886006454
 30
0.0
 11
1.075724519468979
 21
1.045378763039138
 31
0.0
210
0.0
220
0.0
230
1.0
 40
0.3273577323099398
 41
4.897499714566539
 42
5.625840623118909
  0
SPLINE
  5
10BD4
330
10B62
100
AcDbEntity
  8
0
100
AcDbSpline
210
0.0
220
0.0
230
1.0
 70
     8
 71
     3
 72
    10
 73
     6
 74
     0
 42
0.000000001
 43
0.0000000001
 40
-0.429810554753677
 40
-0.429810554753677
 40
-0.429810554753677
 40
-0.429810554753677
 40
-0.252793505438244
 40
-0.252793505438244
 40
-0.000000000000001
 40
-0.000000000000001
 40
-0.000000000000001
 40
-0.000000000000001
 10
38.44254239615215
 20
20.71716129576034
 30
0.0
 10
38.05397860688901
 20
21.11700450117706
 30
0.0
 10
37.68364278326161
 20
21.55485839899917
 30
0.0
 10
36.77540106088369
 20
22.59745237722939
 30
0.0
 10
36.23220932525339
 20
23.19950561213254
 30
0.0
 10
35.66440079292563
 20
23.73587668705152
 30
0.0
  0
SPLINE
  5
10BD5
330
10B62
100
AcDbEntity
  8
0
100
AcDbSpline
210
0.0
220
0.0
230
1.0
 70
     8
 71
     3
 72
    10
 73
     6
 74
     0
 42
0.000000001
 43
0.0000000001
 40
0.000000000000001
 40
0.000000000000001
 40
0.000000000000001
 40
0.000000000000001
 40
0.252793505438244
 40
0.252793505438244
 40
0.429810554753677
 40
0.429810554753677
 40
0.429810554753677
 40
0.429810554753677
 10
34.55205292799
 20
22.32205482503613
 30
0.0
 10
35.14714709926837
 20
21.93605808871725
 30
0.0
 10
35.76660472448593
 20
21.49431377521623
 30
0.0
 10
36.89997206947988
 20
20.67529089404456
 30
0.0
 10
37.39144913917774
 20
20.31584255651616
 30
0.0
 10
37.91624152120313
 20
19.95106582192247
 30
0.0
  0
ELLIPSE
  5
10BD6
330
10B62
100
AcDbEntity
  8
0
100
AcDbEllipse
 10
37.38188222437234
 20
14.33477097158334
 30
0.0
 11
0.1870368933165925
 21
1.488293385236417
 31
0.0
210
0.0
220
0.0
230
1.0
 40
0.7479997204301334
 41
5.22819043460479
 42
5.956531343157168
  0
ELLIPSE
  5
10BD7
330
10B62
100
AcDbEntity
  8
0
100
AcDbEllipse
 10
28.20789607037713
 20
23.74112816276658
 30
0.0
 11
12.86670137892407
 21
-8.191212071365349
 31
0.0
210
0.0
220
0.0
230
1.0
 40
0.2609200613534021
 41
5.779181046885873
 42
7.116398104046123
  0
ELLIPSE
  5
10BD8
330
10B62
100
AcDbEntity
  8
0
100
AcDbEllipse
 10
27.14723589859731
 20
23.12875572707078
 30
0.0
 11
13.6515271782338
 21
-7.074985500025725
 31
0.0
210
0.0
220
0.0
230
1.0
 40
0.199067523960315
 41
5.717381004953949
 42
7.054598062114198
  0
ELLIPSE
  5
10BD9
330
10B62
100
AcDbEntity
  8
0
100
AcDbEllipse
 10
34.60374062114581
 20
14.52397718523161
 30
0.0
 11
0.3083698224032494
 21
1.467960507858088
 31
0.0
210
0.0
220
0.0
230
1.0
 40
0.7251908855986268
 41
5.288653074036303
 42
6.047746408756563
  0
SPLINE
  5
10BDA
330
10B62
100
AcDbEntity
  8
0
100
AcDbSpline
210
0.0
220
0.0
230
1.0
 70
     8
 71
     3
 72
    10
 73
     6
 74
     0
 42
0.000000001
 43
0.0000000001
 40
-0.4298560553329322
 40
-0.4298560553329322
 40
-0.4298560553329322
 40
-0.4298560553329322
 40
-0.2504545042259919
 40
-0.2504545042259919
 40
-0.000000000000001
 40
-0.000000000000001
 40
-0.000000000000001
 40
-0.000000000000001
 10
35.66440079292563
 20
15.13634962092741
 30
0.0
 10
36.06736103217212
 20
15.05170103757191
 30
0.0
 10
36.45886457061588
 20
15.01293716050927
 30
0.0
 10
37.37725095111045
 20
14.97680646948541
 30
0.0
 10
37.89277867804466
 20
15.01623334540088
 30
0.0
 10
38.44254239615214
 20
14.94714340727913
 30
0.0
  0
SPLINE
  5
10BDB
330
10B62
100
AcDbEntity
  8
0
100
AcDbSpline
210
0.0
220
0.0
230
1.0
 70
     8
 71
     3
 72
    10
 73
     6
 74
     0
 42
0.000000001
 43
0.0000000001
 40
0.000000000000001
 40
0.000000000000001
 40
0.000000000000001
 40
0.000000000000001
 40
0.2504545042259919
 40
0.2504545042259919
 40
0.2614164267501684
 40
0.2614164267501684
 40
0.2614164267501684
 40
0.2614164267501684
 10
37.91624152120309
 20
15.69947369356791
 30
0.0
 10
37.17373329179789
 20
15.84964223825866
 30
0.0
 10
36.49910656430467
 20
15.85451579412341
 30
0.0
 10
35.83641558176218
 20
15.88432143456915
 30
0.0
 10
35.80870079175835
 20
15.88559275046886
 30
0.0
 10
35.78105809820336
 20
15.88689099249932
 30
0.0
  0
ELLIPSE
  5
10BDC
330
10B62
100
AcDbEntity
  8
0
100
AcDbEllipse
 10
33.94112549695432
 20
14.65530872868036
 30
0.0
 11
-0.2763935293054522
 21
-1.474315643598107
 31
0.0
210
0.0
220
0.0
230
1.0
 40
0.7317060891393135
 41
2.131227017211999
 42
2.680687794904642
  0
SPLINE
  5
10BDD
330
10B62
100
AcDbEntity
  8
0
100
AcDbSpline
210
0.0
220
0.0
230
1.0
 70
     8
 71
     3
 72
    10
 73
     6
 74
     0
 42
0.000000001
 43
0.0000000001
 40
-0.0986315057595786
 40
-0.0986315057595786
 40
-0.0986315057595786
 40
-0.0986315057595786
 40
-0.0493157528797894
 40
-0.0493157528797894
 40
-0.0000000000000002
 40
-0.0000000000000002
 40
-0.0000000000000002
 40
-0.0000000000000002
 10
35.00178566873414
 20
15.26768116437615
 30
0.0
 10
35.11191579261403
 20
15.2470348029581
 30
0.0
 10
35.22218526740848
 20
15.22583170994612
 30
0.0
 10
35.44304284052407
 20
15.18212353433933
 30
0.0
 10
35.55363091687692
 20
15.15961869855036
 30
0.0
 10
35.66440079292562
 20
15.13634962092741
 30
0.0
  0
ELLIPSE
  5
10BDE
330
10B62
100
AcDbEntity
  8
0
100
AcDbEllipse
 10
33.94112549695432
 20
23.75729474854912
 30
0.0
 11
-0.9743856472127159
 21
1.140426503772116
 31
0.0
210
0.0
220
0.0
230
1.0
 40
0.4267122036849473
 41
0.692402391295385
 42
1.94596186186324
  0
SPLINE
  5
10BDF
330
10B62
100
AcDbEntity
  8
0
100
AcDbSpline
210
0.0
220
0.0
230
1.0
 70
     8
 71
     3
 72
    10
 73
     6
 74
     0
 42
0.000000001
 43
0.0000000001
 40
-0.1489505020863105
 40
-0.1489505020863105
 40
-0.1489505020863105
 40
-0.1489505020863105
 40
-0.0744752510431553
 40
-0.0744752510431553
 40
0.0
 40
0.0
 40
0.0
 40
0.0
 10
32.8804653251745
 20
24.36966718424493
 30
0.0
 10
32.70977012846281
 20
24.22382442351121
 30
0.0
 10
32.53857711259067
 20
24.08008224741716
 30
0.0
 10
32.19513176635695
 20
23.7977141027483
 30
0.0
 10
32.02287857331651
 20
23.65908935946472
 30
0.0
 10
31.85009516997164
 20
23.52355322090127
 30
0.0
  0
ELLIPSE
  5
10BE0
330
10B62
100
AcDbEntity
  8
0
100
AcDbEllipse
 10
32.91075534175146
 20
22.91118078520548
 30
0.0
 11
0.9257933986362081
 21
-1.180214634310902
 31
0.0
210
0.0
220
0.0
230
1.0
 40
0.4663712957493068
 41
3.85270409708872
 42
5.071307076913496
  0
SPLINE
  5
10BE1
330
10B62
100
AcDbEntity
  8
0
100
AcDbSpline
210
0.0
220
0.0
230
1.0
 70
     8
 71
     3
 72
    10
 73
     6
 74
     0
 42
0.000000001
 43
0.0000000001
 40
0.0
 40
0.0
 40
0.0
 40
0.0
 40
0.0744752510431553
 40
0.0744752510431553
 40
0.1489505020863105
 40
0.1489505020863105
 40
0.1489505020863105
 40
0.1489505020863105
 10
32.72060674951929
 20
22.09236647191609
 30
0.0
 10
32.9103873637097
 20
22.2313478411022
 30
0.0
 10
33.09908941689281
 20
22.37278869687543
 30
0.0
 10
33.47406175844394
 20
22.65976708583395
 30
0.0
 10
33.66033484345984
 20
22.80530462437925
 30
0.0
 10
33.84537922573463
 20
22.95254885763708
 30
0.0
  0
ELLIPSE
  5
10BE2
330
10B62
100
AcDbEntity
  8
0
100
AcDbEllipse
 10
33.94112549695432
 20
23.75729474854912
 30
0.0
 11
-1.500000000000011
 21
-0.0000000000000874
 31
0.0
210
0.0
220
0.0
230
1.0
 40
0.5773502691896267
 41
3.926990816987
 42
5.497787143781898
  0
ELLIPSE
  5
10BE3
330
10B62
100
AcDbEntity
  8
0
100
AcDbEllipse
 10
33.9411254969543
 20
14.65530872868035
 30
0.0
 11
1.500000000000011
 21
-0.000000000000097
 31
0.0
210
0.0
220
0.0
230
1.0
 40
0.5773502691896292
 41
0.785398163397689
 42
2.356194490192587
  0
SPLINE
  5
10BE4
330
10B62
100
AcDbEntity
  8
0
100
AcDbSpline
210
0.0
220
0.0
230
1.0
 70
     8
 71
     3
 72
     8
 73
     4
 74
     0
 42
0.000000001
 43
0.0000000001
 40
-1.158510647660078
 40
-1.158510647660078
 40
-1.158510647660078
 40
-1.158510647660078
 40
-0.952546933670693
 40
-0.952546933670693
 40
-0.952546933670693
 40
-0.952546933670693
 10
30.40993194715721
 20
14.33591099491335
 30
0.0
 10
30.89352468771351
 20
14.56597997677606
 30
0.0
 10
31.37223336779513
 20
14.74708704964797
 30
0.0
 10
31.85009516997159
 20
14.92402615477713
 30
0.0
  0
SPLINE
  5
10BE5
330
10B62
100
AcDbEntity
  8
0
100
AcDbSpline
210
0.0
220
0.0
230
1.0
 70
     8
 71
     3
 72
     8
 73
     4
 74
     0
 42
0.000000001
 43
0.0000000001
 40
-0.2059637139893896
 40
-0.2059637139893896
 40
-0.2059637139893896
 40
-0.2059637139893896
 40
0.0
 40
0.0
 40
0.0
 40
0.0
 10
31.85009516997164
 20
23.52355322090127
 30
0.0
 10
31.37223235083646
 20
23.1487042480555
 30
0.0
 10
30.89352468771354
 20
22.77704694804122
 30
0.0
 10
30.40993194715723
 20
22.44871113202727
 30
0.0
  0
SPLINE
  5
10BE6
330
10B62
100
AcDbEntity
  8
0
100
AcDbSpline
210
0.0
220
0.0
230
1.0
 70
     8
 71
     3
 72
     8
 73
     4
 74
     0
 42
0.000000001
 43
0.0000000001
 40
0.0
 40
0.0
 40
0.0
 40
0.0
 40
0.2059637139893893
 40
0.2059637139893893
 40
0.2059637139893893
 40
0.2059637139893893
 10
31.03836014912065
 20
21.11234006196173
 30
0.0
 10
31.60123622165607
 20
21.44091087233695
 30
0.0
 10
32.16975329232814
 20
21.77570053924242
 30
0.0
 10
32.72060674951928
 20
22.09236647191609
 30
0.0
  0
SPLINE
  5
10BE7
330
10B62
100
AcDbEntity
  8
0
100
AcDbSpline
210
0.0
220
0.0
230
1.0
 70
     8
 71
     3
 72
    12
 73
     8
 74
     0
 42
0.000000001
 43
0.0000000001
 40
0.1197625046292686
 40
0.1197625046292686
 40
0.1197625046292686
 40
0.1197625046292686
 40
0.1702475024050769
 40
0.1702475024050769
 40
0.2269966698734358
 40
0.2269966698734358
 40
0.2837458373417947
 40
0.2837458373417947
 40
0.2837458373417947
 40
0.2837458373417947
 10
-6.555202213280222
 20
42.71156328046926
 30
0.0
 10
-6.443157969389909
 20
42.60418801512414
 30
0.0
 10
-6.332580589757181
 20
42.49850825834034
 30
0.0
 10
-6.0999500300758
 20
42.27852335737498
 30
0.0
 10
-5.97817790660311
 20
42.16477093003401
 30
0.0
 10
-5.736670931872063
 20
41.94374132378425
 30
0.0
 10
-5.616936732012183
 20
41.83646179231113
 30
0.0
 10
-5.49814257616116
 20
41.73301775806269
 30
0.0
  0
SPLINE
  5
10BE8
330
10B62
100
AcDbEntity
  8
0
100
AcDbSpline
210
0.0
220
0.0
230
1.0
 70
     8
 71
     3
 72
    16
 73
    12
 74
     0
 42
0.000000001
 43
0.0000000001
 40
0.0
 40
0.0
 40
0.0
 40
0.0
 40
0.0346496010610003
 40
0.0346496010610003
 40
0.0692992021220006
 40
0.0692992021220006
 40
0.1039488031830008
 40
0.1039488031830008
 40
0.1385984042440011
 40
0.1385984042440011
 40
0.1732480053050014
 40
0.1732480053050014
 40
0.1732480053050014
 40
0.1732480053050014
 10
-5.498142576140709
 20
41.73301775800965
 30
0.0
 10
-5.416159274775869
 20
41.66162802192477
 30
0.0
 10
-5.334430510460586
 20
41.58991955902354
 30
0.0
 10
-5.171440971104086
 20
41.44592898235739
 30
0.0
 10
-5.09018018668335
 20
41.37364684264449
 30
0.0
 10
-4.928087705515071
 20
41.22856522479005
 30
0.0
 10
-4.84725600452823
 20
41.15576572164738
 30
0.0
 10
-4.685985201582898
 20
41.00969901831059
 30
0.0
 10
-4.605546098833182
 20
40.93643179451055
 30
0.0
 10
-4.445026485817571
 20
40.78947335070439
 30
0.0
 10
-4.364945976863561
 20
40.71578210863847
 30
0.0
 10
-4.285028995547413
 20
40.64189809131457
 30
0.0
  0
SPLINE
  5
10BE9
330
10B62
100
AcDbEntity
  8
0
100
AcDbSpline
210
0.0
220
0.0
230
1.0
 70
     8
 71
     3
 72
    16
 73
    12
 74
     0
 42
0.000000001
 43
0.0000000001
 40
0.0000000000000001
 40
0.0000000000000001
 40
0.0000000000000001
 40
0.0000000000000001
 40
0.0240179547133753
 40
0.0240179547133753
 40
0.0480359094267505
 40
0.0480359094267505
 40
0.0720538641401257
 40
0.0720538641401257
 40
0.0960718188535009
 40
0.0960718188535009
 40
0.1200897735668761
 40
0.1200897735668761
 40
0.1200897735668761
 40
0.1200897735668761
 10
-4.285028995547413
 20
40.64189809131457
 30
0.0
 10
-4.194033080823329
 20
40.55777149357333
 30
0.0
 10
-4.105905853233267
 20
40.46792699015584
 30
0.0
 10
-3.937188128097313
 20
40.27407469433902
 30
0.0
 10
-3.85656643098029
 20
40.17007343311731
 30
0.0
 10
-3.706270238772586
 20
39.94414285845671
 30
0.0
 10
-3.636524947429244
 20
39.82217233932342
 30
0.0
 10
-3.514474660919768
 20
39.55573469882545
 30
0.0
 10
-3.462118643110434
 20
39.41108207762301
 30
0.0
 10
-3.386767432358297
 20
39.09718352712273
 30
0.0
 10
-3.363961030679001
 20
38.92764098221541
 30
0.0
 10
-3.363961030678999
 20
38.7497711061201
 30
0.0
  0
SPLINE
  5
10BEA
330
10B62
100
AcDbEntity
  8
0
100
AcDbSpline
210
0.0
220
0.0
230
1.0
 70
     8
 71
     3
 72
    16
 73
    12
 74
     0
 42
0.000000001
 43
0.0000000001
 40
0.6935097995171926
 40
0.6935097995171926
 40
0.6935097995171926
 40
0.6935097995171926
 40
0.7904272886253845
 40
0.7904272886253845
 40
0.8873447777335762
 40
0.8873447777335762
 40
0.9842622668417682
 40
0.9842622668417682
 40
1.08117975594996
 40
1.08117975594996
 40
1.178097245058152
 40
1.178097245058152
 40
1.178097245058152
 40
1.178097245058152
 10
-15.50577404962867
 20
36.45267026140686
 30
0.0
 10
-15.12399878561172
 20
36.7560496823631
 30
0.0
 10
-14.71848295138253
 20
37.07010448137262
 30
0.0
 10
-13.86436614560144
 20
37.71596833667459
 30
0.0
 10
-13.41576392269581
 20
38.04778046012679
 30
0.0
 10
-12.48010348610416
 20
38.72562607637639
 30
0.0
 10
-11.99304517638651
 20
39.0716606816925
 30
0.0
 10
-10.98535865320869
 20
39.7744119748917
 30
0.0
 10
-10.46473102130841
 20
40.13112880464518
 30
0.0
 10
-9.395039979478125
 20
40.85168324705243
 30
0.0
 10
-8.845977565362325
 20
41.21552049017808
 30
0.0
 10
-8.285376062484143
 20
41.58112893647962
 30
0.0
  0
LINE
  5
10BEB
330
10B62
100
AcDbEntity
  8
0
100
AcDbLine
 10
-8.285376062484775
 20
41.58112893643465
 30
0.0
 11
-6.786442431674886
 21
42.55869106041823
 31
0.0
  0
SPLINE
  5
10BEC
330
10B62
100
AcDbEntity
  8
0
100
AcDbSpline
210
0.0
220
0.0
230
1.0
 70
     8
 71
     3
 72
    16
 73
    12
 74
     0
 42
0.000000001
 43
0.0000000001
 40
0.0
 40
0.0
 40
0.0
 40
0.0
 40
0.0658154371853318
 40
0.0658154371853318
 40
0.1316308743706635
 40
0.1316308743706635
 40
0.1974463115559952
 40
0.1974463115559952
 40
0.263261748741327
 40
0.263261748741327
 40
0.3290771859266588
 40
0.3290771859266588
 40
0.3290771859266588
 40
0.3290771859266588
 10
-6.786442431674881
 20
42.5586910604182
 30
0.0
 10
-6.620275784916502
 20
42.66706024822046
 30
0.0
 10
-6.454812091487083
 20
42.77818918670391
 30
0.0
 10
-6.125519102485594
 20
43.00538016944913
 30
0.0
 10
-5.961689061048889
 20
43.12144079162922
 30
0.0
 10
-5.63576620706693
 20
43.35789551699557
 30
0.0
 10
-5.473672482568918
 20
43.47828860939191
 30
0.0
 10
-5.151226009061686
 20
43.72283564230969
 30
0.0
 10
-4.990872430307948
 20
43.84698894796925
 30
0.0
 10
-4.671837922776127
 20
44.09853520686795
 30
0.0
 10
-4.513156390721833
 20
44.22592779033765
 30
0.0
 10
-4.355251960453045
 20
44.3547126196064
 30
0.0
  0
SPLINE
  5
10BED
330
10B62
100
AcDbEntity
  8
0
100
AcDbSpline
210
0.0
220
0.0
230
1.0
 70
     8
 71
     3
 72
    16
 73
    12
 74
     0
 42
0.000000001
 43
0.0000000001
 40
0.0000000000038473
 40
0.0000000000038473
 40
0.0000000000038473
 40
0.0000000000038473
 40
0.0236982887295505
 40
0.0236982887295505
 40
0.0473965774552537
 40
0.0473965774552537
 40
0.0710948661809569
 40
0.0710948661809569
 40
0.0947931549066601
 40
0.0947931549066601
 40
0.1184914436323632
 40
0.1184914436323632
 40
0.1184914436323632
 40
0.1184914436323632
 10
-4.35525196042982
 20
44.35471261962536
 30
0.0
 10
-4.263175884874645
 20
44.42980868659708
 30
0.0
 10
-4.173259640178943
 20
44.51043707270661
 30
0.0
 10
-3.999073723393833
 20
44.68630081656863
 30
0.0
 10
-3.914752916279633
 20
44.78150896666952
 30
0.0
 10
-3.754624492792335
 20
44.99217792679729
 30
0.0
 10
-3.678680895464867
 20
45.10767790786657
 30
0.0
 10
-3.542335398147342
 20
45.36697844622657
 30
0.0
 10
-3.481779362589907
 20
45.51108975123068
 30
0.0
 10
-3.392420188604117
 20
45.83354614303004
 30
0.0
 10
-3.363961030679005
 20
46.01254090722278
 30
0.0
 10
-3.363961030679005
 20
46.20313748394707
 30
0.0
  0
LINE
  5
10BEE
330
10B62
100
AcDbEntity
  8
0
100
AcDbLine
 10
-4.242640687119343
 20
-16.31129953174129
 30
0.0
 11
-40.30508652763326
 21
-37.13196234539831
 31
0.0
  0
LINE
  5
10BEF
330
10B62
100
AcDbEntity
  8
0
100
AcDbLine
 10
-3.181980515339517
 20
-58.56499759475112
 30
0.0
 11
32.88046532517441
 21
-37.7443347810941
 31
0.0
  0
LINE
  5
10BF0
330
10B62
100
AcDbEntity
  8
0
100
AcDbLine
 10
-40.30508652763326
 20
-37.13196234539831
 30
0.0
 11
-41.36574669941308
 21
-36.51958990970252
 31
0.0
  0
ELLIPSE
  5
10BF1
330
10B62
100
AcDbEntity
  8
0
100
AcDbEllipse
 10
-39.24442635585344
 20
-37.7443347810941
 30
0.0
 11
0.7500000000000771
 21
-1.299038105676612
 31
0.0
210
0.0
220
0.0
230
1.0
 40
0.5773502691896258
 41
3.926990816987
 42
5.497787143781902
  0
LINE
  5
10BF2
330
10B62
100
AcDbEntity
  8
0
100
AcDbLine
 10
-3.181980515339519
 20
-18.14841683882867
 30
0.0
 11
-39.24442635585343
 21
-38.96907965248569
 31
0.0
  0
ELLIPSE
  5
10BF3
330
10B62
100
AcDbEntity
  8
0
100
AcDbEllipse
 10
-5.303300858899149
 20
-57.34025272335951
 30
0.0
 11
1.499999999999996
 21
-2.59807621135331
 31
0.0
210
0.0
220
0.0
230
1.0
 40
0.5773502691896259
 41
5.497787143782137
 42
7.068583470577033
  0
LINE
  5
10BF4
330
10B62
100
AcDbEntity
  8
0
100
AcDbLine
 10
-4.242640687119334
 20
-57.9526251590553
 30
0.0
 11
-3.181980515339517
 21
-58.56499759475112
 31
0.0
  0
LINE
  5
10BF5
330
10B62
100
AcDbEntity
  8
0
100
AcDbLine
 10
-4.24264068711933
 20
-57.95262515905531
 30
0.0
 11
-5.303300858899144
 21
-58.56499759475112
 31
0.0
  0
ELLIPSE
  5
10BF6
330
10B62
100
AcDbEntity
  8
0
100
AcDbEllipse
 10
-5.303300858899149
 20
-57.34025272335951
 30
0.0
 11
0.7499999999999997
 21
-1.299038105676657
 31
0.0
210
0.0
220
0.0
230
1.0
 40
0.5773502691896258
 41
5.497787143782144
 42
7.068583470577038
  0
LINE
  5
10BF7
330
10B62
100
AcDbEntity
  8
0
100
AcDbLine
 10
-5.303300858899144
 20
-58.56499759475112
 30
0.0
 11
-5.303300858899149
 21
-59.7897424661427
 31
0.0
  0
LINE
  5
10BF8
330
10B62
100
AcDbEntity
  8
0
100
AcDbLine
 10
-39.24442635585343
 20
-38.96907965248569
 30
0.0
 11
-39.24442635585344
 21
-40.19382452387727
 31
0.0
  0
ELLIPSE
  5
10BF9
330
10B62
100
AcDbEntity
  8
0
100
AcDbEllipse
 10
-39.24442635585344
 20
-37.7443347810941
 30
0.0
 11
1.500000000000151
 21
-2.59807621135322
 31
0.0
210
0.0
220
0.0
230
1.0
 40
0.5773502691896258
 41
3.926990816987
 42
5.497787143781894
  0
LINE
  5
10BFA
330
10B62
100
AcDbEntity
  8
0
100
AcDbLine
 10
32.25914498161477
 20
-39.11766612105582
 30
0.0
 11
-3.803300858899154
 21
-59.93832893471284
 31
0.0
  0
ELLIPSE
  5
10BFB
330
10B62
100
AcDbEntity
  8
0
100
AcDbEllipse
 10
-3.181980515339517
 20
25.53415024080468
 30
0.0
 11
-1.25
 21
-2.165063509461097
 31
0.0
210
0.0
220
0.0
230
1.0
 40
0.577350269189626
 41
4.570491925780518
 42
6.42508236178376
  0
ELLIPSE
  5
10BFC
330
10B62
100
AcDbEntity
  8
0
100
AcDbEllipse
 10
-14.01676893586715
 20
41.18716731928465
 30
0.0
 11
8.166754732810669
 21
0.0000000000000325
 31
0.0
210
0.0
220
0.0
230
1.0
 40
0.577350269189625
 41
5.654866776461625
 42
6.408095538707122
  0
LINE
  5
10BFD
330
10B62
100
AcDbEntity
  8
0
100
AcDbLine
 10
-7.409725568131282
 20
38.4157139819697
 30
0.0
 11
-7.141446068892181
 21
38.19102651949047
 31
0.0
  0
ELLIPSE
  5
10BFE
330
10B62
100
AcDbEntity
  8
0
100
AcDbEllipse
 10
-6.573812587617622
 20
40.10180405653655
 30
0.0
 11
1.679777606426226
 21
-2.113846539592924
 31
0.0
210
0.0
220
0.0
230
1.0
 40
0.6605596098195701
 41
3.711761074681952
 42
5.013199698257079
  0
ELLIPSE
  5
10BFF
330
10B62
100
AcDbEntity
  8
0
100
AcDbEllipse
 10
-10.25304832720509
 20
54.11153057327513
 30
0.0
 11
-1.249999999999999
 21
2.165063509461096
 31
0.0
210
0.0
220
0.0
230
1.0
 40
0.5773502691896259
 41
4.425632428173109
 42
8.140738186186068
  0
ELLIPSE
  5
10C00
330
10B62
100
AcDbEntity
  8
0
100
AcDbEllipse
 10
-17.32411613907055
 20
50.0290476686365
 30
0.0
 11
-1.25
 21
2.165063509461097
 31
0.0
210
0.0
220
0.0
230
1.0
 40
0.5773502691896259
 41
4.425632428173109
 42
8.140738186186062
  0
ELLIPSE
  5
10C01
330
10B62
100
AcDbEntity
  8
0
100
AcDbEllipse
 10
-9.192388155425273
 20
54.72390300897092
 30
0.0
 11
1.250000000000128
 21
-2.165063509461022
 31
0.0
210
0.0
220
0.0
230
0.9999999999999998
 40
0.5773502691896259
 41
3.579741684173546
 42
4.999145532596058
  0
ELLIPSE
  5
10C02
330
10B62
100
AcDbEntity
  8
0
100
AcDbEllipse
 10
-16.26345596729074
 20
50.64142010433229
 30
0.0
 11
1.250000000000128
 21
-2.165063509461021
 31
0.0
210
0.0
220
0.0
230
0.9999999999999998
 40
0.5773502691896259
 41
3.579741684173544
 42
4.999145532596054
  0
ELLIPSE
  5
10C03
330
10B62
100
AcDbEntity
  8
0
100
AcDbEllipse
 10
-3.181980515339579
 20
26.75889511219631
 30
0.0
 11
1.25
 21
-2.165063509461097
 31
0.0
210
0.0
220
0.0
230
1.0
 40
0.5773502691896259
 41
4.662295549665637
 42
4.854286034988851
  0
LINE
  5
10C04
330
10B62
100
AcDbEntity
  8
0
100
AcDbLine
 10
-4.596194077712638
 20
23.49290878848539
 30
0.0
 11
-4.24264068711937
 21
23.28878464325346
 31
0.0
  0
SPLINE
  5
10C05
330
10B62
100
AcDbEntity
  8
0
100
AcDbSpline
210
0.0
220
0.0
230
1.0
 70
     8
 71
     3
 72
    11
 73
     7
 74
     0
 42
0.000000001
 43
0.0000000001
 40
-1.0
 40
-1.0
 40
-1.0
 40
-1.0
 40
-0.8649350770683613
 40
-0.8649350770683613
 40
-0.8649350770683613
 40
-0.5000000000000138
 40
-0.5000000000000138
 40
-0.5000000000000138
 40
-0.5000000000000138
 10
-4.242640687119374
 20
26.55477096696439
 30
0.0
 10
-4.113923879700389
 20
26.70005095021638
 30
0.0
 10
-3.988524855759321
 20
26.8488587863802
 30
0.0
 10
-3.875226057721854
 20
26.99957122260882
 30
0.0
 10
-3.569101383038695
 20
27.4067846821544
 30
0.0
 10
-3.439967339592013
 20
27.82342630812018
 30
0.0
 10
-3.45487887359984
 20
28.17065985207346
 30
0.0
  0
SPLINE
  5
10C06
330
10B62
100
AcDbEntity
  8
0
100
AcDbSpline
210
0.0
220
0.0
230
1.0
 70
     8
 71
     3
 72
    11
 73
     7
 74
     0
 42
0.000000001
 43
0.0000000001
 40
-1.0
 40
-1.0
 40
-1.0
 40
-1.0
 40
-0.8649350770692951
 40
-0.8649350770692951
 40
-0.8649350770692951
 40
0.0
 40
0.0
 40
0.0
 40
0.0
 10
-4.242640687119387
 20
25.73827438603667
 30
0.0
 10
-4.1139238797013
 20
25.5929944027856
 30
0.0
 10
-3.988524855761072
 20
25.44418656662288
 30
0.0
 10
-3.875226057724214
 20
25.29347413039535
 30
0.0
 10
-3.149677910318517
 20
24.32833477507476
 30
0.0
 10
-3.418357969382423
 20
23.31023358259346
 30
0.0
 10
-4.24264068711937
 20
23.28878464325346
 30
0.0
  0
LINE
  5
10C07
330
10B62
100
AcDbEntity
  8
0
100
AcDbLine
 10
-4.802165689941455
 20
25.41523247503902
 30
0.0
 11
-4.242640687119383
 21
25.73827438603666
 31
0.0
  0
SPLINE
  5
10C08
330
10B62
100
AcDbEntity
  8
0
100
AcDbSpline
210
0.0
220
0.0
230
1.0
 70
     8
 71
     3
 72
     8
 73
     4
 74
     0
 42
0.000000001
 43
0.0000000001
 40
0.4105686222824467
 40
0.4105686222824467
 40
0.4105686222824467
 40
0.4105686222824467
 40
0.7033723312467791
 40
0.7033723312467791
 40
0.7033723312467791
 40
0.7033723312467791
 10
-4.927634847859034
 20
24.00373881360014
 30
0.0
 10
-4.894123741515401
 20
24.1129604153789
 30
0.0
 10
-4.904379103873401
 20
24.27352569779243
 30
0.0
 10
-4.966909241281793
 20
24.46584059245458
 30
0.0
  0
SPLINE
  5
10C09
330
10B62
100
AcDbEntity
  8
0
100
AcDbSpline
210
0.0
220
0.0
230
1.0
 70
     8
 71
     3
 72
     8
 73
     4
 74
     0
 42
0.000000001
 43
0.0000000001
 40
-1.0
 40
-1.0
 40
-1.0
 40
-1.0
 40
-0.5000000000000061
 40
-0.5000000000000061
 40
-0.5000000000000061
 40
-0.5000000000000061
 10
-4.242640687119316
 20
-7.942819490731483
 30
0.0
 10
-3.687280319849548
 20
-7.346815084286788
 30
0.0
 10
-3.409600136214665
 20
-6.619394428456972
 30
0.0
 10
-3.409600136214667
 20
-5.891973772627174
 30
0.0
  0
LINE
  5
10C0A
330
10B62
100
AcDbEntity
  8
0
100
AcDbLine
 10
-8.640379697980137
 20
37.43776917384099
 30
0.0
 11
-7.409725568131282
 21
38.4157139819697
 31
0.0
  0
ELLIPSE
  5
10C0B
330
10B62
100
AcDbEntity
  8
0
100
AcDbEllipse
 10
13.4350288425444
 20
-6.513340560608629
 30
0.0
 11
1.249999999999874
 21
2.165063509461169
 31
0.0
210
0.0
220
0.0
230
1.0
 40
0.5773502691896248
 41
3.579741684173546
 42
5.845036276594998
  0
ELLIPSE
  5
10C0C
330
10B62
100
AcDbEntity
  8
0
100
AcDbEllipse
 10
13.43502884254443
 20
9.816591057945881
 30
0.0
 11
1.249999999999874
 21
2.165063509461169
 31
0.0
210
0.0
220
0.0
230
1.0
 40
0.5773502691896248
 41
3.579741684173548
 42
5.845036276595
  0
ELLIPSE
  5
10C0D
330
10B62
100
AcDbEntity
  8
0
100
AcDbEllipse
 10
13.43502884254438
 20
-22.84327217916313
 30
0.0
 11
1.249999999999873
 21
2.165063509461169
 31
0.0
210
0.0
220
0.0
230
1.0
 40
0.5773502691896248
 41
3.579741684173546
 42
5.845036276594997
  0
ELLIPSE
  5
10C0E
330
10B62
100
AcDbEntity
  8
0
100
AcDbEllipse
 10
14.4956890143242
 20
-23.45564461485893
 30
0.0
 11
-1.250000000000002
 21
-2.165063509461094
 31
0.0
210
0.0
220
0.0
230
1.0
 40
0.577350269189625
 41
0.0
 42
6.283185307179586
  0
ELLIPSE
  5
10C0F
330
10B62
100
AcDbEntity
  8
0
100
AcDbEllipse
 10
14.49568901432425
 20
9.204218622250088
 30
0.0
 11
-1.250000000000002
 21
-2.165063509461094
 31
0.0
210
0.0
220
0.0
230
1.0
 40
0.577350269189625
 41
0.0
 42
6.283185307179586
  0
ELLIPSE
  5
10C10
330
10B62
100
AcDbEntity
  8
0
100
AcDbEllipse
 10
14.49568901432423
 20
-7.125712996304423
 30
0.0
 11
-1.250000000000002
 21
-2.165063509461094
 31
0.0
210
0.0
220
0.0
230
1.0
 40
0.577350269189625
 41
0.0
 42
6.283185307179586
  0
ELLIPSE
  5
10C11
330
10B62
100
AcDbEntity
  8
0
100
AcDbEllipse
 10
39.41244755232933
 20
19.52064131512468
 30
0.0
 11
-1.185309973000765
 21
-4.029272920503763
 31
0.0
210
0.0
220
0.0
230
1.0
 40
0.3706816908110078
 41
4.714609510599315
 42
6.051826567759563
  0
ELLIPSE
  5
10C12
330
10B62
100
AcDbEntity
  8
0
100
AcDbEllipse
 10
35.2357349547255
 20
17.95619784833309
 30
0.0
 11
7.592729584066637
 21
-0.00000000000001
 31
0.0
210
0.0
220
0.0
230
1.0
 40
0.5773502691896288
 41
1.660962753237631
 42
1.908429487387541
  0
ELLIPSE
  5
10C13
330
10B62
100
AcDbEntity
  8
0
100
AcDbEllipse
 10
29.82811063363474
 20
19.08514388572641
 30
0.0
 11
1.624629784830869
 21
-3.87305797300278
 31
0.0
210
0.0
220
0.0
230
1.0
 40
0.4799246488165456
 41
0.0
 42
1.910948379511896
  0
LINE
  5
10C14
330
10B62
100
AcDbEntity
  8
0
100
AcDbLine
 10
26.5656420730018
 20
13.16209709541644
 30
0.0
 11
31.45274041846562
 21
15.21208591272364
 31
0.0
  0
SPLINE
  5
10C15
330
10B62
100
AcDbEntity
  8
0
100
AcDbSpline
210
0.0
220
0.0
230
1.0
 70
     8
 71
     3
 72
    16
 73
    12
 74
     0
 42
0.000000001
 43
0.0000000001
 40
3.298672286269283
 40
3.298672286269283
 40
3.298672286269283
 40
3.298672286269283
 40
3.440463867569785
 40
3.440463867569785
 40
3.582255448870286
 40
3.582255448870286
 40
3.724047030170788
 40
3.724047030170788
 40
3.865838611471289
 40
3.865838611471289
 40
4.007630192771792
 40
4.007630192771792
 40
4.007630192771792
 40
4.007630192771792
 10
31.45274041846562
 20
15.21208591272362
 30
0.0
 10
31.66720867776694
 20
15.30204881139193
 30
0.0
 10
31.90481224781049
 20
15.38815550700514
 30
0.0
 10
32.41693049031463
 20
15.54454663669645
 30
0.0
 10
32.69142294225249
 20
15.61485013995375
 30
0.0
 10
33.26696914844474
 20
15.7341673910123
 30
0.0
 10
33.56801190237836
 20
15.78319420599959
 30
0.0
 10
34.18586658793155
 20
15.85659854932403
 30
0.0
 10
34.5026723058347
 20
15.88098322746498
 30
0.0
 10
35.14105550275244
 20
15.90355027684245
 30
0.0
 10
35.46262844703438
 20
15.9017347033032
 30
0.0
 10
35.78106134653648
 20
15.88687715141056
 30
0.0
  0
SPLINE
  5
10C16
330
10B62
100
AcDbEntity
  8
0
100
AcDbSpline
210
0.0
220
0.0
230
1.0
 70
     8
 71
     3
 72
    11
 73
     7
 74
     0
 42
0.000000001
 43
0.0000000001
 40
-1.0
 40
-1.0
 40
-1.0
 40
-1.0
 40
-0.8649350770683613
 40
-0.8649350770683613
 40
-0.8649350770683613
 40
0.0
 40
0.0
 40
0.0
 40
0.0
 10
32.88046532517447
 20
5.121735717611515
 30
0.0
 10
32.94482372888396
 20
5.229858359157222
 30
0.0
 10
33.01937818875773
 20
5.328777700480462
 30
0.0
 10
33.10353994395389
 20
5.415015058446024
 30
0.0
 10
33.64249893224465
 20
5.967265888928996
 30
0.0
 10
34.58964430986616
 20
5.814136551731374
 30
0.0
 10
35.00178566873413
 20
5.121735717611488
 30
0.0
  0
ELLIPSE
  5
10C17
330
10B62
100
AcDbEntity
  8
0
100
AcDbEllipse
 10
33.9411254969542
 20
4.101114991451892
 30
0.0
 11
-1.250000000000004
 21
-2.165063509461095
 31
0.0
210
0.0
220
0.0
230
1.0
 40
0.5773502691896246
 41
4.570491925780522
 42
6.425082361783758
  0
ELLIPSE
  5
10C18
330
10B62
100
AcDbEntity
  8
0
100
AcDbEllipse
 10
45.60838738653233
 20
-1.410236929810322
 30
0.0
 11
2.749999999999999
 21
-4.763139720814413
 31
0.0
210
0.0
220
0.0
230
1.0
 40
0.5773502691896258
 41
5.871908223239691
 42
6.089122209761024
  0
ELLIPSE
  5
10C19
330
10B62
100
AcDbEntity
  8
0
100
AcDbEllipse
 10
45.60838738653233
 20
-1.410236929810322
 30
0.0
 11
-2.750000000000001
 21
4.763139720814414
 31
0.0
210
0.0
220
0.0
230
1.0
 40
0.5773502691896258
 41
0.1940630974185629
 42
1.982073410734789
  0
LINE
  5
10C1A
330
10B62
100
AcDbEntity
  8
0
100
AcDbLine
 10
44.18710275634737
 20
-4.769761532954008
 30
0.0
 11
44.18710275634737
 21
-5.421458469399493
 31
0.0
  0
ELLIPSE
  5
10C1B
330
10B62
100
AcDbEntity
  8
0
100
AcDbEllipse
 10
33.9411254969543
 20
4.101114991451848
 30
0.0
 11
1.25
 21
-2.165063509461096
 31
0.0
210
0.0
220
0.0
230
1.0
 40
0.5773502691896258
 41
6.141288252575426
 42
7.995878688578642
  0
LINE
  5
10C1C
330
10B62
100
AcDbEntity
  8
0
100
AcDbLine
 10
43.12992154993098
 20
-8.144259821148498
 30
0.0
 11
43.12644258456756
 21
-8.142251239559419
 31
0.0
  0
LINE
  5
10C1D
330
10B62
100
AcDbEntity
  8
0
100
AcDbLine
 10
43.12644258456756
 20
-8.142251239559419
 30
0.0
 11
43.12644258456756
 21
-5.382133968649807
 31
0.0
  0
ELLIPSE
  5
10C1E
330
10B62
100
AcDbEntity
  8
0
100
AcDbEllipse
 10
44.54772721475251
 20
-2.02260936550612
 30
0.0
 11
-2.749999999999717
 21
4.763139720814578
 31
0.0
210
0.0
220
0.0
230
1.0
 40
0.577350269189626
 41
2.730315569650141
 42
8.265258717914431
  0
LINE
  5
10C1F
330
10B62
100
AcDbEntity
  8
0
100
AcDbLine
 10
45.96901184493747
 20
-7.023292096314532
 30
0.0
 11
45.96901184493746
 21
-9.783409367224146
 31
0.0
  0
LINE
  5
10C20
330
10B62
100
AcDbEntity
  8
0
100
AcDbLine
 10
45.96901184493746
 20
-9.783409367224146
 30
0.0
 11
45.96553287957402
 21
-9.781400785635078
 31
0.0
  0
SPLINE
  5
10C21
330
10B62
100
AcDbEntity
  8
0
100
AcDbSpline
210
0.0
220
0.0
230
1.0
 70
     8
 71
     3
 72
    11
 73
     7
 74
     0
 42
0.000000001
 43
0.0000000001
 40
0.1340645268891897
 40
0.1340645268891897
 40
0.1340645268891897
 40
0.1340645268891897
 40
0.8649350770692951
 40
0.8649350770692951
 40
0.8649350770692951
 40
0.8659354731107898
 40
0.8659354731107898
 40
0.8659354731107898
 40
0.8659354731107898
 10
32.27319122042112
 20
2.481487503586512
 30
0.0
 10
33.21170297310435
 20
2.510493174048287
 30
0.0
 10
34.70545540171813
 20
2.557330918444185
 30
0.0
 10
35.61629660295858
 20
2.493032891541924
 30
0.0
 10
35.6175433380089
 20
2.492944882124152
 30
0.0
 10
35.61878901893955
 20
2.492856993557226
 30
0.0
 10
35.62003364527206
 20
2.49276922751815
 30
0.0
  0
LINE
  5
10C22
330
10B62
100
AcDbEntity
  8
0
100
AcDbLine
 10
43.12644258456756
 20
-8.142251239559419
 30
0.0
 11
43.13352543752516
 21
-8.138161952497711
 31
0.0
  0
LINE
  5
10C23
330
10B62
100
AcDbEntity
  8
0
100
AcDbLine
 10
32.88046532517447
 20
1.855749393900598
 30
0.0
 11
32.59065093550447
 21
2.0230738097916
 31
0.0
  0
LINE
  5
10C24
330
10B62
100
AcDbEntity
  8
0
100
AcDbLine
 10
32.59065093550447
 20
2.0230738097916
 30
0.0
 11
32.52691193458109
 21
2.05987353913259
 31
0.0
  0
SPLINE
  5
10C25
330
10B62
100
AcDbEntity
  8
0
100
AcDbSpline
210
0.0
220
0.0
230
1.0
 70
     8
 71
     3
 72
    11
 73
     7
 74
     0
 42
0.000000001
 43
0.0000000001
 40
-1.0
 40
-1.0
 40
-1.0
 40
-1.0
 40
-0.8649350770692951
 40
-0.8649350770692951
 40
-0.8649350770692951
 40
0.0
 40
0.0
 40
0.0
 40
0.0
 10
35.00178566873412
 20
1.855749393900607
 30
0.0
 10
34.93742726502507
 20
1.821941435767637
 30
0.0
 10
34.8628728051519
 20
1.795421254673064
 30
0.0
 10
34.77871104995644
 20
1.774596988253378
 30
0.0
 10
34.23975206166593
 20
1.641241575983536
 30
0.0
 10
33.29260668404295
 20
1.639248408753699
 30
0.0
 10
32.88046532517447
 20
1.855749393900598
 30
0.0
  0
LINE
  5
10C26
330
10B62
100
AcDbEntity
  8
0
100
AcDbLine
 10
35.00178566873412
 20
1.855749393900607
 30
0.0
 11
35.29160005840414
 21
2.023073809791626
 31
0.0
  0
LINE
  5
10C27
330
10B62
100
AcDbEntity
  8
0
100
AcDbLine
 10
35.29160005840414
 20
2.023073809791626
 30
0.0
 11
35.35533905932741
 21
2.05987353913255
 31
0.0
  0
LINE
  5
10C28
330
10B62
100
AcDbEntity
  8
0
100
AcDbLine
 10
45.96901184493747
 20
-7.023292096314532
 30
0.0
 11
47.0296720167173
 21
-6.410919660618739
 31
0.0
  0
LINE
  5
10C29
330
10B62
100
AcDbEntity
  8
0
100
AcDbLine
 10
43.12644258456756
 20
-5.382133968649807
 30
0.0
 11
44.18710275634737
 21
-4.769761532954008
 31
0.0
  0
LINE
  5
10C2A
330
10B62
100
AcDbEntity
  8
0
100
AcDbLine
 10
48.24102441987754
 20
-2.748021263176907
 30
0.0
 11
45.25483399593904
 21
-4.472099108289273
 31
0.0
  0
LINE
  5
10C2B
330
10B62
100
AcDbEntity
  8
0
100
AcDbLine
 10
-5.303300858899189
 20
57.37751689698601
 30
0.0
 11
-19.44543648263019
 21
65.54248270626333
 31
0.0
  0
LINE
  5
10C2C
330
10B62
100
AcDbEntity
  8
0
100
AcDbLine
 10
-23.68807716974943
 20
63.09299296348007
 30
0.0
 11
-23.68807716974943
 21
45.53831647353395
 31
0.0
  0
LINE
  5
10C2D
330
10B62
100
AcDbEntity
  8
0
100
AcDbLine
 10
-23.68807716974943
 20
39.82284040703988
 30
0.0
 11
-23.68807716974943
 21
37.37335066425671
 31
0.0
  0
LINE
  5
10C2E
330
10B62
100
AcDbEntity
  8
0
100
AcDbLine
 10
50.20458146424494
 20
26.55477096696437
 30
0.0
 11
36.06244584051398
 21
34.71973677624155
 31
0.0
  0
LINE
  5
10C2F
330
10B62
100
AcDbEntity
  8
0
100
AcDbLine
 10
35.00178566873415
 20
34.10736434054576
 30
0.0
 11
49.14392129246511
 21
25.94239853126858
 31
0.0
  0
LINE
  5
10C30
330
10B62
100
AcDbEntity
  8
0
100
AcDbLine
 10
54.44722215136417
 20
-18.19698762401982
 30
0.0
 11
54.44722215136422
 21
19.20630173861472
 31
0.0
  0
LINE
  5
10C31
330
10B62
100
AcDbEntity
  8
0
100
AcDbLine
 10
53.38656197958435
 20
-18.80936005971562
 30
0.0
 11
53.38656197958439
 21
18.59392930291892
 31
0.0
  0
LINE
  5
10C32
330
10B62
100
AcDbEntity
  8
0
100
AcDbLine
 10
-4.24264068711937
 20
57.9898893326818
 30
0.0
 11
-18.38477631085033
 21
66.15485514195905
 31
0.0
  0
ELLIPSE
  5
10C33
330
10B62
100
AcDbEntity
  8
0
100
AcDbEllipse
 10
48.08326112068524
 20
-16.71954782220518
 30
0.0
 11
1.25000000000013
 21
-2.165063509461022
 31
0.0
210
0.0
220
0.0
230
1.0
 40
0.5773502691896259
 41
3.579741684173544
 42
5.845036276595009
  0
ELLIPSE
  5
10C34
330
10B62
100
AcDbEntity
  8
0
100
AcDbEllipse
 10
41.01219330881975
 20
-18.35254098406062
 30
0.0
 11
1.250000000000129
 21
-2.165063509461022
 31
0.0
210
0.0
220
0.0
230
1.0
 40
0.5773502691896259
 41
3.579741684173544
 42
5.845036276594998
  0
ELLIPSE
  5
10C35
330
10B62
100
AcDbEntity
  8
0
100
AcDbEllipse
 10
41.01219330881978
 20
9.408342767482045
 30
0.0
 11
1.250000000000129
 21
-2.165063509461022
 31
0.0
210
0.0
220
0.0
230
1.0
 40
0.5773502691896258
 41
3.579741684173544
 42
5.845036276594998
  0
ELLIPSE
  5
10C36
330
10B62
100
AcDbEntity
  8
0
100
AcDbEllipse
 10
41.0121933088198
 20
25.73827438603655
 30
0.0
 11
1.250000000000129
 21
-2.165063509461022
 31
0.0
210
0.0
220
0.0
230
1.0
 40
0.5773502691896258
 41
3.579741684173546
 42
5.845036276594997
  0
ELLIPSE
  5
10C37
330
10B62
100
AcDbEntity
  8
0
100
AcDbEllipse
 10
48.08326112068527
 20
13.49082567212066
 30
0.0
 11
1.25000000000013
 21
-2.165063509461022
 31
0.0
210
0.0
220
0.0
230
1.0
 40
0.5773502691896258
 41
3.579741684173539
 42
5.845036276594997
  0
ELLIPSE
  5
10C38
330
10B62
100
AcDbEntity
  8
0
100
AcDbEllipse
 10
41.01219330881977
 20
-6.92158885107246
 30
0.0
 11
1.250000000000129
 21
-2.165063509461022
 31
0.0
210
0.0
220
0.0
230
1.0
 40
0.5773502691896258
 41
3.579741684173546
 42
5.845036276594998
  0
ELLIPSE
  5
10C39
330
10B62
100
AcDbEntity
  8
0
100
AcDbEllipse
 10
39.95153313703994
 20
-18.96491341975641
 30
0.0
 11
1.25
 21
-2.165063509461096
 31
0.0
210
0.0
220
0.0
230
1.0
 40
0.5773502691896259
 41
0.0
 42
6.283185307179586
  0
ELLIPSE
  5
10C3A
330
10B62
100
AcDbEntity
  8
0
100
AcDbEllipse
 10
47.02260094890542
 20
-17.33192025790097
 30
0.0
 11
1.25
 21
-2.165063509461096
 31
0.0
210
0.0
220
0.0
230
1.0
 40
0.5773502691896259
 41
0.0
 42
6.283185307179586
  0
ELLIPSE
  5
10C3B
330
10B62
100
AcDbEntity
  8
0
100
AcDbEllipse
 10
39.95153313703995
 20
-7.533961286768253
 30
0.0
 11
1.25
 21
-2.165063509461096
 31
0.0
210
0.0
220
0.0
230
1.0
 40
0.5773502691896259
 41
0.0
 42
6.283185307179586
  0
ELLIPSE
  5
10C3C
330
10B62
100
AcDbEntity
  8
0
100
AcDbEllipse
 10
47.02260094890546
 20
12.87845323642487
 30
0.0
 11
1.25
 21
-2.165063509461096
 31
0.0
210
0.0
220
0.0
230
1.0
 40
0.5773502691896259
 41
0.0
 42
6.283185307179586
  0
ELLIPSE
  5
10C3D
330
10B62
100
AcDbEntity
  8
0
100
AcDbEllipse
 10
39.95153313703999
 20
25.12590195034075
 30
0.0
 11
1.25
 21
-2.165063509461096
 31
0.0
210
0.0
220
0.0
230
1.0
 40
0.5773502691896259
 41
0.0
 42
6.283185307179586
  0
ELLIPSE
  5
10C3E
330
10B62
100
AcDbEntity
  8
0
100
AcDbEllipse
 10
39.95153313703998
 20
8.795970331786255
 30
0.0
 11
1.25
 21
-2.165063509461096
 31
0.0
210
0.0
220
0.0
230
1.0
 40
0.5773502691896259
 41
0.0
 42
6.283185307179586
  0
LINE
  5
10C3F
330
10B62
100
AcDbEntity
  8
0
100
AcDbLine
 10
35.00178566873408
 20
-27.72365304665891
 30
0.0
 11
49.6461897337725
 21
-24.77273125814849
 31
0.0
  0
SPLINE
  5
10C40
330
10B62
100
AcDbEntity
  8
0
100
AcDbSpline
210
0.0
220
0.0
230
1.0
 70
     8
 71
     3
 72
     8
 73
     4
 74
     0
 42
0.000000001
 43
0.0000000001
 40
-1.0
 40
-1.0
 40
-1.0
 40
-1.0
 40
0.0
 40
0.0
 40
0.0
 40
0.0
 10
32.88046532517443
 20
-29.37585474008431
 30
0.0
 10
33.43582569244422
 20
-28.50448338473537
 30
0.0
 10
34.4464253014643
 20
-27.95374948692682
 30
0.0
 10
35.00178566873408
 20
-27.72365304665893
 30
0.0
  0
LINE
  5
10C41
330
10B62
100
AcDbEntity
  8
0
100
AcDbLine
 10
43.12992154993098
 20
-8.148407623779604
 30
0.0
 11
43.12992154993098
 21
-8.144259821148498
 31
0.0
  0
LINE
  5
10C42
330
10B62
100
AcDbEntity
  8
0
100
AcDbLine
 10
45.96553287957402
 20
-9.781400785635078
 30
0.0
 11
45.96553287957402
 21
-9.78554858826617
 31
0.0
  0
LINE
  5
10C43
330
10B62
100
AcDbEntity
  8
0
100
AcDbLine
 10
45.96553287957402
 20
-9.78554858826617
 30
0.0
 11
45.96194077712559
 21
-9.783474686950615
 31
0.0
  0
LINE
  5
10C44
330
10B62
100
AcDbEntity
  8
0
100
AcDbLine
 10
45.96194077712559
 20
-9.783474686950615
 30
0.0
 11
45.9619407771256
 21
-9.779326884319523
 31
0.0
  0
LINE
  5
10C45
330
10B62
100
AcDbEntity
  8
0
100
AcDbLine
 10
45.9619407771256
 20
-9.779326884319523
 30
0.0
 11
43.13351365237941
 21
-8.146333722464056
 31
0.0
  0
LINE
  5
10C46
330
10B62
100
AcDbEntity
  8
0
100
AcDbLine
 10
43.13351365237941
 20
-8.146333722464056
 30
0.0
 11
43.13351365237941
 21
-8.150481525095162
 31
0.0
  0
LINE
  5
10C47
330
10B62
100
AcDbEntity
  8
0
100
AcDbLine
 10
43.13351365237941
 20
-8.150481525095162
 30
0.0
 11
43.12992154993098
 21
-8.148407623779604
 31
0.0
  0
ELLIPSE
  5
10C48
330
10B62
100
AcDbEntity
  8
0
100
AcDbEllipse
 10
45.25483399593904
 20
-6.921588851072453
 30
0.0
 11
-1.499999999999845
 21
-2.598076211353404
 31
0.0
210
0.0
220
0.0
230
1.0
 40
0.577350269189626
 41
3.926990816986997
 42
5.497787143781888
  0
ELLIPSE
  5
10C49
330
10B62
100
AcDbEntity
  8
0
100
AcDbEllipse
 10
48.08326112068524
 20
-8.554582012927919
 30
0.0
 11
1.50000000000015
 21
2.59807621135323
 31
0.0
210
0.0
220
0.0
230
0.9999999999999998
 40
0.5773502691896269
 41
2.274522134612199
 42
2.356194490192585
  0
ELLIPSE
  5
10C4A
330
10B62
100
AcDbEntity
  8
0
100
AcDbEllipse
 10
48.08326112068524
 20
-8.554582012927919
 30
0.0
 11
1.499999999999954
 21
2.598076211353344
 31
0.0
210
0.0
220
0.0
230
1.0
 40
0.5773502691896208
 41
0.8625158344705807
 42
0.9940868618318727
  0
LINE
  5
10C4B
330
10B62
100
AcDbEntity
  8
0
100
AcDbLine
 10
45.9619407771256
 20
-9.779326884319523
 30
0.0
 11
45.96901184493745
 21
-9.775244401414891
 31
0.0
  0
LINE
  5
10C4C
330
10B62
100
AcDbEntity
  8
0
100
AcDbLine
 10
45.25483399593904
 20
-4.472099108289273
 30
0.0
 11
48.01182882989026
 21
-6.063850817825429
 31
0.0
  0
LINE
  5
10C4D
330
10B62
100
AcDbEntity
  8
0
100
AcDbLine
 10
43.13351365237941
 20
-8.146333722464051
 30
0.0
 11
43.12992154993098
 21
-8.148407623779604
 31
0.0
  0
LINE
  5
10C4E
330
10B62
100
AcDbEntity
  8
0
100
AcDbLine
 10
43.12992154993098
 20
-8.144259821148498
 30
0.0
 11
43.13351669369499
 21
-8.142184163928574
 31
0.0
  0
LINE
  5
10C4F
330
10B62
100
AcDbEntity
  8
0
100
AcDbLine
 10
45.96553287957402
 20
-9.781400785635064
 30
0.0
 11
45.96194077712559
 21
-9.783474686950615
 31
0.0
  0
LINE
  5
10C50
330
10B62
100
AcDbEntity
  8
0
100
AcDbLine
 10
45.96901184493745
 20
-9.779392204046002
 30
0.0
 11
45.96553287957402
 21
-9.781400785635078
 31
0.0
  0
LINE
  5
10C51
330
10B62
100
AcDbEntity
  8
0
100
AcDbLine
 10
1.325825214724718
 20
-17.07676507636104
 30
0.0
 11
0.5549793454002372
 21
-17.52181314651924
 31
0.0
  0
SPLINE
  5
10C52
330
10B62
100
AcDbEntity
  8
0
100
AcDbSpline
210
0.0
220
0.0
230
1.0
 70
     8
 71
     3
 72
     8
 73
     4
 74
     0
 42
0.000000001
 43
0.0000000001
 40
0.0
 40
0.0
 40
0.0
 40
0.0
 40
1.0
 40
1.0
 40
1.0
 40
1.0
 10
0.2651650429448749
 20
-17.68913751205682
 30
0.0
 10
-0.5303300858896654
 20
-17.87113310036607
 30
0.0
 10
-1.8311250192348
 20
-18.28705870806007
 30
0.0
 10
-3.18198051533951
 20
-18.14841683882868
 30
0.0
  0
LINE
  5
10C53
330
10B62
100
AcDbEntity
  8
0
100
AcDbLine
 10
0.5549793454002372
 20
-17.52181314651924
 30
0.0
 11
0.2651650429448971
 21
-17.68913751205683
 31
0.0
  0
LINE
  5
10C54
330
10B62
100
AcDbEntity
  8
0
100
AcDbLine
 10
5.833630944788962
 20
-15.18861673296568
 30
0.0
 11
0.2651650429448971
 21
-17.68913751205683
 31
0.0
  0
LINE
  5
10C55
330
10B62
100
AcDbEntity
  8
0
100
AcDbLine
 10
6.894291116568784
 20
-14.57624429726988
 30
0.0
 11
5.833630944788962
 21
-15.18861673296568
 31
0.0
  0
LINE
  5
10C56
330
10B62
100
AcDbEntity
  8
0
100
AcDbLine
 10
1.325825214724718
 20
-17.07676507636104
 30
0.0
 11
6.894291116568784
 21
-14.57624429726988
 31
0.0
  0
SPLINE
  5
10C57
330
10B62
100
AcDbEntity
  8
0
100
AcDbSpline
210
0.0
220
0.0
230
1.0
 70
     8
 71
     3
 72
    10
 73
     6
 74
     0
 42
0.000000001
 43
0.0000000001
 40
0.0
 40
0.0
 40
0.0
 40
0.0
 40
0.0738789455596586
 40
0.0738789455596586
 40
0.0998084610798568
 40
0.0998084610798568
 40
0.0998084610798568
 40
0.0998084610798568
 10
-0.1818686485852816
 20
-17.80075414119876
 30
0.0
 10
0.0565267851435714
 20
-17.73903809990659
 30
0.0
 10
0.2908624328265441
 20
-17.64813314743564
 30
0.0
 10
0.5800644900162078
 20
-17.50448016287986
 30
0.0
 10
0.6532174521218193
 20
-17.46509534915883
 30
0.0
 10
0.7237886546796113
 20
-17.42435104636505
 30
0.0
  0
LINE
  5
10C58
330
10B62
100
AcDbEntity
  8
0
100
AcDbLine
 10
0.2651650429448971
 20
-17.68913751205683
 30
0.0
 11
8.093582641059605
 21
-22.20887651965716
 31
0.0
  0
LINE
  5
10C59
330
10B62
100
AcDbEntity
  8
0
100
AcDbLine
 10
12.77359101477824
 20
-24.91088061403332
 30
0.0
 11
13.03580649853071
 21
-25.0622707941635
 31
0.0
  0
LINE
  5
10C5A
330
10B62
100
AcDbEntity
  8
0
100
AcDbLine
 10
7.734475896553755
 20
-24.45103588683207
 30
0.0
 11
-3.18198051533952
 21
-18.14841683882867
 31
0.0
  0
LINE
  5
10C5B
330
10B62
100
AcDbEntity
  8
0
100
AcDbLine
 10
8.131727983645294
 20
-16.51542367697326
 30
0.0
 11
5.833630944788962
 21
-15.18861673296568
 31
0.0
  0
LINE
  5
10C5C
330
10B62
100
AcDbEntity
  8
0
100
AcDbLine
 10
8.131727983645294
 20
-15.29067880558167
 30
0.0
 11
6.894291116568784
 21
-14.57624429726988
 31
0.0
  0
ENDBLK
  5
10B64
330
10B62
100
AcDbEntity
  8
0
100
AcDbBlockEnd
  0
ENDSEC
  0
SECTION
  2
ENTITIES
  0
INSERT
  5
10C5D
330
1F
100
AcDbEntity
  8
0
100
AcDbBlockReference
  2
SBE51_90-F-Front
 10
0.0
 20
0.0
 30
0.0
  0
INSERT
  5
10C5E
330
1F
100
AcDbEntity
  8
0
100
AcDbBlockReference
  2
SBE51_90-F-Left
 10
90.80000000000017
 20
0.0
 30
0.0
  0
INSERT
  5
10C5F
330
1F
100
AcDbEntity
  8
0
100
AcDbBlockReference
  2
SBE51_90-F-Right
 10
-90.80000000000007
 20
0.0
 30
0.0
  0
INSERT
  5
10C60
330
1F
100
AcDbEntity
  8
0
100
AcDbBlockReference
  2
SBE51_90-F-Top
 10
0.0
 20
-37.80000000000001
 30
0.0
  0
INSERT
  5
10C61
330
1F
100
AcDbEntity
  8
0
100
AcDbBlockReference
  2
SBE51_90-F-Bottom
 10
0.0
 20
125.8000000000002
 30
0.0
  0
INSERT
  5
10C62
330
1F
100
AcDbEntity
  8
0
100
AcDbBlockReference
  2
SBE51_90-F-ISO
 10
123.1657466994133
 20
-94.95485514195907
 30
0.0
  0
MTEXT
  5
10C63
330
1F
100
AcDbEntity
  8
0
100
AcDbMText
 10
0.0
 20
-119.1
 30
0.0
 40
9.100000000000012
 41
0.0
 71
     5
 72
     5
  1
SBE51/90
 73
     1
 44
1.0
1001
ACAD
1000
MTEXTBEGIN
1070
    73
1070
     1
1070
    44
1040
1.0
1070
    74
1070
     0
1000
MTEXTEND
  0
ENDSEC
  0
SECTION
  2
OBJECTS
  0
DICTIONARY
  5
C
330
0
100
AcDbDictionary
281
     1
  3
ACAD_CIP_PREVIOUS_PRODUCT_INFO
350
216
  3
ACAD_COLOR
350
6B
  3
ACAD_DETAILVIEWSTYLE
350
21B
  3
ACAD_GROUP
350
D
  3
ACAD_LAYOUT
350
1A
  3
ACAD_MATERIAL
350
6A
  3
ACAD_MLEADERSTYLE
350
12D
  3
ACAD_MLINESTYLE
350
17
  3
ACAD_PLOTSETTINGS
350
19
  3
ACAD_PLOTSTYLENAME
350
E
  3
ACAD_SCALELIST
350
10C
  3
ACAD_SECTIONVIEWSTYLE
350
219
  3
ACAD_TABLESTYLE
350
7E
  3
ACAD_VISUALSTYLE
350
EF
  3
ACDB_RECOMPOSE_DATA
350
10D64
  3
AcDbVariableDictionary
350
5E
  3
DWGPROPS
350
10D65
  0
DICTIONARY
  5
10CB4
330
8
100
AcDbDictionary
280
     1
281
     1
  0
DICTIONARY
  5
1FF
330
2
100
AcDbDictionary
280
     1
281
     1
  3
ACAD_LAYERSTATES
360
200
  0
DICTIONARY
  5
13C
330
10
100
AcDbDictionary
280
     1
281
     1
  0
DICTIONARY
  5
1CE
330
1F
100
AcDbDictionary
280
     1
281
     1
  3
ACAD_LAYOUTSELFREF
360
10CBC
  0
DICTIONARY
  5
10C67
330
D2
100
AcDbDictionary
280
     1
281
     1
  3
ACAD_LAYOUTSELFREF
360
10CC5
  0
DICTIONARY
  5
10C69
330
D6
100
AcDbDictionary
280
     1
281
     1
  3
ACAD_LAYOUTSELFREF
360
10CC8
  0
XRECORD
  5
216
102
{ACAD_REACTORS
330
C
102
}
330
C
100
AcDbXrecord
280
     1
300
ACD
300
2021
300

  0
DICTIONARY
  5
6B
102
{ACAD_REACTORS
330
C
102
}
330
C
100
AcDbDictionary
281
     1
  0
DICTIONARY
  5
21B
102
{ACAD_REACTORS
330
C
102
}
330
C
100
AcDbDictionary
281
     1
  3
Metric50
350
21C
  0
DICTIONARY
  5
D
102
{ACAD_REACTORS
330
C
102
}
330
C
100
AcDbDictionary
281
     1
  0
DICTIONARY
  5
1A
102
{ACAD_REACTORS
330
C
102
}
330
C
100
AcDbDictionary
281
     1
  3
Layout1
350
D3
  3
Layout2
350
D7
  3
Model
350
22
  0
DICTIONARY
  5
6A
102
{ACAD_REACTORS
330
C
102
}
330
C
100
AcDbDictionary
281
     1
  3
ByBlock
350
ED
  3
ByLayer
350
EC
  3
Global
350
EE
  0
DICTIONARY
  5
12D
102
{ACAD_REACTORS
330
C
102
}
330
C
100
AcDbDictionary
281
     1
  3
Standard
350
12E
  0
DICTIONARY
  5
17
102
{ACAD_REACTORS
330
C
102
}
330
C
100
AcDbDictionary
281
     1
  3
Standard
350
18
  0
DICTIONARY
  5
19
102
{ACAD_REACTORS
330
C
102
}
330
C
100
AcDbDictionary
281
     1
  0
ACDBDICTIONARYWDFLT
  5
E
102
{ACAD_REACTORS
330
C
102
}
330
C
100
AcDbDictionary
281
     1
  3
Normal
350
F
100
AcDbDictionaryWithDefault
340
F
  0
DICTIONARY
  5
10C
102
{ACAD_REACTORS
330
C
102
}
330
C
100
AcDbDictionary
281
     1
  3
A0
350
10D
  3
A1
350
1BE
  3
A2
350
1BF
  3
A3
350
1C0
  3
A4
350
1C1
  3
A5
350
1C2
  3
A6
350
1C3
  3
A7
350
1C4
  3
A8
350
1C5
  3
A9
350
1C6
  3
B0
350
1C7
  3
B1
350
1C8
  3
B2
350
1C9
  3
B3
350
1CA
  3
B4
350
1CB
  3
B5
350
1CC
  3
B6
350
1CD
  0
DICTIONARY
  5
219
102
{ACAD_REACTORS
330
C
102
}
330
C
100
AcDbDictionary
281
     1
  3
Metric50
350
21A
  0
DICTIONARY
  5
7E
102
{ACAD_REACTORS
330
C
102
}
330
C
100
AcDbDictionary
281
     1
  3
Standard
350
7F
  0
DICTIONARY
  5
EF
102
{ACAD_REACTORS
330
C
102
}
330
C
100
AcDbDictionary
281
     1
  3
2dWireframe
350
F5
  3
Basic
350
F4
  3
Brighten
350
FB
  3
ColorChange
350
FF
  3
Conceptual
350
F8
  3
Dim
350
FA
  3
EdgeColorOff
350
1E6
  3
Facepattern
350
FE
  3
Flat
350
F0
  3
FlatWithEdges
350
F1
  3
Gouraud
350
F2
  3
GouraudWithEdges
350
F3
  3
Hidden
350
F7
  3
JitterOff
350
1E4
  3
Linepattern
350
FD
  3
OverhangOff
350
1E5
  3
Realistic
350
F9
  3
Shaded
350
1F3
  3
Shaded with edges
350
1F2
  3
Shades of Gray
350
1EF
  3
Sketchy
350
1F0
  3
Thicken
350
FC
  3
Wireframe
350
F6
  3
X-Ray
350
1F1
  0
XRECORD
  5
10D64
102
{ACAD_REACTORS
330
C
102
}
330
C
100
AcDbXrecord
280
     1
 90
        1
330
7F
  0
DICTIONARY
  5
5E
102
{ACAD_REACTORS
330
C
102
}
330
C
100
AcDbDictionary
281
     1
  3
CANNOSCALE
350
146
  3
CENTEREXE
350
259
  3
CENTERLTYPEFILE
350
25A
  3
CMLEADERSTYLE
350
145
  3
CTABLESTYLE
350
84
  3
CVIEWDETAILSTYLE
350
227
  3
CVIEWSECTIONSTYLE
350
228
  3
DIMASSOC
350
5F
  3
HIDETEXT
350
63
  3
INDEXCTL
350
10D11
  3
LAYEREVAL
350
1AE
  3
LAYERNOTIFY
350
1AF
  3
LIGHTINGUNITS
350
10D0F
  3
MSLTSCALE
350
10D0E
  3
PSOLHEIGHT
350
10D61
  3
PSOLWIDTH
350
10D60
  3
SORTENTS
350
10D10
  3
XCLIPFRAME
350
10D62
  0
XRECORD
  5
10D65
102
{ACAD_REACTORS
330
C
102
}
330
C
100
AcDbXrecord
280
     1
  1
DWGPROPS COOKIE
  2

  3

  4

  6

  7

  8
tronnguyen
  9

300
=
301
=
302
=
303
=
304
=
305
=
306
=
307
=
308
=
309
=
 40
0.0050115740740741
 41
2460286.6225
 42
2460286.64019676
  1

 90
        0
  0
DICTIONARY
  5
200
102
{ACAD_REACTORS
330
1FF
102
}
330
1FF
100
AcDbDictionary
281
     1
  0
XRECORD
  5
10CBC
102
{ACAD_REACTORS
330
1CE
102
}
330
1CE
100
AcDbXrecord
280
     1
340
1F
  0
XRECORD
  5
10CC5
102
{ACAD_REACTORS
330
10C67
102
}
330
10C67
100
AcDbXrecord
280
     1
340
D2
  0
XRECORD
  5
10CC8
102
{ACAD_REACTORS
330
10C69
102
}
330
10C69
100
AcDbXrecord
280
     1
340
D6
  0
ACDBDETAILVIEWSTYLE
  5
21C
102
{ACAD_XDICTIONARY
360
10DA4
102
}
102
{ACAD_REACTORS
330
21B
102
}
330
21B
100
AcDbModelDocViewStyle
 70
     0
  3
Metric50
290
     0
100
AcDbDetailViewStyle
 70
     0
 71
     0
 90
        3
 71
     1
340
11
 40
5.0
340
0
 40
5.0
300

 40
0.0
280
     1
 71
     2
340
16
 90
       25
 71
     3
340
11
 40
5.0
 90
        0
 40
15.0
 90
        1
300
%<\AcVar ViewDetailId>% (%<\AcVar ViewScale \f "%sn">%)
 71
     4
340
16
 90
       25
340
16
 90
       25
280
     0
  0
LAYOUT
  5
D3
102
{ACAD_XDICTIONARY
360
10D69
102
}
102
{ACAD_REACTORS
330
1A
102
}
330
1A
100
AcDbPlotSettings
  1

  2
C:\Documents and Settings\basas\Application Data\Autodesk\AutoCAD 2005\R16.1\enu\plotters\Default Windows System Printer.pc3
  4

  6

 40
0.0
 41
0.0
 42
0.0
 43
0.0
 44
0.0
 45
0.0
 46
0.0
 47
0.0
 48
0.0
 49
0.0
140
0.0
141
0.0
142
1.0
143
1.0
 70
   688
 72
     0
 73
     0
 74
     5
  7

 75
    16
147
1.0
148
0.0
149
0.0
100
AcDbLayout
  1
Layout1
 70
     1
 71
     1
 10
0.0
 20
0.0
 11
12.0
 21
9.0
 12
0.0
 22
0.0
 32
0.0
 14
0.0
 24
0.0
 34
0.0
 15
0.0
 25
0.0
 35
0.0
146
0.0
 13
0.0
 23
0.0
 33
0.0
 16
1.0
 26
0.0
 36
0.0
 17
0.0
 27
1.0
 37
0.0
 76
     0
330
D2
  0
LAYOUT
  5
D7
102
{ACAD_XDICTIONARY
360
10D6B
102
}
102
{ACAD_REACTORS
330
1A
102
}
330
1A
100
AcDbPlotSettings
  1

  2
C:\Documents and Settings\basas\Application Data\Autodesk\AutoCAD 2005\R16.1\enu\plotters\Default Windows System Printer.pc3
  4

  6

 40
0.0
 41
0.0
 42
0.0
 43
0.0
 44
0.0
 45
0.0
 46
0.0
 47
0.0
 48
0.0
 49
0.0
140
0.0
141
0.0
142
1.0
143
1.0
 70
   688
 72
     0
 73
     0
 74
     5
  7

 75
    16
147
1.0
148
0.0
149
0.0
100
AcDbLayout
  1
Layout2
 70
     1
 71
     2
 10
0.0
 20
0.0
 11
12.0
 21
9.0
 12
0.0
 22
0.0
 32
0.0
 14
0.0
 24
0.0
 34
0.0
 15
0.0
 25
0.0
 35
0.0
146
0.0
 13
0.0
 23
0.0
 33
0.0
 16
1.0
 26
0.0
 36
0.0
 17
0.0
 27
1.0
 37
0.0
 76
     0
330
D6
  0
LAYOUT
  5
22
102
{ACAD_XDICTIONARY
360
10D66
102
}
102
{ACAD_REACTORS
330
1A
102
}
330
1A
100
AcDbPlotSettings
  1

  2
none_device
  4
ISO_A4_(210.00_x_297.00_MM)
  6

 40
7.5
 41
20.0
 42
7.5
 43
20.0
 44
210.0
 45
297.0
 46
11.54999923706054
 47
-13.65000009536743
 48
0.0
 49
0.0
140
0.0
141
0.0
142
1.0
143
8.704084754739808
 70
 11952
 72
     1
 73
     0
 74
     0
  7

 75
     0
147
0.1148885871608098
148
0.0
149
0.0
100
AcDbLayout
  1
Model
 70
     1
 71
     0
 10
0.0
 20
0.0
 11
12.0
 21
9.0
 12
0.0
 22
0.0
 32
0.0
 14
0.0
 24
0.0
 34
0.0
 15
0.0
 25
0.0
 35
0.0
146
0.0
 13
0.0
 23
0.0
 33
0.0
 16
1.0
 26
0.0
 36
0.0
 17
0.0
 27
1.0
 37
0.0
 76
     0
330
1F
331
EA
1001
ACAD_PSEXT
1000
None
1000
None
1000
Not applicable
1000
The layout will not be plotted unless a new plotter configuration name is selected.
1070
     0
  0
MATERIAL
  5
ED
102
{ACAD_XDICTIONARY
360
1F9
102
}
102
{ACAD_REACTORS
330
6A
102
}
330
6A
100
AcDbMaterial
  1
ByBlock
  0
MATERIAL
  5
EC
102
{ACAD_XDICTIONARY
360
1F7
102
}
102
{ACAD_REACTORS
330
6A
102
}
330
6A
100
AcDbMaterial
  1
ByLayer
  0
MATERIAL
  5
EE
102
{ACAD_XDICTIONARY
360
173
102
}
102
{ACAD_REACTORS
330
6A
102
}
330
6A
100
AcDbMaterial
  1
Global
 43
0.0007999999797903
 43
0.0
 43
0.0
 43
0.0
 43
0.0
 43
0.0007999999797903
 43
0.0
 43
0.0
 43
0.0
 43
0.0
 43
1.0
 43
0.0
 43
0.0
 43
0.0
 43
0.0
 43
1.0
 49
0.0007999999797903
 49
0.0
 49
0.0
 49
0.0
 49
0.0
 49
0.0007999999797903
 49
0.0
 49
0.0
 49
0.0
 49
0.0
 49
1.0
 49
0.0
 49
0.0
 49
0.0
 49
0.0
 49
1.0
142
0.0007999999797903
142
0.0
142
0.0
142
0.0
142
0.0
142
0.0007999999797903
142
0.0
142
0.0
142
0.0
142
0.0
142
1.0
142
0.0
142
0.0
142
0.0
142
0.0
142
1.0
144
0.0007999999797903
144
0.0
144
0.0
144
0.0
144
0.0
144
0.0007999999797903
144
0.0
144
0.0
144
0.0
144
0.0
144
1.0
144
0.0
144
0.0
144
0.0
144
0.0
144
1.0
1001
ACAD
1070
    -1
1070
     3
1070
     0
1000

1071
        0
1070
     0
  0
MLEADERSTYLE
  5
12E
102
{ACAD_XDICTIONARY
360
10D90
102
}
102
{ACAD_REACTORS
330
12D
102
}
330
12D
100
AcDbMLeaderStyle
170
     2
171
     1
172
     0
 90
        2
 40
0.0
 41
0.0
173
     1
 91
-1056964608
340
14
 92
       -2
290
     1
 42
2.0
291
     1
 43
8.0
  3
Standard
 44
4.0
300

342
11
174
     1
178
     1
175
     1
176
     0
 93
-1056964608
 45
4.0
292
     0
297
     0
 46
4.0
 94
-1056964608
 47
1.0
 49
1.0
140
1.0
293
     1
141
0.0
294
     1
177
     0
142
1.0
295
     0
296
     0
143
3.75
1001
ACAD_MLEADERVER
1070
     2
  0
MLINESTYLE
  5
18
102
{ACAD_REACTORS
330
17
102
}
330
17
100
AcDbMlineStyle
  2
STANDARD
 70
     0
  3

 62
   256
 51
90.0
 52
90.0
 71
     2
 49
0.5
 62
   256
  6
BYLAYER
 49
-0.5
 62
   256
  6
BYLAYER
  0
ACDBPLACEHOLDER
  5
F
102
{ACAD_REACTORS
330
E
102
}
330
E
  0
SCALE
  5
10D
102
{ACAD_REACTORS
330
10C
102
}
330
10C
100
AcDbScale
 70
     0
300
1:1
140
1.0
141
1.0
290
     1
  0
SCALE
  5
1BE
102
{ACAD_REACTORS
330
10C
102
}
330
10C
100
AcDbScale
 70
     0
300
1:2
140
1.0
141
2.0
290
     0
  0
SCALE
  5
1BF
102
{ACAD_REACTORS
330
10C
102
}
330
10C
100
AcDbScale
 70
     0
300
1:4
140
1.0
141
4.0
290
     0
  0
SCALE
  5
1C0
102
{ACAD_REACTORS
330
10C
102
}
330
10C
100
AcDbScale
 70
     0
300
1:5
140
1.0
141
5.0
290
     0
  0
SCALE
  5
1C1
102
{ACAD_REACTORS
330
10C
102
}
330
10C
100
AcDbScale
 70
     0
300
1:8
140
1.0
141
8.0
290
     0
  0
SCALE
  5
1C2
102
{ACAD_REACTORS
330
10C
102
}
330
10C
100
AcDbScale
 70
     0
300
1:10
140
1.0
141
10.0
290
     0
  0
SCALE
  5
1C3
102
{ACAD_REACTORS
330
10C
102
}
330
10C
100
AcDbScale
 70
     0
300
1:16
140
1.0
141
16.0
290
     0
  0
SCALE
  5
1C4
102
{ACAD_REACTORS
330
10C
102
}
330
10C
100
AcDbScale
 70
     0
300
1:20
140
1.0
141
20.0
290
     0
  0
SCALE
  5
1C5
102
{ACAD_REACTORS
330
10C
102
}
330
10C
100
AcDbScale
 70
     0
300
1:30
140
1.0
141
30.0
290
     0
  0
SCALE
  5
1C6
102
{ACAD_REACTORS
330
10C
102
}
330
10C
100
AcDbScale
 70
     0
300
1:40
140
1.0
141
40.0
290
     0
  0
SCALE
  5
1C7
102
{ACAD_REACTORS
330
10C
102
}
330
10C
100
AcDbScale
 70
     0
300
1:50
140
1.0
141
50.0
290
     0
  0
SCALE
  5
1C8
102
{ACAD_REACTORS
330
10C
102
}
330
10C
100
AcDbScale
 70
     0
300
1:100
140
1.0
141
100.0
290
     0
  0
SCALE
  5
1C9
102
{ACAD_REACTORS
330
10C
102
}
330
10C
100
AcDbScale
 70
     0
300
2:1
140
2.0
141
1.0
290
     0
  0
SCALE
  5
1CA
102
{ACAD_REACTORS
330
10C
102
}
330
10C
100
AcDbScale
 70
     0
300
4:1
140
4.0
141
1.0
290
     0
  0
SCALE
  5
1CB
102
{ACAD_REACTORS
330
10C
102
}
330
10C
100
AcDbScale
 70
     0
300
8:1
140
8.0
141
1.0
290
     0
  0
SCALE
  5
1CC
102
{ACAD_REACTORS
330
10C
102
}
330
10C
100
AcDbScale
 70
     0
300
10:1
140
10.0
141
1.0
290
     0
  0
SCALE
  5
1CD
102
{ACAD_REACTORS
330
10C
102
}
330
10C
100
AcDbScale
 70
     0
300
100:1
140
100.0
141
1.0
290
     0
  0
ACDBSECTIONVIEWSTYLE
  5
21A
102
{ACAD_XDICTIONARY
360
10DA2
102
}
102
{ACAD_REACTORS
330
219
102
}
330
219
100
AcDbModelDocViewStyle
 70
     0
  3
Metric50
290
     0
100
AcDbSectionViewStyle
 70
     0
 71
     0
 90
      102
 71
     1
340
11
 40
5.0
340
0
340
0
 40
5.0
300
I, O, Q, S, X, Z
 40
10.0
 90
        0
 40
2.5
 90
        0
 71
     2
340
16
 90
       25
340
16
 90
       50
 40
5.0
 40
2.5
 40
5.0
 71
     3
340
11
 40
5.0
 90
        0
 40
15.0
 90
        1
300
%<\AcVar ViewSectionStartId>%-%<\AcVar ViewSectionEndId>% (%<\AcVar ViewScale \f "%sn">%)
 71
     4
300
ANSI31
 40
1.0
 90
        0
290
     0
290
     0
 90
        6
 40
0.0
 40
1.570796326794896
 40
0.2617993877991494
 40
1.308996938995747
 40
-0.2617993877991494
 40
1.832595714594046
  0
TABLESTYLE
  5
7F
102
{ACAD_XDICTIONARY
360
162
102
}
102
{ACAD_REACTORS
330
7E
102
}
330
7E
100
AcDbTableStyle
  3
Standard
 70
     0
 71
     0
 40
1.5
 41
1.5
280
     0
281
     0
  7
Standard
140
4.5
170
     2
 62
     0
 63
     7
283
     0
274
    -2
284
     1
 64
     0
275
    -2
285
     1
 65
     0
276
    -2
286
     1
 66
     0
277
    -2
287
     1
 67
     0
278
    -2
288
     1
 68
     0
279
    -2
289
     1
 69
     0
  7
Standard
140
6.0
170
     5
 62
     0
 63
     7
283
     0
274
    -2
284
     1
 64
     0
275
    -2
285
     1
 65
     0
276
    -2
286
     1
 66
     0
277
    -2
287
     1
 67
     0
278
    -2
288
     1
 68
     0
279
    -2
289
     1
 69
     0
  7
Standard
140
4.5
170
     5
 62
     0
 63
     7
283
     0
274
    -2
284
     1
 64
     0
275
    -2
285
     1
 65
     0
276
    -2
286
     1
 66
     0
277
    -2
287
     1
 67
     0
278
    -2
288
     1
 68
     0
279
    -2
289
     1
 69
     0
  0
VISUALSTYLE
  5
F5
102
{ACAD_XDICTIONARY
360
10D7A
102
}
102
{ACAD_REACTORS
330
EF
102
}
330
EF
100
AcDbVisualStyle
  2
2dWireframe
 70
     4
 71
     0
 72
     2
 73
     1
 90
        0
 40
-0.6
 41
-30.0
 62
     5
 63
     7
 74
     1
 91
        4
 64
     7
 65
   257
 75
     1
175
     1
 42
1.0
 92
        0
 66
   257
 43
1.0
 76
     1
 77
     6
 78
     2
 67
     7
 79
     5
170
     0
171
     0
290
     0
174
     0
 93
        1
 44
0.0
173
     0
291
     0
 45
0.0
1001
ACAD
1000
AcDbSavedByObjectVersion
1070
     0
  0
VISUALSTYLE
  5
F4
102
{ACAD_XDICTIONARY
360
10D78
102
}
102
{ACAD_REACTORS
330
EF
102
}
330
EF
100
AcDbVisualStyle
  2
Basic
 70
     7
 71
     1
 72
     0
 73
     1
 90
        0
 40
-0.6
 41
-30.0
 62
     5
 63
     7
 74
     0
 91
        4
 64
     7
 65
   257
 75
     1
175
     1
 42
1.0
 92
        8
 66
     7
 43
1.0
 76
     1
 77
     6
 78
     2
 67
     7
 79
     5
170
     0
171
     0
290
     0
174
     0
 93
        1
 44
0.0
173
     0
291
     1
 45
0.0
1001
ACAD
1000
AcDbSavedByObjectVersion
1070
     0
  0
VISUALSTYLE
  5
FB
102
{ACAD_XDICTIONARY
360
10D86
102
}
102
{ACAD_REACTORS
330
EF
102
}
330
EF
100
AcDbVisualStyle
  2
Brighten
 70
    12
 71
     2
 72
     2
 73
     1
 90
        0
 40
-0.6
 41
-30.0
 62
     5
 63
     7
 74
     1
 91
        4
 64
     7
 65
   257
 75
     1
175
     1
 42
1.0
 92
        8
 66
     7
 43
1.0
 76
     1
 77
     6
 78
     2
 67
     7
 79
     5
170
     0
171
     0
290
     0
174
     0
 93
        1
 44
50.0
173
     0
291
     1
 45
0.0
1001
ACAD
1000
AcDbSavedByObjectVersion
1070
     0
  0
VISUALSTYLE
  5
FF
102
{ACAD_XDICTIONARY
360
10D8E
102
}
102
{ACAD_REACTORS
330
EF
102
}
330
EF
100
AcDbVisualStyle
  2
ColorChange
 70
    16
 71
     2
 72
     2
 73
     3
 90
        0
 40
-0.6
 41
-30.0
 62
     5
 63
     8
 74
     1
 91
        4
 64
     7
 65
   257
 75
     1
175
     1
 42
1.0
 92
        8
 66
     8
 43
1.0
 76
     1
 77
     6
 78
     2
 67
     7
 79
     5
170
     0
171
     0
290
     0
174
     0
 93
        1
 44
0.0
173
     0
291
     1
 45
0.0
1001
ACAD
1000
AcDbSavedByObjectVersion
1070
     0
  0
VISUALSTYLE
  5
F8
102
{ACAD_XDICTIONARY
360
10D80
102
}
102
{ACAD_REACTORS
330
EF
102
}
330
EF
100
AcDbVisualStyle
  2
Conceptual
 70
     9
 71
     3
 72
     2
 73
     1
 90
        0
 40
-0.6
 41
-30.0
 62
     5
 63
     7
 74
     2
 91
        2
 64
     7
 65
   257
 75
     1
175
     1
 42
40.0
 92
        8
 66
     7
 43
1.0
 76
     1
 77
     6
 78
     2
 67
     7
 79
     3
170
     0
171
     0
290
     0
174
     0
 93
        1
 44
0.0
173
     0
291
     0
 45
0.0
1001
ACAD
1000
AcDbSavedByObjectVersion
1070
     0
  0
VISUALSTYLE
  5
FA
102
{ACAD_XDICTIONARY
360
10D84
102
}
102
{ACAD_REACTORS
330
EF
102
}
330
EF
100
AcDbVisualStyle
  2
Dim
 70
    11
 71
     2
 72
     2
 73
     1
 90
        0
 40
-0.6
 41
-30.0
 62
     5
 63
     7
 74
     1
 91
        4
 64
     7
 65
   257
 75
     1
175
     1
 42
1.0
 92
        8
 66
     7
 43
1.0
 76
     1
 77
     6
 78
     2
 67
     7
 79
     5
170
     0
171
     0
290
     0
174
     0
 93
        1
 44
-50.0
173
     0
291
     1
 45
0.0
1001
ACAD
1000
AcDbSavedByObjectVersion
1070
     0
  0
VISUALSTYLE
  5
1E6
102
{ACAD_XDICTIONARY
360
10D96
102
}
102
{ACAD_REACTORS
330
EF
102
}
330
EF
100
AcDbVisualStyle
  2
EdgeColorOff
 70
    22
 71
     2
 72
     2
 73
     0
 90
        0
 40
-0.6
 41
-30.0
 62
     5
 63
     7
 74
     1
 91
        4
 64
     7
 65
   257
 75
     1
175
     1
 42
1.0
 92
        8
 66
     7
 43
1.0
 76
     1
 77
     6
 78
     2
 67
     7
 79
     5
170
     0
171
     0
290
     0
174
     0
 93
        1
 44
0.0
173
     0
291
     1
 45
0.0
1001
ACAD
1000
AcDbSavedByObjectVersion
1070
     0
  0
VISUALSTYLE
  5
FE
102
{ACAD_XDICTIONARY
360
10D8C
102
}
102
{ACAD_REACTORS
330
EF
102
}
330
EF
100
AcDbVisualStyle
  2
Facepattern
 70
    15
 71
     2
 72
     2
 73
     1
 90
        0
 40
-0.6
 41
-30.0
 62
     5
 63
     7
 74
     1
 91
        4
 64
     7
 65
   257
 75
     1
175
     1
 42
1.0
 92
        8
 66
     7
 43
1.0
 76
     1
 77
     6
 78
     2
 67
     7
 79
     5
170
     0
171
     0
290
     0
174
     0
 93
        1
 44
0.0
173
     0
291
     1
 45
0.0
1001
ACAD
1000
AcDbSavedByObjectVersion
1070
     0
  0
VISUALSTYLE
  5
F0
102
{ACAD_XDICTIONARY
360
10D70
102
}
102
{ACAD_REACTORS
330
EF
102
}
330
EF
100
AcDbVisualStyle
  2
Flat
 70
     0
 71
     2
 72
     1
 73
     1
 90
        2
 40
-0.6
 41
30.0
 62
     5
 63
     7
 74
     0
 91
        0
 64
     7
 65
   257
 75
     1
175
     1
 42
1.0
 92
        8
 66
     7
 43
1.0
 76
     1
 77
     6
 78
     2
 67
     7
 79
     5
170
     0
171
     0
290
     0
174
     0
 93
       13
 44
0.0
173
     0
291
     1
 45
0.0
1001
ACAD
1000
AcDbSavedByObjectVersion
1070
     0
  0
VISUALSTYLE
  5
F1
102
{ACAD_XDICTIONARY
360
10D72
102
}
102
{ACAD_REACTORS
330
EF
102
}
330
EF
100
AcDbVisualStyle
  2
FlatWithEdges
 70
     1
 71
     2
 72
     1
 73
     1
 90
        2
 40
-0.6
 41
30.0
 62
     5
 63
     7
 74
     1
 91
        0
 64
     7
 65
   257
 75
     1
175
     1
 42
1.0
 92
        0
 66
   257
 43
1.0
 76
     1
 77
     6
 78
     2
 67
     7
 79
     5
170
     0
171
     0
290
     0
174
     0
 93
       13
 44
0.0
173
     0
291
     1
 45
0.0
1001
ACAD
1000
AcDbSavedByObjectVersion
1070
     0
  0
VISUALSTYLE
  5
F2
102
{ACAD_XDICTIONARY
360
10D74
102
}
102
{ACAD_REACTORS
330
EF
102
}
330
EF
100
AcDbVisualStyle
  2
Gouraud
 70
     2
 71
     2
 72
     2
 73
     1
 90
        2
 40
-0.6
 41
30.0
 62
     5
 63
     7
 74
     0
 91
        0
 64
     7
 65
   257
 75
     1
175
     1
 42
1.0
 92
        0
 66
     7
 43
1.0
 76
     1
 77
     6
 78
     2
 67
     7
 79
     5
170
     0
171
     0
290
     0
174
     0
 93
       13
 44
0.0
173
     0
291
     1
 45
0.0
1001
ACAD
1000
AcDbSavedByObjectVersion
1070
     0
  0
VISUALSTYLE
  5
F3
102
{ACAD_XDICTIONARY
360
10D76
102
}
102
{ACAD_REACTORS
330
EF
102
}
330
EF
100
AcDbVisualStyle
  2
GouraudWithEdges
 70
     3
 71
     2
 72
     2
 73
     1
 90
        2
 40
-0.6
 41
30.0
 62
     5
 63
     7
 74
     1
 91
        0
 64
     7
 65
   257
 75
     1
175
     1
 42
1.0
 92
        0
 66
   257
 43
1.0
 76
     1
 77
     6
 78
     2
 67
     7
 79
     5
170
     0
171
     0
290
     0
174
     0
 93
       13
 44
0.0
173
     0
291
     1
 45
0.0
1001
ACAD
1000
AcDbSavedByObjectVersion
1070
     0
  0
VISUALSTYLE
  5
F7
102
{ACAD_XDICTIONARY
360
10D7E
102
}
102
{ACAD_REACTORS
330
EF
102
}
330
EF
100
AcDbVisualStyle
  2
Hidden
 70
     6
 71
     1
 72
     2
 73
     2
 90
        0
 40
-0.6
 41
-30.0
 62
     5
 63
     7
 74
     2
 91
        2
 64
     7
 65
   257
 75
     2
175
     1
 42
40.0
 92
        0
 66
   257
 43
1.0
 76
     1
 77
     6
 78
     2
 67
     7
 79
     3
170
     0
171
     0
290
     0
174
     0
 93
        1
 44
0.0
173
     0
291
     0
 45
0.0
1001
ACAD
1000
AcDbSavedByObjectVersion
1070
     0
  0
VISUALSTYLE
  5
1E4
102
{ACAD_XDICTIONARY
360
10D92
102
}
102
{ACAD_REACTORS
330
EF
102
}
330
EF
100
AcDbVisualStyle
  2
JitterOff
 70
    20
 71
     2
 72
     2
 73
     0
 90
        0
 40
-0.6
 41
-30.0
 62
     5
 63
     7
 74
     1
 91
        4
 64
     7
 65
   257
 75
     1
175
     1
 42
1.0
 92
       10
 66
     7
 43
1.0
 76
     1
 77
     6
 78
     2
 67
     7
 79
     5
170
     0
171
     0
290
     0
174
     0
 93
        1
 44
0.0
173
     0
291
     1
 45
0.0
1001
ACAD
1000
AcDbSavedByObjectVersion
1070
     0
  0
VISUALSTYLE
  5
FD
102
{ACAD_XDICTIONARY
360
10D8A
102
}
102
{ACAD_REACTORS
330
EF
102
}
330
EF
100
AcDbVisualStyle
  2
Linepattern
 70
    14
 71
     2
 72
     2
 73
     1
 90
        0
 40
-0.6
 41
-30.0
 62
     5
 63
     7
 74
     1
 91
        4
 64
     7
 65
   257
 75
     7
175
     7
 42
1.0
 92
        8
 66
     7
 43
1.0
 76
     1
 77
     6
 78
     2
 67
     7
 79
     5
170
     0
171
     0
290
     0
174
     0
 93
        1
 44
0.0
173
     0
291
     1
 45
0.0
1001
ACAD
1000
AcDbSavedByObjectVersion
1070
     0
  0
VISUALSTYLE
  5
1E5
102
{ACAD_XDICTIONARY
360
10D94
102
}
102
{ACAD_REACTORS
330
EF
102
}
330
EF
100
AcDbVisualStyle
  2
OverhangOff
 70
    21
 71
     2
 72
     2
 73
     0
 90
        0
 40
-0.6
 41
-30.0
 62
     5
 63
     7
 74
     1
 91
        4
 64
     7
 65
   257
 75
     1
175
     1
 42
1.0
 92
        9
 66
     7
 43
1.0
 76
     1
 77
     6
 78
     2
 67
     7
 79
     5
170
     0
171
     0
290
     0
174
     0
 93
        1
 44
0.0
173
     0
291
     1
 45
0.0
1001
ACAD
1000
AcDbSavedByObjectVersion
1070
     0
  0
VISUALSTYLE
  5
F9
102
{ACAD_XDICTIONARY
360
10D82
102
}
102
{ACAD_REACTORS
330
EF
102
}
330
EF
100
AcDbVisualStyle
  2
Realistic
 70
     8
 71
     2
 72
     2
 73
     0
 90
        2
 40
-0.6
 41
30.0
 62
     5
 63
     7
 74
     0
 91
        0
 64
     7
 65
   257
 75
     1
175
     1
 42
1.0
 92
        8
 66
   257
 43
1.0
 76
     1
 77
     6
 78
     2
 67
     7
 79
     3
170
     0
171
     0
290
     0
174
     0
 93
       13
 44
0.0
173
     0
291
     0
 45
0.0
1001
ACAD
1000
AcDbSavedByObjectVersion
1070
     0
  0
VISUALSTYLE
  5
1F3
102
{ACAD_XDICTIONARY
360
10DA0
102
}
102
{ACAD_REACTORS
330
EF
102
}
330
EF
100
AcDbVisualStyle
  2
Shaded
 70
    27
 71
     2
 72
     2
 73
     1
 90
        2
 40
-0.6
 41
30.0
 62
     5
 63
     7
 74
     0
 91
        4
 64
     7
 65
   257
 75
     1
175
     1
 42
1.0
 92
        8
 66
   257
 43
1.0
 76
     1
 77
     6
 78
     2
 67
     8
 79
     3
170
     0
171
     0
290
     0
174
     0
 93
        5
 44
0.0
173
     0
291
     0
 45
0.0
1001
ACAD
1000
AcDbSavedByObjectVersion
1070
     0
  0
VISUALSTYLE
  5
1F2
102
{ACAD_XDICTIONARY
360
10D9E
102
}
102
{ACAD_REACTORS
330
EF
102
}
330
EF
100
AcDbVisualStyle
  2
Shaded with edges
 70
    26
 71
     2
 72
     2
 73
     1
 90
        2
 40
-0.6
 41
30.0
 62
     5
 63
     7
 74
     1
 91
        2
 64
     7
 65
   257
 75
     2
175
     1
 42
1.0
 92
        8
 66
   257
 43
1.0
 76
     1
 77
     6
 78
     2
 67
     7
 79
     3
170
     0
171
     0
290
     0
174
     0
 93
        5
 44
0.0
173
     0
291
     0
 45
0.0
1001
ACAD
1000
AcDbSavedByObjectVersion
1070
     0
  0
VISUALSTYLE
  5
1EF
102
{ACAD_XDICTIONARY
360
10D98
102
}
102
{ACAD_REACTORS
330
EF
102
}
330
EF
100
AcDbVisualStyle
  2
Shades of Gray
 70
    23
 71
     2
 72
     2
 73
     3
 90
        0
 40
-0.6
 41
-30.0
 62
     5
 63
     7
 74
     2
 91
        2
 64
     7
 65
     7
 75
     1
175
     1
 42
40.0
 92
        8
 66
     7
 43
1.0
 76
     1
 77
     6
 78
     2
 67
     7
 79
     3
170
     0
171
     0
290
     0
174
     0
 93
        1
 44
0.0
173
     0
291
     0
 45
0.0
1001
ACAD
1000
AcDbSavedByObjectVersion
1070
     0
  0
VISUALSTYLE
  5
1F0
102
{ACAD_XDICTIONARY
360
10D9A
102
}
102
{ACAD_REACTORS
330
EF
102
}
330
EF
100
AcDbVisualStyle
  2
Sketchy
 70
    24
 71
     1
 72
     2
 73
     2
 90
        0
 40
-0.6
 41
-30.0
 62
     5
 63
     7
 74
     2
 91
        2
 64
     7
 65
     7
 75
     1
175
     1
 42
40.0
 92
       11
 66
     7
 43
1.0
 76
     1
 77
     6
 78
     2
 67
     7
 79
     6
170
     0
171
     0
290
     0
174
     0
 93
        1
 44
0.0
173
     0
291
     0
 45
0.0
1001
ACAD
1000
AcDbSavedByObjectVersion
1070
     0
  0
VISUALSTYLE
  5
FC
102
{ACAD_XDICTIONARY
360
10D88
102
}
102
{ACAD_REACTORS
330
EF
102
}
330
EF
100
AcDbVisualStyle
  2
Thicken
 70
    13
 71
     2
 72
     2
 73
     1
 90
        0
 40
-0.6
 41
-30.0
 62
     5
 63
     7
 74
     1
 91
        4
 64
     7
 65
   257
 75
     1
175
     1
 42
1.0
 92
       12
 66
     7
 43
1.0
 76
     1
 77
     6
 78
     2
 67
     7
 79
     5
170
     0
171
     0
290
     0
174
     0
 93
        1
 44
0.0
173
     0
291
     1
 45
0.0
1001
ACAD
1000
AcDbSavedByObjectVersion
1070
     0
  0
VISUALSTYLE
  5
F6
102
{ACAD_XDICTIONARY
360
10D7C
102
}
102
{ACAD_REACTORS
330
EF
102
}
330
EF
100
AcDbVisualStyle
  2
Wireframe
 70
     5
 71
     0
 72
     2
 73
     0
 90
        0
 40
-0.6
 41
-30.0
 62
     5
 63
     7
 74
     1
 91
        4
 64
     7
 65
   257
 75
     1
175
     1
 42
1.0
 92
        0
 66
   257
 43
1.0
 76
     1
 77
     6
 78
     2
 67
     7
 79
     3
170
     0
171
     0
290
     0
174
     0
 93
        1
 44
0.0
173
     0
291
     0
 45
0.0
1001
ACAD
1000
AcDbSavedByObjectVersion
1070
     0
  0
VISUALSTYLE
  5
1F1
102
{ACAD_XDICTIONARY
360
10D9C
102
}
102
{ACAD_REACTORS
330
EF
102
}
330
EF
100
AcDbVisualStyle
  2
X-Ray
 70
    25
 71
     2
 72
     2
 73
     1
 90
        1
 40
0.5
 41
-30.0
 62
     5
 63
     7
 74
     1
 91
        0
 64
     7
 65
   257
 75
     1
175
     1
 42
1.0
 92
        8
 66
     7
 43
1.0
 76
     1
 77
     6
 78
     2
 67
     7
 79
     3
170
     0
171
     0
290
     0
174
     0
 93
       13
 44
0.0
173
     0
291
     0
 45
0.0
1001
ACAD
1000
AcDbSavedByObjectVersion
1070
     0
  0
DICTIONARYVAR
  5
146
102
{ACAD_REACTORS
330
5E
102
}
330
5E
100
DictionaryVariables
280
     0
  1
1:1
  0
DICTIONARYVAR
  5
259
102
{ACAD_REACTORS
330
5E
102
}
330
5E
100
DictionaryVariables
280
     0
  1
3.500000
  0
DICTIONARYVAR
  5
25A
102
{ACAD_REACTORS
330
5E
102
}
330
5E
100
DictionaryVariables
280
     0
  1
acadiso.lin
  0
DICTIONARYVAR
  5
145
102
{ACAD_REACTORS
330
5E
102
}
330
5E
100
DictionaryVariables
280
     0
  1
STANDARD
  0
DICTIONARYVAR
  5
84
102
{ACAD_REACTORS
330
5E
102
}
330
5E
100
DictionaryVariables
280
     0
  1
STANDARD
  0
DICTIONARYVAR
  5
227
102
{ACAD_REACTORS
330
5E
102
}
330
5E
100
DictionaryVariables
280
     0
  1
Metric50
  0
DICTIONARYVAR
  5
228
102
{ACAD_REACTORS
330
5E
102
}
330
5E
100
DictionaryVariables
280
     0
  1
Metric50
  0
DICTIONARYVAR
  5
5F
102
{ACAD_REACTORS
330
5E
102
}
330
5E
100
DictionaryVariables
280
     0
  1
2
  0
DICTIONARYVAR
  5
63
102
{ACAD_REACTORS
330
5E
102
}
330
5E
100
DictionaryVariables
280
     0
  1
1
  0
DICTIONARYVAR
  5
10D11
102
{ACAD_REACTORS
330
5E
102
}
330
5E
100
DictionaryVariables
280
     0
  1
0
  0
DICTIONARYVAR
  5
1AE
102
{ACAD_REACTORS
330
5E
102
}
330
5E
100
DictionaryVariables
280
     0
  1
0
  0
DICTIONARYVAR
  5
1AF
102
{ACAD_REACTORS
330
5E
102
}
330
5E
100
DictionaryVariables
280
     0
  1
0
  0
DICTIONARYVAR
  5
10D0F
102
{ACAD_REACTORS
330
5E
102
}
330
5E
100
DictionaryVariables
280
     0
  1
2
  0
DICTIONARYVAR
  5
10D0E
102
{ACAD_REACTORS
330
5E
102
}
330
5E
100
DictionaryVariables
280
     0
  1
1
  0
DICTIONARYVAR
  5
10D61
102
{ACAD_REACTORS
330
5E
102
}
330
5E
100
DictionaryVariables
280
     0
  1
80.000000
  0
DICTIONARYVAR
  5
10D60
102
{ACAD_REACTORS
330
5E
102
}
330
5E
100
DictionaryVariables
280
     0
  1
5.000000
  0
DICTIONARYVAR
  5
10D10
102
{ACAD_REACTORS
330
5E
102
}
330
5E
100
DictionaryVariables
280
     0
  1
127
  0
DICTIONARYVAR
  5
10D62
102
{ACAD_REACTORS
330
5E
102
}
330
5E
100
DictionaryVariables
280
     0
  1
2
  0
DICTIONARY
  5
10DA4
330
21C
100
AcDbDictionary
280
     1
281
     1
  3
ACAD_XREC_ROUNDTRIP
360
10DA5
  0
DICTIONARY
  5
10D69
330
D3
100
AcDbDictionary
280
     1
281
     1
  3
ACAD_XREC_ROUNDTRIP
360
10D6A
  0
DICTIONARY
  5
10D6B
330
D7
100
AcDbDictionary
280
     1
281
     1
  3
ACAD_XREC_ROUNDTRIP
360
10D6C
  0
DICTIONARY
  5
10D66
330
22
100
AcDbDictionary
280
     1
281
     1
  3
ACAD_XREC_ROUNDTRIP
360
10D67
  0
DICTIONARY
  5
1F9
330
ED
100
AcDbDictionary
280
     1
281
     1
  3
ACAD_XREC_ROUNDTRIP
360
10D6E
  3
FBXASSET
360
1FA
  0
DICTIONARY
  5
1F7
330
EC
100
AcDbDictionary
280
     1
281
     1
  3
ACAD_XREC_ROUNDTRIP
360
10D6D
  3
FBXASSET
360
1F8
  0
DICTIONARY
  5
173
330
EE
100
AcDbDictionary
280
     1
281
     1
  3
ACAD_XREC_ROUNDTRIP
360
10D6F
  3
BUMPTILE
360
175
  3
DIFFUSETILE
360
174
  3
FBXASSET
360
1FB
  3
OPACITYTILE
360
176
  3
REFLECTIONTILE
360
177
  0
DICTIONARY
  5
10D90
330
12E
100
AcDbDictionary
280
     1
281
     1
  3
ACAD_XREC_ROUNDTRIP
360
10D91
  0
DICTIONARY
  5
10DA2
330
21A
100
AcDbDictionary
280
     1
281
     1
  3
ACAD_XREC_ROUNDTRIP
360
10DA3
  0
DICTIONARY
  5
162
330
7F
100
AcDbDictionary
280
     1
281
     1
  3
ACAD_ROUNDTRIP_2008_TABLESTYLE_CELLSTYLEMAP
360
10D63
  3
ACAD_XREC_ROUNDTRIP
360
10D68
  0
DICTIONARY
  5
10D7A
330
F5
100
AcDbDictionary
280
     1
281
     1
  3
ACAD_XREC_ROUNDTRIP
360
10D7B
  0
DICTIONARY
  5
10D78
330
F4
100
AcDbDictionary
280
     1
281
     1
  3
ACAD_XREC_ROUNDTRIP
360
10D79
  0
DICTIONARY
  5
10D86
330
FB
100
AcDbDictionary
280
     1
281
     1
  3
ACAD_XREC_ROUNDTRIP
360
10D87
  0
DICTIONARY
  5
10D8E
330
FF
100
AcDbDictionary
280
     1
281
     1
  3
ACAD_XREC_ROUNDTRIP
360
10D8F
  0
DICTIONARY
  5
10D80
330
F8
100
AcDbDictionary
280
     1
281
     1
  3
ACAD_XREC_ROUNDTRIP
360
10D81
  0
DICTIONARY
  5
10D84
330
FA
100
AcDbDictionary
280
     1
281
     1
  3
ACAD_XREC_ROUNDTRIP
360
10D85
  0
DICTIONARY
  5
10D96
330
1E6
100
AcDbDictionary
280
     1
281
     1
  3
ACAD_XREC_ROUNDTRIP
360
10D97
  0
DICTIONARY
  5
10D8C
330
FE
100
AcDbDictionary
280
     1
281
     1
  3
ACAD_XREC_ROUNDTRIP
360
10D8D
  0
DICTIONARY
  5
10D70
330
F0
100
AcDbDictionary
280
     1
281
     1
  3
ACAD_XREC_ROUNDTRIP
360
10D71
  0
DICTIONARY
  5
10D72
330
F1
100
AcDbDictionary
280
     1
281
     1
  3
ACAD_XREC_ROUNDTRIP
360
10D73
  0
DICTIONARY
  5
10D74
330
F2
100
AcDbDictionary
280
     1
281
     1
  3
ACAD_XREC_ROUNDTRIP
360
10D75
  0
DICTIONARY
  5
10D76
330
F3
100
AcDbDictionary
280
     1
281
     1
  3
ACAD_XREC_ROUNDTRIP
360
10D77
  0
DICTIONARY
  5
10D7E
330
F7
100
AcDbDictionary
280
     1
281
     1
  3
ACAD_XREC_ROUNDTRIP
360
10D7F
  0
DICTIONARY
  5
10D92
330
1E4
100
AcDbDictionary
280
     1
281
     1
  3
ACAD_XREC_ROUNDTRIP
360
10D93
  0
DICTIONARY
  5
10D8A
330
FD
100
AcDbDictionary
280
     1
281
     1
  3
ACAD_XREC_ROUNDTRIP
360
10D8B
  0
DICTIONARY
  5
10D94
330
1E5
100
AcDbDictionary
280
     1
281
     1
  3
ACAD_XREC_ROUNDTRIP
360
10D95
  0
DICTIONARY
  5
10D82
330
F9
100
AcDbDictionary
280
     1
281
     1
  3
ACAD_XREC_ROUNDTRIP
360
10D83
  0
DICTIONARY
  5
10DA0
330
1F3
100
AcDbDictionary
280
     1
281
     1
  3
ACAD_XREC_ROUNDTRIP
360
10DA1
  0
DICTIONARY
  5
10D9E
330
1F2
100
AcDbDictionary
280
     1
281
     1
  3
ACAD_XREC_ROUNDTRIP
360
10D9F
  0
DICTIONARY
  5
10D98
330
1EF
100
AcDbDictionary
280
     1
281
     1
  3
ACAD_XREC_ROUNDTRIP
360
10D99
  0
DICTIONARY
  5
10D9A
330
1F0
100
AcDbDictionary
280
     1
281
     1
  3
ACAD_XREC_ROUNDTRIP
360
10D9B
  0
DICTIONARY
  5
10D88
330
FC
100
AcDbDictionary
280
     1
281
     1
  3
ACAD_XREC_ROUNDTRIP
360
10D89
  0
DICTIONARY
  5
10D7C
330
F6
100
AcDbDictionary
280
     1
281
     1
  3
ACAD_XREC_ROUNDTRIP
360
10D7D
  0
DICTIONARY
  5
10D9C
330
1F1
100
AcDbDictionary
280
     1
281
     1
  3
ACAD_XREC_ROUNDTRIP
360
10D9D
  0
XRECORD
  5
10DA5
102
{ACAD_REACTORS
330
10DA4
102
}
330
10DA4
100
AcDbXrecord
280
     1
102
DISPLAYNAME
  1
Metric50
102
FLAGS
 90
        0
  0
XRECORD
  5
10D6A
102
{ACAD_REACTORS
330
10D69
102
}
330
10D69
100
AcDbXrecord
280
     1
102
SHADEPLOT
 70
     0
102
SHADEPLOTRESLEVEL
 70
     2
102
SHADEPLOTCUSTOMDPI
 70
   300
  0
XRECORD
  5
10D6C
102
{ACAD_REACTORS
330
10D6B
102
}
330
10D6B
100
AcDbXrecord
280
     1
102
SHADEPLOT
 70
     0
102
SHADEPLOTRESLEVEL
 70
     2
102
SHADEPLOTCUSTOMDPI
 70
   300
  0
XRECORD
  5
10D67
102
{ACAD_REACTORS
330
10D66
102
}
330
10D66
100
AcDbXrecord
280
     1
102
SHADEPLOT
 70
     0
102
SHADEPLOTRESLEVEL
 70
     2
102
SHADEPLOTCUSTOMDPI
 70
   300
  0
XRECORD
  5
10D6E
102
{ACAD_REACTORS
330
1F9
102
}
330
1F9
100
AcDbXrecord
280
     1
102
MATERIAL
148
0.0
149
0.0
149
0.0
 93
        0
 94
       63
282
     0
 72
     1
 77
     1
171
     1
175
     1
179
     1
273
     0
  0
XRECORD
  5
1FA
102
{ACAD_REACTORS
330
1F9
102
}
330
1F9
100
AcDbXrecord
280
     1
 70
     1
 90
429727718
  1
D62C5603-E3A1-4AEA-B7FB-FE5D8D0755AF
310
504B03040A0000080000CC70623B3DEE336E79000000790000001B0000006175746F6465736B2D64657369676E2D7061636B6167652E786D6C3C3F786D6C2076657273696F6E3D22312E302220656E636F64696E673D227574662D3822203F3E3C666F726D6174733E3C666F726D61743E687474703A2F2F736368656D612E
310
6175746F6465736B2E636F6D2F64657369676E2D7061636B6167652F323030393C2F666F726D61743E3C2F666F726D6174733E504B0304140006080800CC70623BD486FD9CA0000000F4000000130000005B436F6E74656E745F54797065735D2E786D6C7D8EC10E82300C865F65E91D8A1E8C310C0EEA1BF002731658846E
310
D98AC1B77784ABF1D8FE5FBFBF75BBCE937A534CCEB38643598122B6FEE978D0B0485F9C41B54DDD7D022595594E1A469170414C76A4D9A4D207E29CF43ECE46F218070CC6BECC4078ACAA135ACF422C856C0E68EA1BF5669944DDD7BCDE7B1F8E415D77AECB980613C2E4AC91FC167A2B244592486606FC29C8FD7F045B9A
310
EF7053A7E60B504B0304140006080800CC70623B853B8169EB0000007C01000008000000636F72652E786D6C8D90416EC3201045AF62CDB6C206821CC7C244919D9CA01740401C94182C03558F5F9C3852BBEB6A467FFE9B197D7EFC9E1EC5975982F5AE035262288C535E5B377690E21535501C055FBC8FBF6C503839990E
310
5619041F179FE64D52DE45E362569DD7661365082642A11EB9E920A89B99642953CC8E702F67A9EE7234257977194EC9EAE275C4EABCCF5EAD5940D4AC6F0E35A568B8F43562CD7046CD199FD07E60174276A7BE677B5EADB0E0D14EEFFB6A31321A0D82627C4084204C3F096B71DD52F6819B16635EADF63F509AF53FA164
310
5DDCD1EDDD17164090FCC8732078B56691CB33A85CD7DCC40F504B0304140006080800CC70623B55019EA25F0000007C00000007000000636E782E786D6C4DCB3B0E80201045D1AD90E915ED2CF8AC45050C11660C8261F98AB1B07AC9C97D42D718D865D3E909258CFD00CCE24AC6E326A164D74DC0B4128928FF32603847
310
2BA13128B1252AC747C6BAB984FC68F0B87FE8960A5C09FE86CFB69FBA01504B0304140006080800CC70623BDBABAAF470010000D40300000C0000006662782F636F72652E786D6CC553D16E823014FD95A6AF4B694182CC941A83FA05FB810A9511A125A5257EFE2E82712ECEB8A7F100CD39F7F69E734AF9FADC366850B6
310
AF8DCE7018308C942E4C59EB2AC3DE1D498AD15A706B8CFB56869196ADCAF00863C12B6B7C374385D14E6907A836A59A41D9F7CA615434B0C8705F7CAA5606D23BA8E84F41278B93AC54100640439DE0BDB320004D43C63716C7C399D30917DCFBBA9CD9BA8469F5B156168B24CED3F7248AC8769F27244EB73B92EED8862C
310
B7F13E0C179B3C8F979C8ECD82BBBABDAA2BAC924E9558448CBD9330242CFA08E3154B5651FCC6D215639C8EE5774DBE2B5F6CF2B5768B68963BB5F5588420E442FC700B1139D4CB01F450C1E918227C2E09DF070D8140C84E1E9AAB8F1340832A9CB13130A5F1376A908D57309505ECF2A0DF179C4E9D30F5B239B87E3823
310
7A79C6F31DE1A8A5AEC08474B03C7837EAE4938639B44E5932B833D2C6B6B279CDC613877FA26EE21F4A2A4C63EC7F29A2F301D1F9F7A0E37D145F504B0304140006080800CC70623B9C113CC27E0000009D0000000B0000006662782F636E782E786D6C4DCCDF0A83201C86E15B91DFB94BFB330DD428C8FB886521330DA7
310
6397BF1A1DECE883878F57749FCDA1B7892F1BBC047A23808C7F84D9FA55424E0BE6803A256208E9EF06C84F9B91703228B1C690F78B66B34CD9A5439DF5CF0BFBF65E35BCA1B8D6A5C6F540381E886698B5741C695F9503EBA150A2F8958E3DC3EA0B504B0304140006080800CC70623B7DF2F77C2A010000120200003100
310
00006662782F41393633353835312D344632462D344230382D423046372D3739314545314133324237412F636F72652E786D6C8D51DB8EC22014FC15C2939B0D2DB4B45643319AE817EC0F6041255A68B86CFCFC856D4D76DF7CE190393373060EDB3DC707F856CE6B6B7A480A0C81328395DA5C7B18C3057510EC3873D686
310
3F34088C18550F330C39BB3A1BA7051AAC09CA84841A2BD5020AEF55806078A44B0FFD7053A328440C89E1EFC52486BBB8AA8214A99D789CF9E05200300FC927E4FB4D5B375D43103D5527440FB843077C5AA3F5861C8F645F5787F59E95B390B318B55CE45AA638FAA2957BD7248B390B7A7CC51F9C124149C82B8C378810
310
84AB2F42B7B8DD56F413775B8C5999E9FF4471926F8AA236A1AE96B8B3CC434E5839373893369E1FAF30EA395917409EB7F26AF8801C171837A4A6AC9C89E9F9C9B1A58BA30FD6A5EF5DDDCF894B9AD9B6A59C957943A9FCAE2FD5BC4DFE03504B0304140006080800CC70623BAD7543B64E01000033030000300000006662
310
782F41393633353835312D344632462D344230382D423046372D3739314545314133324237412F636E782E786D6CD593CD6EC32010845F0571AD6CE3D48AD20813A9873E410FBD12D82434182C7EAAE6EDBB2424CD25871E7B41D6EC30B3FA84F9E67BB2E40B4234DE8DB46F1925E094D7C6ED479AD3AE5951B2113C789FEE
310
6C943839C1488B4C05DF079FE72A69D8C96C13AAD6B8631503449F83828872B949AC57D26200B826A308D316B4064D6E46FCDA41C05550DC9E483A00797BFD207EFB092A45DE9514C1BBD22178396BD39D891265658C238DEA00936C654E5E433CB65A26D9F6EDB5EBC14EBF49A45CB856E66048291F6939A9A81BB5C89177
310
38143CA680F4AA299D66A042CEB3354A2684DC9D8D178FE0D9B8B41CAAD720F880EE7EF93C0C18769E099ECC04D5A102C8049A8A05632F4DDF376CF1DE0F6BB65C2F8627B65A33C6BB62177CEBBDAD973006829F89F22E814B54F4BC2BE347F8AA8F681390B50FA73F804400B5F542E796F19FF974E7F78DB802FE05E20750
310
4B0304140006080800CC70623BE75B7789680500003C100000340000006662782F41393633353835312D344632462D344230382D423046372D3739314545314133324237412F6F626A656374732E786D6CAD575B8F9B3818FD2B887D06C22499CB8AA1CA655245D5B455A356FB305264C061D8018C6C3393D95FBFC7600890
310
A4CD5EF210B0B1BFEBF98E3F7B1FF6596ABC522E1296DF9BAE3D320D9A872C4AF2F8DE2CE5CEBA358D0FBEC719939D65A691938CDE9B6ADAF4BD98B3B2D05311DD91329583D9D5FC0F438434A7A611A644887B5384CF34233629258BA878B12322891DEFF6B66BD70BFB62634E8AE781D082709A4B588AF91C528CDA28B73F
310
1C998EEF39EABBEFA97FBD6A7C7E9553F9D3D79FE442923C3C523610337627CB87ABE99D359D4CC6D6E4FACAB5E6ABF9D2726FC6A3C5F56271377BB88362213924694B38DD99FE47C48627A1E7D49F5A8BB5E1A74C0A599ED3B0F21F1E56366B89112D681E218F0915D0D6F17AD41FBA2A369DCF6335D62ABBD39779D5DDD1
310
11D4D8DE3CBB96B2E04FB8202E41051754A1AA8E8F76B4C6DFE810B580B1547F4B84911149794252234D024EF8BBE963A95AE27B3D310A9D5C215C7960FAEE415ED75694C6AFB17BCACA5D99A60A9AA65F217B0BFC53292ACB92BF283FAD0D3621576592CB5BED907C2FA8E9DF794E35E97BEA31BED21FEB401ABB94C44839
310
DCACBF0E1C5DA8DA5B2F4DFFD32AD86F543D9E565E7056502E157C00AD2671CD534549AB752FCA9CDA00677A313F04E51B22FF19E57B300579E3C97EB29F682D92935CEC18CF901B7B54FD8C51F362B56FC72FE0B3C1EAE335EDCCBF5AEC39ADB17DC238973F804BA5E6F6BFE7AF1FB32E523BE9F3BD571418E3631DCA4D48
310
5250CF639223210A9446CA30052EDF057BD35F8329C1ECD84552BF0DC8D18BE7BCE23BFE6BD960AB4A7DE79923A103BEBD80F911CBAA2C60DB19B01CF164A5583B772EE6D3FFA56666CBCDA74DC97724A48F9A58967497E489C4D979006FD7A05E227A1EBDD0F737C623387A9C844D3709995625106D157315F8B8392CD4E0
310
A0B9A720C4BE9829CEF37EA1E13111214D53925356365ADA634861B52519DD27A00AEB808EAF0628E6F435519D446F45CF2C9CF5214F0A15B2F6D06B79DA3EE3CBF7F56780D2F4E7EF73A0F5E5B02A38D07DC852C6B7C1FBB6664213E0C39E3EBA7FF4E1AD23EA2829407C85E586727488B751B2DB9502BC7B228A3FD68B6E
310
A65A22397E690AA8D158D7E404EC8CDA235CC3B7D1898680131CEC2CDF2638C65196279577750F15884AEE19F94199155B92B13297978469D4F8D358DF0AEF7631E28DC8F0D9F437D5D39A83B2231A1D52D543813A824EF8D44BCFF2FA6A31BD1E8DAD87F1CCB526B3879935BF59CDADD5C37479BB1CDD4CA7B3556B516589
310
EF352754B706114D9C885EC9131DE6EFEB43D99AFE2391C2F958179413D7CFEF6B1B6DB1E7600F00DE6E5C67454A339A4BA2E0FBA85ED26F045D454F463DBFCE484C2F90F2E5E3666003662ED8F755951A7D1BECD5B30B550B2785C8E7320B7292A4838DDA71BBC863ED7613CAF659337A3354231D4FF4A182A54904C2898C
310
98B28C4AD0CE056CCF332A80986E571EE9DBC305BB5FEB7E509220A58D25CF042D712A806AC0AD0C657FDEF80D2D9CEAA2EE4D1C76F60BFE74219A06527D6F82DF6412526107381E55E353090704D085B52408A8913C4ED159D79BDA71BB4BC506F4831350EB6F975CD22D69BF7AC49B91A2C0A9DDA3D5CA36AD20FC478E37
310
E61844E2352865EBCB61A275A65283CAAA9DD27703B4102F5AF51EF5F573B75CBB5AD38BC845F7A49F82A0966A49C2E3EA5EA0ECD326CD965F1DB402C6FA8B51A4658C5C5E2EC9E214602E55810345408596591009A82E7E7FFACA19EEA299B14A0081A705CB3296EBC14CDF658DCD336EA6D1136881AAEB87B81AB9EE53D5
310
F5EB8BC8362082DA24122F98680A4E7930C01A0079749CEA14382A0783E5EBA5A10F8C098456A03D6A4AEB6BB881E2513747552A5DB22C7EDAF83BD5528081A365F7FF06504B0304140006080000CC70623B000000000000000000000000350000006662782F41393633353835312D344632462D344230382D423046372D37
310
39314545314133324237412F76657274696365732E62696E504B0304140006080800CC70623BF270F1330600000004000000360000006662782F41393633353835312D344632462D344230382D423046372D3739314545314133324237412F747269616E676C65732E62696E636660600000504B0304140006080000CC7062
310
3B000000000000000000000000370000006662782F41393633353835312D344632462D344230382D423046372D3739314545314133324237412F617474726962757465732E62696E504B0304140006080800CC70623B08DA0BD19000000041010000360000006662782F41393633353835312D344632462D344230382D4230
310
46372D3739314545314133324237412F6469726563746F72792E786D6C858F410AC3201045AF22B36F53E9A60B35CBEEBAE80D244E44489C6234F4F835464A48035D0DF398FF9F8AF63D0E6CC63039F212F8F9020C7D47C6792B21C5FE7403D62A1188E2E60C98D7234A5830286103A55745067B9D86B8A3CF9C7F90C11DE6
310
07FB144396D7B6A82D282E9A152AD114D5EF2CB866EEE831B8EEA07A7BB5A8D7D61A2BAAEB7FD5F70921FF497D00504B0304140006080800CC70623BEDD1DC58FD000000A00100003B0000006662782F41393633353835312D344632462D344230382D423046372D3739314545314133324237412F7265736F75726365732F
310
636F72652E786D6C8D504B6E833010BD0A9A6D65B00922041947112427E8052C33A156828DFCA97AFC9A40A576D7CDCCE87D344F8F9FBFE667F689CE6B6B3A6039850C8DB2A336530731DC4903D95970676DF82583CCC8193B5861107C72362E3BA4AC096842428D1D7107A5F7182053CF7474E0D507CE32973124857FE48B
310
540F3961CEF244279DE03EB81420DB9EAC1384436FA353E879B1B182C7A8C75DA3C7F453DF353A1075D537A7BA6464B8F535A99AE14A9A2BBD90E350DD183B5CFABE3AF262350B1EF4FC9351399401471025A527C218A1E53BAB5A5AB765F5469B96525EACF23FA6B88CFF34456DC2A1DCE36E360F82A5202F42F062ED2BAD
310
579969AFDD8A6F504B010214000A0000080000CC70623B3DEE336E79000000790000001B00000000000000000000000000000000006175746F6465736B2D64657369676E2D7061636B6167652E786D6C504B01021400140006080800CC70623BD486FD9CA0000000F40000001300000000000000000000000000B20000005B
310
436F6E74656E745F54797065735D2E786D6C504B01021400140006080800CC70623B853B8169EB0000007C010000080000000000000000000000000083010000636F72652E786D6C504B01021400140006080800CC70623B55019EA25F0000007C000000070000000000000000000000000094020000636E782E786D6C504B
310
01021400140006080800CC70623BDBABAAF470010000D40300000C00000000000000000000000000180300006662782F636F72652E786D6C504B01021400140006080800CC70623B9C113CC27E0000009D0000000B00000000000000000000000000B20400006662782F636E782E786D6C504B01021400140006080800CC70
310
623B7DF2F77C2A010000120200003100000000000000000000000000590500006662782F41393633353835312D344632462D344230382D423046372D3739314545314133324237412F636F72652E786D6C504B01021400140006080800CC70623BAD7543B64E010000330300003000000000000000000000000000D2060000
310
6662782F41393633353835312D344632462D344230382D423046372D3739314545314133324237412F636E782E786D6C504B01021400140006080800CC70623BE75B7789680500003C10000034000000000000000000000000006E0800006662782F41393633353835312D344632462D344230382D423046372D3739314545
310
314133324237412F6F626A656374732E786D6C504B01021400140006080000CC70623B0000000000000000000000003500000000000000000000000000280E00006662782F41393633353835312D344632462D344230382D423046372D3739314545314133324237412F76657274696365732E62696E504B01021400140006
310
080800CC70623BF270F133060000000400000036000000000000000000000000007B0E00006662782F41393633353835312D344632462D344230382D423046372D3739314545314133324237412F747269616E676C65732E62696E504B01021400140006080000CC70623B0000000000000000000000003700000000000000
310
000000000000D50E00006662782F41393633353835312D344632462D344230382D423046372D3739314545314133324237412F617474726962757465732E62696E504B01021400140006080800CC70623B08DA0BD1900000004101000036000000000000000000000000002A0F00006662782F41393633353835312D344632
310
462D344230382D423046372D3739314545314133324237412F6469726563746F72792E786D6C504B01021400140006080800CC70623BEDD1DC58FD000000A00100003B000000000000000000000000000E1000006662782F41393633353835312D344632462D344230382D423046372D3739314545314133324237412F7265
310
736F75726365732F636F72652E786D6C504B0506000000000E000E0080040000641100000000
  0
XRECORD
  5
10D6D
102
{ACAD_REACTORS
330
1F7
102
}
330
1F7
100
AcDbXrecord
280
     1
102
MATERIAL
148
0.0
149
0.0
149
0.0
 93
        0
 94
       63
282
     0
 72
     1
 77
     1
171
     1
175
     1
179
     1
273
     0
  0
XRECORD
  5
1F8
102
{ACAD_REACTORS
330
1F7
102
}
330
1F7
100
AcDbXrecord
280
     1
 70
     1
 90
429727718
  1
30362254-06B7-45E0-A893-8CFA70E3D6BC
310
504B03040A0000080000CC70623B3DEE336E79000000790000001B0000006175746F6465736B2D64657369676E2D7061636B6167652E786D6C3C3F786D6C2076657273696F6E3D22312E302220656E636F64696E673D227574662D3822203F3E3C666F726D6174733E3C666F726D61743E687474703A2F2F736368656D612E
310
6175746F6465736B2E636F6D2F64657369676E2D7061636B6167652F323030393C2F666F726D61743E3C2F666F726D6174733E504B0304140006080800CC70623BD486FD9CA0000000F4000000130000005B436F6E74656E745F54797065735D2E786D6C7D8EC10E82300C865F65E91D8A1E8C310C0EEA1BF002731658846E
310
D98AC1B77784ABF1D8FE5FBFBF75BBCE937A534CCEB38643598122B6FEE978D0B0485F9C41B54DDD7D022595594E1A469170414C76A4D9A4D207E29CF43ECE46F218070CC6BECC4078ACAA135ACF422C856C0E68EA1BF5669944DDD7BCDE7B1F8E415D77AECB980613C2E4AC91FC167A2B244592486606FC29C8FD7F045B9A
310
EF7053A7E60B504B0304140006080800CC70623B1EC5D7A3EB0000007C01000008000000636F72652E786D6C8D90416EC3201045AF82665B6103C6756C6122AB4D4ED00B204C5C94182C03558F5F9C3852BBEB6A467FFE9B197D71FC9E6FE8CBACC17AD7032D0820E3B41FAD9B7A48F1820F808E52ACDEC75F36404ECDA687
310
4D0629A6D5A76597B477D1B89855E747B38B2A041301E95B6E7A08FAD3CCAA50296647B8168BD2573599823EBB0CA76447F43862C7BCCF5EAC59410E4DDD9C7973C2755553CCCFA4C603E3040F1565ED3B1FDE4E432BCA0D9622DAF9795FAF464533826484B498524CD807E51D79ED187F21878E10516EF63F505AC67F42C9
310
BA58B1FDDD071640D2FCC87D2045B96591CB3DA85CB7DCE40F504B0304140006080800CC70623B55019EA25F0000007C00000007000000636E782E786D6C4DCB3B0E80201045D1AD90E915ED2CF8AC45050C11660C8261F98AB1B07AC9C97D42D718D865D3E909258CFD00CCE24AC6E326A164D74DC0B4128928FF32603847
310
2BA13128B1252AC747C6BAB984FC68F0B87FE8960A5C09FE86CFB69FBA01504B0304140006080800CC70623B8C9102E971010000D40300000C0000006662782F636F72652E786D6CC5535B6E833010BC8AE5DF0A6C08340F1947A84D4ED00B38C6A128602363A31CBFCB234A53A551FA553EC09AD9F5CE8C31DB9E9B1AF5CA
310
7695D1198E428A91D2D214952E33ECDD315861B4E5CC1AE3BE9561A445A3323CC098B3D21ADFCE9034DA29ED00D5A6503328BA4E398C640D8B0C77F253352214DE4145770A5B214FA2546114020D759C75CE8200340D19DE981F0F6746269C33EFAB6266AB02A655C74A59CCF365BADC27CB5D902ED22848F6340DF238A141
310
BE88E2F57B92BFEDF23523433367AE6A2EEAA455C2A902F398D2751045018D3FA264435F3771F242571B4A1919CA6F9A7C5B3CD9E42BED16F12C776AEB308F40C848FC700B1139D4891EF410CEC810227CC6846F8386402064270EF5C5C709A05E49676C024C61FC95EA45ED154CA5211D1FF4FB8291A913A68E9B83EBBB33
310
E2A7673CDE118E5AE8124C0807CB8377834E366998436B950D7A7746DAD846D4CFD978E0F04FD455FC5D49D2D4C6FE9722321F10997F0F32DC47FE05504B0304140006080800CC70623BFFEA85907E0000009D0000000B0000006662782F636E782E786D6C4DCCD10A83201886E15B91FFDC95D95A811AB6F23E625948A6C3
310
E9D8E5AF46073BFAE0E1E365ED67B3E8ADC3CB78C7815C7240DA3DFC64DCC221C519D7805AC182F7F1EF06C88D9BE6703008B6049F9E274D7A1E938DBB5AE3D6131B2589BA0D3D965551E0B2EA732C9B9A624AAEB41E3A557677029960D9AFB4EF11165F504B0304140006080800CC70623B4FEEA4082C0100001202000031
310
0000006662782F39464131463745442D413632322D343644302D413938332D3331353338454246344243312F636F72652E786D6C8D515B6EC32010BC0AE2AB55850DD871ED0813254D72825EC00192A2C460F1A872FC42ED48ED5F7E00CDCECCCEB26C731F6FE05B39AFADE921293004CA082BB5B9F43086336A21D870E6AC
310
0D7F68109861543DCC30E4ECE26C9C164858139409093556AA051CBC570102714B8F1E7AF1A5C6A11862480C7F2DA6415C878B2A4891CA89C7990F2E050073937C42DE1DB7E4F87ED8A36D4329AA9B3D46DBAEAD504556557BD81DEBDD0761E52CE42C462D17B996298E3E6BE59E35C962CE821E1FF18553435012728A7187
310
0841987E927A8D9B35ADDF70BBC6989599FE4F1427F9A4286A132ABAC49D651EF234CD5CE04CDA78BA3DC2A8FB645D00B9DF8B57E215725C60BCA2A463E54C4CE327C7A65E1C7DB02E7DEFCBF594B864C5CA6CDBD49C957943E9FA5D5FBAF336F90F504B0304140006080800CC70623BAD7543B64E01000033030000300000
310
006662782F39464131463745442D413632322D343644302D413938332D3331353338454246344243312F636E782E786D6CD593CD6EC32010845F0571AD6CE3D48AD20813A9873E410FBD12D82434182C7EAAE6EDBB2424CD25871E7B41D6EC30B3FA84F9E67BB2E40B4234DE8DB46F1925E094D7C6ED479AD3AE5951B2113C
310
789FEE6C943839C1488B4C05DF079FE72A69D8C96C13AAD6B8631503449F83828872B949AC57D26200B826A308D316B4064D6E46FCDA41C05550DC9E483A00797BFD207EFB092A45DE9514C1BBD22178396BD39D891265658C238DEA00936C654E5E433CB65A26D9F6EDB5EBC14EBF49A45CB856E66048291F6939A9A81BB5
310
C8917738143CA680F4AA299D66A042CEB3354A2684DC9D8D178FE0D9B8B41CAAD720F880EE7EF93C0C18769E099ECC04D5A102C8049A8A05632F4DDF376CF1DE0F6BB65C2F8627B65A33C6BB62177CEBBDAD973006829F89F22E814B54F4BC2BE347F8AA8F681390B50FA73F804400B5F542E796F19FF974E7F78DB802FE05
310
E207504B0304140006080800CC70623B16AB87BA640500003C100000340000006662782F39464131463745442D413632322D343644302D413938332D3331353338454246344243312F6F626A656374732E786D6CAD575B6FA33818FD2B887DE6924B3BED8A326A92B68A663B534DD4D13E548A0C38942D60649B369D5FBFC7
310
600890A493BDE42160637FD7F31D7FF63E6FB3D478A55C242CBF3247B66B1A340F5994E4F19559CA8D75611A9F7D8F33263BCB4C232719BD32D5B4E97B316765A1A722BA21652A07B3B7B33F0D11D29C9A46981221AE4C113ED38CD8A4942CA2E2C58E882476BCD9DA23BB5ED8171B73523C0F841684D35CC252CCE79062D4
310
468DFA43D7747CCF51DF7D4FFDEB5593E3AB9CCA9FBEFE241792E4E19EB28198C968BAB8199F5D5A67D3E9C49A9E8F47D6EC76B6B0469F26EEFC7C3EBFBCBEB98462213924694B38DD98FE1D62C393D073EA4FADC5DAF04326852CCF6958F90F0F2B9BB5C48816348F90C7840A68EB78EDF68723159BCEE7891A6B95DDE9D3
310
BCEAEEE8086A6C6F9E5D4B59F0175C10A7A0820BAA5055C7473B5AE3CFDD452D602CD5DF12616444529E90D448938013FE6EFA58AA96F85E4F8C42275708571E98FE6827AF6B2B4AE3D7D83D64E5A64C53054DD3AF90BD06FEA9149565C94FCA0F6B834DC85599E4F2423B24DF0B6AFA979E534DFA9E7A4CC6FA631D486393
310
921829879BF5D781A373557BCB85E97FB90DB62B558F8795179C15944B051F40AB495CF35451D26A4727654E6D8033BD98EF82F21D91FF8AF2DD9982BCF1643BDD4EB516C9492E368C67C88DED563FC36D5EACF66DFF057C3658BDBFA69DF9578B3DA735B64F18C7F20770A9D45CFCF7FCF563D6456A277DBEF78A02637CA2
310
43B90A490AEAB94F72244481D24819A6C0E59B606BFA4B3025981DBB48EAB701D97BF19C577CC77F2D1B6C55A9EF3C732474C0B727303F625995056C3B02963D9EAC146BE78EC5FCEC7FA999EBC5EACBAAE41B12D27B4D2C0BBA49F244E2ECDC81B76B502F113D8F5EE8FB1BE3111CDD4FC2AA9B844CAB1288B68AB90A7CDC
310
1C166AB0D3DC5310625FCC14E779BFD0709F8890A629C9292B1B2DED31A4B0DA928CEE135085754027E3018A397D4D5427D15BD1330B677DC8934285AC3DF45A9EB68FF8F2B8FC0A509AFEECFD0FF2DE25CC6047F7214B195F07EFEB9A094D800F7BFAE8FED187B78EA8A3A400F115961BCAD1215E47C966530AF0EE8128FE
310
58CEBB996A8964FFA529A046635D9353B0336A8F700DDF46271A024E70B0B37C9DE01847591E54DED53D54202AB947E4076556AC49C6CA5C9E1226B7F1A7B1BE15DEED62C41B91E1B3E9AFAAA735036547343A925075041DF0A9979E893B391F8FCFA6967B3EFB644DCF6E5CEBFAE272625DCC6FAF3FB93793C5F90CE1EF57
310
407342756B10D1C489E8953CD1617E5CEECAD6F4EF8914CE5D5D504E5C3F1F9736DA62CFC11E00BCDDB8CC8A9466349744C1F75EBDA4DF09BA8A9E8C7A7E9991989E20E5DBDD6A6003664ED8F7A04A8DBE0DF6EAD9B9AA858342E47399053949D2C146EDB85DE4B176BB0965FBAC19BD19AA918E27FA50C1D22402E144464C
310
59462568E704B6E71915404CB72B8FF4EDE184DDAF753F284990D2C6926782963815403548A70C657FDEF80D2D9CEAA2AE4C1C76F60BFE74219A06527D6582DF6412526107381E55E353090704D085B52408D0933C4ED159D79BDA71BB4BC506F4831350EB6F979CD22D69BF7AC49B91A2C0A9DDA3D5CA36AD20FC478E37E6
310
1844E2352865EBCB6EA275A652E3836BE04EFB400BF1A2556F515F1FBB35B2AB35BD889C744FFA1004B5544B121E57F70215746DD2F5E2C1412B602CBF19455AC6C8E5E9922C4E01E65215385004546899059180EAFCF7A707CE7017CD8CDB0410789AB32C63B91E5CEBBBACB17AC6CD347A022D5075FD106377347AAABA7E
310
7D11590744509B44E205134DC1290F06580320F78E537D3D73540E06CB970B431F185308AD40BBD794D6D77003C5A36E8EAA54BA64597CD8F83BD552A080A365F7FF06504B0304140006080000CC70623B000000000000000000000000350000006662782F39464131463745442D413632322D343644302D413938332D3331
310
353338454246344243312F76657274696365732E62696E504B0304140006080800CC70623BF270F1330600000004000000360000006662782F39464131463745442D413632322D343644302D413938332D3331353338454246344243312F747269616E676C65732E62696E636660600000504B0304140006080000CC70623B
310
000000000000000000000000370000006662782F39464131463745442D413632322D343644302D413938332D3331353338454246344243312F617474726962757465732E62696E504B0304140006080800CC70623B08DA0BD19000000041010000360000006662782F39464131463745442D413632322D343644302D413938
310
332D3331353338454246344243312F6469726563746F72792E786D6C858F410AC3201045AF22B36F53E9A60B35CBEEBAE80D244E44489C6234F4F835464A48035D0DF398FF9F8AF63D0E6CC63039F212F8F9020C7D47C6792B21C5FE7403D62A1188E2E60C98D7234A5830286103A55745067B9D86B8A3CF9C7F90C11DE607
310
FB144396D7B6A82D282E9A152AD114D5EF2CB866EEE831B8EEA07A7BB5A8D7D61A2BAAEB7FD5F70921FF497D00504B0304140006080800CC70623B0D6EF93BFE000000A00100003B0000006662782F39464131463745442D413632322D343644302D413938332D3331353338454246344243312F7265736F75726365732F63
310
6F72652E786D6C8D50596E833010BD0A9ADFCA60B334011947A8694ED00B586642AC041B79A97AFC9A40A5F6AF3F33A3B7689E1E3F7DCD8FEC139DD7D6F4C0720A191A65476DA61E62B892236427C19DB5E1970C322367EC618541F0C9D9B8EC90B226A009093576C41D94DE63804C3DD2D18357379C652E63480A7FCF17A9
310
EE72C29CE5894E3AC17D702940B63D59270887DE46A7D0F36263058F518FBB468FE9A7BE6A7420864373B8D4873369AA8691FA421B3294352543C5CAF65C0F6FEF43CB8BD52C78D0F34F46E550061C419494B6843142CB0F5677F4B52BEB177AEC28E5C52AFF638ACBF84F53D42654E51E77B379102C05791282176B5F693D
310
CB4C7BED567C03504B010214000A0000080000CC70623B3DEE336E79000000790000001B00000000000000000000000000000000006175746F6465736B2D64657369676E2D7061636B6167652E786D6C504B01021400140006080800CC70623BD486FD9CA0000000F40000001300000000000000000000000000B20000005B
310
436F6E74656E745F54797065735D2E786D6C504B01021400140006080800CC70623B1EC5D7A3EB0000007C010000080000000000000000000000000083010000636F72652E786D6C504B01021400140006080800CC70623B55019EA25F0000007C000000070000000000000000000000000094020000636E782E786D6C504B
310
01021400140006080800CC70623B8C9102E971010000D40300000C00000000000000000000000000180300006662782F636F72652E786D6C504B01021400140006080800CC70623BFFEA85907E0000009D0000000B00000000000000000000000000B30400006662782F636E782E786D6C504B01021400140006080800CC70
310
623B4FEEA4082C0100001202000031000000000000000000000000005A0500006662782F39464131463745442D413632322D343644302D413938332D3331353338454246344243312F636F72652E786D6C504B01021400140006080800CC70623BAD7543B64E010000330300003000000000000000000000000000D5060000
310
6662782F39464131463745442D413632322D343644302D413938332D3331353338454246344243312F636E782E786D6C504B01021400140006080800CC70623B16AB87BA640500003C1000003400000000000000000000000000710800006662782F39464131463745442D413632322D343644302D413938332D3331353338
310
454246344243312F6F626A656374732E786D6C504B01021400140006080000CC70623B0000000000000000000000003500000000000000000000000000270E00006662782F39464131463745442D413632322D343644302D413938332D3331353338454246344243312F76657274696365732E62696E504B01021400140006
310
080800CC70623BF270F133060000000400000036000000000000000000000000007A0E00006662782F39464131463745442D413632322D343644302D413938332D3331353338454246344243312F747269616E676C65732E62696E504B01021400140006080000CC70623B0000000000000000000000003700000000000000
310
000000000000D40E00006662782F39464131463745442D413632322D343644302D413938332D3331353338454246344243312F617474726962757465732E62696E504B01021400140006080800CC70623B08DA0BD190000000410100003600000000000000000000000000290F00006662782F39464131463745442D413632
310
322D343644302D413938332D3331353338454246344243312F6469726563746F72792E786D6C504B01021400140006080800CC70623B0D6EF93BFE000000A00100003B000000000000000000000000000D1000006662782F39464131463745442D413632322D343644302D413938332D3331353338454246344243312F7265
310
736F75726365732F636F72652E786D6C504B0506000000000E000E0080040000641100000000
  0
XRECORD
  5
10D6F
102
{ACAD_REACTORS
330
173
102
}
330
173
100
AcDbXrecord
280
     1
102
MATERIAL
148
0.0
149
0.0
149
0.0
 93
        0
 94
       63
282
     0
 72
     1
 77
     1
171
     1
175
     1
179
     1
273
     0
  0
XRECORD
  5
175
102
{ACAD_REACTORS
330
173
102
}
330
173
100
AcDbXrecord
280
     1
270
     1
271
     1
  0
XRECORD
  5
174
102
{ACAD_REACTORS
330
173
102
}
330
173
100
AcDbXrecord
280
     1
270
     1
271
     1
  0
XRECORD
  5
1FB
102
{ACAD_REACTORS
330
173
102
}
330
173
100
AcDbXrecord
280
     1
 70
     0
 90
1673772943
  1
ECE7A1D2-D628-4531-984C-D00F80459256
310
504B03040A0000080000CC70623B3DEE336E79000000790000001B0000006175746F6465736B2D64657369676E2D7061636B6167652E786D6C3C3F786D6C2076657273696F6E3D22312E302220656E636F64696E673D227574662D3822203F3E3C666F726D6174733E3C666F726D61743E687474703A2F2F736368656D612E
310
6175746F6465736B2E636F6D2F64657369676E2D7061636B6167652F323030393C2F666F726D61743E3C2F666F726D6174733E504B0304140006080800CC70623BD486FD9CA0000000F4000000130000005B436F6E74656E745F54797065735D2E786D6C7D8EC10E82300C865F65E91D8A1E8C310C0EEA1BF002731658846E
310
D98AC1B77784ABF1D8FE5FBFBF75BBCE937A534CCEB38643598122B6FEE978D0B0485F9C41B54DDD7D022595594E1A469170414C76A4D9A4D207E29CF43ECE46F218070CC6BECC4078ACAA135ACF422C856C0E68EA1BF5669944DDD7BCDE7B1F8E415D77AECB980613C2E4AC91FC167A2B244592486606FC29C8FD7F045B9A
310
EF7053A7E60B504B0304140006080800CC70623BD9DDAED0EC0000007C01000008000000636F72652E786D6C8D90416EC3201045AF82665B61836D9CD8C2444DD39CA01740405C94182C03558F5F9C3852BBEB6A467FFE9B197D7EF89E6EE8CB2CC17A37002D0820E394D7D68D03A478C17B4007C117EFE32F1B20272733C0
310
2A83E0E3E2D3BC49CABB685CCCAAF3DA6CA20CC14440EA969B0182FA34932C648AD911AEC52CD5558EA6A0CF2EC329598D1E47ACCEFBECC59A050463A7EA5833865FEBDD0E37353BE3EE8DBDE3F6786A48D375FBF6CC78B9C282473B3DEFABC5C86834888A900E538A49F5419B9EB47DD5BC907D4F082F57FB1F28CDFA9F50
310
B22ED6D5F6EE030B20687EE43E10BC5CB3C8E51E54AE6B6EE207504B0304140006080800CC70623B55019EA25F0000007C00000007000000636E782E786D6C4DCB3B0E80201045D1AD90E915ED2CF8AC45050C11660C8261F98AB1B07AC9C97D42D718D865D3E909258CFD00CCE24AC6E326A164D74DC0B4128928FF326038
310
472BA13128B1252AC747C6BAB984FC68F0B87FE8960A5C09FE86CFB69FBA01504B0304140006080800CC70623BA24EB22D72010000D40300000C0000006662782F636F72652E786D6CC5535B6E833010BC8AE5DF0A6C5E49888CA3A6694ED00B38E05014B091B1518EDFE511A5A9D228FD2A1F60CDEC7A67C6986DCE4D8D7A
310
69BA4AAB0C073EC548AA5C17952A33ECECD15B61B4E1CC686DBF9561A44423333CC098B3D268D7CE50AE9595CA02AA74216750749DB418E5352C32DCE59FB211BE70162ABA93DF8AFC244AE9073ED050C759670D0840D390E18DF9F1706664C23973AE2A66B62A605A75ACA4C13C4976E1364A12EF355A2EBD384AF65EFA96
310
BC7B8BED2EA6719AAE16FB8491A199335B351775B991C2CA02F390D2D40B028F861F41BCA68B7518BFD0D59A524686F29B26D7164F36B94AD9289CE54E6D1DE6010819891F6E21228B3AD1831EC219194284CF98F06DD01008846CC5A1BEF83801D4CBDC6A1303536877A57A513B0953A94FC707FDBE6064EA84A9E3E6E0FA
310
EE8CF0E9198F7784A316AA0413C2C2F2E0ECA0934D1AE6D05A69BCDE9E91D2A611F573361E38FC1375157F5752AE6B6DFE4B11990F88CCBF0719EE23FF02504B0304140006080800CC70623B408A7D3B7C0000009D0000000B0000006662782F636E782E786D6C4DCCD10A83201886E15B91FFDC552A92A0064DBC8F581632
310
D3703A76F9ABD1C18E3E78F878E5F0D9027ABBFCF2292AE86E2D20171F69F6715550CB827B40839639A5F2770314A7CD293819B45C73AAFB45B35BA61ACAA1C1C7E7855C58C15BC331339661262CC762340413D68D77DA5B42298546CBE6573AF60CEB2F504B0304140006080800CC70623B449FB9BD290100001202000031
310
0000006662782F36394639363044362D344446342D343946362D394244322D3234314243333846323333332F636F72652E786D6C8D515B6EC32010BC0AE22B55850D98B871848994463E412FE002495162B07854397EA176A4F62F3F2C9A9D991D587EB84F37F0AD7D30CEF6905418026DA553C65E7A98E219ED203808EE9D
310
8B7F6810D871D23D2C3014FCE25D9A57483A1BB58D19B54EE9151C43D0110279CB971E06F9A5A7B11A53CC8C70ADE6515EC78BAE4895DB992778883E0700CB907242D17643D7E2538BD869608875438BBAE38922CAC8F1BDD90DB4691A5E2F42C153326A951B95E398B3D1FE599322163C9AE9115F7A3D46ADA0A018778810
310
84E907617BDCEE297BC5BB3DC6BC2EF47FA234AB2745C9D8D8D035EE220B50105E2F0DC1954B9FB747187D9F9D8FA0CCDB042D5FA0C015C65B42DF78BD10F3F3B363CB56C7109DCFDFBBB97E662ED92EB62D13BC2E1BCAE5777DB9966D8A1F504B0304140006080800CC70623BAD7543B64E01000033030000300000006662
310
782F36394639363044362D344446342D343946362D394244322D3234314243333846323333332F636E782E786D6CD593CD6EC32010845F0571AD6CE3D48AD20813A9873E410FBD12D82434182C7EAAE6EDBB2424CD25871E7B41D6EC30B3FA84F9E67BB2E40B4234DE8DB46F1925E094D7C6ED479AD3AE5951B2113C789FEE
310
6C943839C1488B4C05DF079FE72A69D8C96C13AAD6B8631503449F83828872B949AC57D26200B826A308D316B4064D6E46FCDA41C05550DC9E483A00797BFD207EFB092A45DE9514C1BBD22178396BD39D891265658C238DEA00936C654E5E433CB65A26D9F6EDB5EBC14EBF49A45CB856E66048291F6939A9A81BB5C89177
310
38143CA680F4AA299D66A042CEB3354A2684DC9D8D178FE0D9B8B41CAAD720F880EE7EF93C0C18769E099ECC04D5A102C8049A8A05632F4DDF376CF1DE0F6BB65C2F8627B65A33C6BB62177CEBBDAD973006829F89F22E814B54F4BC2BE347F8AA8F681390B50FA73F804400B5F542E796F19FF974E7F78DB802FE05E20750
310
4B0304140006080800CC70623B8D05915C650500003B100000340000006662782F36394639363044362D344446342D343946362D394244322D3234314243333846323333332F6F626A656374732E786D6CAD575B6FA33814FE2B887D06429276DA1565D4266D158D3A339A6846FB502932E050B66023DB74D2FDF5FB190C01
310
9276B2973C046C8ECFF53B17071F77456EBD502133CEAE6CDF9DD81665314F32965ED995DA3A17B6F5310C04E7AA47665B8C14F4CAD6DB7618A48257A5D94AE89654B91AEDDEDDFC61C998326A5B714EA4BCB265FC440BE2924AF184CA6737218AB8E976E7FA6E4338649B0A523E8D98964450A6A029F619B8588D52FE7039
310
B1BD30F0F4F730D0FF866AF6369557DB33949F31A9088B0F848DD8CCFCF9F2767A76E99CCDE733677E3EF59D9BBB9BA5E37F984D16E78BC5E5F5ED25044B25C0C96822E8D60EEFE11B91C581D77CEA34368A1F5329E68CD1B8B61F16D63A1B8E092D294B10C78C4A48EB593D192E7DED9BDEE7995E1B91FDEDD3ACEA9FE831
310
6A756F9F7D4D79F4274C90A7A04248AA51D5F8C718DAE06FB2F75AC4796EBE65D22A88A22223B995679120E2D50E41AA49C260C046A35368846B0BECD0DFF3EBEB8AD4F835768F69B9ADF25C43D30E6B646F807FAA64AD59F61715C7A54127C4AACA98BA3006A9D792DAE165E0D59B61A01FB3A9F9D838D2DAE62445C86166
310
F37564E842E7DE6A69879FEEA2DD5AE7E371E1A5E025154AC307D06A03D73EB5978C58FFA4C8E9033066E0F3BD53BEC1F39F91BE7B55103791EDE6BBB991A2046172CB4581D8B893FA674DDA17A77B3B7C413D1B511FD2743BFF8A38F03A658705E3ADF8015C3A3417FF3D7E439FF591DA0B5F18BC20C1B8981957AE6392A3
310
F43C640C01D1A0B4728E2DD4F26DB4B3C3152A252A3B4E913CEC1C72F012782FF88EFF8637AA552DBEF76408E8A8DE9E50F9E1CB3A2DA0DB1B6039A893B56063DC5B3E3FFB5F72E67AB9FEB4AEC496C4F4C1149625DD662C53E89D7BF0F6151A046260D1337DFDC94502430F83B0EE07A130A224BCAD7DAE1D9FB6CD422FF6
310
920702629C4BB9AE79C12F243C6432A6794E18E5552BA56B431AAB5D91317302B2B071E86C3A42B1A02F999E24061403B5D0EB639195DA655DD3EBEAB4FB862DDF579F014AD0E73C22F99E28DA57FB98E75C6CA2D74D53086D600F4786E0FE3144B771A8A7B900F03594DB8A633CBC49B2EDB69228BB479CF863B5E807AAAB
310
23872F6DFEB4129B949CA33823F58830E86D65621E10047D9DB34D862E8EAC3C2ABC2F7B2C40D67CDFE01F5545B92105AF983AC54D93D69E56FB8E797F88913F898A9FEC705D3F9D1B54EC8426FB500D40A03BD0119B06E1B95DDC7EB8F6975367793EBD70E66733DFB9BC982F9CE564727731999F5D4ECFCE3B8D6A4DC2A0
310
6D50FD148437D110834A64C6CDDF57FBACB5C307A2A477DFE4939736CFEF2B175371E0E10CF0DD1D5C15654E0BCA14D1E87DD02FF93782A162C0A3D95F1524A52770F972BF1EE9809D13CE7DD599467F8ECE9ADD85CE85A34CD45355448C64F9E8A031DC2D596ACC6E5DD93D9B82DE2EF5CAF81363A8E47996A0DE24564A79
310
4115AACE09C55E14540231FDA13C319787134EBF34E3A022514E5B4D9E0826E25C02D5805B15ABE1BEF51B26383D445DD9E875EE33FE4C22DA16427D65A3BCA92CA6D28DD01DF5DC53330704308475351050232CCD31583787BA75774AFB06E5070DD0C8EF484E19968C5D83BA5B90B244D31E54D55A372320FE4786B7EA58
310
44E135AA5467CB7EA333A61683CC6A8C3257034C10CF46F40EF9F5BE59BE5BD30C3C72D235E95D10345C1D45445A5F0BB47E46A5EBE5570F9380B5FA629579952296A773720405982B9DE04011506178964401AA8BDF1FBF0A8EAB6861DD6580C0E38217056766716DAEB2D6FA0917D3E4116581EADB879C4E7CFFB11EFACD
310
3D641311495D92C8676CB409A72D18610D803CE8A626049E8EC1887CB5B44CC39883690DDA8399B4B9855B481E7D71D4A9D22F96E5BB73BF5793020C02137BF837504B0304140006080000CC70623B000000000000000000000000350000006662782F36394639363044362D344446342D343946362D394244322D32343142
310
43333846323333332F76657274696365732E62696E504B0304140006080800CC70623BF270F1330600000004000000360000006662782F36394639363044362D344446342D343946362D394244322D3234314243333846323333332F747269616E676C65732E62696E636660600000504B0304140006080000CC70623B0000
310
00000000000000000000370000006662782F36394639363044362D344446342D343946362D394244322D3234314243333846323333332F617474726962757465732E62696E504B0304140006080800CC70623B08DA0BD19000000041010000360000006662782F36394639363044362D344446342D343946362D394244322D
310
3234314243333846323333332F6469726563746F72792E786D6C858F410AC3201045AF22B36F53E9A60B35CBEEBAE80D244E44489C6234F4F835464A48035D0DF398FF9F8AF63D0E6CC63039F212F8F9020C7D47C6792B21C5FE7403D62A1188E2E60C98D7234A5830286103A55745067B9D86B8A3CF9C7F90C11DE607FB14
310
4396D7B6A82D282E9A152AD114D5EF2CB866EEE831B8EEA07A7BB5A8D7D61A2BAAEB7FD5F70921FF497D00504B0304140006080800CC70623BCA768048FE000000A00100003B0000006662782F36394639363044362D344446342D343946362D394244322D3234314243333846323333332F7265736F75726365732F636F72
310
652E786D6C8D50596E833010BD0A9ADFCA60D600328E9AA639412F609909B1126CE4A5EAF16B0295DABFFECC8CDEA2797AECF8353F924FB44E193D409E5248504B332A3D0D10FC95B4901C39B3C6F85F3248B49871801506CE266BC2B243D2688FDA47549B11775038871E12F988C7004EDE7016A9083E2ADC3D5D84BC8B09
310
D33C8D74D471E6BC8D0192EDC93A815B742658898E651BCB59086ADC356A8C3FD555A1055ED7E7E254D615792D0F075295F585746FF53B694EE78A565DD736979A65AB9933AFE69F8CD2A2F038022F28ED489E135A7CE4554F9BBEA85E68DB53CAB255FEC71496F19FA6A0B42F8B3DEE6673C0F318E4497096AD7DC5F52C33
310
EEB55BFE0D504B010214000A0000080000CC70623B3DEE336E79000000790000001B00000000000000000000000000000000006175746F6465736B2D64657369676E2D7061636B6167652E786D6C504B01021400140006080800CC70623BD486FD9CA0000000F40000001300000000000000000000000000B20000005B436F
310
6E74656E745F54797065735D2E786D6C504B01021400140006080800CC70623BD9DDAED0EC0000007C010000080000000000000000000000000083010000636F72652E786D6C504B01021400140006080800CC70623B55019EA25F0000007C000000070000000000000000000000000095020000636E782E786D6C504B0102
310
1400140006080800CC70623BA24EB22D72010000D40300000C00000000000000000000000000190300006662782F636F72652E786D6C504B01021400140006080800CC70623B408A7D3B7C0000009D0000000B00000000000000000000000000B50400006662782F636E782E786D6C504B01021400140006080800CC70623B
310
449FB9BD290100001202000031000000000000000000000000005A0500006662782F36394639363044362D344446342D343946362D394244322D3234314243333846323333332F636F72652E786D6C504B01021400140006080800CC70623BAD7543B64E010000330300003000000000000000000000000000D20600006662
310
782F36394639363044362D344446342D343946362D394244322D3234314243333846323333332F636E782E786D6C504B01021400140006080800CC70623B8D05915C650500003B10000034000000000000000000000000006E0800006662782F36394639363044362D344446342D343946362D394244322D32343142433338
310
46323333332F6F626A656374732E786D6C504B01021400140006080000CC70623B0000000000000000000000003500000000000000000000000000250E00006662782F36394639363044362D344446342D343946362D394244322D3234314243333846323333332F76657274696365732E62696E504B010214001400060808
310
00CC70623BF270F13306000000040000003600000000000000000000000000780E00006662782F36394639363044362D344446342D343946362D394244322D3234314243333846323333332F747269616E676C65732E62696E504B01021400140006080000CC70623B00000000000000000000000037000000000000000000
310
00000000D20E00006662782F36394639363044362D344446342D343946362D394244322D3234314243333846323333332F617474726962757465732E62696E504B01021400140006080800CC70623B08DA0BD190000000410100003600000000000000000000000000270F00006662782F36394639363044362D344446342D
310
343946362D394244322D3234314243333846323333332F6469726563746F72792E786D6C504B01021400140006080800CC70623BCA768048FE000000A00100003B000000000000000000000000000B1000006662782F36394639363044362D344446342D343946362D394244322D3234314243333846323333332F7265736F
310
75726365732F636F72652E786D6C504B0506000000000E000E0080040000621100000000
  0
XRECORD
  5
176
102
{ACAD_REACTORS
330
173
102
}
330
173
100
AcDbXrecord
280
     1
270
     1
271
     1
  0
XRECORD
  5
177
102
{ACAD_REACTORS
330
173
102
}
330
173
100
AcDbXrecord
280
     1
270
     1
271
     1
  0
XRECORD
  5
10D91
102
{ACAD_REACTORS
330
10D90
102
}
330
10D90
100
AcDbXrecord
280
     1
102
ACAD_ROUNDTRIP_2012_MLEADER_STYLE
298
     1
  0
XRECORD
  5
10DA3
102
{ACAD_REACTORS
330
10DA2
102
}
330
10DA2
100
AcDbXrecord
280
     1
102
DISPLAYNAME
  1
Metric50
102
FLAGS
 90
        0
  0
CELLSTYLEMAP
  5
10D63
102
{ACAD_REACTORS
330
162
102
}
330
162
100
AcDbCellStyleMap
 90
        3
300
CELLSTYLE
  1
TABLEFORMAT_BEGIN
 90
        5
170
     1
 91
        0
 92
    32768
 62
   257
 93
        1
300
CONTENTFORMAT
  1
CONTENTFORMAT_BEGIN
 90
        0
 91
        0
 92
      512
 93
        0
300

 40
0.0
140
1.0
 94
        5
 62
     0
340
11
144
6.0
309
CONTENTFORMAT_END
171
     1
301
MARGIN
  1
CELLMARGIN_BEGIN
 40
1.5
 40
1.5
 40
1.5
 40
1.5
 40
4.5
 40
4.5
309
CELLMARGIN_END
 94
        6
 95
        1
302
GRIDFORMAT
  1
GRIDFORMAT_BEGIN
 90
        0
 91
        1
 62
     0
 92
       -2
340
14
 93
        0
 40
1.125
309
GRIDFORMAT_END
 95
        2
302
GRIDFORMAT
  1
GRIDFORMAT_BEGIN
 90
        0
 91
        1
 62
     0
 92
       -2
340
14
 93
        0
 40
1.125
309
GRIDFORMAT_END
 95
        4
302
GRIDFORMAT
  1
GRIDFORMAT_BEGIN
 90
        0
 91
        1
 62
     0
 92
       -2
340
14
 93
        0
 40
1.125
309
GRIDFORMAT_END
 95
        8
302
GRIDFORMAT
  1
GRIDFORMAT_BEGIN
 90
        0
 91
        1
 62
     0
 92
       -2
340
14
 93
        0
 40
1.125
309
GRIDFORMAT_END
 95
       16
302
GRIDFORMAT
  1
GRIDFORMAT_BEGIN
 90
        0
 91
        1
 62
     0
 92
       -2
340
14
 93
        0
 40
1.125
309
GRIDFORMAT_END
 95
       32
302
GRIDFORMAT
  1
GRIDFORMAT_BEGIN
 90
        0
 91
        1
 62
     0
 92
       -2
340
14
 93
        0
 40
1.125
309
GRIDFORMAT_END
309
TABLEFORMAT_END
  1
CELLSTYLE_BEGIN
 90
        1
 91
        1
300
_TITLE
309
CELLSTYLE_END
300
CELLSTYLE
  1
TABLEFORMAT_BEGIN
 90
        5
170
     1
 91
        0
 92
        0
 62
   257
 93
        1
300
CONTENTFORMAT
  1
CONTENTFORMAT_BEGIN
 90
        0
 91
        0
 92
      512
 93
        0
300

 40
0.0
140
1.0
 94
        5
 62
     0
340
11
144
4.5
309
CONTENTFORMAT_END
171
     1
301
MARGIN
  1
CELLMARGIN_BEGIN
 40
1.5
 40
1.5
 40
1.5
 40
1.5
 40
4.5
 40
4.5
309
CELLMARGIN_END
 94
        6
 95
        1
302
GRIDFORMAT
  1
GRIDFORMAT_BEGIN
 90
        0
 91
        1
 62
     0
 92
       -2
340
14
 93
        0
 40
1.125
309
GRIDFORMAT_END
 95
        2
302
GRIDFORMAT
  1
GRIDFORMAT_BEGIN
 90
        0
 91
        1
 62
     0
 92
       -2
340
14
 93
        0
 40
1.125
309
GRIDFORMAT_END
 95
        4
302
GRIDFORMAT
  1
GRIDFORMAT_BEGIN
 90
        0
 91
        1
 62
     0
 92
       -2
340
14
 93
        0
 40
1.125
309
GRIDFORMAT_END
 95
        8
302
GRIDFORMAT
  1
GRIDFORMAT_BEGIN
 90
        0
 91
        1
 62
     0
 92
       -2
340
14
 93
        0
 40
1.125
309
GRIDFORMAT_END
 95
       16
302
GRIDFORMAT
  1
GRIDFORMAT_BEGIN
 90
        0
 91
        1
 62
     0
 92
       -2
340
14
 93
        0
 40
1.125
309
GRIDFORMAT_END
 95
       32
302
GRIDFORMAT
  1
GRIDFORMAT_BEGIN
 90
        0
 91
        1
 62
     0
 92
       -2
340
14
 93
        0
 40
1.125
309
GRIDFORMAT_END
309
TABLEFORMAT_END
  1
CELLSTYLE_BEGIN
 90
        2
 91
        1
300
_HEADER
309
CELLSTYLE_END
300
CELLSTYLE
  1
TABLEFORMAT_BEGIN
 90
        5
170
     1
 91
        0
 92
        0
 62
   257
 93
        1
300
CONTENTFORMAT
  1
CONTENTFORMAT_BEGIN
 90
        0
 91
        0
 92
      512
 93
        0
300

 40
0.0
140
1.0
 94
        2
 62
     0
340
11
144
4.5
309
CONTENTFORMAT_END
171
     1
301
MARGIN
  1
CELLMARGIN_BEGIN
 40
1.5
 40
1.5
 40
1.5
 40
1.5
 40
4.5
 40
4.5
309
CELLMARGIN_END
 94
        6
 95
        1
302
GRIDFORMAT
  1
GRIDFORMAT_BEGIN
 90
        0
 91
        1
 62
     0
 92
       -2
340
14
 93
        0
 40
1.125
309
GRIDFORMAT_END
 95
        2
302
GRIDFORMAT
  1
GRIDFORMAT_BEGIN
 90
        0
 91
        1
 62
     0
 92
       -2
340
14
 93
        0
 40
1.125
309
GRIDFORMAT_END
 95
        4
302
GRIDFORMAT
  1
GRIDFORMAT_BEGIN
 90
        0
 91
        1
 62
     0
 92
       -2
340
14
 93
        0
 40
1.125
309
GRIDFORMAT_END
 95
        8
302
GRIDFORMAT
  1
GRIDFORMAT_BEGIN
 90
        0
 91
        1
 62
     0
 92
       -2
340
14
 93
        0
 40
1.125
309
GRIDFORMAT_END
 95
       16
302
GRIDFORMAT
  1
GRIDFORMAT_BEGIN
 90
        0
 91
        1
 62
     0
 92
       -2
340
14
 93
        0
 40
1.125
309
GRIDFORMAT_END
 95
       32
302
GRIDFORMAT
  1
GRIDFORMAT_BEGIN
 90
        0
 91
        1
 62
     0
 92
       -2
340
14
 93
        0
 40
1.125
309
GRIDFORMAT_END
309
TABLEFORMAT_END
  1
CELLSTYLE_BEGIN
 90
        3
 91
        2
300
_DATA
309
CELLSTYLE_END
  0
XRECORD
  5
10D68
102
{ACAD_REACTORS
330
162
102
}
330
162
100
AcDbXrecord
280
     1
102
ACAD_ROUNDTRIP_PRE2007_TABLESTYLE
 90
      512
 91
        0
  1

 92
      512
 93
        0
  2

 94
      512
 95
        0
  3

  0
XRECORD
  5
10D7B
102
{ACAD_REACTORS
330
10D7A
102
}
330
10D7A
100
AcDbXrecord
280
     1
102
RTVSPost2010Prop28
280
     1
102
RTVSPost2010PropOp28
 70
     1
102
RTVSPost2010Prop29
280
     1
102
RTVSPost2010PropOp29
 70
     1
102
RTVSPost2010Prop30
280
     0
102
RTVSPost2010PropOp30
 70
     1
102
RTVSPost2010Prop31
280
     0
102
RTVSPost2010PropOp31
 70
     1
102
RTVSPost2010Prop32
280
     0
102
RTVSPost2010PropOp32
 70
     1
102
RTVSPost2010Prop33
280
     0
102
RTVSPost2010PropOp33
 70
     1
102
RTVSPost2010Prop34
280
     0
102
RTVSPost2010PropOp34
 70
     1
102
RTVSPost2010Prop35
280
     0
102
RTVSPost2010PropOp35
 70
     1
102
RTVSPost2010Prop36
280
     0
102
RTVSPost2010PropOp36
 70
     1
102
RTVSPost2010Prop37
 90
       50
102
RTVSPost2010PropOp37
 70
     1
102
RTVSPost2010Prop38
140
0.0
102
RTVSPost2010PropOp38
 70
     1
102
RTVSPost2010Prop39
140
1.0
102
RTVSPost2010PropOp39
 70
     1
102
RTVSPost2010Prop40
 90
        0
102
RTVSPost2010PropOp40
 70
     1
102
RTVSPost2010Prop41ColorIndex
 90
       18
102
RTVSPost2010Prop41ColorRGB
 90
        0
102
RTVSPost2010PropOp41
 70
     1
102
RTVSPost2010Prop42
 90
       50
102
RTVSPost2010PropOp42
 70
     1
102
RTVSPost2010Prop43
 90
        3
102
RTVSPost2010PropOp43
 70
     1
102
RTVSPost2010Prop44ColorIndex
 90
        5
102
RTVSPost2010Prop44ColorRGB
 90
      255
102
RTVSPost2010PropOp44
 70
     1
102
RTVSPost2010Prop45
280
     0
102
RTVSPost2010PropOp45
 70
     1
102
RTVSPost2010Prop46
 90
       50
102
RTVSPost2010PropOp46
 70
     1
102
RTVSPost2010Prop47
 90
       50
102
RTVSPost2010PropOp47
 70
     1
102
RTVSPost2010Prop48
 90
       50
102
RTVSPost2010PropOp48
 70
     1
102
RTVSPost2010Prop49
280
     0
102
RTVSPost2010PropOp49
 70
     1
102
RTVSPost2010Prop50
 90
       50
102
RTVSPost2010PropOp50
 70
     1
102
RTVSPost2010Prop51ColorIndex
 90
      256
102
RTVSPost2010Prop51ColorRGB
 90
-16777216
102
RTVSPost2010PropOp51
 70
     0
102
RTVSPost2010Prop52
140
1.0
102
RTVSPost2010PropOp52
 70
     0
102
RTVSPost2010Prop53
 90
        2
102
RTVSPost2010PropOp53
 70
     1
102
RTVSPost2010Prop54
  1
strokes_ogs.tif
102
RTVSPost2010PropOp54
 70
     1
102
RTVSPost2010Prop55
280
     0
102
RTVSPost2010PropOp55
 70
     1
102
RTVSPost2010Prop56
140
1.0
102
RTVSPost2010PropOp56
 70
     1
102
RTVSPost2010Prop57
140
1.0
102
RTVSPost2010PropOp57
 70
     1
102
RTVSPropertyOp0
 70
     1
102
RTVSPropertyOp1
 70
     1
102
RTVSPropertyOp2
 70
     1
102
RTVSPropertyOp3
 70
     1
102
RTVSPropertyOp4
 70
     1
102
RTVSPropertyOp5
 70
     1
102
RTVSPropertyOp6
 70
     1
102
RTVSPropertyOp7
 70
     1
102
RTVSPropertyOp8
 70
     1
102
RTVSPropertyOp9
 70
     1
102
RTVSPropertyOp10
 70
     1
102
RTVSPropertyOp11
 70
     1
102
RTVSPropertyOp12
 70
     1
102
RTVSPropertyOp13
 70
     1
102
RTVSPropertyOp14
 70
     1
102
RTVSPropertyOp15
 70
     1
102
RTVSPropertyOp16
 70
     1
102
RTVSPropertyOp17
 70
     1
102
RTVSPropertyOp18
 70
     1
102
RTVSPropertyOp19
 70
     1
102
RTVSPropertyOp20
 70
     1
102
RTVSPropertyOp21
 70
     1
102
RTVSPropertyOp22
 70
     1
102
RTVSPropertyOp23
 70
     1
102
RTVSPropertyOp24
 70
     1
102
RTVSPropertyOp25
 70
     1
102
RTVSPropertyOp26
 70
     1
102
RTVSPropertyOp27
 70
     1
102
RTVSPropertyOp28
 70
     1
102
RTVSPropertyOp29
 70
     1
102
RTVSPropertyOp30
 70
     1
102
RTVSPropertyOp31
 70
     1
102
RTVSPropertyOp32
 70
     1
102
RTVSPropertyOp33
 70
     1
102
RTVSPropertyOp34
 70
     1
102
RTVSPropertyOp35
 70
     1
102
RTVSPropertyOp36
 70
     1
102
RTVSPropertyOp37
 70
     1
102
RTVSPropertyOp38
 70
     1
102
RTVSPropertyOp39
 70
     1
102
RTVSPropertyOp40
 70
     1
102
RTVSPropertyOp41
 70
     1
102
RTVSPropertyOp42
 70
     1
102
RTVSPropertyOp43
 70
     1
102
RTVSPropertyOp44
 70
     1
102
RTVSPropertyOp45
 70
     1
102
RTVSPropertyOp46
 70
     1
102
RTVSPropertyOp47
 70
     1
102
RTVSPropertyOp48
 70
     1
102
RTVSPropertyOp49
 70
     1
102
RTVSPropertyOp50
 70
     1
102
RTVSPropertyOp51
 70
     0
102
RTVSPropertyOp52
 70
     0
102
RTVSPropertyOp53
 70
     1
102
RTVSPropertyOp54
 70
     1
102
RTVSPropertyOp55
 70
     1
102
RTVSPropertyOp56
 70
     1
102
RTVSPropertyOp57
 70
     1
102
RTVSPropertyOp58
 70
     1
102
RTVSPropertyOp59
 70
     1
102
RTVSPropertyOp60
 70
     1
102
RTVSPropertyOp61
 70
     1
102
RTVSPropertyOp62
 70
     1
  0
XRECORD
  5
10D79
102
{ACAD_REACTORS
330
10D78
102
}
330
10D78
100
AcDbXrecord
280
     1
102
RTVSPost2010Prop28
280
     0
102
RTVSPost2010PropOp28
 70
     1
102
RTVSPost2010Prop29
280
     1
102
RTVSPost2010PropOp29
 70
     1
102
RTVSPost2010Prop30
280
     1
102
RTVSPost2010PropOp30
 70
     1
102
RTVSPost2010Prop31
280
     0
102
RTVSPost2010PropOp31
 70
     1
102
RTVSPost2010Prop32
280
     0
102
RTVSPost2010PropOp32
 70
     1
102
RTVSPost2010Prop33
280
     0
102
RTVSPost2010PropOp33
 70
     1
102
RTVSPost2010Prop34
280
     0
102
RTVSPost2010PropOp34
 70
     1
102
RTVSPost2010Prop35
280
     0
102
RTVSPost2010PropOp35
 70
     1
102
RTVSPost2010Prop36
280
     0
102
RTVSPost2010PropOp36
 70
     1
102
RTVSPost2010Prop37
 90
       50
102
RTVSPost2010PropOp37
 70
     1
102
RTVSPost2010Prop38
140
0.0
102
RTVSPost2010PropOp38
 70
     1
102
RTVSPost2010Prop39
140
1.0
102
RTVSPost2010PropOp39
 70
     1
102
RTVSPost2010Prop40
 90
        0
102
RTVSPost2010PropOp40
 70
     1
102
RTVSPost2010Prop41ColorIndex
 90
       18
102
RTVSPost2010Prop41ColorRGB
 90
        0
102
RTVSPost2010PropOp41
 70
     1
102
RTVSPost2010Prop42
 90
       50
102
RTVSPost2010PropOp42
 70
     1
102
RTVSPost2010Prop43
 90
        3
102
RTVSPost2010PropOp43
 70
     1
102
RTVSPost2010Prop44ColorIndex
 90
        5
102
RTVSPost2010Prop44ColorRGB
 90
      255
102
RTVSPost2010PropOp44
 70
     1
102
RTVSPost2010Prop45
280
     0
102
RTVSPost2010PropOp45
 70
     1
102
RTVSPost2010Prop46
 90
       50
102
RTVSPost2010PropOp46
 70
     1
102
RTVSPost2010Prop47
 90
       50
102
RTVSPost2010PropOp47
 70
     1
102
RTVSPost2010Prop48
 90
       50
102
RTVSPost2010PropOp48
 70
     1
102
RTVSPost2010Prop49
280
     0
102
RTVSPost2010PropOp49
 70
     1
102
RTVSPost2010Prop50
 90
       50
102
RTVSPost2010PropOp50
 70
     1
102
RTVSPost2010Prop51ColorIndex
 90
      256
102
RTVSPost2010Prop51ColorRGB
 90
-16777216
102
RTVSPost2010PropOp51
 70
     0
102
RTVSPost2010Prop52
140
1.0
102
RTVSPost2010PropOp52
 70
     0
102
RTVSPost2010Prop53
 90
        2
102
RTVSPost2010PropOp53
 70
     1
102
RTVSPost2010Prop54
  1
strokes_ogs.tif
102
RTVSPost2010PropOp54
 70
     1
102
RTVSPost2010Prop55
280
     0
102
RTVSPost2010PropOp55
 70
     1
102
RTVSPost2010Prop56
140
1.0
102
RTVSPost2010PropOp56
 70
     1
102
RTVSPost2010Prop57
140
1.0
102
RTVSPost2010PropOp57
 70
     1
102
RTVSPropertyOp0
 70
     1
102
RTVSPropertyOp1
 70
     1
102
RTVSPropertyOp2
 70
     1
102
RTVSPropertyOp3
 70
     1
102
RTVSPropertyOp4
 70
     1
102
RTVSPropertyOp5
 70
     1
102
RTVSPropertyOp6
 70
     1
102
RTVSPropertyOp7
 70
     1
102
RTVSPropertyOp8
 70
     1
102
RTVSPropertyOp9
 70
     1
102
RTVSPropertyOp10
 70
     1
102
RTVSPropertyOp11
 70
     1
102
RTVSPropertyOp12
 70
     1
102
RTVSPropertyOp13
 70
     1
102
RTVSPropertyOp14
 70
     1
102
RTVSPropertyOp15
 70
     1
102
RTVSPropertyOp16
 70
     1
102
RTVSPropertyOp17
 70
     1
102
RTVSPropertyOp18
 70
     1
102
RTVSPropertyOp19
 70
     1
102
RTVSPropertyOp20
 70
     1
102
RTVSPropertyOp21
 70
     1
102
RTVSPropertyOp22
 70
     1
102
RTVSPropertyOp23
 70
     1
102
RTVSPropertyOp24
 70
     1
102
RTVSPropertyOp25
 70
     1
102
RTVSPropertyOp26
 70
     1
102
RTVSPropertyOp27
 70
     1
102
RTVSPropertyOp28
 70
     1
102
RTVSPropertyOp29
 70
     1
102
RTVSPropertyOp30
 70
     1
102
RTVSPropertyOp31
 70
     1
102
RTVSPropertyOp32
 70
     1
102
RTVSPropertyOp33
 70
     1
102
RTVSPropertyOp34
 70
     1
102
RTVSPropertyOp35
 70
     1
102
RTVSPropertyOp36
 70
     1
102
RTVSPropertyOp37
 70
     1
102
RTVSPropertyOp38
 70
     1
102
RTVSPropertyOp39
 70
     1
102
RTVSPropertyOp40
 70
     1
102
RTVSPropertyOp41
 70
     1
102
RTVSPropertyOp42
 70
     1
102
RTVSPropertyOp43
 70
     1
102
RTVSPropertyOp44
 70
     1
102
RTVSPropertyOp45
 70
     1
102
RTVSPropertyOp46
 70
     1
102
RTVSPropertyOp47
 70
     1
102
RTVSPropertyOp48
 70
     1
102
RTVSPropertyOp49
 70
     1
102
RTVSPropertyOp50
 70
     1
102
RTVSPropertyOp51
 70
     0
102
RTVSPropertyOp52
 70
     0
102
RTVSPropertyOp53
 70
     1
102
RTVSPropertyOp54
 70
     1
102
RTVSPropertyOp55
 70
     1
102
RTVSPropertyOp56
 70
     1
102
RTVSPropertyOp57
 70
     1
102
RTVSPropertyOp58
 70
     1
102
RTVSPropertyOp59
 70
     1
102
RTVSPropertyOp60
 70
     1
102
RTVSPropertyOp61
 70
     1
102
RTVSPropertyOp62
 70
     1
  0
XRECORD
  5
10D87
102
{ACAD_REACTORS
330
10D86
102
}
330
10D86
100
AcDbXrecord
280
     1
102
RTVSPost2010Prop28
280
     0
102
RTVSPost2010PropOp28
 70
     1
102
RTVSPost2010Prop29
280
     1
102
RTVSPost2010PropOp29
 70
     1
102
RTVSPost2010Prop30
280
     1
102
RTVSPost2010PropOp30
 70
     1
102
RTVSPost2010Prop31
280
     0
102
RTVSPost2010PropOp31
 70
     1
102
RTVSPost2010Prop32
280
     0
102
RTVSPost2010PropOp32
 70
     1
102
RTVSPost2010Prop33
280
     0
102
RTVSPost2010PropOp33
 70
     1
102
RTVSPost2010Prop34
280
     0
102
RTVSPost2010PropOp34
 70
     1
102
RTVSPost2010Prop35
280
     0
102
RTVSPost2010PropOp35
 70
     1
102
RTVSPost2010Prop36
280
     0
102
RTVSPost2010PropOp36
 70
     1
102
RTVSPost2010Prop37
 90
       50
102
RTVSPost2010PropOp37
 70
     1
102
RTVSPost2010Prop38
140
0.0
102
RTVSPost2010PropOp38
 70
     1
102
RTVSPost2010Prop39
140
1.0
102
RTVSPost2010PropOp39
 70
     1
102
RTVSPost2010Prop40
 90
        0
102
RTVSPost2010PropOp40
 70
     1
102
RTVSPost2010Prop41ColorIndex
 90
       18
102
RTVSPost2010Prop41ColorRGB
 90
        0
102
RTVSPost2010PropOp41
 70
     1
102
RTVSPost2010Prop42
 90
       50
102
RTVSPost2010PropOp42
 70
     1
102
RTVSPost2010Prop43
 90
        3
102
RTVSPost2010PropOp43
 70
     1
102
RTVSPost2010Prop44ColorIndex
 90
        5
102
RTVSPost2010Prop44ColorRGB
 90
      255
102
RTVSPost2010PropOp44
 70
     1
102
RTVSPost2010Prop45
280
     0
102
RTVSPost2010PropOp45
 70
     1
102
RTVSPost2010Prop46
 90
       50
102
RTVSPost2010PropOp46
 70
     1
102
RTVSPost2010Prop47
 90
       50
102
RTVSPost2010PropOp47
 70
     1
102
RTVSPost2010Prop48
 90
       50
102
RTVSPost2010PropOp48
 70
     1
102
RTVSPost2010Prop49
280
     0
102
RTVSPost2010PropOp49
 70
     1
102
RTVSPost2010Prop50
 90
       50
102
RTVSPost2010PropOp50
 70
     1
102
RTVSPost2010Prop51ColorIndex
 90
      256
102
RTVSPost2010Prop51ColorRGB
 90
-16777216
102
RTVSPost2010PropOp51
 70
     0
102
RTVSPost2010Prop52
140
1.0
102
RTVSPost2010PropOp52
 70
     0
102
RTVSPost2010Prop53
 90
        2
102
RTVSPost2010PropOp53
 70
     1
102
RTVSPost2010Prop54
  1
strokes_ogs.tif
102
RTVSPost2010PropOp54
 70
     1
102
RTVSPost2010Prop55
280
     0
102
RTVSPost2010PropOp55
 70
     1
102
RTVSPost2010Prop56
140
1.0
102
RTVSPost2010PropOp56
 70
     1
102
RTVSPost2010Prop57
140
1.0
102
RTVSPost2010PropOp57
 70
     1
102
RTVSPropertyOp0
 70
     1
102
RTVSPropertyOp1
 70
     1
102
RTVSPropertyOp2
 70
     1
102
RTVSPropertyOp3
 70
     1
102
RTVSPropertyOp4
 70
     1
102
RTVSPropertyOp5
 70
     1
102
RTVSPropertyOp6
 70
     1
102
RTVSPropertyOp7
 70
     1
102
RTVSPropertyOp8
 70
     1
102
RTVSPropertyOp9
 70
     1
102
RTVSPropertyOp10
 70
     1
102
RTVSPropertyOp11
 70
     1
102
RTVSPropertyOp12
 70
     1
102
RTVSPropertyOp13
 70
     1
102
RTVSPropertyOp14
 70
     1
102
RTVSPropertyOp15
 70
     1
102
RTVSPropertyOp16
 70
     1
102
RTVSPropertyOp17
 70
     1
102
RTVSPropertyOp18
 70
     1
102
RTVSPropertyOp19
 70
     1
102
RTVSPropertyOp20
 70
     1
102
RTVSPropertyOp21
 70
     1
102
RTVSPropertyOp22
 70
     1
102
RTVSPropertyOp23
 70
     1
102
RTVSPropertyOp24
 70
     1
102
RTVSPropertyOp25
 70
     1
102
RTVSPropertyOp26
 70
     1
102
RTVSPropertyOp27
 70
     1
102
RTVSPropertyOp28
 70
     1
102
RTVSPropertyOp29
 70
     1
102
RTVSPropertyOp30
 70
     1
102
RTVSPropertyOp31
 70
     1
102
RTVSPropertyOp32
 70
     1
102
RTVSPropertyOp33
 70
     1
102
RTVSPropertyOp34
 70
     1
102
RTVSPropertyOp35
 70
     1
102
RTVSPropertyOp36
 70
     1
102
RTVSPropertyOp37
 70
     1
102
RTVSPropertyOp38
 70
     1
102
RTVSPropertyOp39
 70
     1
102
RTVSPropertyOp40
 70
     1
102
RTVSPropertyOp41
 70
     1
102
RTVSPropertyOp42
 70
     1
102
RTVSPropertyOp43
 70
     1
102
RTVSPropertyOp44
 70
     1
102
RTVSPropertyOp45
 70
     1
102
RTVSPropertyOp46
 70
     1
102
RTVSPropertyOp47
 70
     1
102
RTVSPropertyOp48
 70
     1
102
RTVSPropertyOp49
 70
     1
102
RTVSPropertyOp50
 70
     1
102
RTVSPropertyOp51
 70
     0
102
RTVSPropertyOp52
 70
     0
102
RTVSPropertyOp53
 70
     1
102
RTVSPropertyOp54
 70
     1
102
RTVSPropertyOp55
 70
     1
102
RTVSPropertyOp56
 70
     1
102
RTVSPropertyOp57
 70
     1
102
RTVSPropertyOp58
 70
     1
102
RTVSPropertyOp59
 70
     1
102
RTVSPropertyOp60
 70
     1
102
RTVSPropertyOp61
 70
     1
102
RTVSPropertyOp62
 70
     1
  0
XRECORD
  5
10D8F
102
{ACAD_REACTORS
330
10D8E
102
}
330
10D8E
100
AcDbXrecord
280
     1
102
RTVSPost2010Prop28
280
     0
102
RTVSPost2010PropOp28
 70
     1
102
RTVSPost2010Prop29
280
     1
102
RTVSPost2010PropOp29
 70
     1
102
RTVSPost2010Prop30
280
     1
102
RTVSPost2010PropOp30
 70
     1
102
RTVSPost2010Prop31
280
     0
102
RTVSPost2010PropOp31
 70
     1
102
RTVSPost2010Prop32
280
     0
102
RTVSPost2010PropOp32
 70
     1
102
RTVSPost2010Prop33
280
     0
102
RTVSPost2010PropOp33
 70
     1
102
RTVSPost2010Prop34
280
     0
102
RTVSPost2010PropOp34
 70
     1
102
RTVSPost2010Prop35
280
     0
102
RTVSPost2010PropOp35
 70
     1
102
RTVSPost2010Prop36
280
     0
102
RTVSPost2010PropOp36
 70
     1
102
RTVSPost2010Prop37
 90
       50
102
RTVSPost2010PropOp37
 70
     1
102
RTVSPost2010Prop38
140
0.0
102
RTVSPost2010PropOp38
 70
     1
102
RTVSPost2010Prop39
140
1.0
102
RTVSPost2010PropOp39
 70
     1
102
RTVSPost2010Prop40
 90
        0
102
RTVSPost2010PropOp40
 70
     1
102
RTVSPost2010Prop41ColorIndex
 90
       18
102
RTVSPost2010Prop41ColorRGB
 90
        0
102
RTVSPost2010PropOp41
 70
     1
102
RTVSPost2010Prop42
 90
       50
102
RTVSPost2010PropOp42
 70
     1
102
RTVSPost2010Prop43
 90
        3
102
RTVSPost2010PropOp43
 70
     1
102
RTVSPost2010Prop44ColorIndex
 90
        5
102
RTVSPost2010Prop44ColorRGB
 90
      255
102
RTVSPost2010PropOp44
 70
     1
102
RTVSPost2010Prop45
280
     0
102
RTVSPost2010PropOp45
 70
     1
102
RTVSPost2010Prop46
 90
       50
102
RTVSPost2010PropOp46
 70
     1
102
RTVSPost2010Prop47
 90
       50
102
RTVSPost2010PropOp47
 70
     1
102
RTVSPost2010Prop48
 90
       50
102
RTVSPost2010PropOp48
 70
     1
102
RTVSPost2010Prop49
280
     0
102
RTVSPost2010PropOp49
 70
     1
102
RTVSPost2010Prop50
 90
       50
102
RTVSPost2010PropOp50
 70
     1
102
RTVSPost2010Prop51ColorIndex
 90
      256
102
RTVSPost2010Prop51ColorRGB
 90
-16777216
102
RTVSPost2010PropOp51
 70
     0
102
RTVSPost2010Prop52
140
1.0
102
RTVSPost2010PropOp52
 70
     0
102
RTVSPost2010Prop53
 90
        2
102
RTVSPost2010PropOp53
 70
     1
102
RTVSPost2010Prop54
  1
strokes_ogs.tif
102
RTVSPost2010PropOp54
 70
     1
102
RTVSPost2010Prop55
280
     0
102
RTVSPost2010PropOp55
 70
     1
102
RTVSPost2010Prop56
140
1.0
102
RTVSPost2010PropOp56
 70
     1
102
RTVSPost2010Prop57
140
1.0
102
RTVSPost2010PropOp57
 70
     1
102
RTVSPropertyOp0
 70
     1
102
RTVSPropertyOp1
 70
     1
102
RTVSPropertyOp2
 70
     1
102
RTVSPropertyOp3
 70
     1
102
RTVSPropertyOp4
 70
     1
102
RTVSPropertyOp5
 70
     1
102
RTVSPropertyOp6
 70
     1
102
RTVSPropertyOp7
 70
     1
102
RTVSPropertyOp8
 70
     1
102
RTVSPropertyOp9
 70
     1
102
RTVSPropertyOp10
 70
     1
102
RTVSPropertyOp11
 70
     1
102
RTVSPropertyOp12
 70
     1
102
RTVSPropertyOp13
 70
     1
102
RTVSPropertyOp14
 70
     1
102
RTVSPropertyOp15
 70
     1
102
RTVSPropertyOp16
 70
     1
102
RTVSPropertyOp17
 70
     1
102
RTVSPropertyOp18
 70
     1
102
RTVSPropertyOp19
 70
     1
102
RTVSPropertyOp20
 70
     1
102
RTVSPropertyOp21
 70
     1
102
RTVSPropertyOp22
 70
     1
102
RTVSPropertyOp23
 70
     1
102
RTVSPropertyOp24
 70
     1
102
RTVSPropertyOp25
 70
     1
102
RTVSPropertyOp26
 70
     1
102
RTVSPropertyOp27
 70
     1
102
RTVSPropertyOp28
 70
     1
102
RTVSPropertyOp29
 70
     1
102
RTVSPropertyOp30
 70
     1
102
RTVSPropertyOp31
 70
     1
102
RTVSPropertyOp32
 70
     1
102
RTVSPropertyOp33
 70
     1
102
RTVSPropertyOp34
 70
     1
102
RTVSPropertyOp35
 70
     1
102
RTVSPropertyOp36
 70
     1
102
RTVSPropertyOp37
 70
     1
102
RTVSPropertyOp38
 70
     1
102
RTVSPropertyOp39
 70
     1
102
RTVSPropertyOp40
 70
     1
102
RTVSPropertyOp41
 70
     1
102
RTVSPropertyOp42
 70
     1
102
RTVSPropertyOp43
 70
     1
102
RTVSPropertyOp44
 70
     1
102
RTVSPropertyOp45
 70
     1
102
RTVSPropertyOp46
 70
     1
102
RTVSPropertyOp47
 70
     1
102
RTVSPropertyOp48
 70
     1
102
RTVSPropertyOp49
 70
     1
102
RTVSPropertyOp50
 70
     1
102
RTVSPropertyOp51
 70
     0
102
RTVSPropertyOp52
 70
     0
102
RTVSPropertyOp53
 70
     1
102
RTVSPropertyOp54
 70
     1
102
RTVSPropertyOp55
 70
     1
102
RTVSPropertyOp56
 70
     1
102
RTVSPropertyOp57
 70
     1
102
RTVSPropertyOp58
 70
     1
102
RTVSPropertyOp59
 70
     1
102
RTVSPropertyOp60
 70
     1
102
RTVSPropertyOp61
 70
     1
102
RTVSPropertyOp62
 70
     1
  0
XRECORD
  5
10D81
102
{ACAD_REACTORS
330
10D80
102
}
330
10D80
100
AcDbXrecord
280
     1
102
RTVSPost2010Prop28
280
     0
102
RTVSPost2010PropOp28
 70
     1
102
RTVSPost2010Prop29
280
     1
102
RTVSPost2010PropOp29
 70
     1
102
RTVSPost2010Prop30
280
     1
102
RTVSPost2010PropOp30
 70
     1
102
RTVSPost2010Prop31
280
     0
102
RTVSPost2010PropOp31
 70
     1
102
RTVSPost2010Prop32
280
     0
102
RTVSPost2010PropOp32
 70
     1
102
RTVSPost2010Prop33
280
     0
102
RTVSPost2010PropOp33
 70
     1
102
RTVSPost2010Prop34
280
     0
102
RTVSPost2010PropOp34
 70
     1
102
RTVSPost2010Prop35
280
     0
102
RTVSPost2010PropOp35
 70
     1
102
RTVSPost2010Prop36
280
     0
102
RTVSPost2010PropOp36
 70
     1
102
RTVSPost2010Prop37
 90
       50
102
RTVSPost2010PropOp37
 70
     1
102
RTVSPost2010Prop38
140
0.0
102
RTVSPost2010PropOp38
 70
     1
102
RTVSPost2010Prop39
140
1.0
102
RTVSPost2010PropOp39
 70
     1
102
RTVSPost2010Prop40
 90
        0
102
RTVSPost2010PropOp40
 70
     1
102
RTVSPost2010Prop41ColorIndex
 90
       18
102
RTVSPost2010Prop41ColorRGB
 90
        0
102
RTVSPost2010PropOp41
 70
     1
102
RTVSPost2010Prop42
 90
       50
102
RTVSPost2010PropOp42
 70
     1
102
RTVSPost2010Prop43
 90
        3
102
RTVSPost2010PropOp43
 70
     1
102
RTVSPost2010Prop44ColorIndex
 90
        5
102
RTVSPost2010Prop44ColorRGB
 90
      255
102
RTVSPost2010PropOp44
 70
     1
102
RTVSPost2010Prop45
280
     0
102
RTVSPost2010PropOp45
 70
     1
102
RTVSPost2010Prop46
 90
       50
102
RTVSPost2010PropOp46
 70
     1
102
RTVSPost2010Prop47
 90
       50
102
RTVSPost2010PropOp47
 70
     1
102
RTVSPost2010Prop48
 90
       50
102
RTVSPost2010PropOp48
 70
     1
102
RTVSPost2010Prop49
280
     0
102
RTVSPost2010PropOp49
 70
     1
102
RTVSPost2010Prop50
 90
       50
102
RTVSPost2010PropOp50
 70
     1
102
RTVSPost2010Prop51ColorIndex
 90
      256
102
RTVSPost2010Prop51ColorRGB
 90
-16777216
102
RTVSPost2010PropOp51
 70
     0
102
RTVSPost2010Prop52
140
1.0
102
RTVSPost2010PropOp52
 70
     0
102
RTVSPost2010Prop53
 90
        2
102
RTVSPost2010PropOp53
 70
     1
102
RTVSPost2010Prop54
  1
strokes_ogs.tif
102
RTVSPost2010PropOp54
 70
     1
102
RTVSPost2010Prop55
280
     0
102
RTVSPost2010PropOp55
 70
     1
102
RTVSPost2010Prop56
140
1.0
102
RTVSPost2010PropOp56
 70
     1
102
RTVSPost2010Prop57
140
1.0
102
RTVSPost2010PropOp57
 70
     1
102
RTVSPropertyOp0
 70
     1
102
RTVSPropertyOp1
 70
     1
102
RTVSPropertyOp2
 70
     1
102
RTVSPropertyOp3
 70
     1
102
RTVSPropertyOp4
 70
     1
102
RTVSPropertyOp5
 70
     1
102
RTVSPropertyOp6
 70
     1
102
RTVSPropertyOp7
 70
     1
102
RTVSPropertyOp8
 70
     1
102
RTVSPropertyOp9
 70
     1
102
RTVSPropertyOp10
 70
     1
102
RTVSPropertyOp11
 70
     1
102
RTVSPropertyOp12
 70
     1
102
RTVSPropertyOp13
 70
     1
102
RTVSPropertyOp14
 70
     1
102
RTVSPropertyOp15
 70
     1
102
RTVSPropertyOp16
 70
     1
102
RTVSPropertyOp17
 70
     1
102
RTVSPropertyOp18
 70
     1
102
RTVSPropertyOp19
 70
     1
102
RTVSPropertyOp20
 70
     1
102
RTVSPropertyOp21
 70
     1
102
RTVSPropertyOp22
 70
     1
102
RTVSPropertyOp23
 70
     1
102
RTVSPropertyOp24
 70
     1
102
RTVSPropertyOp25
 70
     1
102
RTVSPropertyOp26
 70
     1
102
RTVSPropertyOp27
 70
     1
102
RTVSPropertyOp28
 70
     1
102
RTVSPropertyOp29
 70
     1
102
RTVSPropertyOp30
 70
     1
102
RTVSPropertyOp31
 70
     1
102
RTVSPropertyOp32
 70
     1
102
RTVSPropertyOp33
 70
     1
102
RTVSPropertyOp34
 70
     1
102
RTVSPropertyOp35
 70
     1
102
RTVSPropertyOp36
 70
     1
102
RTVSPropertyOp37
 70
     1
102
RTVSPropertyOp38
 70
     1
102
RTVSPropertyOp39
 70
     1
102
RTVSPropertyOp40
 70
     1
102
RTVSPropertyOp41
 70
     1
102
RTVSPropertyOp42
 70
     1
102
RTVSPropertyOp43
 70
     1
102
RTVSPropertyOp44
 70
     1
102
RTVSPropertyOp45
 70
     1
102
RTVSPropertyOp46
 70
     1
102
RTVSPropertyOp47
 70
     1
102
RTVSPropertyOp48
 70
     1
102
RTVSPropertyOp49
 70
     1
102
RTVSPropertyOp50
 70
     1
102
RTVSPropertyOp51
 70
     0
102
RTVSPropertyOp52
 70
     0
102
RTVSPropertyOp53
 70
     1
102
RTVSPropertyOp54
 70
     1
102
RTVSPropertyOp55
 70
     1
102
RTVSPropertyOp56
 70
     1
102
RTVSPropertyOp57
 70
     1
102
RTVSPropertyOp58
 70
     1
102
RTVSPropertyOp59
 70
     1
102
RTVSPropertyOp60
 70
     1
102
RTVSPropertyOp61
 70
     1
102
RTVSPropertyOp62
 70
     1
  0
XRECORD
  5
10D85
102
{ACAD_REACTORS
330
10D84
102
}
330
10D84
100
AcDbXrecord
280
     1
102
RTVSPost2010Prop28
280
     0
102
RTVSPost2010PropOp28
 70
     1
102
RTVSPost2010Prop29
280
     1
102
RTVSPost2010PropOp29
 70
     1
102
RTVSPost2010Prop30
280
     1
102
RTVSPost2010PropOp30
 70
     1
102
RTVSPost2010Prop31
280
     0
102
RTVSPost2010PropOp31
 70
     1
102
RTVSPost2010Prop32
280
     0
102
RTVSPost2010PropOp32
 70
     1
102
RTVSPost2010Prop33
280
     0
102
RTVSPost2010PropOp33
 70
     1
102
RTVSPost2010Prop34
280
     0
102
RTVSPost2010PropOp34
 70
     1
102
RTVSPost2010Prop35
280
     0
102
RTVSPost2010PropOp35
 70
     1
102
RTVSPost2010Prop36
280
     0
102
RTVSPost2010PropOp36
 70
     1
102
RTVSPost2010Prop37
 90
       50
102
RTVSPost2010PropOp37
 70
     1
102
RTVSPost2010Prop38
140
0.0
102
RTVSPost2010PropOp38
 70
     1
102
RTVSPost2010Prop39
140
1.0
102
RTVSPost2010PropOp39
 70
     1
102
RTVSPost2010Prop40
 90
        0
102
RTVSPost2010PropOp40
 70
     1
102
RTVSPost2010Prop41ColorIndex
 90
       18
102
RTVSPost2010Prop41ColorRGB
 90
        0
102
RTVSPost2010PropOp41
 70
     1
102
RTVSPost2010Prop42
 90
       50
102
RTVSPost2010PropOp42
 70
     1
102
RTVSPost2010Prop43
 90
        3
102
RTVSPost2010PropOp43
 70
     1
102
RTVSPost2010Prop44ColorIndex
 90
        5
102
RTVSPost2010Prop44ColorRGB
 90
      255
102
RTVSPost2010PropOp44
 70
     1
102
RTVSPost2010Prop45
280
     0
102
RTVSPost2010PropOp45
 70
     1
102
RTVSPost2010Prop46
 90
       50
102
RTVSPost2010PropOp46
 70
     1
102
RTVSPost2010Prop47
 90
       50
102
RTVSPost2010PropOp47
 70
     1
102
RTVSPost2010Prop48
 90
       50
102
RTVSPost2010PropOp48
 70
     1
102
RTVSPost2010Prop49
280
     0
102
RTVSPost2010PropOp49
 70
     1
102
RTVSPost2010Prop50
 90
       50
102
RTVSPost2010PropOp50
 70
     1
102
RTVSPost2010Prop51ColorIndex
 90
      256
102
RTVSPost2010Prop51ColorRGB
 90
-16777216
102
RTVSPost2010PropOp51
 70
     0
102
RTVSPost2010Prop52
140
1.0
102
RTVSPost2010PropOp52
 70
     0
102
RTVSPost2010Prop53
 90
        2
102
RTVSPost2010PropOp53
 70
     1
102
RTVSPost2010Prop54
  1
strokes_ogs.tif
102
RTVSPost2010PropOp54
 70
     1
102
RTVSPost2010Prop55
280
     0
102
RTVSPost2010PropOp55
 70
     1
102
RTVSPost2010Prop56
140
1.0
102
RTVSPost2010PropOp56
 70
     1
102
RTVSPost2010Prop57
140
1.0
102
RTVSPost2010PropOp57
 70
     1
102
RTVSPropertyOp0
 70
     1
102
RTVSPropertyOp1
 70
     1
102
RTVSPropertyOp2
 70
     1
102
RTVSPropertyOp3
 70
     1
102
RTVSPropertyOp4
 70
     1
102
RTVSPropertyOp5
 70
     1
102
RTVSPropertyOp6
 70
     1
102
RTVSPropertyOp7
 70
     1
102
RTVSPropertyOp8
 70
     1
102
RTVSPropertyOp9
 70
     1
102
RTVSPropertyOp10
 70
     1
102
RTVSPropertyOp11
 70
     1
102
RTVSPropertyOp12
 70
     1
102
RTVSPropertyOp13
 70
     1
102
RTVSPropertyOp14
 70
     1
102
RTVSPropertyOp15
 70
     1
102
RTVSPropertyOp16
 70
     1
102
RTVSPropertyOp17
 70
     1
102
RTVSPropertyOp18
 70
     1
102
RTVSPropertyOp19
 70
     1
102
RTVSPropertyOp20
 70
     1
102
RTVSPropertyOp21
 70
     1
102
RTVSPropertyOp22
 70
     1
102
RTVSPropertyOp23
 70
     1
102
RTVSPropertyOp24
 70
     1
102
RTVSPropertyOp25
 70
     1
102
RTVSPropertyOp26
 70
     1
102
RTVSPropertyOp27
 70
     1
102
RTVSPropertyOp28
 70
     1
102
RTVSPropertyOp29
 70
     1
102
RTVSPropertyOp30
 70
     1
102
RTVSPropertyOp31
 70
     1
102
RTVSPropertyOp32
 70
     1
102
RTVSPropertyOp33
 70
     1
102
RTVSPropertyOp34
 70
     1
102
RTVSPropertyOp35
 70
     1
102
RTVSPropertyOp36
 70
     1
102
RTVSPropertyOp37
 70
     1
102
RTVSPropertyOp38
 70
     1
102
RTVSPropertyOp39
 70
     1
102
RTVSPropertyOp40
 70
     1
102
RTVSPropertyOp41
 70
     1
102
RTVSPropertyOp42
 70
     1
102
RTVSPropertyOp43
 70
     1
102
RTVSPropertyOp44
 70
     1
102
RTVSPropertyOp45
 70
     1
102
RTVSPropertyOp46
 70
     1
102
RTVSPropertyOp47
 70
     1
102
RTVSPropertyOp48
 70
     1
102
RTVSPropertyOp49
 70
     1
102
RTVSPropertyOp50
 70
     1
102
RTVSPropertyOp51
 70
     0
102
RTVSPropertyOp52
 70
     0
102
RTVSPropertyOp53
 70
     1
102
RTVSPropertyOp54
 70
     1
102
RTVSPropertyOp55
 70
     1
102
RTVSPropertyOp56
 70
     1
102
RTVSPropertyOp57
 70
     1
102
RTVSPropertyOp58
 70
     1
102
RTVSPropertyOp59
 70
     1
102
RTVSPropertyOp60
 70
     1
102
RTVSPropertyOp61
 70
     1
102
RTVSPropertyOp62
 70
     1
  0
XRECORD
  5
10D97
102
{ACAD_REACTORS
330
10D96
102
}
330
10D96
100
AcDbXrecord
280
     1
102
RTVSPost2010Prop28
280
     0
102
RTVSPost2010PropOp28
 70
     1
102
RTVSPost2010Prop29
280
     1
102
RTVSPost2010PropOp29
 70
     1
102
RTVSPost2010Prop30
280
     1
102
RTVSPost2010PropOp30
 70
     1
102
RTVSPost2010Prop31
280
     0
102
RTVSPost2010PropOp31
 70
     1
102
RTVSPost2010Prop32
280
     0
102
RTVSPost2010PropOp32
 70
     1
102
RTVSPost2010Prop33
280
     0
102
RTVSPost2010PropOp33
 70
     1
102
RTVSPost2010Prop34
280
     0
102
RTVSPost2010PropOp34
 70
     1
102
RTVSPost2010Prop35
280
     0
102
RTVSPost2010PropOp35
 70
     1
102
RTVSPost2010Prop36
280
     0
102
RTVSPost2010PropOp36
 70
     1
102
RTVSPost2010Prop37
 90
       50
102
RTVSPost2010PropOp37
 70
     1
102
RTVSPost2010Prop38
140
0.0
102
RTVSPost2010PropOp38
 70
     1
102
RTVSPost2010Prop39
140
1.0
102
RTVSPost2010PropOp39
 70
     1
102
RTVSPost2010Prop40
 90
        0
102
RTVSPost2010PropOp40
 70
     1
102
RTVSPost2010Prop41ColorIndex
 90
       18
102
RTVSPost2010Prop41ColorRGB
 90
        0
102
RTVSPost2010PropOp41
 70
     1
102
RTVSPost2010Prop42
 90
       50
102
RTVSPost2010PropOp42
 70
     1
102
RTVSPost2010Prop43
 90
        3
102
RTVSPost2010PropOp43
 70
     1
102
RTVSPost2010Prop44ColorIndex
 90
        5
102
RTVSPost2010Prop44ColorRGB
 90
      255
102
RTVSPost2010PropOp44
 70
     1
102
RTVSPost2010Prop45
280
     0
102
RTVSPost2010PropOp45
 70
     1
102
RTVSPost2010Prop46
 90
       50
102
RTVSPost2010PropOp46
 70
     1
102
RTVSPost2010Prop47
 90
       50
102
RTVSPost2010PropOp47
 70
     1
102
RTVSPost2010Prop48
 90
       50
102
RTVSPost2010PropOp48
 70
     1
102
RTVSPost2010Prop49
280
     0
102
RTVSPost2010PropOp49
 70
     1
102
RTVSPost2010Prop50
 90
       50
102
RTVSPost2010PropOp50
 70
     1
102
RTVSPost2010Prop51ColorIndex
 90
      256
102
RTVSPost2010Prop51ColorRGB
 90
-16777216
102
RTVSPost2010PropOp51
 70
     0
102
RTVSPost2010Prop52
140
1.0
102
RTVSPost2010PropOp52
 70
     0
102
RTVSPost2010Prop53
 90
        2
102
RTVSPost2010PropOp53
 70
     1
102
RTVSPost2010Prop54
  1
strokes_ogs.tif
102
RTVSPost2010PropOp54
 70
     1
102
RTVSPost2010Prop55
280
     0
102
RTVSPost2010PropOp55
 70
     1
102
RTVSPost2010Prop56
140
1.0
102
RTVSPost2010PropOp56
 70
     1
102
RTVSPost2010Prop57
140
1.0
102
RTVSPost2010PropOp57
 70
     1
102
RTVSPropertyOp0
 70
     0
102
RTVSPropertyOp1
 70
     0
102
RTVSPropertyOp2
 70
     0
102
RTVSPropertyOp3
 70
     0
102
RTVSPropertyOp4
 70
     0
102
RTVSPropertyOp5
 70
     0
102
RTVSPropertyOp6
 70
     0
102
RTVSPropertyOp7
 70
     0
102
RTVSPropertyOp8
 70
     0
102
RTVSPropertyOp9
 70
     0
102
RTVSPropertyOp10
 70
     0
102
RTVSPropertyOp11
 70
     0
102
RTVSPropertyOp12
 70
     0
102
RTVSPropertyOp13
 70
     0
102
RTVSPropertyOp14
 70
     2
102
RTVSPropertyOp15
 70
     0
102
RTVSPropertyOp16
 70
     0
102
RTVSPropertyOp17
 70
     0
102
RTVSPropertyOp18
 70
     0
102
RTVSPropertyOp19
 70
     0
102
RTVSPropertyOp20
 70
     0
102
RTVSPropertyOp21
 70
     0
102
RTVSPropertyOp22
 70
     0
102
RTVSPropertyOp23
 70
     0
102
RTVSPropertyOp24
 70
     0
102
RTVSPropertyOp25
 70
     0
102
RTVSPropertyOp26
 70
     0
102
RTVSPropertyOp27
 70
     0
102
RTVSPropertyOp28
 70
     1
102
RTVSPropertyOp29
 70
     1
102
RTVSPropertyOp30
 70
     1
102
RTVSPropertyOp31
 70
     1
102
RTVSPropertyOp32
 70
     1
102
RTVSPropertyOp33
 70
     1
102
RTVSPropertyOp34
 70
     1
102
RTVSPropertyOp35
 70
     1
102
RTVSPropertyOp36
 70
     1
102
RTVSPropertyOp37
 70
     1
102
RTVSPropertyOp38
 70
     1
102
RTVSPropertyOp39
 70
     1
102
RTVSPropertyOp40
 70
     1
102
RTVSPropertyOp41
 70
     1
102
RTVSPropertyOp42
 70
     1
102
RTVSPropertyOp43
 70
     1
102
RTVSPropertyOp44
 70
     1
102
RTVSPropertyOp45
 70
     1
102
RTVSPropertyOp46
 70
     1
102
RTVSPropertyOp47
 70
     1
102
RTVSPropertyOp48
 70
     1
102
RTVSPropertyOp49
 70
     1
102
RTVSPropertyOp50
 70
     1
102
RTVSPropertyOp51
 70
     0
102
RTVSPropertyOp52
 70
     0
102
RTVSPropertyOp53
 70
     1
102
RTVSPropertyOp54
 70
     1
102
RTVSPropertyOp55
 70
     1
102
RTVSPropertyOp56
 70
     1
102
RTVSPropertyOp57
 70
     1
102
RTVSPropertyOp58
 70
     1
102
RTVSPropertyOp59
 70
     1
102
RTVSPropertyOp60
 70
     1
102
RTVSPropertyOp61
 70
     1
102
RTVSPropertyOp62
 70
     1
  0
XRECORD
  5
10D8D
102
{ACAD_REACTORS
330
10D8C
102
}
330
10D8C
100
AcDbXrecord
280
     1
102
RTVSPost2010Prop28
280
     0
102
RTVSPost2010PropOp28
 70
     1
102
RTVSPost2010Prop29
280
     1
102
RTVSPost2010PropOp29
 70
     1
102
RTVSPost2010Prop30
280
     1
102
RTVSPost2010PropOp30
 70
     1
102
RTVSPost2010Prop31
280
     0
102
RTVSPost2010PropOp31
 70
     1
102
RTVSPost2010Prop32
280
     0
102
RTVSPost2010PropOp32
 70
     1
102
RTVSPost2010Prop33
280
     0
102
RTVSPost2010PropOp33
 70
     1
102
RTVSPost2010Prop34
280
     0
102
RTVSPost2010PropOp34
 70
     1
102
RTVSPost2010Prop35
280
     0
102
RTVSPost2010PropOp35
 70
     1
102
RTVSPost2010Prop36
280
     0
102
RTVSPost2010PropOp36
 70
     1
102
RTVSPost2010Prop37
 90
       50
102
RTVSPost2010PropOp37
 70
     1
102
RTVSPost2010Prop38
140
0.0
102
RTVSPost2010PropOp38
 70
     1
102
RTVSPost2010Prop39
140
1.0
102
RTVSPost2010PropOp39
 70
     1
102
RTVSPost2010Prop40
 90
        0
102
RTVSPost2010PropOp40
 70
     1
102
RTVSPost2010Prop41ColorIndex
 90
       18
102
RTVSPost2010Prop41ColorRGB
 90
        0
102
RTVSPost2010PropOp41
 70
     1
102
RTVSPost2010Prop42
 90
       50
102
RTVSPost2010PropOp42
 70
     1
102
RTVSPost2010Prop43
 90
        3
102
RTVSPost2010PropOp43
 70
     1
102
RTVSPost2010Prop44ColorIndex
 90
        5
102
RTVSPost2010Prop44ColorRGB
 90
      255
102
RTVSPost2010PropOp44
 70
     1
102
RTVSPost2010Prop45
280
     0
102
RTVSPost2010PropOp45
 70
     1
102
RTVSPost2010Prop46
 90
       50
102
RTVSPost2010PropOp46
 70
     1
102
RTVSPost2010Prop47
 90
       50
102
RTVSPost2010PropOp47
 70
     1
102
RTVSPost2010Prop48
 90
       50
102
RTVSPost2010PropOp48
 70
     1
102
RTVSPost2010Prop49
280
     0
102
RTVSPost2010PropOp49
 70
     1
102
RTVSPost2010Prop50
 90
       50
102
RTVSPost2010PropOp50
 70
     1
102
RTVSPost2010Prop51ColorIndex
 90
      256
102
RTVSPost2010Prop51ColorRGB
 90
-16777216
102
RTVSPost2010PropOp51
 70
     0
102
RTVSPost2010Prop52
140
1.0
102
RTVSPost2010PropOp52
 70
     0
102
RTVSPost2010Prop53
 90
        2
102
RTVSPost2010PropOp53
 70
     1
102
RTVSPost2010Prop54
  1
strokes_ogs.tif
102
RTVSPost2010PropOp54
 70
     1
102
RTVSPost2010Prop55
280
     0
102
RTVSPost2010PropOp55
 70
     1
102
RTVSPost2010Prop56
140
1.0
102
RTVSPost2010PropOp56
 70
     1
102
RTVSPost2010Prop57
140
1.0
102
RTVSPost2010PropOp57
 70
     1
102
RTVSPropertyOp0
 70
     1
102
RTVSPropertyOp1
 70
     1
102
RTVSPropertyOp2
 70
     1
102
RTVSPropertyOp3
 70
     1
102
RTVSPropertyOp4
 70
     1
102
RTVSPropertyOp5
 70
     1
102
RTVSPropertyOp6
 70
     1
102
RTVSPropertyOp7
 70
     1
102
RTVSPropertyOp8
 70
     1
102
RTVSPropertyOp9
 70
     1
102
RTVSPropertyOp10
 70
     1
102
RTVSPropertyOp11
 70
     1
102
RTVSPropertyOp12
 70
     1
102
RTVSPropertyOp13
 70
     1
102
RTVSPropertyOp14
 70
     1
102
RTVSPropertyOp15
 70
     1
102
RTVSPropertyOp16
 70
     1
102
RTVSPropertyOp17
 70
     1
102
RTVSPropertyOp18
 70
     1
102
RTVSPropertyOp19
 70
     1
102
RTVSPropertyOp20
 70
     1
102
RTVSPropertyOp21
 70
     1
102
RTVSPropertyOp22
 70
     1
102
RTVSPropertyOp23
 70
     1
102
RTVSPropertyOp24
 70
     1
102
RTVSPropertyOp25
 70
     1
102
RTVSPropertyOp26
 70
     1
102
RTVSPropertyOp27
 70
     1
102
RTVSPropertyOp28
 70
     1
102
RTVSPropertyOp29
 70
     1
102
RTVSPropertyOp30
 70
     1
102
RTVSPropertyOp31
 70
     1
102
RTVSPropertyOp32
 70
     1
102
RTVSPropertyOp33
 70
     1
102
RTVSPropertyOp34
 70
     1
102
RTVSPropertyOp35
 70
     1
102
RTVSPropertyOp36
 70
     1
102
RTVSPropertyOp37
 70
     1
102
RTVSPropertyOp38
 70
     1
102
RTVSPropertyOp39
 70
     1
102
RTVSPropertyOp40
 70
     1
102
RTVSPropertyOp41
 70
     1
102
RTVSPropertyOp42
 70
     1
102
RTVSPropertyOp43
 70
     1
102
RTVSPropertyOp44
 70
     1
102
RTVSPropertyOp45
 70
     1
102
RTVSPropertyOp46
 70
     1
102
RTVSPropertyOp47
 70
     1
102
RTVSPropertyOp48
 70
     1
102
RTVSPropertyOp49
 70
     1
102
RTVSPropertyOp50
 70
     1
102
RTVSPropertyOp51
 70
     0
102
RTVSPropertyOp52
 70
     0
102
RTVSPropertyOp53
 70
     1
102
RTVSPropertyOp54
 70
     1
102
RTVSPropertyOp55
 70
     1
102
RTVSPropertyOp56
 70
     1
102
RTVSPropertyOp57
 70
     1
102
RTVSPropertyOp58
 70
     1
102
RTVSPropertyOp59
 70
     1
102
RTVSPropertyOp60
 70
     1
102
RTVSPropertyOp61
 70
     1
102
RTVSPropertyOp62
 70
     1
  0
XRECORD
  5
10D71
102
{ACAD_REACTORS
330
10D70
102
}
330
10D70
100
AcDbXrecord
280
     1
102
RTVSPost2010Prop28
280
     0
102
RTVSPost2010PropOp28
 70
     1
102
RTVSPost2010Prop29
280
     1
102
RTVSPost2010PropOp29
 70
     1
102
RTVSPost2010Prop30
280
     1
102
RTVSPost2010PropOp30
 70
     1
102
RTVSPost2010Prop31
280
     0
102
RTVSPost2010PropOp31
 70
     1
102
RTVSPost2010Prop32
280
     0
102
RTVSPost2010PropOp32
 70
     1
102
RTVSPost2010Prop33
280
     0
102
RTVSPost2010PropOp33
 70
     1
102
RTVSPost2010Prop34
280
     0
102
RTVSPost2010PropOp34
 70
     1
102
RTVSPost2010Prop35
280
     0
102
RTVSPost2010PropOp35
 70
     1
102
RTVSPost2010Prop36
280
     0
102
RTVSPost2010PropOp36
 70
     1
102
RTVSPost2010Prop37
 90
       50
102
RTVSPost2010PropOp37
 70
     1
102
RTVSPost2010Prop38
140
0.0
102
RTVSPost2010PropOp38
 70
     1
102
RTVSPost2010Prop39
140
1.0
102
RTVSPost2010PropOp39
 70
     1
102
RTVSPost2010Prop40
 90
        0
102
RTVSPost2010PropOp40
 70
     1
102
RTVSPost2010Prop41ColorIndex
 90
       18
102
RTVSPost2010Prop41ColorRGB
 90
        0
102
RTVSPost2010PropOp41
 70
     1
102
RTVSPost2010Prop42
 90
       50
102
RTVSPost2010PropOp42
 70
     1
102
RTVSPost2010Prop43
 90
        3
102
RTVSPost2010PropOp43
 70
     1
102
RTVSPost2010Prop44ColorIndex
 90
        5
102
RTVSPost2010Prop44ColorRGB
 90
      255
102
RTVSPost2010PropOp44
 70
     1
102
RTVSPost2010Prop45
280
     0
102
RTVSPost2010PropOp45
 70
     1
102
RTVSPost2010Prop46
 90
       50
102
RTVSPost2010PropOp46
 70
     1
102
RTVSPost2010Prop47
 90
       50
102
RTVSPost2010PropOp47
 70
     1
102
RTVSPost2010Prop48
 90
       50
102
RTVSPost2010PropOp48
 70
     1
102
RTVSPost2010Prop49
280
     0
102
RTVSPost2010PropOp49
 70
     1
102
RTVSPost2010Prop50
 90
       50
102
RTVSPost2010PropOp50
 70
     1
102
RTVSPost2010Prop51ColorIndex
 90
      256
102
RTVSPost2010Prop51ColorRGB
 90
-16777216
102
RTVSPost2010PropOp51
 70
     0
102
RTVSPost2010Prop52
140
1.0
102
RTVSPost2010PropOp52
 70
     0
102
RTVSPost2010Prop53
 90
        2
102
RTVSPost2010PropOp53
 70
     1
102
RTVSPost2010Prop54
  1
strokes_ogs.tif
102
RTVSPost2010PropOp54
 70
     1
102
RTVSPost2010Prop55
280
     0
102
RTVSPost2010PropOp55
 70
     1
102
RTVSPost2010Prop56
140
1.0
102
RTVSPost2010PropOp56
 70
     1
102
RTVSPost2010Prop57
140
1.0
102
RTVSPost2010PropOp57
 70
     1
102
RTVSPropertyOp0
 70
     1
102
RTVSPropertyOp1
 70
     1
102
RTVSPropertyOp2
 70
     1
102
RTVSPropertyOp3
 70
     1
102
RTVSPropertyOp4
 70
     1
102
RTVSPropertyOp5
 70
     1
102
RTVSPropertyOp6
 70
     1
102
RTVSPropertyOp7
 70
     1
102
RTVSPropertyOp8
 70
     1
102
RTVSPropertyOp9
 70
     1
102
RTVSPropertyOp10
 70
     1
102
RTVSPropertyOp11
 70
     1
102
RTVSPropertyOp12
 70
     1
102
RTVSPropertyOp13
 70
     1
102
RTVSPropertyOp14
 70
     1
102
RTVSPropertyOp15
 70
     1
102
RTVSPropertyOp16
 70
     1
102
RTVSPropertyOp17
 70
     1
102
RTVSPropertyOp18
 70
     1
102
RTVSPropertyOp19
 70
     1
102
RTVSPropertyOp20
 70
     1
102
RTVSPropertyOp21
 70
     1
102
RTVSPropertyOp22
 70
     1
102
RTVSPropertyOp23
 70
     1
102
RTVSPropertyOp24
 70
     1
102
RTVSPropertyOp25
 70
     1
102
RTVSPropertyOp26
 70
     1
102
RTVSPropertyOp27
 70
     1
102
RTVSPropertyOp28
 70
     1
102
RTVSPropertyOp29
 70
     1
102
RTVSPropertyOp30
 70
     1
102
RTVSPropertyOp31
 70
     1
102
RTVSPropertyOp32
 70
     1
102
RTVSPropertyOp33
 70
     1
102
RTVSPropertyOp34
 70
     1
102
RTVSPropertyOp35
 70
     1
102
RTVSPropertyOp36
 70
     1
102
RTVSPropertyOp37
 70
     1
102
RTVSPropertyOp38
 70
     1
102
RTVSPropertyOp39
 70
     1
102
RTVSPropertyOp40
 70
     1
102
RTVSPropertyOp41
 70
     1
102
RTVSPropertyOp42
 70
     1
102
RTVSPropertyOp43
 70
     1
102
RTVSPropertyOp44
 70
     1
102
RTVSPropertyOp45
 70
     1
102
RTVSPropertyOp46
 70
     1
102
RTVSPropertyOp47
 70
     1
102
RTVSPropertyOp48
 70
     1
102
RTVSPropertyOp49
 70
     1
102
RTVSPropertyOp50
 70
     1
102
RTVSPropertyOp51
 70
     0
102
RTVSPropertyOp52
 70
     0
102
RTVSPropertyOp53
 70
     1
102
RTVSPropertyOp54
 70
     1
102
RTVSPropertyOp55
 70
     1
102
RTVSPropertyOp56
 70
     1
102
RTVSPropertyOp57
 70
     1
102
RTVSPropertyOp58
 70
     1
102
RTVSPropertyOp59
 70
     1
102
RTVSPropertyOp60
 70
     1
102
RTVSPropertyOp61
 70
     1
102
RTVSPropertyOp62
 70
     1
  0
XRECORD
  5
10D73
102
{ACAD_REACTORS
330
10D72
102
}
330
10D72
100
AcDbXrecord
280
     1
102
RTVSPost2010Prop28
280
     0
102
RTVSPost2010PropOp28
 70
     1
102
RTVSPost2010Prop29
280
     1
102
RTVSPost2010PropOp29
 70
     1
102
RTVSPost2010Prop30
280
     1
102
RTVSPost2010PropOp30
 70
     1
102
RTVSPost2010Prop31
280
     0
102
RTVSPost2010PropOp31
 70
     1
102
RTVSPost2010Prop32
280
     0
102
RTVSPost2010PropOp32
 70
     1
102
RTVSPost2010Prop33
280
     0
102
RTVSPost2010PropOp33
 70
     1
102
RTVSPost2010Prop34
280
     0
102
RTVSPost2010PropOp34
 70
     1
102
RTVSPost2010Prop35
280
     0
102
RTVSPost2010PropOp35
 70
     1
102
RTVSPost2010Prop36
280
     0
102
RTVSPost2010PropOp36
 70
     1
102
RTVSPost2010Prop37
 90
       50
102
RTVSPost2010PropOp37
 70
     1
102
RTVSPost2010Prop38
140
0.0
102
RTVSPost2010PropOp38
 70
     1
102
RTVSPost2010Prop39
140
1.0
102
RTVSPost2010PropOp39
 70
     1
102
RTVSPost2010Prop40
 90
        0
102
RTVSPost2010PropOp40
 70
     1
102
RTVSPost2010Prop41ColorIndex
 90
       18
102
RTVSPost2010Prop41ColorRGB
 90
        0
102
RTVSPost2010PropOp41
 70
     1
102
RTVSPost2010Prop42
 90
       50
102
RTVSPost2010PropOp42
 70
     1
102
RTVSPost2010Prop43
 90
        3
102
RTVSPost2010PropOp43
 70
     1
102
RTVSPost2010Prop44ColorIndex
 90
        5
102
RTVSPost2010Prop44ColorRGB
 90
      255
102
RTVSPost2010PropOp44
 70
     1
102
RTVSPost2010Prop45
280
     0
102
RTVSPost2010PropOp45
 70
     1
102
RTVSPost2010Prop46
 90
       50
102
RTVSPost2010PropOp46
 70
     1
102
RTVSPost2010Prop47
 90
       50
102
RTVSPost2010PropOp47
 70
     1
102
RTVSPost2010Prop48
 90
       50
102
RTVSPost2010PropOp48
 70
     1
102
RTVSPost2010Prop49
280
     0
102
RTVSPost2010PropOp49
 70
     1
102
RTVSPost2010Prop50
 90
       50
102
RTVSPost2010PropOp50
 70
     1
102
RTVSPost2010Prop51ColorIndex
 90
      256
102
RTVSPost2010Prop51ColorRGB
 90
-16777216
102
RTVSPost2010PropOp51
 70
     0
102
RTVSPost2010Prop52
140
1.0
102
RTVSPost2010PropOp52
 70
     0
102
RTVSPost2010Prop53
 90
        2
102
RTVSPost2010PropOp53
 70
     1
102
RTVSPost2010Prop54
  1
strokes_ogs.tif
102
RTVSPost2010PropOp54
 70
     1
102
RTVSPost2010Prop55
280
     0
102
RTVSPost2010PropOp55
 70
     1
102
RTVSPost2010Prop56
140
1.0
102
RTVSPost2010PropOp56
 70
     1
102
RTVSPost2010Prop57
140
1.0
102
RTVSPost2010PropOp57
 70
     1
102
RTVSPropertyOp0
 70
     1
102
RTVSPropertyOp1
 70
     1
102
RTVSPropertyOp2
 70
     1
102
RTVSPropertyOp3
 70
     1
102
RTVSPropertyOp4
 70
     1
102
RTVSPropertyOp5
 70
     1
102
RTVSPropertyOp6
 70
     1
102
RTVSPropertyOp7
 70
     1
102
RTVSPropertyOp8
 70
     1
102
RTVSPropertyOp9
 70
     1
102
RTVSPropertyOp10
 70
     1
102
RTVSPropertyOp11
 70
     1
102
RTVSPropertyOp12
 70
     1
102
RTVSPropertyOp13
 70
     1
102
RTVSPropertyOp14
 70
     1
102
RTVSPropertyOp15
 70
     1
102
RTVSPropertyOp16
 70
     1
102
RTVSPropertyOp17
 70
     1
102
RTVSPropertyOp18
 70
     1
102
RTVSPropertyOp19
 70
     1
102
RTVSPropertyOp20
 70
     1
102
RTVSPropertyOp21
 70
     1
102
RTVSPropertyOp22
 70
     1
102
RTVSPropertyOp23
 70
     1
102
RTVSPropertyOp24
 70
     1
102
RTVSPropertyOp25
 70
     1
102
RTVSPropertyOp26
 70
     1
102
RTVSPropertyOp27
 70
     1
102
RTVSPropertyOp28
 70
     1
102
RTVSPropertyOp29
 70
     1
102
RTVSPropertyOp30
 70
     1
102
RTVSPropertyOp31
 70
     1
102
RTVSPropertyOp32
 70
     1
102
RTVSPropertyOp33
 70
     1
102
RTVSPropertyOp34
 70
     1
102
RTVSPropertyOp35
 70
     1
102
RTVSPropertyOp36
 70
     1
102
RTVSPropertyOp37
 70
     1
102
RTVSPropertyOp38
 70
     1
102
RTVSPropertyOp39
 70
     1
102
RTVSPropertyOp40
 70
     1
102
RTVSPropertyOp41
 70
     1
102
RTVSPropertyOp42
 70
     1
102
RTVSPropertyOp43
 70
     1
102
RTVSPropertyOp44
 70
     1
102
RTVSPropertyOp45
 70
     1
102
RTVSPropertyOp46
 70
     1
102
RTVSPropertyOp47
 70
     1
102
RTVSPropertyOp48
 70
     1
102
RTVSPropertyOp49
 70
     1
102
RTVSPropertyOp50
 70
     1
102
RTVSPropertyOp51
 70
     0
102
RTVSPropertyOp52
 70
     0
102
RTVSPropertyOp53
 70
     1
102
RTVSPropertyOp54
 70
     1
102
RTVSPropertyOp55
 70
     1
102
RTVSPropertyOp56
 70
     1
102
RTVSPropertyOp57
 70
     1
102
RTVSPropertyOp58
 70
     1
102
RTVSPropertyOp59
 70
     1
102
RTVSPropertyOp60
 70
     1
102
RTVSPropertyOp61
 70
     1
102
RTVSPropertyOp62
 70
     1
  0
XRECORD
  5
10D75
102
{ACAD_REACTORS
330
10D74
102
}
330
10D74
100
AcDbXrecord
280
     1
102
RTVSPost2010Prop28
280
     0
102
RTVSPost2010PropOp28
 70
     1
102
RTVSPost2010Prop29
280
     1
102
RTVSPost2010PropOp29
 70
     1
102
RTVSPost2010Prop30
280
     1
102
RTVSPost2010PropOp30
 70
     1
102
RTVSPost2010Prop31
280
     0
102
RTVSPost2010PropOp31
 70
     1
102
RTVSPost2010Prop32
280
     0
102
RTVSPost2010PropOp32
 70
     1
102
RTVSPost2010Prop33
280
     0
102
RTVSPost2010PropOp33
 70
     1
102
RTVSPost2010Prop34
280
     0
102
RTVSPost2010PropOp34
 70
     1
102
RTVSPost2010Prop35
280
     0
102
RTVSPost2010PropOp35
 70
     1
102
RTVSPost2010Prop36
280
     0
102
RTVSPost2010PropOp36
 70
     1
102
RTVSPost2010Prop37
 90
       50
102
RTVSPost2010PropOp37
 70
     1
102
RTVSPost2010Prop38
140
0.0
102
RTVSPost2010PropOp38
 70
     1
102
RTVSPost2010Prop39
140
1.0
102
RTVSPost2010PropOp39
 70
     1
102
RTVSPost2010Prop40
 90
        0
102
RTVSPost2010PropOp40
 70
     1
102
RTVSPost2010Prop41ColorIndex
 90
       18
102
RTVSPost2010Prop41ColorRGB
 90
        0
102
RTVSPost2010PropOp41
 70
     1
102
RTVSPost2010Prop42
 90
       50
102
RTVSPost2010PropOp42
 70
     1
102
RTVSPost2010Prop43
 90
        3
102
RTVSPost2010PropOp43
 70
     1
102
RTVSPost2010Prop44ColorIndex
 90
        5
102
RTVSPost2010Prop44ColorRGB
 90
      255
102
RTVSPost2010PropOp44
 70
     1
102
RTVSPost2010Prop45
280
     0
102
RTVSPost2010PropOp45
 70
     1
102
RTVSPost2010Prop46
 90
       50
102
RTVSPost2010PropOp46
 70
     1
102
RTVSPost2010Prop47
 90
       50
102
RTVSPost2010PropOp47
 70
     1
102
RTVSPost2010Prop48
 90
       50
102
RTVSPost2010PropOp48
 70
     1
102
RTVSPost2010Prop49
280
     0
102
RTVSPost2010PropOp49
 70
     1
102
RTVSPost2010Prop50
 90
       50
102
RTVSPost2010PropOp50
 70
     1
102
RTVSPost2010Prop51ColorIndex
 90
      256
102
RTVSPost2010Prop51ColorRGB
 90
-16777216
102
RTVSPost2010PropOp51
 70
     0
102
RTVSPost2010Prop52
140
1.0
102
RTVSPost2010PropOp52
 70
     0
102
RTVSPost2010Prop53
 90
        2
102
RTVSPost2010PropOp53
 70
     1
102
RTVSPost2010Prop54
  1
strokes_ogs.tif
102
RTVSPost2010PropOp54
 70
     1
102
RTVSPost2010Prop55
280
     0
102
RTVSPost2010PropOp55
 70
     1
102
RTVSPost2010Prop56
140
1.0
102
RTVSPost2010PropOp56
 70
     1
102
RTVSPost2010Prop57
140
1.0
102
RTVSPost2010PropOp57
 70
     1
102
RTVSPropertyOp0
 70
     1
102
RTVSPropertyOp1
 70
     1
102
RTVSPropertyOp2
 70
     1
102
RTVSPropertyOp3
 70
     1
102
RTVSPropertyOp4
 70
     1
102
RTVSPropertyOp5
 70
     1
102
RTVSPropertyOp6
 70
     1
102
RTVSPropertyOp7
 70
     1
102
RTVSPropertyOp8
 70
     1
102
RTVSPropertyOp9
 70
     1
102
RTVSPropertyOp10
 70
     1
102
RTVSPropertyOp11
 70
     1
102
RTVSPropertyOp12
 70
     1
102
RTVSPropertyOp13
 70
     1
102
RTVSPropertyOp14
 70
     1
102
RTVSPropertyOp15
 70
     1
102
RTVSPropertyOp16
 70
     1
102
RTVSPropertyOp17
 70
     1
102
RTVSPropertyOp18
 70
     1
102
RTVSPropertyOp19
 70
     1
102
RTVSPropertyOp20
 70
     1
102
RTVSPropertyOp21
 70
     1
102
RTVSPropertyOp22
 70
     1
102
RTVSPropertyOp23
 70
     1
102
RTVSPropertyOp24
 70
     1
102
RTVSPropertyOp25
 70
     1
102
RTVSPropertyOp26
 70
     1
102
RTVSPropertyOp27
 70
     1
102
RTVSPropertyOp28
 70
     1
102
RTVSPropertyOp29
 70
     1
102
RTVSPropertyOp30
 70
     1
102
RTVSPropertyOp31
 70
     1
102
RTVSPropertyOp32
 70
     1
102
RTVSPropertyOp33
 70
     1
102
RTVSPropertyOp34
 70
     1
102
RTVSPropertyOp35
 70
     1
102
RTVSPropertyOp36
 70
     1
102
RTVSPropertyOp37
 70
     1
102
RTVSPropertyOp38
 70
     1
102
RTVSPropertyOp39
 70
     1
102
RTVSPropertyOp40
 70
     1
102
RTVSPropertyOp41
 70
     1
102
RTVSPropertyOp42
 70
     1
102
RTVSPropertyOp43
 70
     1
102
RTVSPropertyOp44
 70
     1
102
RTVSPropertyOp45
 70
     1
102
RTVSPropertyOp46
 70
     1
102
RTVSPropertyOp47
 70
     1
102
RTVSPropertyOp48
 70
     1
102
RTVSPropertyOp49
 70
     1
102
RTVSPropertyOp50
 70
     1
102
RTVSPropertyOp51
 70
     0
102
RTVSPropertyOp52
 70
     0
102
RTVSPropertyOp53
 70
     1
102
RTVSPropertyOp54
 70
     1
102
RTVSPropertyOp55
 70
     1
102
RTVSPropertyOp56
 70
     1
102
RTVSPropertyOp57
 70
     1
102
RTVSPropertyOp58
 70
     1
102
RTVSPropertyOp59
 70
     1
102
RTVSPropertyOp60
 70
     1
102
RTVSPropertyOp61
 70
     1
102
RTVSPropertyOp62
 70
     1
  0
XRECORD
  5
10D77
102
{ACAD_REACTORS
330
10D76
102
}
330
10D76
100
AcDbXrecord
280
     1
102
RTVSPost2010Prop28
280
     0
102
RTVSPost2010PropOp28
 70
     1
102
RTVSPost2010Prop29
280
     1
102
RTVSPost2010PropOp29
 70
     1
102
RTVSPost2010Prop30
280
     1
102
RTVSPost2010PropOp30
 70
     1
102
RTVSPost2010Prop31
280
     0
102
RTVSPost2010PropOp31
 70
     1
102
RTVSPost2010Prop32
280
     0
102
RTVSPost2010PropOp32
 70
     1
102
RTVSPost2010Prop33
280
     0
102
RTVSPost2010PropOp33
 70
     1
102
RTVSPost2010Prop34
280
     0
102
RTVSPost2010PropOp34
 70
     1
102
RTVSPost2010Prop35
280
     0
102
RTVSPost2010PropOp35
 70
     1
102
RTVSPost2010Prop36
280
     0
102
RTVSPost2010PropOp36
 70
     1
102
RTVSPost2010Prop37
 90
       50
102
RTVSPost2010PropOp37
 70
     1
102
RTVSPost2010Prop38
140
0.0
102
RTVSPost2010PropOp38
 70
     1
102
RTVSPost2010Prop39
140
1.0
102
RTVSPost2010PropOp39
 70
     1
102
RTVSPost2010Prop40
 90
        0
102
RTVSPost2010PropOp40
 70
     1
102
RTVSPost2010Prop41ColorIndex
 90
       18
102
RTVSPost2010Prop41ColorRGB
 90
        0
102
RTVSPost2010PropOp41
 70
     1
102
RTVSPost2010Prop42
 90
       50
102
RTVSPost2010PropOp42
 70
     1
102
RTVSPost2010Prop43
 90
        3
102
RTVSPost2010PropOp43
 70
     1
102
RTVSPost2010Prop44ColorIndex
 90
        5
102
RTVSPost2010Prop44ColorRGB
 90
      255
102
RTVSPost2010PropOp44
 70
     1
102
RTVSPost2010Prop45
280
     0
102
RTVSPost2010PropOp45
 70
     1
102
RTVSPost2010Prop46
 90
       50
102
RTVSPost2010PropOp46
 70
     1
102
RTVSPost2010Prop47
 90
       50
102
RTVSPost2010PropOp47
 70
     1
102
RTVSPost2010Prop48
 90
       50
102
RTVSPost2010PropOp48
 70
     1
102
RTVSPost2010Prop49
280
     0
102
RTVSPost2010PropOp49
 70
     1
102
RTVSPost2010Prop50
 90
       50
102
RTVSPost2010PropOp50
 70
     1
102
RTVSPost2010Prop51ColorIndex
 90
      256
102
RTVSPost2010Prop51ColorRGB
 90
-16777216
102
RTVSPost2010PropOp51
 70
     0
102
RTVSPost2010Prop52
140
1.0
102
RTVSPost2010PropOp52
 70
     0
102
RTVSPost2010Prop53
 90
        2
102
RTVSPost2010PropOp53
 70
     1
102
RTVSPost2010Prop54
  1
strokes_ogs.tif
102
RTVSPost2010PropOp54
 70
     1
102
RTVSPost2010Prop55
280
     0
102
RTVSPost2010PropOp55
 70
     1
102
RTVSPost2010Prop56
140
1.0
102
RTVSPost2010PropOp56
 70
     1
102
RTVSPost2010Prop57
140
1.0
102
RTVSPost2010PropOp57
 70
     1
102
RTVSPropertyOp0
 70
     1
102
RTVSPropertyOp1
 70
     1
102
RTVSPropertyOp2
 70
     1
102
RTVSPropertyOp3
 70
     1
102
RTVSPropertyOp4
 70
     1
102
RTVSPropertyOp5
 70
     1
102
RTVSPropertyOp6
 70
     1
102
RTVSPropertyOp7
 70
     1
102
RTVSPropertyOp8
 70
     1
102
RTVSPropertyOp9
 70
     1
102
RTVSPropertyOp10
 70
     1
102
RTVSPropertyOp11
 70
     1
102
RTVSPropertyOp12
 70
     1
102
RTVSPropertyOp13
 70
     1
102
RTVSPropertyOp14
 70
     1
102
RTVSPropertyOp15
 70
     1
102
RTVSPropertyOp16
 70
     1
102
RTVSPropertyOp17
 70
     1
102
RTVSPropertyOp18
 70
     1
102
RTVSPropertyOp19
 70
     1
102
RTVSPropertyOp20
 70
     1
102
RTVSPropertyOp21
 70
     1
102
RTVSPropertyOp22
 70
     1
102
RTVSPropertyOp23
 70
     1
102
RTVSPropertyOp24
 70
     1
102
RTVSPropertyOp25
 70
     1
102
RTVSPropertyOp26
 70
     1
102
RTVSPropertyOp27
 70
     1
102
RTVSPropertyOp28
 70
     1
102
RTVSPropertyOp29
 70
     1
102
RTVSPropertyOp30
 70
     1
102
RTVSPropertyOp31
 70
     1
102
RTVSPropertyOp32
 70
     1
102
RTVSPropertyOp33
 70
     1
102
RTVSPropertyOp34
 70
     1
102
RTVSPropertyOp35
 70
     1
102
RTVSPropertyOp36
 70
     1
102
RTVSPropertyOp37
 70
     1
102
RTVSPropertyOp38
 70
     1
102
RTVSPropertyOp39
 70
     1
102
RTVSPropertyOp40
 70
     1
102
RTVSPropertyOp41
 70
     1
102
RTVSPropertyOp42
 70
     1
102
RTVSPropertyOp43
 70
     1
102
RTVSPropertyOp44
 70
     1
102
RTVSPropertyOp45
 70
     1
102
RTVSPropertyOp46
 70
     1
102
RTVSPropertyOp47
 70
     1
102
RTVSPropertyOp48
 70
     1
102
RTVSPropertyOp49
 70
     1
102
RTVSPropertyOp50
 70
     1
102
RTVSPropertyOp51
 70
     0
102
RTVSPropertyOp52
 70
     0
102
RTVSPropertyOp53
 70
     1
102
RTVSPropertyOp54
 70
     1
102
RTVSPropertyOp55
 70
     1
102
RTVSPropertyOp56
 70
     1
102
RTVSPropertyOp57
 70
     1
102
RTVSPropertyOp58
 70
     1
102
RTVSPropertyOp59
 70
     1
102
RTVSPropertyOp60
 70
     1
102
RTVSPropertyOp61
 70
     1
102
RTVSPropertyOp62
 70
     1
  0
XRECORD
  5
10D7F
102
{ACAD_REACTORS
330
10D7E
102
}
330
10D7E
100
AcDbXrecord
280
     1
102
RTVSPost2010Prop28
280
     0
102
RTVSPost2010PropOp28
 70
     1
102
RTVSPost2010Prop29
280
     1
102
RTVSPost2010PropOp29
 70
     1
102
RTVSPost2010Prop30
280
     1
102
RTVSPost2010PropOp30
 70
     1
102
RTVSPost2010Prop31
280
     0
102
RTVSPost2010PropOp31
 70
     1
102
RTVSPost2010Prop32
280
     0
102
RTVSPost2010PropOp32
 70
     1
102
RTVSPost2010Prop33
280
     0
102
RTVSPost2010PropOp33
 70
     1
102
RTVSPost2010Prop34
280
     0
102
RTVSPost2010PropOp34
 70
     1
102
RTVSPost2010Prop35
280
     0
102
RTVSPost2010PropOp35
 70
     1
102
RTVSPost2010Prop36
280
     0
102
RTVSPost2010PropOp36
 70
     1
102
RTVSPost2010Prop37
 90
       50
102
RTVSPost2010PropOp37
 70
     1
102
RTVSPost2010Prop38
140
0.0
102
RTVSPost2010PropOp38
 70
     1
102
RTVSPost2010Prop39
140
1.0
102
RTVSPost2010PropOp39
 70
     1
102
RTVSPost2010Prop40
 90
        0
102
RTVSPost2010PropOp40
 70
     1
102
RTVSPost2010Prop41ColorIndex
 90
       18
102
RTVSPost2010Prop41ColorRGB
 90
        0
102
RTVSPost2010PropOp41
 70
     1
102
RTVSPost2010Prop42
 90
       50
102
RTVSPost2010PropOp42
 70
     1
102
RTVSPost2010Prop43
 90
        3
102
RTVSPost2010PropOp43
 70
     1
102
RTVSPost2010Prop44ColorIndex
 90
        5
102
RTVSPost2010Prop44ColorRGB
 90
      255
102
RTVSPost2010PropOp44
 70
     1
102
RTVSPost2010Prop45
280
     0
102
RTVSPost2010PropOp45
 70
     1
102
RTVSPost2010Prop46
 90
       50
102
RTVSPost2010PropOp46
 70
     1
102
RTVSPost2010Prop47
 90
       50
102
RTVSPost2010PropOp47
 70
     1
102
RTVSPost2010Prop48
 90
       50
102
RTVSPost2010PropOp48
 70
     1
102
RTVSPost2010Prop49
280
     0
102
RTVSPost2010PropOp49
 70
     1
102
RTVSPost2010Prop50
 90
       50
102
RTVSPost2010PropOp50
 70
     1
102
RTVSPost2010Prop51ColorIndex
 90
      256
102
RTVSPost2010Prop51ColorRGB
 90
-16777216
102
RTVSPost2010PropOp51
 70
     0
102
RTVSPost2010Prop52
140
1.0
102
RTVSPost2010PropOp52
 70
     0
102
RTVSPost2010Prop53
 90
        2
102
RTVSPost2010PropOp53
 70
     1
102
RTVSPost2010Prop54
  1
strokes_ogs.tif
102
RTVSPost2010PropOp54
 70
     1
102
RTVSPost2010Prop55
280
     0
102
RTVSPost2010PropOp55
 70
     1
102
RTVSPost2010Prop56
140
1.0
102
RTVSPost2010PropOp56
 70
     1
102
RTVSPost2010Prop57
140
1.0
102
RTVSPost2010PropOp57
 70
     1
102
RTVSPropertyOp0
 70
     1
102
RTVSPropertyOp1
 70
     1
102
RTVSPropertyOp2
 70
     1
102
RTVSPropertyOp3
 70
     1
102
RTVSPropertyOp4
 70
     1
102
RTVSPropertyOp5
 70
     1
102
RTVSPropertyOp6
 70
     1
102
RTVSPropertyOp7
 70
     1
102
RTVSPropertyOp8
 70
     1
102
RTVSPropertyOp9
 70
     1
102
RTVSPropertyOp10
 70
     1
102
RTVSPropertyOp11
 70
     1
102
RTVSPropertyOp12
 70
     1
102
RTVSPropertyOp13
 70
     1
102
RTVSPropertyOp14
 70
     1
102
RTVSPropertyOp15
 70
     1
102
RTVSPropertyOp16
 70
     1
102
RTVSPropertyOp17
 70
     1
102
RTVSPropertyOp18
 70
     1
102
RTVSPropertyOp19
 70
     1
102
RTVSPropertyOp20
 70
     1
102
RTVSPropertyOp21
 70
     1
102
RTVSPropertyOp22
 70
     1
102
RTVSPropertyOp23
 70
     1
102
RTVSPropertyOp24
 70
     1
102
RTVSPropertyOp25
 70
     1
102
RTVSPropertyOp26
 70
     1
102
RTVSPropertyOp27
 70
     1
102
RTVSPropertyOp28
 70
     1
102
RTVSPropertyOp29
 70
     1
102
RTVSPropertyOp30
 70
     1
102
RTVSPropertyOp31
 70
     1
102
RTVSPropertyOp32
 70
     1
102
RTVSPropertyOp33
 70
     1
102
RTVSPropertyOp34
 70
     1
102
RTVSPropertyOp35
 70
     1
102
RTVSPropertyOp36
 70
     1
102
RTVSPropertyOp37
 70
     1
102
RTVSPropertyOp38
 70
     1
102
RTVSPropertyOp39
 70
     1
102
RTVSPropertyOp40
 70
     1
102
RTVSPropertyOp41
 70
     1
102
RTVSPropertyOp42
 70
     1
102
RTVSPropertyOp43
 70
     1
102
RTVSPropertyOp44
 70
     1
102
RTVSPropertyOp45
 70
     1
102
RTVSPropertyOp46
 70
     1
102
RTVSPropertyOp47
 70
     1
102
RTVSPropertyOp48
 70
     1
102
RTVSPropertyOp49
 70
     1
102
RTVSPropertyOp50
 70
     1
102
RTVSPropertyOp51
 70
     0
102
RTVSPropertyOp52
 70
     0
102
RTVSPropertyOp53
 70
     1
102
RTVSPropertyOp54
 70
     1
102
RTVSPropertyOp55
 70
     1
102
RTVSPropertyOp56
 70
     1
102
RTVSPropertyOp57
 70
     1
102
RTVSPropertyOp58
 70
     1
102
RTVSPropertyOp59
 70
     1
102
RTVSPropertyOp60
 70
     1
102
RTVSPropertyOp61
 70
     1
102
RTVSPropertyOp62
 70
     1
  0
XRECORD
  5
10D93
102
{ACAD_REACTORS
330
10D92
102
}
330
10D92
100
AcDbXrecord
280
     1
102
RTVSPost2010Prop28
280
     0
102
RTVSPost2010PropOp28
 70
     1
102
RTVSPost2010Prop29
280
     1
102
RTVSPost2010PropOp29
 70
     1
102
RTVSPost2010Prop30
280
     1
102
RTVSPost2010PropOp30
 70
     1
102
RTVSPost2010Prop31
280
     0
102
RTVSPost2010PropOp31
 70
     1
102
RTVSPost2010Prop32
280
     0
102
RTVSPost2010PropOp32
 70
     1
102
RTVSPost2010Prop33
280
     0
102
RTVSPost2010PropOp33
 70
     1
102
RTVSPost2010Prop34
280
     0
102
RTVSPost2010PropOp34
 70
     1
102
RTVSPost2010Prop35
280
     0
102
RTVSPost2010PropOp35
 70
     1
102
RTVSPost2010Prop36
280
     0
102
RTVSPost2010PropOp36
 70
     1
102
RTVSPost2010Prop37
 90
       50
102
RTVSPost2010PropOp37
 70
     1
102
RTVSPost2010Prop38
140
0.0
102
RTVSPost2010PropOp38
 70
     1
102
RTVSPost2010Prop39
140
1.0
102
RTVSPost2010PropOp39
 70
     1
102
RTVSPost2010Prop40
 90
        0
102
RTVSPost2010PropOp40
 70
     1
102
RTVSPost2010Prop41ColorIndex
 90
       18
102
RTVSPost2010Prop41ColorRGB
 90
        0
102
RTVSPost2010PropOp41
 70
     1
102
RTVSPost2010Prop42
 90
       50
102
RTVSPost2010PropOp42
 70
     1
102
RTVSPost2010Prop43
 90
        3
102
RTVSPost2010PropOp43
 70
     1
102
RTVSPost2010Prop44ColorIndex
 90
        5
102
RTVSPost2010Prop44ColorRGB
 90
      255
102
RTVSPost2010PropOp44
 70
     1
102
RTVSPost2010Prop45
280
     0
102
RTVSPost2010PropOp45
 70
     1
102
RTVSPost2010Prop46
 90
       50
102
RTVSPost2010PropOp46
 70
     1
102
RTVSPost2010Prop47
 90
       50
102
RTVSPost2010PropOp47
 70
     1
102
RTVSPost2010Prop48
 90
       50
102
RTVSPost2010PropOp48
 70
     1
102
RTVSPost2010Prop49
280
     0
102
RTVSPost2010PropOp49
 70
     1
102
RTVSPost2010Prop50
 90
       50
102
RTVSPost2010PropOp50
 70
     1
102
RTVSPost2010Prop51ColorIndex
 90
      256
102
RTVSPost2010Prop51ColorRGB
 90
-16777216
102
RTVSPost2010PropOp51
 70
     0
102
RTVSPost2010Prop52
140
1.0
102
RTVSPost2010PropOp52
 70
     0
102
RTVSPost2010Prop53
 90
        2
102
RTVSPost2010PropOp53
 70
     1
102
RTVSPost2010Prop54
  1
strokes_ogs.tif
102
RTVSPost2010PropOp54
 70
     1
102
RTVSPost2010Prop55
280
     0
102
RTVSPost2010PropOp55
 70
     1
102
RTVSPost2010Prop56
140
1.0
102
RTVSPost2010PropOp56
 70
     1
102
RTVSPost2010Prop57
140
1.0
102
RTVSPost2010PropOp57
 70
     1
102
RTVSPropertyOp0
 70
     0
102
RTVSPropertyOp1
 70
     0
102
RTVSPropertyOp2
 70
     0
102
RTVSPropertyOp3
 70
     0
102
RTVSPropertyOp4
 70
     0
102
RTVSPropertyOp5
 70
     0
102
RTVSPropertyOp6
 70
     0
102
RTVSPropertyOp7
 70
     0
102
RTVSPropertyOp8
 70
     0
102
RTVSPropertyOp9
 70
     0
102
RTVSPropertyOp10
 70
     0
102
RTVSPropertyOp11
 70
     0
102
RTVSPropertyOp12
 70
     0
102
RTVSPropertyOp13
 70
     0
102
RTVSPropertyOp14
 70
     2
102
RTVSPropertyOp15
 70
     0
102
RTVSPropertyOp16
 70
     0
102
RTVSPropertyOp17
 70
     0
102
RTVSPropertyOp18
 70
     0
102
RTVSPropertyOp19
 70
     0
102
RTVSPropertyOp20
 70
     0
102
RTVSPropertyOp21
 70
     0
102
RTVSPropertyOp22
 70
     0
102
RTVSPropertyOp23
 70
     0
102
RTVSPropertyOp24
 70
     0
102
RTVSPropertyOp25
 70
     0
102
RTVSPropertyOp26
 70
     0
102
RTVSPropertyOp27
 70
     0
102
RTVSPropertyOp28
 70
     1
102
RTVSPropertyOp29
 70
     1
102
RTVSPropertyOp30
 70
     1
102
RTVSPropertyOp31
 70
     1
102
RTVSPropertyOp32
 70
     1
102
RTVSPropertyOp33
 70
     1
102
RTVSPropertyOp34
 70
     1
102
RTVSPropertyOp35
 70
     1
102
RTVSPropertyOp36
 70
     1
102
RTVSPropertyOp37
 70
     1
102
RTVSPropertyOp38
 70
     1
102
RTVSPropertyOp39
 70
     1
102
RTVSPropertyOp40
 70
     1
102
RTVSPropertyOp41
 70
     1
102
RTVSPropertyOp42
 70
     1
102
RTVSPropertyOp43
 70
     1
102
RTVSPropertyOp44
 70
     1
102
RTVSPropertyOp45
 70
     1
102
RTVSPropertyOp46
 70
     1
102
RTVSPropertyOp47
 70
     1
102
RTVSPropertyOp48
 70
     1
102
RTVSPropertyOp49
 70
     1
102
RTVSPropertyOp50
 70
     1
102
RTVSPropertyOp51
 70
     0
102
RTVSPropertyOp52
 70
     0
102
RTVSPropertyOp53
 70
     1
102
RTVSPropertyOp54
 70
     1
102
RTVSPropertyOp55
 70
     1
102
RTVSPropertyOp56
 70
     1
102
RTVSPropertyOp57
 70
     1
102
RTVSPropertyOp58
 70
     1
102
RTVSPropertyOp59
 70
     1
102
RTVSPropertyOp60
 70
     1
102
RTVSPropertyOp61
 70
     1
102
RTVSPropertyOp62
 70
     1
  0
XRECORD
  5
10D8B
102
{ACAD_REACTORS
330
10D8A
102
}
330
10D8A
100
AcDbXrecord
280
     1
102
RTVSPost2010Prop28
280
     0
102
RTVSPost2010PropOp28
 70
     1
102
RTVSPost2010Prop29
280
     1
102
RTVSPost2010PropOp29
 70
     1
102
RTVSPost2010Prop30
280
     1
102
RTVSPost2010PropOp30
 70
     1
102
RTVSPost2010Prop31
280
     0
102
RTVSPost2010PropOp31
 70
     1
102
RTVSPost2010Prop32
280
     0
102
RTVSPost2010PropOp32
 70
     1
102
RTVSPost2010Prop33
280
     0
102
RTVSPost2010PropOp33
 70
     1
102
RTVSPost2010Prop34
280
     0
102
RTVSPost2010PropOp34
 70
     1
102
RTVSPost2010Prop35
280
     0
102
RTVSPost2010PropOp35
 70
     1
102
RTVSPost2010Prop36
280
     0
102
RTVSPost2010PropOp36
 70
     1
102
RTVSPost2010Prop37
 90
       50
102
RTVSPost2010PropOp37
 70
     1
102
RTVSPost2010Prop38
140
0.0
102
RTVSPost2010PropOp38
 70
     1
102
RTVSPost2010Prop39
140
1.0
102
RTVSPost2010PropOp39
 70
     1
102
RTVSPost2010Prop40
 90
        0
102
RTVSPost2010PropOp40
 70
     1
102
RTVSPost2010Prop41ColorIndex
 90
       18
102
RTVSPost2010Prop41ColorRGB
 90
        0
102
RTVSPost2010PropOp41
 70
     1
102
RTVSPost2010Prop42
 90
       50
102
RTVSPost2010PropOp42
 70
     1
102
RTVSPost2010Prop43
 90
        3
102
RTVSPost2010PropOp43
 70
     1
102
RTVSPost2010Prop44ColorIndex
 90
        5
102
RTVSPost2010Prop44ColorRGB
 90
      255
102
RTVSPost2010PropOp44
 70
     1
102
RTVSPost2010Prop45
280
     0
102
RTVSPost2010PropOp45
 70
     1
102
RTVSPost2010Prop46
 90
       50
102
RTVSPost2010PropOp46
 70
     1
102
RTVSPost2010Prop47
 90
       50
102
RTVSPost2010PropOp47
 70
     1
102
RTVSPost2010Prop48
 90
       50
102
RTVSPost2010PropOp48
 70
     1
102
RTVSPost2010Prop49
280
     0
102
RTVSPost2010PropOp49
 70
     1
102
RTVSPost2010Prop50
 90
       50
102
RTVSPost2010PropOp50
 70
     1
102
RTVSPost2010Prop51ColorIndex
 90
      256
102
RTVSPost2010Prop51ColorRGB
 90
-16777216
102
RTVSPost2010PropOp51
 70
     0
102
RTVSPost2010Prop52
140
1.0
102
RTVSPost2010PropOp52
 70
     0
102
RTVSPost2010Prop53
 90
        2
102
RTVSPost2010PropOp53
 70
     1
102
RTVSPost2010Prop54
  1
strokes_ogs.tif
102
RTVSPost2010PropOp54
 70
     1
102
RTVSPost2010Prop55
280
     0
102
RTVSPost2010PropOp55
 70
     1
102
RTVSPost2010Prop56
140
1.0
102
RTVSPost2010PropOp56
 70
     1
102
RTVSPost2010Prop57
140
1.0
102
RTVSPost2010PropOp57
 70
     1
102
RTVSPropertyOp0
 70
     1
102
RTVSPropertyOp1
 70
     1
102
RTVSPropertyOp2
 70
     1
102
RTVSPropertyOp3
 70
     1
102
RTVSPropertyOp4
 70
     1
102
RTVSPropertyOp5
 70
     1
102
RTVSPropertyOp6
 70
     1
102
RTVSPropertyOp7
 70
     1
102
RTVSPropertyOp8
 70
     1
102
RTVSPropertyOp9
 70
     1
102
RTVSPropertyOp10
 70
     1
102
RTVSPropertyOp11
 70
     1
102
RTVSPropertyOp12
 70
     1
102
RTVSPropertyOp13
 70
     1
102
RTVSPropertyOp14
 70
     1
102
RTVSPropertyOp15
 70
     1
102
RTVSPropertyOp16
 70
     1
102
RTVSPropertyOp17
 70
     1
102
RTVSPropertyOp18
 70
     1
102
RTVSPropertyOp19
 70
     1
102
RTVSPropertyOp20
 70
     1
102
RTVSPropertyOp21
 70
     1
102
RTVSPropertyOp22
 70
     1
102
RTVSPropertyOp23
 70
     1
102
RTVSPropertyOp24
 70
     1
102
RTVSPropertyOp25
 70
     1
102
RTVSPropertyOp26
 70
     1
102
RTVSPropertyOp27
 70
     1
102
RTVSPropertyOp28
 70
     1
102
RTVSPropertyOp29
 70
     1
102
RTVSPropertyOp30
 70
     1
102
RTVSPropertyOp31
 70
     1
102
RTVSPropertyOp32
 70
     1
102
RTVSPropertyOp33
 70
     1
102
RTVSPropertyOp34
 70
     1
102
RTVSPropertyOp35
 70
     1
102
RTVSPropertyOp36
 70
     1
102
RTVSPropertyOp37
 70
     1
102
RTVSPropertyOp38
 70
     1
102
RTVSPropertyOp39
 70
     1
102
RTVSPropertyOp40
 70
     1
102
RTVSPropertyOp41
 70
     1
102
RTVSPropertyOp42
 70
     1
102
RTVSPropertyOp43
 70
     1
102
RTVSPropertyOp44
 70
     1
102
RTVSPropertyOp45
 70
     1
102
RTVSPropertyOp46
 70
     1
102
RTVSPropertyOp47
 70
     1
102
RTVSPropertyOp48
 70
     1
102
RTVSPropertyOp49
 70
     1
102
RTVSPropertyOp50
 70
     1
102
RTVSPropertyOp51
 70
     0
102
RTVSPropertyOp52
 70
     0
102
RTVSPropertyOp53
 70
     1
102
RTVSPropertyOp54
 70
     1
102
RTVSPropertyOp55
 70
     1
102
RTVSPropertyOp56
 70
     1
102
RTVSPropertyOp57
 70
     1
102
RTVSPropertyOp58
 70
     1
102
RTVSPropertyOp59
 70
     1
102
RTVSPropertyOp60
 70
     1
102
RTVSPropertyOp61
 70
     1
102
RTVSPropertyOp62
 70
     1
  0
XRECORD
  5
10D95
102
{ACAD_REACTORS
330
10D94
102
}
330
10D94
100
AcDbXrecord
280
     1
102
RTVSPost2010Prop28
280
     0
102
RTVSPost2010PropOp28
 70
     1
102
RTVSPost2010Prop29
280
     1
102
RTVSPost2010PropOp29
 70
     1
102
RTVSPost2010Prop30
280
     1
102
RTVSPost2010PropOp30
 70
     1
102
RTVSPost2010Prop31
280
     0
102
RTVSPost2010PropOp31
 70
     1
102
RTVSPost2010Prop32
280
     0
102
RTVSPost2010PropOp32
 70
     1
102
RTVSPost2010Prop33
280
     0
102
RTVSPost2010PropOp33
 70
     1
102
RTVSPost2010Prop34
280
     0
102
RTVSPost2010PropOp34
 70
     1
102
RTVSPost2010Prop35
280
     0
102
RTVSPost2010PropOp35
 70
     1
102
RTVSPost2010Prop36
280
     0
102
RTVSPost2010PropOp36
 70
     1
102
RTVSPost2010Prop37
 90
       50
102
RTVSPost2010PropOp37
 70
     1
102
RTVSPost2010Prop38
140
0.0
102
RTVSPost2010PropOp38
 70
     1
102
RTVSPost2010Prop39
140
1.0
102
RTVSPost2010PropOp39
 70
     1
102
RTVSPost2010Prop40
 90
        0
102
RTVSPost2010PropOp40
 70
     1
102
RTVSPost2010Prop41ColorIndex
 90
       18
102
RTVSPost2010Prop41ColorRGB
 90
        0
102
RTVSPost2010PropOp41
 70
     1
102
RTVSPost2010Prop42
 90
       50
102
RTVSPost2010PropOp42
 70
     1
102
RTVSPost2010Prop43
 90
        3
102
RTVSPost2010PropOp43
 70
     1
102
RTVSPost2010Prop44ColorIndex
 90
        5
102
RTVSPost2010Prop44ColorRGB
 90
      255
102
RTVSPost2010PropOp44
 70
     1
102
RTVSPost2010Prop45
280
     0
102
RTVSPost2010PropOp45
 70
     1
102
RTVSPost2010Prop46
 90
       50
102
RTVSPost2010PropOp46
 70
     1
102
RTVSPost2010Prop47
 90
       50
102
RTVSPost2010PropOp47
 70
     1
102
RTVSPost2010Prop48
 90
       50
102
RTVSPost2010PropOp48
 70
     1
102
RTVSPost2010Prop49
280
     0
102
RTVSPost2010PropOp49
 70
     1
102
RTVSPost2010Prop50
 90
       50
102
RTVSPost2010PropOp50
 70
     1
102
RTVSPost2010Prop51ColorIndex
 90
      256
102
RTVSPost2010Prop51ColorRGB
 90
-16777216
102
RTVSPost2010PropOp51
 70
     0
102
RTVSPost2010Prop52
140
1.0
102
RTVSPost2010PropOp52
 70
     0
102
RTVSPost2010Prop53
 90
        2
102
RTVSPost2010PropOp53
 70
     1
102
RTVSPost2010Prop54
  1
strokes_ogs.tif
102
RTVSPost2010PropOp54
 70
     1
102
RTVSPost2010Prop55
280
     0
102
RTVSPost2010PropOp55
 70
     1
102
RTVSPost2010Prop56
140
1.0
102
RTVSPost2010PropOp56
 70
     1
102
RTVSPost2010Prop57
140
1.0
102
RTVSPost2010PropOp57
 70
     1
102
RTVSPropertyOp0
 70
     0
102
RTVSPropertyOp1
 70
     0
102
RTVSPropertyOp2
 70
     0
102
RTVSPropertyOp3
 70
     0
102
RTVSPropertyOp4
 70
     0
102
RTVSPropertyOp5
 70
     0
102
RTVSPropertyOp6
 70
     0
102
RTVSPropertyOp7
 70
     0
102
RTVSPropertyOp8
 70
     0
102
RTVSPropertyOp9
 70
     0
102
RTVSPropertyOp10
 70
     0
102
RTVSPropertyOp11
 70
     0
102
RTVSPropertyOp12
 70
     0
102
RTVSPropertyOp13
 70
     0
102
RTVSPropertyOp14
 70
     2
102
RTVSPropertyOp15
 70
     0
102
RTVSPropertyOp16
 70
     0
102
RTVSPropertyOp17
 70
     0
102
RTVSPropertyOp18
 70
     0
102
RTVSPropertyOp19
 70
     0
102
RTVSPropertyOp20
 70
     0
102
RTVSPropertyOp21
 70
     0
102
RTVSPropertyOp22
 70
     0
102
RTVSPropertyOp23
 70
     0
102
RTVSPropertyOp24
 70
     0
102
RTVSPropertyOp25
 70
     0
102
RTVSPropertyOp26
 70
     0
102
RTVSPropertyOp27
 70
     0
102
RTVSPropertyOp28
 70
     1
102
RTVSPropertyOp29
 70
     1
102
RTVSPropertyOp30
 70
     1
102
RTVSPropertyOp31
 70
     1
102
RTVSPropertyOp32
 70
     1
102
RTVSPropertyOp33
 70
     1
102
RTVSPropertyOp34
 70
     1
102
RTVSPropertyOp35
 70
     1
102
RTVSPropertyOp36
 70
     1
102
RTVSPropertyOp37
 70
     1
102
RTVSPropertyOp38
 70
     1
102
RTVSPropertyOp39
 70
     1
102
RTVSPropertyOp40
 70
     1
102
RTVSPropertyOp41
 70
     1
102
RTVSPropertyOp42
 70
     1
102
RTVSPropertyOp43
 70
     1
102
RTVSPropertyOp44
 70
     1
102
RTVSPropertyOp45
 70
     1
102
RTVSPropertyOp46
 70
     1
102
RTVSPropertyOp47
 70
     1
102
RTVSPropertyOp48
 70
     1
102
RTVSPropertyOp49
 70
     1
102
RTVSPropertyOp50
 70
     1
102
RTVSPropertyOp51
 70
     0
102
RTVSPropertyOp52
 70
     0
102
RTVSPropertyOp53
 70
     1
102
RTVSPropertyOp54
 70
     1
102
RTVSPropertyOp55
 70
     1
102
RTVSPropertyOp56
 70
     1
102
RTVSPropertyOp57
 70
     1
102
RTVSPropertyOp58
 70
     1
102
RTVSPropertyOp59
 70
     1
102
RTVSPropertyOp60
 70
     1
102
RTVSPropertyOp61
 70
     1
102
RTVSPropertyOp62
 70
     1
  0
XRECORD
  5
10D83
102
{ACAD_REACTORS
330
10D82
102
}
330
10D82
100
AcDbXrecord
280
     1
102
RTVSPost2010Prop28
280
     0
102
RTVSPost2010PropOp28
 70
     1
102
RTVSPost2010Prop29
280
     1
102
RTVSPost2010PropOp29
 70
     1
102
RTVSPost2010Prop30
280
     1
102
RTVSPost2010PropOp30
 70
     1
102
RTVSPost2010Prop31
280
     0
102
RTVSPost2010PropOp31
 70
     1
102
RTVSPost2010Prop32
280
     0
102
RTVSPost2010PropOp32
 70
     1
102
RTVSPost2010Prop33
280
     0
102
RTVSPost2010PropOp33
 70
     1
102
RTVSPost2010Prop34
280
     0
102
RTVSPost2010PropOp34
 70
     1
102
RTVSPost2010Prop35
280
     0
102
RTVSPost2010PropOp35
 70
     1
102
RTVSPost2010Prop36
280
     0
102
RTVSPost2010PropOp36
 70
     1
102
RTVSPost2010Prop37
 90
       50
102
RTVSPost2010PropOp37
 70
     1
102
RTVSPost2010Prop38
140
0.0
102
RTVSPost2010PropOp38
 70
     1
102
RTVSPost2010Prop39
140
1.0
102
RTVSPost2010PropOp39
 70
     1
102
RTVSPost2010Prop40
 90
        0
102
RTVSPost2010PropOp40
 70
     1
102
RTVSPost2010Prop41ColorIndex
 90
       18
102
RTVSPost2010Prop41ColorRGB
 90
        0
102
RTVSPost2010PropOp41
 70
     1
102
RTVSPost2010Prop42
 90
       50
102
RTVSPost2010PropOp42
 70
     1
102
RTVSPost2010Prop43
 90
        3
102
RTVSPost2010PropOp43
 70
     1
102
RTVSPost2010Prop44ColorIndex
 90
        5
102
RTVSPost2010Prop44ColorRGB
 90
      255
102
RTVSPost2010PropOp44
 70
     1
102
RTVSPost2010Prop45
280
     0
102
RTVSPost2010PropOp45
 70
     1
102
RTVSPost2010Prop46
 90
       50
102
RTVSPost2010PropOp46
 70
     1
102
RTVSPost2010Prop47
 90
       50
102
RTVSPost2010PropOp47
 70
     1
102
RTVSPost2010Prop48
 90
       50
102
RTVSPost2010PropOp48
 70
     1
102
RTVSPost2010Prop49
280
     0
102
RTVSPost2010PropOp49
 70
     1
102
RTVSPost2010Prop50
 90
       50
102
RTVSPost2010PropOp50
 70
     1
102
RTVSPost2010Prop51ColorIndex
 90
      256
102
RTVSPost2010Prop51ColorRGB
 90
-16777216
102
RTVSPost2010PropOp51
 70
     0
102
RTVSPost2010Prop52
140
1.0
102
RTVSPost2010PropOp52
 70
     0
102
RTVSPost2010Prop53
 90
        2
102
RTVSPost2010PropOp53
 70
     1
102
RTVSPost2010Prop54
  1
strokes_ogs.tif
102
RTVSPost2010PropOp54
 70
     1
102
RTVSPost2010Prop55
280
     0
102
RTVSPost2010PropOp55
 70
     1
102
RTVSPost2010Prop56
140
1.0
102
RTVSPost2010PropOp56
 70
     1
102
RTVSPost2010Prop57
140
1.0
102
RTVSPost2010PropOp57
 70
     1
102
RTVSPropertyOp0
 70
     1
102
RTVSPropertyOp1
 70
     1
102
RTVSPropertyOp2
 70
     1
102
RTVSPropertyOp3
 70
     1
102
RTVSPropertyOp4
 70
     1
102
RTVSPropertyOp5
 70
     1
102
RTVSPropertyOp6
 70
     1
102
RTVSPropertyOp7
 70
     1
102
RTVSPropertyOp8
 70
     1
102
RTVSPropertyOp9
 70
     1
102
RTVSPropertyOp10
 70
     1
102
RTVSPropertyOp11
 70
     1
102
RTVSPropertyOp12
 70
     1
102
RTVSPropertyOp13
 70
     1
102
RTVSPropertyOp14
 70
     1
102
RTVSPropertyOp15
 70
     1
102
RTVSPropertyOp16
 70
     1
102
RTVSPropertyOp17
 70
     1
102
RTVSPropertyOp18
 70
     1
102
RTVSPropertyOp19
 70
     1
102
RTVSPropertyOp20
 70
     1
102
RTVSPropertyOp21
 70
     1
102
RTVSPropertyOp22
 70
     1
102
RTVSPropertyOp23
 70
     1
102
RTVSPropertyOp24
 70
     1
102
RTVSPropertyOp25
 70
     1
102
RTVSPropertyOp26
 70
     1
102
RTVSPropertyOp27
 70
     1
102
RTVSPropertyOp28
 70
     1
102
RTVSPropertyOp29
 70
     1
102
RTVSPropertyOp30
 70
     1
102
RTVSPropertyOp31
 70
     1
102
RTVSPropertyOp32
 70
     1
102
RTVSPropertyOp33
 70
     1
102
RTVSPropertyOp34
 70
     1
102
RTVSPropertyOp35
 70
     1
102
RTVSPropertyOp36
 70
     1
102
RTVSPropertyOp37
 70
     1
102
RTVSPropertyOp38
 70
     1
102
RTVSPropertyOp39
 70
     1
102
RTVSPropertyOp40
 70
     1
102
RTVSPropertyOp41
 70
     1
102
RTVSPropertyOp42
 70
     1
102
RTVSPropertyOp43
 70
     1
102
RTVSPropertyOp44
 70
     1
102
RTVSPropertyOp45
 70
     1
102
RTVSPropertyOp46
 70
     1
102
RTVSPropertyOp47
 70
     1
102
RTVSPropertyOp48
 70
     1
102
RTVSPropertyOp49
 70
     1
102
RTVSPropertyOp50
 70
     1
102
RTVSPropertyOp51
 70
     0
102
RTVSPropertyOp52
 70
     0
102
RTVSPropertyOp53
 70
     1
102
RTVSPropertyOp54
 70
     1
102
RTVSPropertyOp55
 70
     1
102
RTVSPropertyOp56
 70
     1
102
RTVSPropertyOp57
 70
     1
102
RTVSPropertyOp58
 70
     1
102
RTVSPropertyOp59
 70
     1
102
RTVSPropertyOp60
 70
     1
102
RTVSPropertyOp61
 70
     1
102
RTVSPropertyOp62
 70
     1
  0
XRECORD
  5
10DA1
102
{ACAD_REACTORS
330
10DA0
102
}
330
10DA0
100
AcDbXrecord
280
     1
102
RTVSPost2010Prop28
280
     0
102
RTVSPost2010PropOp28
 70
     1
102
RTVSPost2010Prop29
280
     1
102
RTVSPost2010PropOp29
 70
     1
102
RTVSPost2010Prop30
280
     1
102
RTVSPost2010PropOp30
 70
     1
102
RTVSPost2010Prop31
280
     0
102
RTVSPost2010PropOp31
 70
     1
102
RTVSPost2010Prop32
280
     0
102
RTVSPost2010PropOp32
 70
     1
102
RTVSPost2010Prop33
280
     0
102
RTVSPost2010PropOp33
 70
     1
102
RTVSPost2010Prop34
280
     0
102
RTVSPost2010PropOp34
 70
     1
102
RTVSPost2010Prop35
280
     0
102
RTVSPost2010PropOp35
 70
     1
102
RTVSPost2010Prop36
280
     0
102
RTVSPost2010PropOp36
 70
     1
102
RTVSPost2010Prop37
 90
       50
102
RTVSPost2010PropOp37
 70
     1
102
RTVSPost2010Prop38
140
0.0
102
RTVSPost2010PropOp38
 70
     1
102
RTVSPost2010Prop39
140
1.0
102
RTVSPost2010PropOp39
 70
     1
102
RTVSPost2010Prop40
 90
        0
102
RTVSPost2010PropOp40
 70
     1
102
RTVSPost2010Prop41ColorIndex
 90
       18
102
RTVSPost2010Prop41ColorRGB
 90
        0
102
RTVSPost2010PropOp41
 70
     1
102
RTVSPost2010Prop42
 90
       50
102
RTVSPost2010PropOp42
 70
     1
102
RTVSPost2010Prop43
 90
        3
102
RTVSPost2010PropOp43
 70
     1
102
RTVSPost2010Prop44ColorIndex
 90
        5
102
RTVSPost2010Prop44ColorRGB
 90
      255
102
RTVSPost2010PropOp44
 70
     1
102
RTVSPost2010Prop45
280
     0
102
RTVSPost2010PropOp45
 70
     1
102
RTVSPost2010Prop46
 90
       50
102
RTVSPost2010PropOp46
 70
     1
102
RTVSPost2010Prop47
 90
       50
102
RTVSPost2010PropOp47
 70
     1
102
RTVSPost2010Prop48
 90
       50
102
RTVSPost2010PropOp48
 70
     1
102
RTVSPost2010Prop49
280
     0
102
RTVSPost2010PropOp49
 70
     1
102
RTVSPost2010Prop50
 90
       50
102
RTVSPost2010PropOp50
 70
     1
102
RTVSPost2010Prop51ColorIndex
 90
      256
102
RTVSPost2010Prop51ColorRGB
 90
-16777216
102
RTVSPost2010PropOp51
 70
     0
102
RTVSPost2010Prop52
140
1.0
102
RTVSPost2010PropOp52
 70
     0
102
RTVSPost2010Prop53
 90
        2
102
RTVSPost2010PropOp53
 70
     1
102
RTVSPost2010Prop54
  1
strokes_ogs.tif
102
RTVSPost2010PropOp54
 70
     1
102
RTVSPost2010Prop55
280
     0
102
RTVSPost2010PropOp55
 70
     1
102
RTVSPost2010Prop56
140
1.0
102
RTVSPost2010PropOp56
 70
     1
102
RTVSPost2010Prop57
140
1.0
102
RTVSPost2010PropOp57
 70
     1
102
RTVSPropertyOp0
 70
     1
102
RTVSPropertyOp1
 70
     1
102
RTVSPropertyOp2
 70
     1
102
RTVSPropertyOp3
 70
     1
102
RTVSPropertyOp4
 70
     1
102
RTVSPropertyOp5
 70
     1
102
RTVSPropertyOp6
 70
     1
102
RTVSPropertyOp7
 70
     1
102
RTVSPropertyOp8
 70
     1
102
RTVSPropertyOp9
 70
     1
102
RTVSPropertyOp10
 70
     1
102
RTVSPropertyOp11
 70
     1
102
RTVSPropertyOp12
 70
     1
102
RTVSPropertyOp13
 70
     1
102
RTVSPropertyOp14
 70
     1
102
RTVSPropertyOp15
 70
     1
102
RTVSPropertyOp16
 70
     1
102
RTVSPropertyOp17
 70
     1
102
RTVSPropertyOp18
 70
     1
102
RTVSPropertyOp19
 70
     1
102
RTVSPropertyOp20
 70
     1
102
RTVSPropertyOp21
 70
     1
102
RTVSPropertyOp22
 70
     1
102
RTVSPropertyOp23
 70
     1
102
RTVSPropertyOp24
 70
     1
102
RTVSPropertyOp25
 70
     1
102
RTVSPropertyOp26
 70
     1
102
RTVSPropertyOp27
 70
     1
102
RTVSPropertyOp28
 70
     1
102
RTVSPropertyOp29
 70
     1
102
RTVSPropertyOp30
 70
     1
102
RTVSPropertyOp31
 70
     1
102
RTVSPropertyOp32
 70
     1
102
RTVSPropertyOp33
 70
     1
102
RTVSPropertyOp34
 70
     1
102
RTVSPropertyOp35
 70
     1
102
RTVSPropertyOp36
 70
     1
102
RTVSPropertyOp37
 70
     1
102
RTVSPropertyOp38
 70
     1
102
RTVSPropertyOp39
 70
     1
102
RTVSPropertyOp40
 70
     1
102
RTVSPropertyOp41
 70
     1
102
RTVSPropertyOp42
 70
     1
102
RTVSPropertyOp43
 70
     1
102
RTVSPropertyOp44
 70
     1
102
RTVSPropertyOp45
 70
     1
102
RTVSPropertyOp46
 70
     1
102
RTVSPropertyOp47
 70
     1
102
RTVSPropertyOp48
 70
     1
102
RTVSPropertyOp49
 70
     1
102
RTVSPropertyOp50
 70
     1
102
RTVSPropertyOp51
 70
     0
102
RTVSPropertyOp52
 70
     0
102
RTVSPropertyOp53
 70
     1
102
RTVSPropertyOp54
 70
     1
102
RTVSPropertyOp55
 70
     1
102
RTVSPropertyOp56
 70
     1
102
RTVSPropertyOp57
 70
     1
102
RTVSPropertyOp58
 70
     1
102
RTVSPropertyOp59
 70
     1
102
RTVSPropertyOp60
 70
     1
102
RTVSPropertyOp61
 70
     1
102
RTVSPropertyOp62
 70
     1
  0
XRECORD
  5
10D9F
102
{ACAD_REACTORS
330
10D9E
102
}
330
10D9E
100
AcDbXrecord
280
     1
102
RTVSPost2010Prop28
280
     0
102
RTVSPost2010PropOp28
 70
     1
102
RTVSPost2010Prop29
280
     1
102
RTVSPost2010PropOp29
 70
     1
102
RTVSPost2010Prop30
280
     1
102
RTVSPost2010PropOp30
 70
     1
102
RTVSPost2010Prop31
280
     0
102
RTVSPost2010PropOp31
 70
     1
102
RTVSPost2010Prop32
280
     0
102
RTVSPost2010PropOp32
 70
     1
102
RTVSPost2010Prop33
280
     0
102
RTVSPost2010PropOp33
 70
     1
102
RTVSPost2010Prop34
280
     0
102
RTVSPost2010PropOp34
 70
     1
102
RTVSPost2010Prop35
280
     0
102
RTVSPost2010PropOp35
 70
     1
102
RTVSPost2010Prop36
280
     0
102
RTVSPost2010PropOp36
 70
     1
102
RTVSPost2010Prop37
 90
       50
102
RTVSPost2010PropOp37
 70
     1
102
RTVSPost2010Prop38
140
0.0
102
RTVSPost2010PropOp38
 70
     1
102
RTVSPost2010Prop39
140
1.0
102
RTVSPost2010PropOp39
 70
     1
102
RTVSPost2010Prop40
 90
        0
102
RTVSPost2010PropOp40
 70
     1
102
RTVSPost2010Prop41ColorIndex
 90
       18
102
RTVSPost2010Prop41ColorRGB
 90
        0
102
RTVSPost2010PropOp41
 70
     1
102
RTVSPost2010Prop42
 90
       50
102
RTVSPost2010PropOp42
 70
     1
102
RTVSPost2010Prop43
 90
        3
102
RTVSPost2010PropOp43
 70
     1
102
RTVSPost2010Prop44ColorIndex
 90
        5
102
RTVSPost2010Prop44ColorRGB
 90
      255
102
RTVSPost2010PropOp44
 70
     1
102
RTVSPost2010Prop45
280
     0
102
RTVSPost2010PropOp45
 70
     1
102
RTVSPost2010Prop46
 90
       50
102
RTVSPost2010PropOp46
 70
     1
102
RTVSPost2010Prop47
 90
       50
102
RTVSPost2010PropOp47
 70
     1
102
RTVSPost2010Prop48
 90
       50
102
RTVSPost2010PropOp48
 70
     1
102
RTVSPost2010Prop49
280
     0
102
RTVSPost2010PropOp49
 70
     1
102
RTVSPost2010Prop50
 90
       50
102
RTVSPost2010PropOp50
 70
     1
102
RTVSPost2010Prop51ColorIndex
 90
      256
102
RTVSPost2010Prop51ColorRGB
 90
-16777216
102
RTVSPost2010PropOp51
 70
     0
102
RTVSPost2010Prop52
140
1.0
102
RTVSPost2010PropOp52
 70
     0
102
RTVSPost2010Prop53
 90
        2
102
RTVSPost2010PropOp53
 70
     1
102
RTVSPost2010Prop54
  1
strokes_ogs.tif
102
RTVSPost2010PropOp54
 70
     1
102
RTVSPost2010Prop55
280
     0
102
RTVSPost2010PropOp55
 70
     1
102
RTVSPost2010Prop56
140
1.0
102
RTVSPost2010PropOp56
 70
     1
102
RTVSPost2010Prop57
140
1.0
102
RTVSPost2010PropOp57
 70
     1
102
RTVSPropertyOp0
 70
     1
102
RTVSPropertyOp1
 70
     1
102
RTVSPropertyOp2
 70
     1
102
RTVSPropertyOp3
 70
     1
102
RTVSPropertyOp4
 70
     1
102
RTVSPropertyOp5
 70
     1
102
RTVSPropertyOp6
 70
     1
102
RTVSPropertyOp7
 70
     1
102
RTVSPropertyOp8
 70
     1
102
RTVSPropertyOp9
 70
     1
102
RTVSPropertyOp10
 70
     1
102
RTVSPropertyOp11
 70
     1
102
RTVSPropertyOp12
 70
     1
102
RTVSPropertyOp13
 70
     1
102
RTVSPropertyOp14
 70
     1
102
RTVSPropertyOp15
 70
     1
102
RTVSPropertyOp16
 70
     1
102
RTVSPropertyOp17
 70
     1
102
RTVSPropertyOp18
 70
     1
102
RTVSPropertyOp19
 70
     1
102
RTVSPropertyOp20
 70
     1
102
RTVSPropertyOp21
 70
     1
102
RTVSPropertyOp22
 70
     1
102
RTVSPropertyOp23
 70
     1
102
RTVSPropertyOp24
 70
     1
102
RTVSPropertyOp25
 70
     1
102
RTVSPropertyOp26
 70
     1
102
RTVSPropertyOp27
 70
     1
102
RTVSPropertyOp28
 70
     1
102
RTVSPropertyOp29
 70
     1
102
RTVSPropertyOp30
 70
     1
102
RTVSPropertyOp31
 70
     1
102
RTVSPropertyOp32
 70
     1
102
RTVSPropertyOp33
 70
     1
102
RTVSPropertyOp34
 70
     1
102
RTVSPropertyOp35
 70
     1
102
RTVSPropertyOp36
 70
     1
102
RTVSPropertyOp37
 70
     1
102
RTVSPropertyOp38
 70
     1
102
RTVSPropertyOp39
 70
     1
102
RTVSPropertyOp40
 70
     1
102
RTVSPropertyOp41
 70
     1
102
RTVSPropertyOp42
 70
     1
102
RTVSPropertyOp43
 70
     1
102
RTVSPropertyOp44
 70
     1
102
RTVSPropertyOp45
 70
     1
102
RTVSPropertyOp46
 70
     1
102
RTVSPropertyOp47
 70
     1
102
RTVSPropertyOp48
 70
     1
102
RTVSPropertyOp49
 70
     1
102
RTVSPropertyOp50
 70
     1
102
RTVSPropertyOp51
 70
     0
102
RTVSPropertyOp52
 70
     0
102
RTVSPropertyOp53
 70
     1
102
RTVSPropertyOp54
 70
     1
102
RTVSPropertyOp55
 70
     1
102
RTVSPropertyOp56
 70
     1
102
RTVSPropertyOp57
 70
     1
102
RTVSPropertyOp58
 70
     1
102
RTVSPropertyOp59
 70
     1
102
RTVSPropertyOp60
 70
     1
102
RTVSPropertyOp61
 70
     1
102
RTVSPropertyOp62
 70
     1
  0
XRECORD
  5
10D99
102
{ACAD_REACTORS
330
10D98
102
}
330
10D98
100
AcDbXrecord
280
     1
102
RTVSPost2010Prop28
280
     0
102
RTVSPost2010PropOp28
 70
     1
102
RTVSPost2010Prop29
280
     1
102
RTVSPost2010PropOp29
 70
     1
102
RTVSPost2010Prop30
280
     1
102
RTVSPost2010PropOp30
 70
     1
102
RTVSPost2010Prop31
280
     0
102
RTVSPost2010PropOp31
 70
     1
102
RTVSPost2010Prop32
280
     0
102
RTVSPost2010PropOp32
 70
     1
102
RTVSPost2010Prop33
280
     0
102
RTVSPost2010PropOp33
 70
     1
102
RTVSPost2010Prop34
280
     0
102
RTVSPost2010PropOp34
 70
     1
102
RTVSPost2010Prop35
280
     0
102
RTVSPost2010PropOp35
 70
     1
102
RTVSPost2010Prop36
280
     0
102
RTVSPost2010PropOp36
 70
     1
102
RTVSPost2010Prop37
 90
       50
102
RTVSPost2010PropOp37
 70
     1
102
RTVSPost2010Prop38
140
0.0
102
RTVSPost2010PropOp38
 70
     1
102
RTVSPost2010Prop39
140
1.0
102
RTVSPost2010PropOp39
 70
     1
102
RTVSPost2010Prop40
 90
        0
102
RTVSPost2010PropOp40
 70
     1
102
RTVSPost2010Prop41ColorIndex
 90
       18
102
RTVSPost2010Prop41ColorRGB
 90
        0
102
RTVSPost2010PropOp41
 70
     1
102
RTVSPost2010Prop42
 90
       50
102
RTVSPost2010PropOp42
 70
     1
102
RTVSPost2010Prop43
 90
        3
102
RTVSPost2010PropOp43
 70
     1
102
RTVSPost2010Prop44ColorIndex
 90
        5
102
RTVSPost2010Prop44ColorRGB
 90
      255
102
RTVSPost2010PropOp44
 70
     1
102
RTVSPost2010Prop45
280
     0
102
RTVSPost2010PropOp45
 70
     1
102
RTVSPost2010Prop46
 90
       50
102
RTVSPost2010PropOp46
 70
     1
102
RTVSPost2010Prop47
 90
       50
102
RTVSPost2010PropOp47
 70
     1
102
RTVSPost2010Prop48
 90
       50
102
RTVSPost2010PropOp48
 70
     1
102
RTVSPost2010Prop49
280
     0
102
RTVSPost2010PropOp49
 70
     1
102
RTVSPost2010Prop50
 90
       50
102
RTVSPost2010PropOp50
 70
     1
102
RTVSPost2010Prop51ColorIndex
 90
      256
102
RTVSPost2010Prop51ColorRGB
 90
-16777216
102
RTVSPost2010PropOp51
 70
     0
102
RTVSPost2010Prop52
140
1.0
102
RTVSPost2010PropOp52
 70
     0
102
RTVSPost2010Prop53
 90
        2
102
RTVSPost2010PropOp53
 70
     1
102
RTVSPost2010Prop54
  1
strokes_ogs.tif
102
RTVSPost2010PropOp54
 70
     1
102
RTVSPost2010Prop55
280
     0
102
RTVSPost2010PropOp55
 70
     1
102
RTVSPost2010Prop56
140
1.0
102
RTVSPost2010PropOp56
 70
     1
102
RTVSPost2010Prop57
140
1.0
102
RTVSPost2010PropOp57
 70
     1
102
RTVSPropertyOp0
 70
     1
102
RTVSPropertyOp1
 70
     1
102
RTVSPropertyOp2
 70
     1
102
RTVSPropertyOp3
 70
     1
102
RTVSPropertyOp4
 70
     1
102
RTVSPropertyOp5
 70
     1
102
RTVSPropertyOp6
 70
     1
102
RTVSPropertyOp7
 70
     1
102
RTVSPropertyOp8
 70
     1
102
RTVSPropertyOp9
 70
     1
102
RTVSPropertyOp10
 70
     1
102
RTVSPropertyOp11
 70
     1
102
RTVSPropertyOp12
 70
     1
102
RTVSPropertyOp13
 70
     1
102
RTVSPropertyOp14
 70
     1
102
RTVSPropertyOp15
 70
     1
102
RTVSPropertyOp16
 70
     1
102
RTVSPropertyOp17
 70
     1
102
RTVSPropertyOp18
 70
     1
102
RTVSPropertyOp19
 70
     1
102
RTVSPropertyOp20
 70
     1
102
RTVSPropertyOp21
 70
     1
102
RTVSPropertyOp22
 70
     1
102
RTVSPropertyOp23
 70
     1
102
RTVSPropertyOp24
 70
     1
102
RTVSPropertyOp25
 70
     1
102
RTVSPropertyOp26
 70
     1
102
RTVSPropertyOp27
 70
     1
102
RTVSPropertyOp28
 70
     1
102
RTVSPropertyOp29
 70
     1
102
RTVSPropertyOp30
 70
     1
102
RTVSPropertyOp31
 70
     1
102
RTVSPropertyOp32
 70
     1
102
RTVSPropertyOp33
 70
     1
102
RTVSPropertyOp34
 70
     1
102
RTVSPropertyOp35
 70
     1
102
RTVSPropertyOp36
 70
     1
102
RTVSPropertyOp37
 70
     1
102
RTVSPropertyOp38
 70
     1
102
RTVSPropertyOp39
 70
     1
102
RTVSPropertyOp40
 70
     1
102
RTVSPropertyOp41
 70
     1
102
RTVSPropertyOp42
 70
     1
102
RTVSPropertyOp43
 70
     1
102
RTVSPropertyOp44
 70
     1
102
RTVSPropertyOp45
 70
     1
102
RTVSPropertyOp46
 70
     1
102
RTVSPropertyOp47
 70
     1
102
RTVSPropertyOp48
 70
     1
102
RTVSPropertyOp49
 70
     1
102
RTVSPropertyOp50
 70
     1
102
RTVSPropertyOp51
 70
     0
102
RTVSPropertyOp52
 70
     0
102
RTVSPropertyOp53
 70
     1
102
RTVSPropertyOp54
 70
     1
102
RTVSPropertyOp55
 70
     1
102
RTVSPropertyOp56
 70
     1
102
RTVSPropertyOp57
 70
     1
102
RTVSPropertyOp58
 70
     1
102
RTVSPropertyOp59
 70
     1
102
RTVSPropertyOp60
 70
     1
102
RTVSPropertyOp61
 70
     1
102
RTVSPropertyOp62
 70
     1
  0
XRECORD
  5
10D9B
102
{ACAD_REACTORS
330
10D9A
102
}
330
10D9A
100
AcDbXrecord
280
     1
102
RTVSPost2010Prop28
280
     0
102
RTVSPost2010PropOp28
 70
     1
102
RTVSPost2010Prop29
280
     1
102
RTVSPost2010PropOp29
 70
     1
102
RTVSPost2010Prop30
280
     1
102
RTVSPost2010PropOp30
 70
     1
102
RTVSPost2010Prop31
280
     0
102
RTVSPost2010PropOp31
 70
     1
102
RTVSPost2010Prop32
280
     0
102
RTVSPost2010PropOp32
 70
     1
102
RTVSPost2010Prop33
280
     0
102
RTVSPost2010PropOp33
 70
     1
102
RTVSPost2010Prop34
280
     0
102
RTVSPost2010PropOp34
 70
     1
102
RTVSPost2010Prop35
280
     0
102
RTVSPost2010PropOp35
 70
     1
102
RTVSPost2010Prop36
280
     0
102
RTVSPost2010PropOp36
 70
     1
102
RTVSPost2010Prop37
 90
       50
102
RTVSPost2010PropOp37
 70
     1
102
RTVSPost2010Prop38
140
0.0
102
RTVSPost2010PropOp38
 70
     1
102
RTVSPost2010Prop39
140
1.0
102
RTVSPost2010PropOp39
 70
     1
102
RTVSPost2010Prop40
 90
        0
102
RTVSPost2010PropOp40
 70
     1
102
RTVSPost2010Prop41ColorIndex
 90
       18
102
RTVSPost2010Prop41ColorRGB
 90
        0
102
RTVSPost2010PropOp41
 70
     1
102
RTVSPost2010Prop42
 90
       50
102
RTVSPost2010PropOp42
 70
     1
102
RTVSPost2010Prop43
 90
        3
102
RTVSPost2010PropOp43
 70
     1
102
RTVSPost2010Prop44ColorIndex
 90
        5
102
RTVSPost2010Prop44ColorRGB
 90
      255
102
RTVSPost2010PropOp44
 70
     1
102
RTVSPost2010Prop45
280
     0
102
RTVSPost2010PropOp45
 70
     1
102
RTVSPost2010Prop46
 90
       50
102
RTVSPost2010PropOp46
 70
     1
102
RTVSPost2010Prop47
 90
       50
102
RTVSPost2010PropOp47
 70
     1
102
RTVSPost2010Prop48
 90
       50
102
RTVSPost2010PropOp48
 70
     1
102
RTVSPost2010Prop49
280
     0
102
RTVSPost2010PropOp49
 70
     1
102
RTVSPost2010Prop50
 90
       50
102
RTVSPost2010PropOp50
 70
     1
102
RTVSPost2010Prop51ColorIndex
 90
      256
102
RTVSPost2010Prop51ColorRGB
 90
-16777216
102
RTVSPost2010PropOp51
 70
     0
102
RTVSPost2010Prop52
140
1.0
102
RTVSPost2010PropOp52
 70
     0
102
RTVSPost2010Prop53
 90
        2
102
RTVSPost2010PropOp53
 70
     1
102
RTVSPost2010Prop54
  1
strokes_ogs.tif
102
RTVSPost2010PropOp54
 70
     1
102
RTVSPost2010Prop55
280
     0
102
RTVSPost2010PropOp55
 70
     1
102
RTVSPost2010Prop56
140
1.0
102
RTVSPost2010PropOp56
 70
     1
102
RTVSPost2010Prop57
140
1.0
102
RTVSPost2010PropOp57
 70
     1
102
RTVSPropertyOp0
 70
     1
102
RTVSPropertyOp1
 70
     1
102
RTVSPropertyOp2
 70
     1
102
RTVSPropertyOp3
 70
     1
102
RTVSPropertyOp4
 70
     1
102
RTVSPropertyOp5
 70
     1
102
RTVSPropertyOp6
 70
     1
102
RTVSPropertyOp7
 70
     1
102
RTVSPropertyOp8
 70
     1
102
RTVSPropertyOp9
 70
     1
102
RTVSPropertyOp10
 70
     1
102
RTVSPropertyOp11
 70
     1
102
RTVSPropertyOp12
 70
     1
102
RTVSPropertyOp13
 70
     1
102
RTVSPropertyOp14
 70
     1
102
RTVSPropertyOp15
 70
     1
102
RTVSPropertyOp16
 70
     1
102
RTVSPropertyOp17
 70
     1
102
RTVSPropertyOp18
 70
     1
102
RTVSPropertyOp19
 70
     1
102
RTVSPropertyOp20
 70
     1
102
RTVSPropertyOp21
 70
     1
102
RTVSPropertyOp22
 70
     1
102
RTVSPropertyOp23
 70
     1
102
RTVSPropertyOp24
 70
     1
102
RTVSPropertyOp25
 70
     1
102
RTVSPropertyOp26
 70
     1
102
RTVSPropertyOp27
 70
     1
102
RTVSPropertyOp28
 70
     1
102
RTVSPropertyOp29
 70
     1
102
RTVSPropertyOp30
 70
     1
102
RTVSPropertyOp31
 70
     1
102
RTVSPropertyOp32
 70
     1
102
RTVSPropertyOp33
 70
     1
102
RTVSPropertyOp34
 70
     1
102
RTVSPropertyOp35
 70
     1
102
RTVSPropertyOp36
 70
     1
102
RTVSPropertyOp37
 70
     1
102
RTVSPropertyOp38
 70
     1
102
RTVSPropertyOp39
 70
     1
102
RTVSPropertyOp40
 70
     1
102
RTVSPropertyOp41
 70
     1
102
RTVSPropertyOp42
 70
     1
102
RTVSPropertyOp43
 70
     1
102
RTVSPropertyOp44
 70
     1
102
RTVSPropertyOp45
 70
     1
102
RTVSPropertyOp46
 70
     1
102
RTVSPropertyOp47
 70
     1
102
RTVSPropertyOp48
 70
     1
102
RTVSPropertyOp49
 70
     1
102
RTVSPropertyOp50
 70
     1
102
RTVSPropertyOp51
 70
     0
102
RTVSPropertyOp52
 70
     0
102
RTVSPropertyOp53
 70
     1
102
RTVSPropertyOp54
 70
     1
102
RTVSPropertyOp55
 70
     1
102
RTVSPropertyOp56
 70
     1
102
RTVSPropertyOp57
 70
     1
102
RTVSPropertyOp58
 70
     1
102
RTVSPropertyOp59
 70
     1
102
RTVSPropertyOp60
 70
     1
102
RTVSPropertyOp61
 70
     1
102
RTVSPropertyOp62
 70
     1
  0
XRECORD
  5
10D89
102
{ACAD_REACTORS
330
10D88
102
}
330
10D88
100
AcDbXrecord
280
     1
102
RTVSPost2010Prop28
280
     0
102
RTVSPost2010PropOp28
 70
     1
102
RTVSPost2010Prop29
280
     1
102
RTVSPost2010PropOp29
 70
     1
102
RTVSPost2010Prop30
280
     1
102
RTVSPost2010PropOp30
 70
     1
102
RTVSPost2010Prop31
280
     0
102
RTVSPost2010PropOp31
 70
     1
102
RTVSPost2010Prop32
280
     0
102
RTVSPost2010PropOp32
 70
     1
102
RTVSPost2010Prop33
280
     0
102
RTVSPost2010PropOp33
 70
     1
102
RTVSPost2010Prop34
280
     0
102
RTVSPost2010PropOp34
 70
     1
102
RTVSPost2010Prop35
280
     0
102
RTVSPost2010PropOp35
 70
     1
102
RTVSPost2010Prop36
280
     0
102
RTVSPost2010PropOp36
 70
     1
102
RTVSPost2010Prop37
 90
       50
102
RTVSPost2010PropOp37
 70
     1
102
RTVSPost2010Prop38
140
0.0
102
RTVSPost2010PropOp38
 70
     1
102
RTVSPost2010Prop39
140
1.0
102
RTVSPost2010PropOp39
 70
     1
102
RTVSPost2010Prop40
 90
        0
102
RTVSPost2010PropOp40
 70
     1
102
RTVSPost2010Prop41ColorIndex
 90
       18
102
RTVSPost2010Prop41ColorRGB
 90
        0
102
RTVSPost2010PropOp41
 70
     1
102
RTVSPost2010Prop42
 90
       50
102
RTVSPost2010PropOp42
 70
     1
102
RTVSPost2010Prop43
 90
        3
102
RTVSPost2010PropOp43
 70
     1
102
RTVSPost2010Prop44ColorIndex
 90
        5
102
RTVSPost2010Prop44ColorRGB
 90
      255
102
RTVSPost2010PropOp44
 70
     1
102
RTVSPost2010Prop45
280
     0
102
RTVSPost2010PropOp45
 70
     1
102
RTVSPost2010Prop46
 90
       50
102
RTVSPost2010PropOp46
 70
     1
102
RTVSPost2010Prop47
 90
       50
102
RTVSPost2010PropOp47
 70
     1
102
RTVSPost2010Prop48
 90
       50
102
RTVSPost2010PropOp48
 70
     1
102
RTVSPost2010Prop49
280
     0
102
RTVSPost2010PropOp49
 70
     1
102
RTVSPost2010Prop50
 90
       50
102
RTVSPost2010PropOp50
 70
     1
102
RTVSPost2010Prop51ColorIndex
 90
      256
102
RTVSPost2010Prop51ColorRGB
 90
-16777216
102
RTVSPost2010PropOp51
 70
     0
102
RTVSPost2010Prop52
140
1.0
102
RTVSPost2010PropOp52
 70
     0
102
RTVSPost2010Prop53
 90
        2
102
RTVSPost2010PropOp53
 70
     1
102
RTVSPost2010Prop54
  1
strokes_ogs.tif
102
RTVSPost2010PropOp54
 70
     1
102
RTVSPost2010Prop55
280
     0
102
RTVSPost2010PropOp55
 70
     1
102
RTVSPost2010Prop56
140
1.0
102
RTVSPost2010PropOp56
 70
     1
102
RTVSPost2010Prop57
140
1.0
102
RTVSPost2010PropOp57
 70
     1
102
RTVSPropertyOp0
 70
     1
102
RTVSPropertyOp1
 70
     1
102
RTVSPropertyOp2
 70
     1
102
RTVSPropertyOp3
 70
     1
102
RTVSPropertyOp4
 70
     1
102
RTVSPropertyOp5
 70
     1
102
RTVSPropertyOp6
 70
     1
102
RTVSPropertyOp7
 70
     1
102
RTVSPropertyOp8
 70
     1
102
RTVSPropertyOp9
 70
     1
102
RTVSPropertyOp10
 70
     1
102
RTVSPropertyOp11
 70
     1
102
RTVSPropertyOp12
 70
     1
102
RTVSPropertyOp13
 70
     1
102
RTVSPropertyOp14
 70
     1
102
RTVSPropertyOp15
 70
     1
102
RTVSPropertyOp16
 70
     1
102
RTVSPropertyOp17
 70
     1
102
RTVSPropertyOp18
 70
     1
102
RTVSPropertyOp19
 70
     1
102
RTVSPropertyOp20
 70
     1
102
RTVSPropertyOp21
 70
     1
102
RTVSPropertyOp22
 70
     1
102
RTVSPropertyOp23
 70
     1
102
RTVSPropertyOp24
 70
     1
102
RTVSPropertyOp25
 70
     1
102
RTVSPropertyOp26
 70
     1
102
RTVSPropertyOp27
 70
     1
102
RTVSPropertyOp28
 70
     1
102
RTVSPropertyOp29
 70
     1
102
RTVSPropertyOp30
 70
     1
102
RTVSPropertyOp31
 70
     1
102
RTVSPropertyOp32
 70
     1
102
RTVSPropertyOp33
 70
     1
102
RTVSPropertyOp34
 70
     1
102
RTVSPropertyOp35
 70
     1
102
RTVSPropertyOp36
 70
     1
102
RTVSPropertyOp37
 70
     1
102
RTVSPropertyOp38
 70
     1
102
RTVSPropertyOp39
 70
     1
102
RTVSPropertyOp40
 70
     1
102
RTVSPropertyOp41
 70
     1
102
RTVSPropertyOp42
 70
     1
102
RTVSPropertyOp43
 70
     1
102
RTVSPropertyOp44
 70
     1
102
RTVSPropertyOp45
 70
     1
102
RTVSPropertyOp46
 70
     1
102
RTVSPropertyOp47
 70
     1
102
RTVSPropertyOp48
 70
     1
102
RTVSPropertyOp49
 70
     1
102
RTVSPropertyOp50
 70
     1
102
RTVSPropertyOp51
 70
     0
102
RTVSPropertyOp52
 70
     0
102
RTVSPropertyOp53
 70
     1
102
RTVSPropertyOp54
 70
     1
102
RTVSPropertyOp55
 70
     1
102
RTVSPropertyOp56
 70
     1
102
RTVSPropertyOp57
 70
     1
102
RTVSPropertyOp58
 70
     1
102
RTVSPropertyOp59
 70
     1
102
RTVSPropertyOp60
 70
     1
102
RTVSPropertyOp61
 70
     1
102
RTVSPropertyOp62
 70
     1
  0
XRECORD
  5
10D7D
102
{ACAD_REACTORS
330
10D7C
102
}
330
10D7C
100
AcDbXrecord
280
     1
102
RTVSPost2010Prop28
280
     0
102
RTVSPost2010PropOp28
 70
     1
102
RTVSPost2010Prop29
280
     1
102
RTVSPost2010PropOp29
 70
     1
102
RTVSPost2010Prop30
280
     1
102
RTVSPost2010PropOp30
 70
     1
102
RTVSPost2010Prop31
280
     0
102
RTVSPost2010PropOp31
 70
     1
102
RTVSPost2010Prop32
280
     0
102
RTVSPost2010PropOp32
 70
     1
102
RTVSPost2010Prop33
280
     0
102
RTVSPost2010PropOp33
 70
     1
102
RTVSPost2010Prop34
280
     0
102
RTVSPost2010PropOp34
 70
     1
102
RTVSPost2010Prop35
280
     0
102
RTVSPost2010PropOp35
 70
     1
102
RTVSPost2010Prop36
280
     0
102
RTVSPost2010PropOp36
 70
     1
102
RTVSPost2010Prop37
 90
       50
102
RTVSPost2010PropOp37
 70
     1
102
RTVSPost2010Prop38
140
0.0
102
RTVSPost2010PropOp38
 70
     1
102
RTVSPost2010Prop39
140
1.0
102
RTVSPost2010PropOp39
 70
     1
102
RTVSPost2010Prop40
 90
        0
102
RTVSPost2010PropOp40
 70
     1
102
RTVSPost2010Prop41ColorIndex
 90
       18
102
RTVSPost2010Prop41ColorRGB
 90
        0
102
RTVSPost2010PropOp41
 70
     1
102
RTVSPost2010Prop42
 90
       50
102
RTVSPost2010PropOp42
 70
     1
102
RTVSPost2010Prop43
 90
        3
102
RTVSPost2010PropOp43
 70
     1
102
RTVSPost2010Prop44ColorIndex
 90
        5
102
RTVSPost2010Prop44ColorRGB
 90
      255
102
RTVSPost2010PropOp44
 70
     1
102
RTVSPost2010Prop45
280
     0
102
RTVSPost2010PropOp45
 70
     1
102
RTVSPost2010Prop46
 90
       50
102
RTVSPost2010PropOp46
 70
     1
102
RTVSPost2010Prop47
 90
       50
102
RTVSPost2010PropOp47
 70
     1
102
RTVSPost2010Prop48
 90
       50
102
RTVSPost2010PropOp48
 70
     1
102
RTVSPost2010Prop49
280
     0
102
RTVSPost2010PropOp49
 70
     1
102
RTVSPost2010Prop50
 90
       50
102
RTVSPost2010PropOp50
 70
     1
102
RTVSPost2010Prop51ColorIndex
 90
      256
102
RTVSPost2010Prop51ColorRGB
 90
-16777216
102
RTVSPost2010PropOp51
 70
     0
102
RTVSPost2010Prop52
140
1.0
102
RTVSPost2010PropOp52
 70
     0
102
RTVSPost2010Prop53
 90
        2
102
RTVSPost2010PropOp53
 70
     1
102
RTVSPost2010Prop54
  1
strokes_ogs.tif
102
RTVSPost2010PropOp54
 70
     1
102
RTVSPost2010Prop55
280
     0
102
RTVSPost2010PropOp55
 70
     1
102
RTVSPost2010Prop56
140
1.0
102
RTVSPost2010PropOp56
 70
     1
102
RTVSPost2010Prop57
140
1.0
102
RTVSPost2010PropOp57
 70
     1
102
RTVSPropertyOp0
 70
     1
102
RTVSPropertyOp1
 70
     1
102
RTVSPropertyOp2
 70
     1
102
RTVSPropertyOp3
 70
     1
102
RTVSPropertyOp4
 70
     1
102
RTVSPropertyOp5
 70
     1
102
RTVSPropertyOp6
 70
     1
102
RTVSPropertyOp7
 70
     1
102
RTVSPropertyOp8
 70
     1
102
RTVSPropertyOp9
 70
     1
102
RTVSPropertyOp10
 70
     1
102
RTVSPropertyOp11
 70
     1
102
RTVSPropertyOp12
 70
     1
102
RTVSPropertyOp13
 70
     1
102
RTVSPropertyOp14
 70
     1
102
RTVSPropertyOp15
 70
     1
102
RTVSPropertyOp16
 70
     1
102
RTVSPropertyOp17
 70
     1
102
RTVSPropertyOp18
 70
     1
102
RTVSPropertyOp19
 70
     1
102
RTVSPropertyOp20
 70
     1
102
RTVSPropertyOp21
 70
     1
102
RTVSPropertyOp22
 70
     1
102
RTVSPropertyOp23
 70
     1
102
RTVSPropertyOp24
 70
     1
102
RTVSPropertyOp25
 70
     1
102
RTVSPropertyOp26
 70
     1
102
RTVSPropertyOp27
 70
     1
102
RTVSPropertyOp28
 70
     1
102
RTVSPropertyOp29
 70
     1
102
RTVSPropertyOp30
 70
     1
102
RTVSPropertyOp31
 70
     1
102
RTVSPropertyOp32
 70
     1
102
RTVSPropertyOp33
 70
     1
102
RTVSPropertyOp34
 70
     1
102
RTVSPropertyOp35
 70
     1
102
RTVSPropertyOp36
 70
     1
102
RTVSPropertyOp37
 70
     1
102
RTVSPropertyOp38
 70
     1
102
RTVSPropertyOp39
 70
     1
102
RTVSPropertyOp40
 70
     1
102
RTVSPropertyOp41
 70
     1
102
RTVSPropertyOp42
 70
     1
102
RTVSPropertyOp43
 70
     1
102
RTVSPropertyOp44
 70
     1
102
RTVSPropertyOp45
 70
     1
102
RTVSPropertyOp46
 70
     1
102
RTVSPropertyOp47
 70
     1
102
RTVSPropertyOp48
 70
     1
102
RTVSPropertyOp49
 70
     1
102
RTVSPropertyOp50
 70
     1
102
RTVSPropertyOp51
 70
     0
102
RTVSPropertyOp52
 70
     0
102
RTVSPropertyOp53
 70
     1
102
RTVSPropertyOp54
 70
     1
102
RTVSPropertyOp55
 70
     1
102
RTVSPropertyOp56
 70
     1
102
RTVSPropertyOp57
 70
     1
102
RTVSPropertyOp58
 70
     1
102
RTVSPropertyOp59
 70
     1
102
RTVSPropertyOp60
 70
     1
102
RTVSPropertyOp61
 70
     1
102
RTVSPropertyOp62
 70
     1
  0
XRECORD
  5
10D9D
102
{ACAD_REACTORS
330
10D9C
102
}
330
10D9C
100
AcDbXrecord
280
     1
102
RTVSPost2010Prop28
280
     0
102
RTVSPost2010PropOp28
 70
     1
102
RTVSPost2010Prop29
280
     1
102
RTVSPost2010PropOp29
 70
     1
102
RTVSPost2010Prop30
280
     1
102
RTVSPost2010PropOp30
 70
     1
102
RTVSPost2010Prop31
280
     0
102
RTVSPost2010PropOp31
 70
     1
102
RTVSPost2010Prop32
280
     0
102
RTVSPost2010PropOp32
 70
     1
102
RTVSPost2010Prop33
280
     0
102
RTVSPost2010PropOp33
 70
     1
102
RTVSPost2010Prop34
280
     0
102
RTVSPost2010PropOp34
 70
     1
102
RTVSPost2010Prop35
280
     0
102
RTVSPost2010PropOp35
 70
     1
102
RTVSPost2010Prop36
280
     0
102
RTVSPost2010PropOp36
 70
     1
102
RTVSPost2010Prop37
 90
       50
102
RTVSPost2010PropOp37
 70
     1
102
RTVSPost2010Prop38
140
0.0
102
RTVSPost2010PropOp38
 70
     1
102
RTVSPost2010Prop39
140
1.0
102
RTVSPost2010PropOp39
 70
     1
102
RTVSPost2010Prop40
 90
        0
102
RTVSPost2010PropOp40
 70
     1
102
RTVSPost2010Prop41ColorIndex
 90
       18
102
RTVSPost2010Prop41ColorRGB
 90
        0
102
RTVSPost2010PropOp41
 70
     1
102
RTVSPost2010Prop42
 90
       50
102
RTVSPost2010PropOp42
 70
     1
102
RTVSPost2010Prop43
 90
        3
102
RTVSPost2010PropOp43
 70
     1
102
RTVSPost2010Prop44ColorIndex
 90
        5
102
RTVSPost2010Prop44ColorRGB
 90
      255
102
RTVSPost2010PropOp44
 70
     1
102
RTVSPost2010Prop45
280
     0
102
RTVSPost2010PropOp45
 70
     1
102
RTVSPost2010Prop46
 90
       50
102
RTVSPost2010PropOp46
 70
     1
102
RTVSPost2010Prop47
 90
       50
102
RTVSPost2010PropOp47
 70
     1
102
RTVSPost2010Prop48
 90
       50
102
RTVSPost2010PropOp48
 70
     1
102
RTVSPost2010Prop49
280
     0
102
RTVSPost2010PropOp49
 70
     1
102
RTVSPost2010Prop50
 90
       50
102
RTVSPost2010PropOp50
 70
     1
102
RTVSPost2010Prop51ColorIndex
 90
      256
102
RTVSPost2010Prop51ColorRGB
 90
-16777216
102
RTVSPost2010PropOp51
 70
     0
102
RTVSPost2010Prop52
140
1.0
102
RTVSPost2010PropOp52
 70
     0
102
RTVSPost2010Prop53
 90
        2
102
RTVSPost2010PropOp53
 70
     1
102
RTVSPost2010Prop54
  1
strokes_ogs.tif
102
RTVSPost2010PropOp54
 70
     1
102
RTVSPost2010Prop55
280
     0
102
RTVSPost2010PropOp55
 70
     1
102
RTVSPost2010Prop56
140
1.0
102
RTVSPost2010PropOp56
 70
     1
102
RTVSPost2010Prop57
140
1.0
102
RTVSPost2010PropOp57
 70
     1
102
RTVSPropertyOp0
 70
     1
102
RTVSPropertyOp1
 70
     1
102
RTVSPropertyOp2
 70
     1
102
RTVSPropertyOp3
 70
     1
102
RTVSPropertyOp4
 70
     1
102
RTVSPropertyOp5
 70
     1
102
RTVSPropertyOp6
 70
     1
102
RTVSPropertyOp7
 70
     1
102
RTVSPropertyOp8
 70
     1
102
RTVSPropertyOp9
 70
     1
102
RTVSPropertyOp10
 70
     1
102
RTVSPropertyOp11
 70
     1
102
RTVSPropertyOp12
 70
     1
102
RTVSPropertyOp13
 70
     1
102
RTVSPropertyOp14
 70
     1
102
RTVSPropertyOp15
 70
     1
102
RTVSPropertyOp16
 70
     1
102
RTVSPropertyOp17
 70
     1
102
RTVSPropertyOp18
 70
     1
102
RTVSPropertyOp19
 70
     1
102
RTVSPropertyOp20
 70
     1
102
RTVSPropertyOp21
 70
     1
102
RTVSPropertyOp22
 70
     1
102
RTVSPropertyOp23
 70
     1
102
RTVSPropertyOp24
 70
     1
102
RTVSPropertyOp25
 70
     1
102
RTVSPropertyOp26
 70
     1
102
RTVSPropertyOp27
 70
     1
102
RTVSPropertyOp28
 70
     1
102
RTVSPropertyOp29
 70
     1
102
RTVSPropertyOp30
 70
     1
102
RTVSPropertyOp31
 70
     1
102
RTVSPropertyOp32
 70
     1
102
RTVSPropertyOp33
 70
     1
102
RTVSPropertyOp34
 70
     1
102
RTVSPropertyOp35
 70
     1
102
RTVSPropertyOp36
 70
     1
102
RTVSPropertyOp37
 70
     1
102
RTVSPropertyOp38
 70
     1
102
RTVSPropertyOp39
 70
     1
102
RTVSPropertyOp40
 70
     1
102
RTVSPropertyOp41
 70
     1
102
RTVSPropertyOp42
 70
     1
102
RTVSPropertyOp43
 70
     1
102
RTVSPropertyOp44
 70
     1
102
RTVSPropertyOp45
 70
     1
102
RTVSPropertyOp46
 70
     1
102
RTVSPropertyOp47
 70
     1
102
RTVSPropertyOp48
 70
     1
102
RTVSPropertyOp49
 70
     1
102
RTVSPropertyOp50
 70
     1
102
RTVSPropertyOp51
 70
     0
102
RTVSPropertyOp52
 70
     0
102
RTVSPropertyOp53
 70
     1
102
RTVSPropertyOp54
 70
     1
102
RTVSPropertyOp55
 70
     1
102
RTVSPropertyOp56
 70
     1
102
RTVSPropertyOp57
 70
     1
102
RTVSPropertyOp58
 70
     1
102
RTVSPropertyOp59
 70
     1
102
RTVSPropertyOp60
 70
     1
102
RTVSPropertyOp61
 70
     1
102
RTVSPropertyOp62
 70
     1
  0
ENDSEC
  0
EOF
