  0
SECTION
  2
HEADER
  9
$ACADVER
  1
AC1015
  9
$ACADMAINTVER
 70
    18
  9
$DWGCODEPAGE
  3
ANSI_1252
  9
$INSBASE
 10
0.0
 20
0.0
 30
0.0
  9
$EXTMIN
 10
-147.9574576904501
 20
-153.6844477295927
 30
-0.0015258207003583
  9
$EXTMAX
 10
187.153015843538
 20
173.9690557240614
 30
0.0000000349246037
  9
$LIMMIN
 10
0.0
 20
0.0
  9
$LIMMAX
 10
420.0
 20
297.0
  9
$ORTHOMODE
 70
     0
  9
$REGENMODE
 70
     1
  9
$FILLMODE
 70
     1
  9
$QTEXTMODE
 70
     0
  9
$MIRRTEXT
 70
     0
  9
$LTSCALE
 40
1.0
  9
$ATTMODE
 70
     1
  9
$TEXTSIZE
 40
2.5
  9
$TRACEWID
 40
1.0
  9
$TEXTSTYLE
  7
Standard
  9
$CLAYER
  8
0
  9
$CELTYPE
  6
ByLayer
  9
$CECOLOR
 62
   256
  9
$CELTSCALE
 40
1.0
  9
$DISPSILH
 70
     0
  9
$DIMSCALE
 40
1.0
  9
$DIMASZ
 40
2.5
  9
$DIMEXO
 40
0.625
  9
$DIMDLI
 40
3.75
  9
$DIMRND
 40
0.0
  9
$DIMDLE
 40
0.0
  9
$DIMEXE
 40
1.25
  9
$DIMTP
 40
0.0
  9
$DIMTM
 40
0.0
  9
$DIMTXT
 40
2.5
  9
$DIMCEN
 40
2.5
  9
$DIMTSZ
 40
0.0
  9
$DIMTOL
 70
     0
  9
$DIMLIM
 70
     0
  9
$DIMTIH
 70
     0
  9
$DIMTOH
 70
     0
  9
$DIMSE1
 70
     0
  9
$DIMSE2
 70
     0
  9
$DIMTAD
 70
     1
  9
$DIMZIN
 70
     8
  9
$DIMBLK
  1

  9
$DIMASO
 70
     1
  9
$DIMSHO
 70
     1
  9
$DIMPOST
  1

  9
$DIMAPOST
  1

  9
$DIMALT
 70
     0
  9
$DIMALTD
 70
     3
  9
$DIMALTF
 40
0.03937007874016
  9
$DIMLFAC
 40
1.0
  9
$DIMTOFL
 70
     1
  9
$DIMTVP
 40
0.0
  9
$DIMTIX
 70
     0
  9
$DIMSOXD
 70
     0
  9
$DIMSAH
 70
     0
  9
$DIMBLK1
  1

  9
$DIMBLK2
  1

  9
$DIMSTYLE
  2
ISO-25
  9
$DIMCLRD
 70
     0
  9
$DIMCLRE
 70
     0
  9
$DIMCLRT
 70
     0
  9
$DIMTFAC
 40
1.0
  9
$DIMGAP
 40
0.625
  9
$DIMJUST
 70
     0
  9
$DIMSD1
 70
     0
  9
$DIMSD2
 70
     0
  9
$DIMTOLJ
 70
     0
  9
$DIMTZIN
 70
     8
  9
$DIMALTZ
 70
     0
  9
$DIMALTTZ
 70
     0
  9
$DIMUPT
 70
     0
  9
$DIMDEC
 70
     2
  9
$DIMTDEC
 70
     2
  9
$DIMALTU
 70
     2
  9
$DIMALTTD
 70
     3
  9
$DIMTXSTY
  7
Standard
  9
$DIMAUNIT
 70
     0
  9
$DIMADEC
 70
     0
  9
$DIMALTRND
 40
0.0
  9
$DIMAZIN
 70
     0
  9
$DIMDSEP
 70
    44
  9
$DIMATFIT
 70
     3
  9
$DIMFRAC
 70
     0
  9
$DIMLDRBLK
  1

  9
$DIMLUNIT
 70
     2
  9
$DIMLWD
 70
    -2
  9
$DIMLWE
 70
    -2
  9
$DIMTMOVE
 70
     0
  9
$LUNITS
 70
     2
  9
$LUPREC
 70
     4
  9
$SKETCHINC
 40
1.0
  9
$FILLETRAD
 40
0.0
  9
$AUNITS
 70
     0
  9
$AUPREC
 70
     0
  9
$MENU
  1
.
  9
$ELEVATION
 40
0.0
  9
$PELEVATION
 40
0.0
  9
$THICKNESS
 40
0.0
  9
$LIMCHECK
 70
     0
  9
$CHAMFERA
 40
0.0
  9
$CHAMFERB
 40
0.0
  9
$CHAMFERC
 40
0.0
  9
$CHAMFERD
 40
0.0
  9
$SKPOLY
 70
     0
  9
$TDCREATE
 40
2460286.622500000
  9
$TDUCREATE
 40
2460286.330833334
  9
$TDUPDATE
 40
2460287.382083334
  9
$TDUUPDATE
 40
2460287.090416667
  9
$TDINDWG
 40
0.0050347222
  9
$TDUSRTIMER
 40
0.0050347222
  9
$USRTIMER
 70
     1
  9
$ANGBASE
 50
0.0
  9
$ANGDIR
 70
     0
  9
$PDMODE
 70
     0
  9
$PDSIZE
 40
0.0
  9
$PLINEWID
 40
0.0
  9
$SPLFRAME
 70
     0
  9
$SPLINETYPE
 70
     6
  9
$SPLINESEGS
 70
     8
  9
$HANDSEED
  5
11B5B
  9
$SURFTAB1
 70
     6
  9
$SURFTAB2
 70
     6
  9
$SURFTYPE
 70
     6
  9
$SURFU
 70
     6
  9
$SURFV
 70
     6
  9
$UCSBASE
  2

  9
$UCSNAME
  2

  9
$UCSORG
 10
0.0
 20
0.0
 30
0.0
  9
$UCSXDIR
 10
1.0
 20
0.0
 30
0.0
  9
$UCSYDIR
 10
0.0
 20
1.0
 30
0.0
  9
$UCSORTHOREF
  2

  9
$UCSORTHOVIEW
 70
     0
  9
$UCSORGTOP
 10
0.0
 20
0.0
 30
0.0
  9
$UCSORGBOTTOM
 10
0.0
 20
0.0
 30
0.0
  9
$UCSORGLEFT
 10
0.0
 20
0.0
 30
0.0
  9
$UCSORGRIGHT
 10
0.0
 20
0.0
 30
0.0
  9
$UCSORGFRONT
 10
0.0
 20
0.0
 30
0.0
  9
$UCSORGBACK
 10
0.0
 20
0.0
 30
0.0
  9
$PUCSBASE
  2

  9
$PUCSNAME
  2

  9
$PUCSORG
 10
0.0
 20
0.0
 30
0.0
  9
$PUCSXDIR
 10
1.0
 20
0.0
 30
0.0
  9
$PUCSYDIR
 10
0.0
 20
1.0
 30
0.0
  9
$PUCSORTHOREF
  2

  9
$PUCSORTHOVIEW
 70
     0
  9
$PUCSORGTOP
 10
0.0
 20
0.0
 30
0.0
  9
$PUCSORGBOTTOM
 10
0.0
 20
0.0
 30
0.0
  9
$PUCSORGLEFT
 10
0.0
 20
0.0
 30
0.0
  9
$PUCSORGRIGHT
 10
0.0
 20
0.0
 30
0.0
  9
$PUCSORGFRONT
 10
0.0
 20
0.0
 30
0.0
  9
$PUCSORGBACK
 10
0.0
 20
0.0
 30
0.0
  9
$USERI1
 70
     0
  9
$USERI2
 70
     0
  9
$USERI3
 70
     0
  9
$USERI4
 70
     0
  9
$USERI5
 70
     0
  9
$USERR1
 40
0.0
  9
$USERR2
 40
0.0
  9
$USERR3
 40
0.0
  9
$USERR4
 40
0.0
  9
$USERR5
 40
0.0
  9
$WORLDVIEW
 70
     1
  9
$SHADEDGE
 70
     3
  9
$SHADEDIF
 70
    70
  9
$TILEMODE
 70
     1
  9
$MAXACTVP
 70
    48
  9
$PINSBASE
 10
0.0
 20
0.0
 30
0.0
  9
$PLIMCHECK
 70
     0
  9
$PEXTMIN
 10
0.0
 20
0.0
 30
0.0
  9
$PEXTMAX
 10
0.0
 20
0.0
 30
0.0
  9
$PLIMMIN
 10
0.0
 20
0.0
  9
$PLIMMAX
 10
12.0
 20
9.0
  9
$UNITMODE
 70
     0
  9
$VISRETAIN
 70
     1
  9
$PLINEGEN
 70
     0
  9
$PSLTSCALE
 70
     1
  9
$TREEDEPTH
 70
  3020
  9
$CMLSTYLE
  2
Standard
  9
$CMLJUST
 70
     0
  9
$CMLSCALE
 40
20.0
  9
$PROXYGRAPHICS
 70
     1
  9
$MEASUREMENT
 70
     1
  9
$CELWEIGHT
370
    -1
  9
$ENDCAPS
280
     0
  9
$JOINSTYLE
280
     0
  9
$LWDISPLAY
290
     0
  9
$INSUNITS
 70
     4
  9
$HYPERLINKBASE
  1

  9
$STYLESHEET
  1

  9
$XEDIT
290
     1
  9
$CEPSNTYPE
380
     0
  9
$PSTYLEMODE
290
     1
  9
$FINGERPRINTGUID
  2
{F076C30E-3F10-754B-AD36-B589FE558AAC}
  9
$VERSIONGUID
  2
{7875B663-253F-5E4F-B341-B51FAE238C0F}
  9
$EXTNAMES
290
     1
  9
$PSVPSCALE
 40
0.0
  9
$OLESTARTUP
290
     0
  0
ENDSEC
  0
SECTION
  2
CLASSES
  0
CLASS
  1
ACDBDICTIONARYWDFLT
  2
AcDbDictionaryWithDefault
  3
ObjectDBX Classes
 90
        0
280
     0
281
     0
  0
CLASS
  1
ACDBPLACEHOLDER
  2
AcDbPlaceHolder
  3
ObjectDBX Classes
 90
        0
280
     0
281
     0
  0
CLASS
  1
LAYOUT
  2
AcDbLayout
  3
ObjectDBX Classes
 90
        0
280
     0
281
     0
  0
CLASS
  1
DICTIONARYVAR
  2
AcDbDictionaryVar
  3
ObjectDBX Classes
 90
        0
280
     0
281
     0
  0
CLASS
  1
TABLESTYLE
  2
AcDbTableStyle
  3
ObjectDBX Classes
 90
     4095
280
     0
281
     0
  0
CLASS
  1
MATERIAL
  2
AcDbMaterial
  3
ObjectDBX Classes
 90
     1153
280
     0
281
     0
  0
CLASS
  1
VISUALSTYLE
  2
AcDbVisualStyle
  3
ObjectDBX Classes
 90
     4095
280
     0
281
     0
  0
CLASS
  1
SCALE
  2
AcDbScale
  3
ObjectDBX Classes
 90
     1153
280
     0
281
     0
  0
CLASS
  1
MLEADERSTYLE
  2
AcDbMLeaderStyle
  3
ACDB_MLEADERSTYLE_CLASS
 90
     4095
280
     0
281
     0
  0
CLASS
  1
CELLSTYLEMAP
  2
AcDbCellStyleMap
  3
ObjectDBX Classes
 90
     1152
280
     0
281
     0
  0
CLASS
  1
EXACXREFPANELOBJECT
  2
ExAcXREFPanelObject
  3
EXAC_ESW
 90
    33793
280
     0
281
     0
  0
CLASS
  1
NPOCOLLECTION
  2
AcDbImpNonPersistentObjectsCollection
  3
ObjectDBX Classes
 90
    33921
280
     0
281
     0
  0
CLASS
  1
LAYER_INDEX
  2
AcDbLayerIndex
  3
ObjectDBX Classes
 90
    32768
280
     0
281
     0
  0
CLASS
  1
SPATIAL_INDEX
  2
AcDbSpatialIndex
  3
ObjectDBX Classes
 90
    32768
280
     0
281
     0
  0
CLASS
  1
IDBUFFER
  2
AcDbIdBuffer
  3
ObjectDBX Classes
 90
    32768
280
     0
281
     0
  0
CLASS
  1
ACDBSECTIONVIEWSTYLE
  2
AcDbSectionViewStyle
  3
ObjectDBX Classes
 90
     1025
280
     0
281
     0
  0
CLASS
  1
ACDBDETAILVIEWSTYLE
  2
AcDbDetailViewStyle
  3
ObjectDBX Classes
 90
     1025
280
     0
281
     0
  0
CLASS
  1
XRECORD
  2
AcDbXrecord
  3
ObjectDBX Classes
 90
        0
280
     0
281
     0
  0
ENDSEC
  0
SECTION
  2
TABLES
  0
TABLE
  2
VPORT
  5
8
102
{ACAD_XDICTIONARY
360
11A69
102
}
330
0
100
AcDbSymbolTable
 70
     1
  0
VPORT
  5
EA
330
8
100
AcDbSymbolTableRecord
100
AcDbViewportTableRecord
  2
*Active
 70
     0
 10
0.0
 20
0.0
 11
1.0
 21
1.0
 12
19.59777907654393
 22
10.14230399723433
 13
0.0
 23
0.0
 14
10.0
 24
10.0
 15
10.0
 25
10.0
 16
0.0
 26
0.0
 36
1.0
 17
0.0
 27
0.0
 37
0.0
 40
361.9850542548714
 41
0.9846153846153846
 42
50.0
 43
0.0
 44
0.0
 50
0.0
 51
0.0
 71
     0
 72
  1000
 73
     1
 74
     3
 75
     0
 76
     1
 77
     0
 78
     0
281
     0
 65
     1
110
0.0
120
0.0
130
0.0
111
1.0
121
0.0
131
0.0
112
0.0
122
1.0
132
0.0
 79
     0
146
0.0
1001
ACAD_NAV_VCDISPLAY
1070
     3
  0
ENDTAB
  0
TABLE
  2
LTYPE
  5
5
330
0
100
AcDbSymbolTable
 70
     1
  0
LTYPE
  5
14
330
5
100
AcDbSymbolTableRecord
100
AcDbLinetypeTableRecord
  2
ByBlock
 70
     0
  3

 72
    65
 73
     0
 40
0.0
  0
LTYPE
  5
15
330
5
100
AcDbSymbolTableRecord
100
AcDbLinetypeTableRecord
  2
ByLayer
 70
     0
  3

 72
    65
 73
     0
 40
0.0
  0
LTYPE
  5
16
330
5
100
AcDbSymbolTableRecord
100
AcDbLinetypeTableRecord
  2
Continuous
 70
     0
  3
Solid line
 72
    65
 73
     0
 40
0.0
  0
ENDTAB
  0
TABLE
  2
LAYER
  5
2
102
{ACAD_XDICTIONARY
360
1FF
102
}
330
0
100
AcDbSymbolTable
 70
     1
  0
LAYER
  5
10
102
{ACAD_XDICTIONARY
360
13C
102
}
330
2
100
AcDbSymbolTableRecord
100
AcDbLayerTableRecord
  2
0
 70
     0
 62
     7
  6
Continuous
370
    -3
390
F
  0
ENDTAB
  0
TABLE
  2
STYLE
  5
3
330
0
100
AcDbSymbolTable
 70
     1
  0
STYLE
  5
11
330
3
100
AcDbSymbolTableRecord
100
AcDbTextStyleTableRecord
  2
Standard
 70
     0
 40
0.0
 41
1.0
 50
0.0
 71
     0
 42
2.5
  3
arial.ttf
  4

1001
ACAD
1000
Arial
1071
       34
  0
ENDTAB
  0
TABLE
  2
VIEW
  5
6
330
0
100
AcDbSymbolTable
 70
     0
  0
ENDTAB
  0
TABLE
  2
UCS
  5
7
330
0
100
AcDbSymbolTable
 70
     0
  0
ENDTAB
  0
TABLE
  2
APPID
  5
9
330
0
100
AcDbSymbolTable
 70
     8
  0
APPID
  5
12
330
9
100
AcDbSymbolTableRecord
100
AcDbRegAppTableRecord
  2
ACAD
 70
     0
  0
APPID
  5
9E
330
9
100
AcDbSymbolTableRecord
100
AcDbRegAppTableRecord
  2
ACAD_PSEXT
 70
     0
  0
APPID
  5
133
330
9
100
AcDbSymbolTableRecord
100
AcDbRegAppTableRecord
  2
AcadAnnoPO
 70
     0
  0
APPID
  5
134
330
9
100
AcDbSymbolTableRecord
100
AcDbRegAppTableRecord
  2
AcadAnnotative
 70
     0
  0
APPID
  5
135
330
9
100
AcDbSymbolTableRecord
100
AcDbRegAppTableRecord
  2
ACAD_DSTYLE_DIMJAG
 70
     0
  0
APPID
  5
136
330
9
100
AcDbSymbolTableRecord
100
AcDbRegAppTableRecord
  2
ACAD_DSTYLE_DIMTALN
 70
     0
  0
APPID
  5
165
330
9
100
AcDbSymbolTableRecord
100
AcDbRegAppTableRecord
  2
ACAD_MLEADERVER
 70
     0
  0
APPID
  5
217
330
9
100
AcDbSymbolTableRecord
100
AcDbRegAppTableRecord
  2
ACAD_NAV_VCDISPLAY
 70
     0
  0
ENDTAB
  0
TABLE
  2
DIMSTYLE
  5
A
330
0
100
AcDbSymbolTable
 70
     1
100
AcDbDimStyleTable
 71
     0
  0
DIMSTYLE
105
27
330
A
100
AcDbSymbolTableRecord
100
AcDbDimStyleTableRecord
  2
ISO-25
 70
     0
 41
2.5
 42
0.625
 43
3.75
 44
1.25
 73
     0
 74
     0
 77
     1
 78
     8
140
2.5
141
2.5
143
0.03937007874016
147
0.625
171
     3
172
     1
271
     2
272
     2
274
     3
278
    44
283
     0
284
     8
340
11
  0
ENDTAB
  0
TABLE
  2
BLOCK_RECORD
  5
1
330
0
100
AcDbSymbolTable
 70
     7
  0
BLOCK_RECORD
  5
1F
102
{ACAD_XDICTIONARY
360
1CE
102
}
330
1
100
AcDbSymbolTableRecord
100
AcDbBlockTableRecord
  2
*Model_Space
340
22
  0
BLOCK_RECORD
  5
D2
102
{ACAD_XDICTIONARY
360
11A1C
102
}
330
1
100
AcDbSymbolTableRecord
100
AcDbBlockTableRecord
  2
*Paper_Space
340
D3
  0
BLOCK_RECORD
  5
D6
102
{ACAD_XDICTIONARY
360
11A1E
102
}
330
1
100
AcDbSymbolTableRecord
100
AcDbBlockTableRecord
  2
*Paper_Space0
340
D7
  0
BLOCK_RECORD
  5
117A8
330
1
100
AcDbSymbolTableRecord
100
AcDbBlockTableRecord
  2
SBE60_85-Front
340
0
102
{BLKREFS
331
11A12
102
}
  0
BLOCK_RECORD
  5
11814
330
1
100
AcDbSymbolTableRecord
100
AcDbBlockTableRecord
  2
SBE60_85-Left
340
0
102
{BLKREFS
331
11A13
102
}
  0
BLOCK_RECORD
  5
1184A
330
1
100
AcDbSymbolTableRecord
100
AcDbBlockTableRecord
  2
SBE60_85-Right
340
0
102
{BLKREFS
331
11A14
102
}
  0
BLOCK_RECORD
  5
11880
330
1
100
AcDbSymbolTableRecord
100
AcDbBlockTableRecord
  2
SBE60_85-Top
340
0
102
{BLKREFS
331
11A15
102
}
  0
BLOCK_RECORD
  5
118E0
330
1
100
AcDbSymbolTableRecord
100
AcDbBlockTableRecord
  2
SBE60_85-Bottom
340
0
102
{BLKREFS
331
11A16
102
}
  0
BLOCK_RECORD
  5
11915
330
1
100
AcDbSymbolTableRecord
100
AcDbBlockTableRecord
  2
SBE60_85-ISO
340
0
102
{BLKREFS
331
11A17
102
}
  0
ENDTAB
  0
ENDSEC
  0
SECTION
  2
BLOCKS
  0
BLOCK
  5
20
330
1F
100
AcDbEntity
  8
0
100
AcDbBlockBegin
  2
*Model_Space
 70
     0
 10
0.0
 20
0.0
 30
0.0
  3
*Model_Space
  1

  0
ENDBLK
  5
21
330
1F
100
AcDbEntity
  8
0
100
AcDbBlockEnd
  0
BLOCK
  5
D4
330
D2
100
AcDbEntity
 67
     1
  8
0
100
AcDbBlockBegin
  2
*Paper_Space
 70
     0
 10
0.0
 20
0.0
 30
0.0
  3
*Paper_Space
  1

  0
ENDBLK
  5
D5
330
D2
100
AcDbEntity
 67
     1
  8
0
100
AcDbBlockEnd
  0
BLOCK
  5
D8
330
D6
100
AcDbEntity
 67
     1
  8
0
100
AcDbBlockBegin
  2
*Paper_Space0
 70
     0
 10
0.0
 20
0.0
 30
0.0
  3
*Paper_Space0
  1

  0
ENDBLK
  5
D9
330
D6
100
AcDbEntity
 67
     1
  8
0
100
AcDbBlockEnd
  0
BLOCK
  5
117A9
330
117A8
100
AcDbEntity
  8
0
100
AcDbBlockBegin
  2
SBE60_85-Front
 70
     0
 10
0.0
 20
0.0
 30
0.0
  3
SBE60_85-Front
  1

  0
LINE
  5
117AB
330
117A8
100
AcDbEntity
  8
0
100
AcDbLine
 10
-31.50000000000002
 20
85.0
 30
0.0
 11
-33.00000000000002
 21
85.0
 31
0.0
  0
LINE
  5
117AC
330
117A8
100
AcDbEntity
  8
0
100
AcDbLine
 10
31.49999999999984
 20
85.00000000000003
 30
0.0
 11
32.99999999999985
 21
85.00000000000003
 31
0.0
  0
LINE
  5
117AD
330
117A8
100
AcDbEntity
  8
0
100
AcDbLine
 10
-31.5
 20
15.00610095525753
 30
0.0
 11
-31.5
 21
1.500000000000003
 31
0.0
  0
LINE
  5
117AE
330
117A8
100
AcDbEntity
  8
0
100
AcDbLine
 10
-30.0
 20
15.00610095525753
 30
0.0
 11
-30.0
 21
1.500000000000003
 31
0.0
  0
LINE
  5
117AF
330
117A8
100
AcDbEntity
  8
0
100
AcDbLine
 10
30.0
 20
1.500000000000012
 30
0.0
 11
29.99999999999998
 21
15.00610095525753
 31
0.0
  0
LINE
  5
117B0
330
117A8
100
AcDbEntity
  8
0
100
AcDbLine
 10
31.5
 20
1.500000000000021
 30
0.0
 11
31.49999999999998
 21
15.00610095525753
 31
0.0
  0
LINE
  5
117B1
330
117A8
100
AcDbEntity
  8
0
100
AcDbLine
 10
-28.5
 20
-1.500000000000003
 30
0.0
 11
28.50000000000001
 21
-1.499999999999994
 31
0.0
  0
LINE
  5
117B2
330
117A8
100
AcDbEntity
  8
0
100
AcDbLine
 10
-28.49999999999999
 20
0.0
 30
0.0
 11
28.50000000000001
 21
0.0
 31
0.0
  0
LINE
  5
117B3
330
117A8
100
AcDbEntity
  8
0
100
AcDbLine
 10
-31.5
 20
15.00610095525753
 30
0.0
 11
-31.5
 21
23.24206230927725
 31
0.0
  0
LINE
  5
117B4
330
117A8
100
AcDbEntity
  8
0
100
AcDbLine
 10
-31.5
 20
33.19051317993775
 30
0.0
 11
-31.50000000000002
 21
79.00000000000002
 31
0.0
  0
LINE
  5
117B5
330
117A8
100
AcDbEntity
  8
0
100
AcDbLine
 10
-30.00000000000002
 20
79.00000000000002
 30
0.0
 11
-30.0
 21
33.19051317993775
 31
0.0
  0
LINE
  5
117B6
330
117A8
100
AcDbEntity
  8
0
100
AcDbLine
 10
-30.0
 20
23.24206230927725
 30
0.0
 11
-30.0
 21
15.00610095525753
 31
0.0
  0
LINE
  5
117B7
330
117A8
100
AcDbEntity
  8
0
100
AcDbLine
 10
29.99999999999998
 20
15.00610095525753
 30
0.0
 11
29.99999999999996
 21
23.24206230927725
 31
0.0
  0
LINE
  5
117B8
330
117A8
100
AcDbEntity
  8
0
100
AcDbLine
 10
29.99999999999995
 20
33.19051317993775
 30
0.0
 11
29.99999999999986
 21
79.00000000000003
 31
0.0
  0
LINE
  5
117B9
330
117A8
100
AcDbEntity
  8
0
100
AcDbLine
 10
31.49999999999986
 20
79.00000000000004
 30
0.0
 11
31.49999999999995
 21
33.19051317993775
 31
0.0
  0
LINE
  5
117BA
330
117A8
100
AcDbEntity
  8
0
100
AcDbLine
 10
31.49999999999996
 20
23.24206230927725
 30
0.0
 11
31.49999999999998
 21
15.00610095525753
 31
0.0
  0
LINE
  5
117BB
330
117A8
100
AcDbEntity
  8
0
100
AcDbLine
 10
31.49999999999998
 20
15.00610095525753
 30
0.0
 11
29.99999999999998
 21
15.00610095525753
 31
0.0
  0
LINE
  5
117BC
330
117A8
100
AcDbEntity
  8
0
100
AcDbLine
 10
-30.0
 20
15.00610095525753
 30
0.0
 11
-31.5
 21
15.00610095525753
 31
0.0
  0
LINE
  5
117BD
330
117A8
100
AcDbEntity
  8
0
100
AcDbLine
 10
-31.49999999999999
 20
33.19051317993775
 30
0.0
 11
-31.49999999999999
 21
23.24206230927725
 31
0.0
  0
LINE
  5
117BE
330
117A8
100
AcDbEntity
  8
0
100
AcDbLine
 10
-30.0
 20
23.24206230927725
 30
0.0
 11
-30.0
 21
33.19051317993775
 31
0.0
  0
LINE
  5
117BF
330
117A8
100
AcDbEntity
  8
0
100
AcDbLine
 10
30.00000000000005
 20
33.19051317993775
 30
0.0
 11
30.00000000000007
 21
23.24206230927725
 31
0.0
  0
LINE
  5
117C0
330
117A8
100
AcDbEntity
  8
0
100
AcDbLine
 10
31.50000000000007
 20
23.24206230927725
 30
0.0
 11
31.50000000000006
 21
33.19051317993775
 31
0.0
  0
ARC
  5
117C1
330
117A8
100
AcDbEntity
  8
0
100
AcDbCircle
 10
-47.00000000000001
 20
33.19051317993783
 30
0.0
 40
12.0
100
AcDbArc
 50
180.0
 51
235.9999999999999
  0
ARC
  5
117C2
330
117A8
100
AcDbEntity
  8
0
100
AcDbCircle
 10
46.99999999999994
 20
33.19051317993778
 30
0.0
 40
12.0
100
AcDbArc
 50
304.0000000000001
 51
0.0
  0
LINE
  5
117C3
330
117A8
100
AcDbEntity
  8
0
100
AcDbLine
 10
-31.50000000000002
 20
85.0
 30
0.0
 11
-31.50000000000002
 21
79.00000000000002
 31
0.0
  0
LINE
  5
117C4
330
117A8
100
AcDbEntity
  8
0
100
AcDbLine
 10
-30.00000000000002
 20
79.00000000000002
 30
0.0
 11
-30.00000000000002
 21
85.0
 31
0.0
  0
LINE
  5
117C5
330
117A8
100
AcDbEntity
  8
0
100
AcDbLine
 10
29.99999999999985
 20
85.00000000000003
 30
0.0
 11
29.99999999999986
 21
79.00000000000003
 31
0.0
  0
LINE
  5
117C6
330
117A8
100
AcDbEntity
  8
0
100
AcDbLine
 10
31.49999999999986
 20
79.00000000000004
 30
0.0
 11
31.49999999999985
 21
85.00000000000003
 31
0.0
  0
LINE
  5
117C7
330
117A8
100
AcDbEntity
  8
0
100
AcDbLine
 10
-59.00000000000002
 20
79.0
 30
0.0
 11
-53.0
 21
85.0
 31
0.0
  0
LINE
  5
117C8
330
117A8
100
AcDbEntity
  8
0
100
AcDbLine
 10
-30.00000000000002
 20
85.0
 30
0.0
 11
-31.50000000000002
 21
85.0
 31
0.0
  0
LINE
  5
117C9
330
117A8
100
AcDbEntity
  8
0
100
AcDbLine
 10
-31.50000000000002
 20
79.00000000000002
 30
0.0
 11
-30.00000000000002
 21
79.00000000000002
 31
0.0
  0
LINE
  5
117CA
330
117A8
100
AcDbEntity
  8
0
100
AcDbLine
 10
31.49999999999985
 20
85.00000000000003
 30
0.0
 11
29.99999999999985
 21
85.00000000000003
 31
0.0
  0
LINE
  5
117CB
330
117A8
100
AcDbEntity
  8
0
100
AcDbLine
 10
29.99999999999986
 20
79.00000000000003
 30
0.0
 11
31.49999999999986
 21
79.00000000000004
 31
0.0
  0
LINE
  5
117CC
330
117A8
100
AcDbEntity
  8
0
100
AcDbLine
 10
52.99999999999986
 20
85.00000000000033
 30
0.0
 11
58.99999999999986
 21
79.00000000000007
 31
0.0
  0
SPLINE
  5
117CD
330
117A8
100
AcDbEntity
  8
0
100
AcDbSpline
210
0.0
220
0.0
230
1.0
 70
     8
 71
     3
 72
    11
 73
     7
 74
     0
 42
0.000000001
 43
0.0000000001
 40
-1.0
 40
-1.0
 40
-1.0
 40
-1.0
 40
-0.8649350770694436
 40
-0.8649350770694436
 40
-0.8649350770694436
 40
0.0
 40
0.0
 40
0.0
 40
0.0
 10
31.49999999999991
 20
49.50000000000013
 30
0.0
 10
31.49999999999991
 20
49.58691438702462
 30
0.0
 10
31.50838271405276
 20
49.66373009289964
 30
0.0
 10
31.52783688767191
 20
49.72929168059366
 30
0.0
 10
31.6524184355195
 20
50.1491380453976
 30
0.0
 10
32.41714410067307
 20
50.0565864208734
 30
0.0
 10
32.99999999999991
 20
49.50000000000002
 30
0.0
  0
ARC
  5
117CE
330
117A8
100
AcDbEntity
  8
0
100
AcDbCircle
 10
31.49999999999983
 20
47.50000000000007
 30
0.0
 40
2.5
100
AcDbArc
 50
306.8698976458463
 51
53.13010235415365
  0
LINE
  5
117CF
330
117A8
100
AcDbEntity
  8
0
100
AcDbLine
 10
44.49491999999986
 20
39.00000000000007
 30
0.0
 11
44.48999999999983
 21
39.00000000000007
 31
0.0
  0
LINE
  5
117D0
330
117A8
100
AcDbEntity
  8
0
100
AcDbLine
 10
44.48999999999983
 20
39.00000000000007
 30
0.0
 11
44.48999999999983
 21
42.38043947198597
 31
0.0
  0
ARC
  5
117D1
330
117A8
100
AcDbEntity
  8
0
100
AcDbCircle
 10
46.49999999999984
 20
47.50000000000007
 30
0.0
 40
5.5
100
AcDbArc
 50
291.4355588797962
 51
248.5644411202037
  0
LINE
  5
117D2
330
117A8
100
AcDbEntity
  8
0
100
AcDbLine
 10
48.50999999999984
 20
42.38043947198597
 30
0.0
 11
48.50999999999983
 21
39.00000000000007
 31
0.0
  0
LINE
  5
117D3
330
117A8
100
AcDbEntity
  8
0
100
AcDbLine
 10
48.50999999999983
 20
39.00000000000007
 30
0.0
 11
48.50507999999987
 21
39.00000000000007
 31
0.0
  0
SPLINE
  5
117D4
330
117A8
100
AcDbEntity
  8
0
100
AcDbSpline
210
0.0
220
0.0
230
1.0
 70
     8
 71
     3
 72
    11
 73
     7
 74
     0
 42
0.000000001
 43
0.0000000001
 40
0.6929633215164309
 40
0.6929633215164309
 40
0.6929633215164309
 40
0.6929633215164309
 40
0.864935077068354
 40
0.864935077068354
 40
0.864935077068354
 40
1.0
 40
1.0
 40
1.0
 40
1.0
 10
31.68702953183002
 20
45.08066694697042
 30
0.0
 10
31.92259161675114
 20
45.12401144857935
 30
0.0
 10
32.17117172657214
 20
45.18723186165522
 30
0.0
 10
32.4247234727467
 20
45.27070831940497
 30
0.0
 10
32.62386051677084
 20
45.33626990709938
 30
0.0
 10
32.81796694524266
 20
45.41308561297499
 30
0.0
 10
32.99999999999992
 20
45.50000000000013
 30
0.0
  0
SPLINE
  5
117D5
330
117A8
100
AcDbEntity
  8
0
100
AcDbSpline
210
0.0
220
0.0
230
1.0
 70
     8
 71
     3
 72
     8
 73
     4
 74
     0
 42
0.000000001
 43
0.0000000001
 40
0.0
 40
0.0
 40
0.0
 40
0.0
 40
0.3070366784835887
 40
0.3070366784835887
 40
0.3070366784835887
 40
0.3070366784835887
 10
32.99999999999991
 20
49.50000000000002
 30
0.0
 10
32.58619289676571
 20
49.69757835065848
 30
0.0
 10
32.12655007946397
 20
49.83668253397483
 30
0.0
 10
31.6946125251507
 20
49.91514915798074
 30
0.0
  0
SPLINE
  5
117D6
330
117A8
100
AcDbEntity
  8
0
100
AcDbSpline
210
0.0
220
0.0
230
1.0
 70
     8
 71
     3
 72
    11
 73
     7
 74
     0
 42
0.000000001
 43
0.0000000001
 40
-1.0
 40
-1.0
 40
-1.0
 40
-1.0
 40
-0.864935077068354
 40
-0.864935077068354
 40
-0.864935077068354
 40
0.0
 40
0.0
 40
0.0
 40
0.0
 10
32.99999999999992
 20
45.50000000000013
 30
0.0
 10
32.90898347262128
 20
45.41308561297499
 30
0.0
 10
32.81193025838538
 20
45.33626990709938
 30
0.0
 10
32.71236173637331
 20
45.27070831940497
 30
0.0
 10
32.07474017341819
 20
44.85086195460249
 30
0.0
 10
31.49999999999991
 20
44.94341357912747
 30
0.0
 10
31.49999999999991
 20
45.5
 30
0.0
  0
LINE
  5
117D7
330
117A8
100
AcDbEntity
  8
0
100
AcDbLine
 10
-33.00000000000002
 20
85.0
 30
0.0
 11
-53.0
 21
85.0
 31
0.0
  0
LINE
  5
117D8
330
117A8
100
AcDbEntity
  8
0
100
AcDbLine
 10
-59.00000000000002
 20
79.0
 30
0.0
 11
-59.0
 21
33.19051317993783
 31
0.0
  0
LINE
  5
117D9
330
117A8
100
AcDbEntity
  8
0
100
AcDbLine
 10
32.99999999999985
 20
85.00000000000007
 30
0.0
 11
52.99999999999986
 21
85.00000000000033
 31
0.0
  0
LINE
  5
117DA
330
117A8
100
AcDbEntity
  8
0
100
AcDbLine
 10
58.99999999999993
 20
33.1905131799378
 30
0.0
 11
58.99999999999986
 21
79.00000000000007
 31
0.0
  0
LINE
  5
117DB
330
117A8
100
AcDbEntity
  8
0
100
AcDbLine
 10
-53.71031484164899
 20
23.24206230927734
 30
0.0
 11
-32.99999999999998
 21
9.272778562096908
 31
0.0
  0
ARC
  5
117DC
330
117A8
100
AcDbEntity
  8
0
100
AcDbCircle
 10
-31.49999999999983
 20
47.50000000000007
 30
0.0
 40
2.5
100
AcDbArc
 50
126.8698976458461
 51
233.1301023541537
  0
CIRCLE
  5
117DD
330
117A8
100
AcDbEntity
  8
0
100
AcDbCircle
 10
-49.99999999999985
 20
30.50000000000007
 30
0.0
 40
2.5
  0
CIRCLE
  5
117DE
330
117A8
100
AcDbEntity
  8
0
100
AcDbCircle
 10
-39.99999999999985
 20
57.50000000000007
 30
0.0
 40
2.5
  0
CIRCLE
  5
117DF
330
117A8
100
AcDbEntity
  8
0
100
AcDbCircle
 10
-39.99999999999985
 20
77.50000000000007
 30
0.0
 40
2.5
  0
CIRCLE
  5
117E0
330
117A8
100
AcDbEntity
  8
0
100
AcDbCircle
 10
-49.99999999999985
 20
67.50000000000007
 30
0.0
 40
2.5
  0
CIRCLE
  5
117E1
330
117A8
100
AcDbEntity
  8
0
100
AcDbCircle
 10
-39.99999999999985
 20
37.50000000000007
 30
0.0
 40
2.5
  0
CIRCLE
  5
117E2
330
117A8
100
AcDbEntity
  8
0
100
AcDbCircle
 10
-39.99999999999985
 20
23.50000000000007
 30
0.0
 40
2.5
  0
LINE
  5
117E3
330
117A8
100
AcDbEntity
  8
0
100
AcDbLine
 10
-44.49999999999987
 20
38.99492000000009
 30
0.0
 11
-44.49999999999987
 21
39.00000000000007
 31
0.0
  0
LINE
  5
117E4
330
117A8
100
AcDbEntity
  8
0
100
AcDbLine
 10
-48.49999999999987
 20
39.00000000000007
 30
0.0
 11
-48.49999999999987
 21
38.99492000000009
 31
0.0
  0
LINE
  5
117E5
330
117A8
100
AcDbEntity
  8
0
100
AcDbLine
 10
-48.49999999999987
 20
38.99492000000009
 30
0.0
 11
-48.50507999999987
 21
38.99492000000009
 31
0.0
  0
LINE
  5
117E6
330
117A8
100
AcDbEntity
  8
0
100
AcDbLine
 10
-48.50507999999987
 20
38.99492000000009
 30
0.0
 11
-48.50507999999987
 21
39.00000000000007
 31
0.0
  0
LINE
  5
117E7
330
117A8
100
AcDbEntity
  8
0
100
AcDbLine
 10
-48.50507999999987
 20
39.00000000000007
 30
0.0
 11
-48.50999999999983
 21
39.00000000000007
 31
0.0
  0
LINE
  5
117E8
330
117A8
100
AcDbEntity
  8
0
100
AcDbLine
 10
-48.50999999999983
 20
39.00000000000007
 30
0.0
 11
-48.50999999999984
 21
42.38043947198597
 31
0.0
  0
ARC
  5
117E9
330
117A8
100
AcDbEntity
  8
0
100
AcDbCircle
 10
-46.49999999999984
 20
47.50000000000007
 30
0.0
 40
5.5
100
AcDbArc
 50
291.4355588797964
 51
248.5644411202037
  0
LINE
  5
117EA
330
117A8
100
AcDbEntity
  8
0
100
AcDbLine
 10
-44.48999999999983
 20
42.38043947198597
 30
0.0
 11
-44.48999999999983
 21
39.00000000000007
 31
0.0
  0
LINE
  5
117EB
330
117A8
100
AcDbEntity
  8
0
100
AcDbLine
 10
-44.48999999999983
 20
39.00000000000007
 30
0.0
 11
-44.49491999999986
 21
39.00000000000007
 31
0.0
  0
LINE
  5
117EC
330
117A8
100
AcDbEntity
  8
0
100
AcDbLine
 10
-44.49491999999986
 20
39.00000000000007
 30
0.0
 11
-44.49491999999986
 21
38.99492000000009
 31
0.0
  0
LINE
  5
117ED
330
117A8
100
AcDbEntity
  8
0
100
AcDbLine
 10
-44.49491999999986
 20
38.99492000000009
 30
0.0
 11
-44.49999999999987
 21
38.99492000000009
 31
0.0
  0
LINE
  5
117EE
330
117A8
100
AcDbEntity
  8
0
100
AcDbLine
 10
-48.49999999999983
 20
39.00000000000009
 30
0.0
 11
-48.49999999999976
 21
42.00000000000009
 31
0.0
  0
LINE
  5
117EF
330
117A8
100
AcDbEntity
  8
0
100
AcDbLine
 10
-44.49999999999984
 20
42.00000000000009
 30
0.0
 11
-44.49999999999984
 21
39.00000000000009
 31
0.0
  0
LINE
  5
117F0
330
117A8
100
AcDbEntity
  8
0
100
AcDbLine
 10
-48.49999999999983
 20
42.00000000000009
 30
0.0
 11
-44.49999999999983
 21
42.00000000000009
 31
0.0
  0
SPLINE
  5
117F1
330
117A8
100
AcDbEntity
  8
0
100
AcDbSpline
210
0.0
220
0.0
230
1.0
 70
     8
 71
     3
 72
     8
 73
     4
 74
     0
 42
0.000000001
 43
0.0000000001
 40
-0.307036678483568
 40
-0.307036678483568
 40
-0.307036678483568
 40
-0.307036678483568
 40
0.0
 40
0.0
 40
0.0
 40
0.0
 10
-31.69461252515078
 20
49.9151491579807
 30
0.0
 10
-32.12655007946403
 20
49.83668253397481
 30
0.0
 10
-32.58619289676574
 20
49.69757835065848
 30
0.0
 10
-32.99999999999991
 20
49.50000000000002
 30
0.0
  0
SPLINE
  5
117F2
330
117A8
100
AcDbEntity
  8
0
100
AcDbSpline
210
0.0
220
0.0
230
1.0
 70
     8
 71
     3
 72
    11
 73
     7
 74
     0
 42
0.000000001
 43
0.0000000001
 40
0.0
 40
0.0
 40
0.0
 40
0.0
 40
0.8649350770694436
 40
0.8649350770694436
 40
0.8649350770694436
 40
1.0
 40
1.0
 40
1.0
 40
1.0
 10
-32.99999999999991
 20
49.50000000000002
 30
0.0
 10
-32.41714410067307
 20
50.0565864208734
 30
0.0
 10
-31.6524184355195
 20
50.1491380453976
 30
0.0
 10
-31.52783688767191
 20
49.72929168059366
 30
0.0
 10
-31.50838271405276
 20
49.66373009289964
 30
0.0
 10
-31.49999999999991
 20
49.58691438702462
 30
0.0
 10
-31.49999999999991
 20
49.50000000000013
 30
0.0
  0
SPLINE
  5
117F3
330
117A8
100
AcDbEntity
  8
0
100
AcDbSpline
210
0.0
220
0.0
230
1.0
 70
     8
 71
     3
 72
    11
 73
     7
 74
     0
 42
0.000000001
 43
0.0000000001
 40
-1.0
 40
-1.0
 40
-1.0
 40
-1.0
 40
-0.864935077068354
 40
-0.864935077068354
 40
-0.864935077068354
 40
-0.6929633215164076
 40
-0.6929633215164076
 40
-0.6929633215164076
 40
-0.6929633215164076
 10
-32.99999999999992
 20
45.50000000000013
 30
0.0
 10
-32.81796694524266
 20
45.41308561297499
 30
0.0
 10
-32.62386051677084
 20
45.33626990709938
 30
0.0
 10
-32.4247234727467
 20
45.27070831940497
 30
0.0
 10
-32.17117172657211
 20
45.18723186165522
 30
0.0
 10
-31.92259161675107
 20
45.12401144857934
 30
0.0
 10
-31.68702953182993
 20
45.08066694697039
 30
0.0
  0
SPLINE
  5
117F4
330
117A8
100
AcDbEntity
  8
0
100
AcDbSpline
210
0.0
220
0.0
230
1.0
 70
     8
 71
     3
 72
    11
 73
     7
 74
     0
 42
0.000000001
 43
0.0000000001
 40
0.0
 40
0.0
 40
0.0
 40
0.0
 40
0.864935077068354
 40
0.864935077068354
 40
0.864935077068354
 40
1.0
 40
1.0
 40
1.0
 40
1.0
 10
-31.49999999999991
 20
45.5
 30
0.0
 10
-31.49999999999991
 20
44.94341357912747
 30
0.0
 10
-32.07474017341819
 20
44.85086195460249
 30
0.0
 10
-32.71236173637331
 20
45.27070831940497
 30
0.0
 10
-32.81193025838538
 20
45.33626990709938
 30
0.0
 10
-32.90898347262128
 20
45.41308561297499
 30
0.0
 10
-32.99999999999992
 20
45.50000000000013
 30
0.0
  0
SPLINE
  5
117F5
330
117A8
100
AcDbEntity
  8
0
100
AcDbSpline
210
0.0
220
0.0
230
1.0
 70
     8
 71
     3
 72
     8
 73
     4
 74
     0
 42
0.000000001
 43
0.0000000001
 40
0.0
 40
0.0
 40
0.0
 40
0.0
 40
1.0
 40
1.0
 40
1.0
 40
1.0
 10
-32.99999999999998
 20
9.272778562096881
 30
0.0
 10
-32.21460183660254
 20
8.598270045254409
 30
0.0
 10
-31.49999999999998
 20
7.923761528411893
 30
0.0
 10
-31.49999999999999
 20
7.249253011569622
 30
0.0
  0
LINE
  5
117F6
330
117A8
100
AcDbEntity
  8
0
100
AcDbLine
 10
32.99999999999998
 20
9.272778562096908
 30
0.0
 11
53.71031484164892
 21
23.24206230927729
 31
0.0
  0
SPLINE
  5
117F7
330
117A8
100
AcDbEntity
  8
0
100
AcDbSpline
210
0.0
220
0.0
230
1.0
 70
     8
 71
     3
 72
     8
 73
     4
 74
     0
 42
0.000000001
 43
0.0000000001
 40
-1.0
 40
-1.0
 40
-1.0
 40
-1.0
 40
0.0
 40
0.0
 40
0.0
 40
0.0
 10
31.49999999999999
 20
7.249253011569622
 30
0.0
 10
31.49999999999998
 20
7.923761528411893
 30
0.0
 10
32.21460183660254
 20
8.598270045254409
 30
0.0
 10
32.99999999999998
 20
9.272778562096881
 30
0.0
  0
CIRCLE
  5
117F8
330
117A8
100
AcDbEntity
  8
0
100
AcDbCircle
 10
39.99999999999985
 20
23.50000000000007
 30
0.0
 40
2.5
  0
CIRCLE
  5
117F9
330
117A8
100
AcDbEntity
  8
0
100
AcDbCircle
 10
49.99999999999985
 20
30.50000000000007
 30
0.0
 40
2.5
  0
CIRCLE
  5
117FA
330
117A8
100
AcDbEntity
  8
0
100
AcDbCircle
 10
39.99999999999985
 20
37.50000000000007
 30
0.0
 40
2.5
  0
CIRCLE
  5
117FB
330
117A8
100
AcDbEntity
  8
0
100
AcDbCircle
 10
49.99999999999985
 20
67.50000000000007
 30
0.0
 40
2.5
  0
CIRCLE
  5
117FC
330
117A8
100
AcDbEntity
  8
0
100
AcDbCircle
 10
39.99999999999985
 20
77.50000000000007
 30
0.0
 40
2.5
  0
CIRCLE
  5
117FD
330
117A8
100
AcDbEntity
  8
0
100
AcDbCircle
 10
39.99999999999985
 20
57.50000000000007
 30
0.0
 40
2.5
  0
LINE
  5
117FE
330
117A8
100
AcDbEntity
  8
0
100
AcDbLine
 10
44.49491999999986
 20
38.99492000000009
 30
0.0
 11
44.49491999999986
 21
39.00000000000007
 31
0.0
  0
LINE
  5
117FF
330
117A8
100
AcDbEntity
  8
0
100
AcDbLine
 10
48.50507999999987
 20
39.00000000000007
 30
0.0
 11
48.50507999999987
 21
38.99492000000009
 31
0.0
  0
LINE
  5
11800
330
117A8
100
AcDbEntity
  8
0
100
AcDbLine
 10
48.50507999999987
 20
38.99492000000009
 30
0.0
 11
48.49999999999987
 21
38.99492000000009
 31
0.0
  0
LINE
  5
11801
330
117A8
100
AcDbEntity
  8
0
100
AcDbLine
 10
48.49999999999987
 20
38.99492000000009
 30
0.0
 11
48.49999999999987
 21
39.00000000000007
 31
0.0
  0
LINE
  5
11802
330
117A8
100
AcDbEntity
  8
0
100
AcDbLine
 10
44.49999999999987
 20
39.00000000000007
 30
0.0
 11
44.49999999999987
 21
38.99492000000009
 31
0.0
  0
LINE
  5
11803
330
117A8
100
AcDbEntity
  8
0
100
AcDbLine
 10
44.49999999999987
 20
38.99492000000009
 30
0.0
 11
44.49491999999986
 21
38.99492000000009
 31
0.0
  0
LINE
  5
11804
330
117A8
100
AcDbEntity
  8
0
100
AcDbLine
 10
44.49999999999983
 20
39.00000000000009
 30
0.0
 11
44.49999999999971
 21
42.00000000000009
 31
0.0
  0
LINE
  5
11805
330
117A8
100
AcDbEntity
  8
0
100
AcDbLine
 10
48.49999999999984
 20
42.00000000000009
 30
0.0
 11
48.49999999999984
 21
39.00000000000009
 31
0.0
  0
LINE
  5
11806
330
117A8
100
AcDbEntity
  8
0
100
AcDbLine
 10
44.49999999999984
 20
42.00000000000009
 30
0.0
 11
48.49999999999984
 21
42.00000000000009
 31
0.0
  0
SPLINE
  5
11807
330
117A8
100
AcDbEntity
  8
0
100
AcDbSpline
210
0.0
220
0.0
230
1.0
 70
     8
 71
     3
 72
     8
 73
     4
 74
     0
 42
0.000000001
 43
0.0000000001
 40
-1.0
 40
-1.0
 40
-1.0
 40
-1.0
 40
0.0
 40
0.0
 40
0.0
 40
0.0
 10
-25.49999999999999
 20
1.499999999999996
 30
0.0
 10
-26.50000000000016
 20
0.7146018366025411
 30
0.0
 10
-27.50000000000091
 20
0.0000000000000005
 30
0.0
 10
-28.49999999999996
 20
-0.0000000000000005
 30
0.0
  0
LINE
  5
11808
330
117A8
100
AcDbEntity
  8
0
100
AcDbLine
 10
-22.19999999999999
 20
4.799999999999995
 30
0.0
 11
-25.49999999999999
 21
1.499999999999996
 31
0.0
  0
LINE
  5
11809
330
117A8
100
AcDbEntity
  8
0
100
AcDbLine
 10
-14.94999999999999
 20
4.799999999999996
 30
0.0
 11
-22.19999999999999
 21
4.799999999999995
 31
0.0
  0
LINE
  5
1180A
330
117A8
100
AcDbEntity
  8
0
100
AcDbLine
 10
-11.24999999999999
 20
8.499999999999998
 30
0.0
 11
-14.94999999999999
 21
4.799999999999996
 31
0.0
  0
SPLINE
  5
1180B
330
117A8
100
AcDbEntity
  8
0
100
AcDbSpline
210
0.0
220
0.0
230
1.0
 70
     8
 71
     3
 72
     8
 73
     4
 74
     0
 42
0.000000001
 43
0.0000000001
 40
-1.0
 40
-1.0
 40
-1.0
 40
-1.0
 40
0.0
 40
0.0
 40
0.0
 40
0.0
 10
28.50000000000003
 20
0.0000000000000066
 30
0.0
 10
27.49999999999982
 20
0.0000000000000064
 30
0.0
 10
26.4999999999999
 20
0.7146018366025587
 30
0.0
 10
25.50000000000001
 20
1.500000000000002
 30
0.0
  0
LINE
  5
1180C
330
117A8
100
AcDbEntity
  8
0
100
AcDbLine
 10
14.95000000000001
 20
4.799999999999999
 30
0.0
 11
11.25000000000001
 21
8.5
 31
0.0
  0
LINE
  5
1180D
330
117A8
100
AcDbEntity
  8
0
100
AcDbLine
 10
22.20000000000002
 20
4.8
 30
0.0
 11
14.95000000000001
 21
4.799999999999999
 31
0.0
  0
LINE
  5
1180E
330
117A8
100
AcDbEntity
  8
0
100
AcDbLine
 10
25.50000000000002
 20
1.500000000000002
 30
0.0
 11
22.20000000000002
 21
4.8
 31
0.0
  0
LINE
  5
1180F
330
117A8
100
AcDbEntity
  8
0
100
AcDbLine
 10
11.25000000000001
 20
8.5
 30
0.0
 11
-11.24999999999999
 21
8.499999999999998
 31
0.0
  0
ARC
  5
11810
330
117A8
100
AcDbEntity
  8
0
100
AcDbCircle
 10
-28.5
 20
1.500000000000003
 30
0.0
 40
1.500000000000003
100
AcDbArc
 50
180.0
 51
270.0000000000003
  0
ARC
  5
11811
330
117A8
100
AcDbEntity
  8
0
100
AcDbCircle
 10
28.50000000000001
 20
1.500000000000007
 30
0.0
 40
2.999999999999998
100
AcDbArc
 50
270.0
 51
0.0
  0
ARC
  5
11812
330
117A8
100
AcDbEntity
  8
0
100
AcDbCircle
 10
28.50000000000001
 20
1.500000000000007
 30
0.0
 40
1.499999999999994
100
AcDbArc
 50
270.0
 51
0.0
  0
ARC
  5
11813
330
117A8
100
AcDbEntity
  8
0
100
AcDbCircle
 10
-28.5
 20
1.500000000000003
 30
0.0
 40
3.000000000000007
100
AcDbArc
 50
180.0
 51
270.0
  0
ENDBLK
  5
117AA
330
117A8
100
AcDbEntity
  8
0
100
AcDbBlockEnd
  0
BLOCK
  5
11815
330
11814
100
AcDbEntity
  8
0
100
AcDbBlockBegin
  2
SBE60_85-Left
 70
     0
 10
0.0
 20
0.0
 30
0.0
  3
SBE60_85-Left
  1

  0
LINE
  5
11817
330
11814
100
AcDbEntity
  8
0
100
AcDbLine
 10
2.999999999999998
 20
85.0
 30
0.0
 11
1.499999999999998
 21
85.0
 31
0.0
  0
LINE
  5
11818
330
11814
100
AcDbEntity
  8
0
100
AcDbLine
 10
3.000000000000001
 20
7.249253011569614
 30
0.0
 11
2.999999999999998
 21
1.500000000000003
 31
0.0
  0
LINE
  5
11819
330
11814
100
AcDbEntity
  8
0
100
AcDbLine
 10
2.999999999999998
 20
-1.499999999999996
 30
0.0
 11
2.999999999999998
 21
1.500000000000003
 31
0.0
  0
CIRCLE
  5
1181A
330
11814
100
AcDbEntity
  8
0
100
AcDbCircle
 10
29.0
 20
37.5
 30
0.0
 40
2.5
  0
CIRCLE
  5
1181B
330
11814
100
AcDbEntity
  8
0
100
AcDbCircle
 10
29.0
 20
77.5
 30
0.0
 40
2.5
  0
CIRCLE
  5
1181C
330
11814
100
AcDbEntity
  8
0
100
AcDbCircle
 10
29.0
 20
57.5
 30
0.0
 40
2.5
  0
ARC
  5
1181D
330
11814
100
AcDbEntity
  8
0
100
AcDbCircle
 10
1.500000000000083
 20
47.50000000000007
 30
0.0
 40
2.5
100
AcDbArc
 50
306.8698976458415
 51
53.13010235415847
  0
LINE
  5
1181E
330
11814
100
AcDbEntity
  8
0
100
AcDbLine
 10
1.499999999999999
 20
23.24206230927734
 30
0.0
 11
1.499999999999995
 21
9.272778562096908
 31
0.0
  0
ARC
  5
1181F
330
11814
100
AcDbEntity
  8
0
100
AcDbCircle
 10
-1.500000000000004
 20
39.00000000000009
 30
0.0
 40
3.0
100
AcDbArc
 50
59.99999999999986
 51
90.00000000000012
  0
ARC
  5
11820
330
11814
100
AcDbEntity
  8
0
100
AcDbCircle
 10
-1.500000000000004
 20
39.00000000000009
 30
0.0
 40
1.5
100
AcDbArc
 50
0.0
 51
90.00000000000012
  0
LINE
  5
11821
330
11814
100
AcDbEntity
  8
0
100
AcDbLine
 10
0.0
 20
9.272778562096908
 30
0.0
 11
0.0
 21
23.24206230927734
 31
0.0
  0
SPLINE
  5
11822
330
11814
100
AcDbEntity
  8
0
100
AcDbSpline
210
0.0
220
0.0
230
1.0
 70
     8
 71
     3
 72
    11
 73
     7
 74
     0
 42
0.000000001
 43
0.0000000001
 40
-1.0
 40
-1.0
 40
-1.0
 40
-1.0
 40
-0.8649350770694436
 40
-0.8649350770694436
 40
-0.8649350770694436
 40
-0.6929633215164389
 40
-0.6929633215164389
 40
-0.6929633215164389
 40
-0.6929633215164389
 10
2.999999999999996
 20
49.50000000000013
 30
0.0
 10
2.817966945244189
 20
49.58691438702462
 30
0.0
 10
2.623860516774026
 20
49.66373009289964
 30
0.0
 10
2.42472347275157
 20
49.72929168059366
 30
0.0
 10
2.171171726575508
 20
49.81276813834412
 30
0.0
 10
1.922591616752953
 20
49.87598855142047
 30
0.0
 10
1.687029531830403
 20
49.91933305302965
 30
0.0
  0
SPLINE
  5
11823
330
11814
100
AcDbEntity
  8
0
100
AcDbSpline
210
0.0
220
0.0
230
1.0
 70
     8
 71
     3
 72
    11
 73
     7
 74
     0
 42
0.000000001
 43
0.0000000001
 40
0.0
 40
0.0
 40
0.0
 40
0.0
 40
0.8649350770694436
 40
0.8649350770694436
 40
0.8649350770694436
 40
1.0
 40
1.0
 40
1.0
 40
1.0
 10
1.499999999999997
 20
49.50000000000002
 30
0.0
 10
1.499999999999996
 20
50.0565864208734
 30
0.0
 10
2.074740173420086
 20
50.1491380453976
 30
0.0
 10
2.712361736375783
 20
49.72929168059366
 30
0.0
 10
2.811930258387011
 20
49.66373009289964
 30
0.0
 10
2.908983472622093
 20
49.58691438702462
 30
0.0
 10
2.999999999999996
 20
49.50000000000013
 30
0.0
  0
SPLINE
  5
11824
330
11814
100
AcDbEntity
  8
0
100
AcDbSpline
210
0.0
220
0.0
230
1.0
 70
     8
 71
     3
 72
     8
 73
     4
 74
     0
 42
0.000000001
 43
0.0000000001
 40
-0.3070366784835348
 40
-0.3070366784835348
 40
-0.3070366784835348
 40
-0.3070366784835348
 40
0.0
 40
0.0
 40
0.0
 40
0.0
 10
1.694612525150779
 20
45.08485084201938
 30
0.0
 10
2.126550079464112
 20
45.16331746602531
 30
0.0
 10
2.586192896765886
 20
45.30242164934164
 30
0.0
 10
3.000000000000002
 20
45.5
 30
0.0
  0
SPLINE
  5
11825
330
11814
100
AcDbEntity
  8
0
100
AcDbSpline
210
0.0
220
0.0
230
1.0
 70
     8
 71
     3
 72
    11
 73
     7
 74
     0
 42
0.000000001
 43
0.0000000001
 40
0.0
 40
0.0
 40
0.0
 40
0.0
 40
0.864935077068354
 40
0.864935077068354
 40
0.864935077068354
 40
1.0
 40
1.0
 40
1.0
 40
1.0
 10
2.999999999999999
 20
45.5
 30
0.0
 10
2.417144100673909
 20
44.94341357912747
 30
0.0
 10
1.652418435521016
 20
44.85086195460249
 30
0.0
 10
1.52783688767247
 20
45.27070831940497
 30
0.0
 10
1.508382714052987
 20
45.33626990709938
 30
0.0
 10
1.499999999999997
 20
45.41308561297499
 30
0.0
 10
1.499999999999997
 20
45.50000000000013
 30
0.0
  0
SPLINE
  5
11826
330
11814
100
AcDbEntity
  8
0
100
AcDbSpline
210
0.0
220
0.0
230
1.0
 70
     8
 71
     3
 72
     8
 73
     4
 74
     0
 42
0.000000001
 43
0.0000000001
 40
-1.0
 40
-1.0
 40
-1.0
 40
-1.0
 40
0.0
 40
0.0
 40
0.0
 40
0.0
 10
3.000000000000006
 20
7.249253011569621
 30
0.0
 10
1.429203673205079
 20
7.92376152841189
 30
0.0
 10
-0.0000000000000064
 20
8.598270045254409
 30
0.0
 10
-0.0000000000000072
 20
9.272778562096881
 30
0.0
  0
SPLINE
  5
11827
330
11814
100
AcDbEntity
  8
0
100
AcDbSpline
210
0.0
220
0.0
230
1.0
 70
     8
 71
     3
 72
     8
 73
     4
 74
     0
 42
0.000000001
 43
0.0000000001
 40
0.0
 40
0.0
 40
0.0
 40
0.0
 40
1.0
 40
1.0
 40
1.0
 40
1.0
 10
1.499999999999992
 20
9.272778562096881
 30
0.0
 10
1.499999999999993
 20
8.598270045254409
 30
0.0
 10
2.214601836602537
 20
7.923761528411893
 30
0.0
 10
3.000000000000001
 20
7.249253011569622
 30
0.0
  0
LINE
  5
11828
330
11814
100
AcDbEntity
  8
0
100
AcDbLine
 10
1.499999999999995
 20
9.272778562096908
 30
0.0
 11
1.090140682897134
 21
9.272778562096908
 31
0.0
  0
LINE
  5
11829
330
11814
100
AcDbEntity
  8
0
100
AcDbLine
 10
1.090140682897134
 20
9.272778562096908
 30
0.0
 11
0.0
 21
9.272778562096908
 31
0.0
  0
LINE
  5
1182A
330
11814
100
AcDbEntity
  8
0
100
AcDbLine
 10
-8.999999999999976
 20
42.00000000000009
 30
0.0
 11
-6.999999999999975
 21
42.00000000000009
 31
0.0
  0
LINE
  5
1182B
330
11814
100
AcDbEntity
  8
0
100
AcDbLine
 10
-6.999999999999975
 20
42.00000000000009
 30
0.0
 11
-1.499999999999994
 21
42.00000000000009
 31
0.0
  0
LINE
  5
1182C
330
11814
100
AcDbEntity
  8
0
100
AcDbLine
 10
-8.999999999999976
 20
42.00000000000009
 30
0.0
 11
-8.999999999999976
 21
40.50000000000007
 31
0.0
  0
LINE
  5
1182D
330
11814
100
AcDbEntity
  8
0
100
AcDbLine
 10
-6.999999999999975
 20
42.00000000000009
 30
0.0
 11
-6.999999999999975
 21
40.50000000000008
 31
0.0
  0
LINE
  5
1182E
330
11814
100
AcDbEntity
  8
0
100
AcDbLine
 10
-1.499999999999994
 20
40.50000000000008
 30
0.0
 11
-6.999999999999975
 21
40.50000000000008
 31
0.0
  0
LINE
  5
1182F
330
11814
100
AcDbEntity
  8
0
100
AcDbLine
 10
-6.999999999999975
 20
40.50000000000008
 30
0.0
 11
-8.999999999999976
 21
40.50000000000007
 31
0.0
  0
LINE
  5
11830
330
11814
100
AcDbEntity
  8
0
100
AcDbLine
 10
53.99999999999999
 20
15.00610095525753
 30
0.0
 11
54.0
 21
1.500000000000003
 31
0.0
  0
LINE
  5
11831
330
11814
100
AcDbEntity
  8
0
100
AcDbLine
 10
2.999999999999998
 20
85.0
 30
0.0
 11
30.50000000000001
 21
85.0
 31
0.0
  0
LINE
  5
11832
330
11814
100
AcDbEntity
  8
0
100
AcDbLine
 10
53.99999999999999
 20
15.00610095525753
 30
0.0
 11
41.78968515835103
 21
23.24206230927725
 31
0.0
  0
LINE
  5
11833
330
11814
100
AcDbEntity
  8
0
100
AcDbLine
 10
36.5
 20
33.19051317993775
 30
0.0
 11
36.5
 21
79.00000000000002
 31
0.0
  0
ARC
  5
11834
330
11814
100
AcDbEntity
  8
0
100
AcDbCircle
 10
48.5
 20
33.19051317993775
 30
0.0
 40
12.0
100
AcDbArc
 50
180.0
 51
236.0
  0
LINE
  5
11835
330
11814
100
AcDbEntity
  8
0
100
AcDbLine
 10
1.5
 20
33.19051317993784
 30
0.0
 11
1.500000000000002
 21
23.24206230927734
 31
0.0
  0
LINE
  5
11836
330
11814
100
AcDbEntity
  8
0
100
AcDbLine
 10
0.0
 20
23.24206230927734
 30
0.0
 11
0.0
 21
33.19051317993783
 31
0.0
  0
LINE
  5
11837
330
11814
100
AcDbEntity
  8
0
100
AcDbLine
 10
30.50000000000001
 20
85.0
 30
0.0
 11
36.5
 21
79.00000000000002
 31
0.0
  0
LINE
  5
11838
330
11814
100
AcDbEntity
  8
0
100
AcDbLine
 10
0.0
 20
85.0
 30
0.0
 11
0.0
 21
79.0
 31
0.0
  0
LINE
  5
11839
330
11814
100
AcDbEntity
  8
0
100
AcDbLine
 10
0.0
 20
79.0
 30
0.0
 11
1.499999999999991
 21
79.0
 31
0.0
  0
LINE
  5
1183A
330
11814
100
AcDbEntity
  8
0
100
AcDbLine
 10
1.499999999999991
 20
79.0
 30
0.0
 11
1.499999999999992
 21
85.0
 31
0.0
  0
LINE
  5
1183B
330
11814
100
AcDbEntity
  8
0
100
AcDbLine
 10
1.499999999999992
 20
85.0
 30
0.0
 11
0.0
 21
85.0
 31
0.0
  0
LINE
  5
1183C
330
11814
100
AcDbEntity
  8
0
100
AcDbLine
 10
1.499999999999991
 20
79.0
 30
0.0
 11
1.499999999999997
 21
33.19051317993783
 31
0.0
  0
LINE
  5
1183D
330
11814
100
AcDbEntity
  8
0
100
AcDbLine
 10
0.0
 20
79.0
 30
0.0
 11
0.0
 21
33.19051317993783
 31
0.0
  0
SPLINE
  5
1183E
330
11814
100
AcDbEntity
  8
0
100
AcDbSpline
210
0.0
220
0.0
230
1.0
 70
     8
 71
     3
 72
     8
 73
     4
 74
     0
 42
0.000000001
 43
0.0000000001
 40
-1.0
 40
-1.0
 40
-1.0
 40
-1.0
 40
0.0
 40
0.0
 40
0.0
 40
0.0
 10
1.500000000000002
 20
1.499999999999996
 30
0.0
 10
1.500000000000002
 20
0.7146018366025411
 30
0.0
 10
2.214601836602604
 20
0.0000000000000005
 30
0.0
 10
2.999999999999997
 20
-0.0000000000000005
 30
0.0
  0
LINE
  5
1183F
330
11814
100
AcDbEntity
  8
0
100
AcDbLine
 10
1.500000000000002
 20
1.499999999999996
 30
0.0
 11
1.090140682896955
 21
1.499999999999996
 31
0.0
  0
LINE
  5
11840
330
11814
100
AcDbEntity
  8
0
100
AcDbLine
 10
1.090140682896955
 20
1.499999999999996
 30
0.0
 11
0.0
 21
1.499999999999996
 31
0.0
  0
SPLINE
  5
11841
330
11814
100
AcDbEntity
  8
0
100
AcDbSpline
210
0.0
220
0.0
230
1.0
 70
     8
 71
     3
 72
     8
 73
     4
 74
     0
 42
0.000000001
 43
0.0000000001
 40
0.0
 40
0.0
 40
0.0
 40
0.0
 40
1.0
 40
1.0
 40
1.0
 40
1.0
 10
2.999999999999995
 20
-1.5
 30
0.0
 10
1.429203673205207
 20
-1.499999999999998
 30
0.0
 10
0.0000000000000022
 20
-0.0707963267949158
 30
0.0
 10
0.0000000000000025
 20
1.499999999999996
 30
0.0
  0
LINE
  5
11842
330
11814
100
AcDbEntity
  8
0
100
AcDbLine
 10
0.0
 20
1.499999999999996
 30
0.0
 11
0.0
 21
4.799999999999995
 31
0.0
  0
LINE
  5
11843
330
11814
100
AcDbEntity
  8
0
100
AcDbLine
 10
1.500000000000002
 20
4.799999999999995
 30
0.0
 11
1.500000000000002
 21
1.499999999999996
 31
0.0
  0
LINE
  5
11844
330
11814
100
AcDbEntity
  8
0
100
AcDbLine
 10
1.500000000000002
 20
4.799999999999995
 30
0.0
 11
0.0
 21
4.799999999999995
 31
0.0
  0
LINE
  5
11845
330
11814
100
AcDbEntity
  8
0
100
AcDbLine
 10
0.0
 20
4.799999999999997
 30
0.0
 11
0.0
 21
8.499999999999998
 31
0.0
  0
LINE
  5
11846
330
11814
100
AcDbEntity
  8
0
100
AcDbLine
 10
1.500000000000003
 20
7.923761528412055
 30
0.0
 11
1.500000000000003
 21
4.799999999999996
 31
0.0
  0
LINE
  5
11847
330
11814
100
AcDbEntity
  8
0
100
AcDbLine
 10
0.0
 20
8.499999999999998
 30
0.0
 11
0.5237942703962664
 21
8.499999999999998
 31
0.0
  0
LINE
  5
11848
330
11814
100
AcDbEntity
  8
0
100
AcDbLine
 10
54.0
 20
-1.500000000000003
 30
0.0
 11
2.999999999999998
 21
-1.499999999999999
 31
0.0
  0
LINE
  5
11849
330
11814
100
AcDbEntity
  8
0
100
AcDbLine
 10
54.0
 20
-1.500000000000003
 30
0.0
 11
54.0
 21
1.500000000000003
 31
0.0
  0
ENDBLK
  5
11816
330
11814
100
AcDbEntity
  8
0
100
AcDbBlockEnd
  0
BLOCK
  5
1184B
330
1184A
100
AcDbEntity
  8
0
100
AcDbBlockBegin
  2
SBE60_85-Right
 70
     0
 10
0.0
 20
0.0
 30
0.0
  3
SBE60_85-Right
  1

  0
SPLINE
  5
1184D
330
1184A
100
AcDbEntity
  8
0
100
AcDbSpline
210
0.0
220
0.0
230
1.0
 70
     8
 71
     3
 72
    11
 73
     7
 74
     0
 42
0.000000001
 43
0.0000000001
 40
-1.0
 40
-1.0
 40
-1.0
 40
-1.0
 40
-0.8649350770694436
 40
-0.8649350770694436
 40
-0.8649350770694436
 40
0.0
 40
0.0
 40
0.0
 40
0.0
 10
-2.999999999999996
 20
49.50000000000013
 30
0.0
 10
-2.908983472622093
 20
49.58691438702462
 30
0.0
 10
-2.811930258387011
 20
49.66373009289964
 30
0.0
 10
-2.712361736375783
 20
49.72929168059366
 30
0.0
 10
-2.074740173420086
 20
50.1491380453976
 30
0.0
 10
-1.499999999999996
 20
50.0565864208734
 30
0.0
 10
-1.499999999999997
 20
49.50000000000002
 30
0.0
  0
ARC
  5
1184E
330
1184A
100
AcDbEntity
  8
0
100
AcDbCircle
 10
-1.500000000000083
 20
47.50000000000007
 30
0.0
 40
2.5
100
AcDbArc
 50
126.8698976458416
 51
233.1301023541584
  0
SPLINE
  5
1184F
330
1184A
100
AcDbEntity
  8
0
100
AcDbSpline
210
0.0
220
0.0
230
1.0
 70
     8
 71
     3
 72
     8
 73
     4
 74
     0
 42
0.000000001
 43
0.0000000001
 40
0.0
 40
0.0
 40
0.0
 40
0.0
 40
0.3070366784835569
 40
0.3070366784835569
 40
0.3070366784835569
 40
0.3070366784835569
 10
-3.000000000000002
 20
45.5
 30
0.0
 10
-2.586192896765856
 20
45.30242164934161
 30
0.0
 10
-2.126550079464045
 20
45.16331746602527
 30
0.0
 10
-1.694612525150684
 20
45.08485084201935
 30
0.0
  0
SPLINE
  5
11850
330
1184A
100
AcDbEntity
  8
0
100
AcDbSpline
210
0.0
220
0.0
230
1.0
 70
     8
 71
     3
 72
    11
 73
     7
 74
     0
 42
0.000000001
 43
0.0000000001
 40
0.6929633215164635
 40
0.6929633215164635
 40
0.6929633215164635
 40
0.6929633215164635
 40
0.8649350770694436
 40
0.8649350770694436
 40
0.8649350770694436
 40
1.0
 40
1.0
 40
1.0
 40
1.0
 10
-1.687029531830504
 20
49.91933305302964
 30
0.0
 10
-1.922591616753024
 20
49.87598855142046
 30
0.0
 10
-2.171171726575544
 20
49.81276813834412
 30
0.0
 10
-2.42472347275157
 20
49.72929168059366
 30
0.0
 10
-2.623860516774026
 20
49.66373009289964
 30
0.0
 10
-2.817966945244189
 20
49.58691438702462
 30
0.0
 10
-2.999999999999996
 20
49.50000000000013
 30
0.0
  0
SPLINE
  5
11851
330
1184A
100
AcDbEntity
  8
0
100
AcDbSpline
210
0.0
220
0.0
230
1.0
 70
     8
 71
     3
 72
    11
 73
     7
 74
     0
 42
0.000000001
 43
0.0000000001
 40
-1.0
 40
-1.0
 40
-1.0
 40
-1.0
 40
-0.864935077068354
 40
-0.864935077068354
 40
-0.864935077068354
 40
0.0
 40
0.0
 40
0.0
 40
0.0
 10
-1.499999999999997
 20
45.50000000000013
 30
0.0
 10
-1.499999999999997
 20
45.41308561297499
 30
0.0
 10
-1.508382714052987
 20
45.33626990709938
 30
0.0
 10
-1.52783688767247
 20
45.27070831940497
 30
0.0
 10
-1.652418435521016
 20
44.85086195460249
 30
0.0
 10
-2.417144100673909
 20
44.94341357912747
 30
0.0
 10
-2.999999999999999
 20
45.5
 30
0.0
  0
LINE
  5
11852
330
1184A
100
AcDbEntity
  8
0
100
AcDbLine
 10
1.500000000000003
 20
42.00000000000009
 30
0.0
 11
6.999999999999984
 21
42.00000000000009
 31
0.0
  0
LINE
  5
11853
330
1184A
100
AcDbEntity
  8
0
100
AcDbLine
 10
6.999999999999984
 20
42.00000000000009
 30
0.0
 11
8.999999999999985
 21
42.00000000000009
 31
0.0
  0
LINE
  5
11854
330
1184A
100
AcDbEntity
  8
0
100
AcDbLine
 10
8.999999999999985
 20
42.00000000000009
 30
0.0
 11
8.999999999999985
 21
40.50000000000007
 31
0.0
  0
LINE
  5
11855
330
1184A
100
AcDbEntity
  8
0
100
AcDbLine
 10
8.999999999999985
 20
40.50000000000007
 30
0.0
 11
6.999999999999984
 21
40.50000000000007
 31
0.0
  0
LINE
  5
11856
330
1184A
100
AcDbEntity
  8
0
100
AcDbLine
 10
6.999999999999984
 20
42.00000000000009
 30
0.0
 11
6.999999999999984
 21
40.50000000000007
 31
0.0
  0
LINE
  5
11857
330
1184A
100
AcDbEntity
  8
0
100
AcDbLine
 10
6.999999999999984
 20
40.50000000000007
 30
0.0
 11
1.500000000000003
 21
40.50000000000008
 31
0.0
  0
CIRCLE
  5
11858
330
1184A
100
AcDbEntity
  8
0
100
AcDbCircle
 10
-29.00000000000001
 20
27.5
 30
0.0
 40
2.5
  0
CIRCLE
  5
11859
330
1184A
100
AcDbEntity
  8
0
100
AcDbCircle
 10
-29.0
 20
67.5
 30
0.0
 40
2.5
  0
CIRCLE
  5
1185A
330
1184A
100
AcDbEntity
  8
0
100
AcDbCircle
 10
-29.0
 20
47.5
 30
0.0
 40
2.5
  0
LINE
  5
1185B
330
1184A
100
AcDbEntity
  8
0
100
AcDbLine
 10
-30.50000000000001
 20
85.00000000000003
 30
0.0
 11
-2.999999999999998
 21
85.00000000000003
 31
0.0
  0
LINE
  5
1185C
330
1184A
100
AcDbEntity
  8
0
100
AcDbLine
 10
-54.0
 20
1.500000000000021
 30
0.0
 11
-53.99999999999999
 21
15.00610095525753
 31
0.0
  0
LINE
  5
1185D
330
1184A
100
AcDbEntity
  8
0
100
AcDbLine
 10
-36.5
 20
79.00000000000004
 30
0.0
 11
-30.50000000000001
 21
85.00000000000003
 31
0.0
  0
LINE
  5
1185E
330
1184A
100
AcDbEntity
  8
0
100
AcDbLine
 10
0.0
 20
79.00000000000007
 30
0.0
 11
0.0
 21
85.00000000000035
 31
0.0
  0
LINE
  5
1185F
330
1184A
100
AcDbEntity
  8
0
100
AcDbLine
 10
0.0
 20
85.00000000000035
 30
0.0
 11
-1.499999999999988
 21
85.00000000000033
 31
0.0
  0
LINE
  5
11860
330
1184A
100
AcDbEntity
  8
0
100
AcDbLine
 10
-1.499999999999988
 20
85.00000000000033
 30
0.0
 11
-1.499999999999993
 21
79.00000000000007
 31
0.0
  0
LINE
  5
11861
330
1184A
100
AcDbEntity
  8
0
100
AcDbLine
 10
-1.499999999999993
 20
79.00000000000007
 30
0.0
 11
0.0
 21
79.00000000000007
 31
0.0
  0
LINE
  5
11862
330
1184A
100
AcDbEntity
  8
0
100
AcDbLine
 10
-36.5
 20
79.00000000000004
 30
0.0
 11
-36.5
 21
33.19051317993775
 31
0.0
  0
LINE
  5
11863
330
1184A
100
AcDbEntity
  8
0
100
AcDbLine
 10
-41.78968515835103
 20
23.24206230927725
 30
0.0
 11
-53.99999999999999
 21
15.00610095525753
 31
0.0
  0
ARC
  5
11864
330
1184A
100
AcDbEntity
  8
0
100
AcDbCircle
 10
-48.5
 20
33.19051317993775
 30
0.0
 40
12.0
100
AcDbArc
 50
304.0
 51
0.0
  0
LINE
  5
11865
330
1184A
100
AcDbEntity
  8
0
100
AcDbLine
 10
0.0
 20
33.1905131799378
 30
0.0
 11
0.0
 21
23.24206230927729
 31
0.0
  0
LINE
  5
11866
330
1184A
100
AcDbEntity
  8
0
100
AcDbLine
 10
-1.499999999999993
 20
23.24206230927729
 30
0.0
 11
-1.499999999999991
 21
33.1905131799378
 31
0.0
  0
LINE
  5
11867
330
1184A
100
AcDbEntity
  8
0
100
AcDbLine
 10
-2.999999999999998
 20
1.500000000000021
 30
0.0
 11
-3.000000000000001
 21
7.249253011569614
 31
0.0
  0
LINE
  5
11868
330
1184A
100
AcDbEntity
  8
0
100
AcDbLine
 10
-2.999999999999998
 20
85.00000000000003
 30
0.0
 11
-1.499999999999992
 21
85.00000000000003
 31
0.0
  0
LINE
  5
11869
330
1184A
100
AcDbEntity
  8
0
100
AcDbLine
 10
-2.999999999999998
 20
1.500000000000021
 30
0.0
 11
-2.999999999999998
 21
-1.499999999999988
 31
0.0
  0
LINE
  5
1186A
330
1184A
100
AcDbEntity
  8
0
100
AcDbLine
 10
0.0
 20
33.1905131799378
 30
0.0
 11
0.0
 21
79.00000000000007
 31
0.0
  0
LINE
  5
1186B
330
1184A
100
AcDbEntity
  8
0
100
AcDbLine
 10
-1.499999999999999
 20
33.1905131799378
 30
0.0
 11
-1.499999999999993
 21
79.00000000000007
 31
0.0
  0
LINE
  5
1186C
330
1184A
100
AcDbEntity
  8
0
100
AcDbLine
 10
0.0
 20
23.24206230927729
 30
0.0
 11
0.0
 21
9.272778562096908
 31
0.0
  0
LINE
  5
1186D
330
1184A
100
AcDbEntity
  8
0
100
AcDbLine
 10
-1.499999999999995
 20
9.272778562096908
 30
0.0
 11
-1.499999999999992
 21
23.24206230927729
 31
0.0
  0
LINE
  5
1186E
330
1184A
100
AcDbEntity
  8
0
100
AcDbLine
 10
-1.499999999999995
 20
9.272778562096908
 30
0.0
 11
-1.090140682897134
 21
9.272778562096908
 31
0.0
  0
LINE
  5
1186F
330
1184A
100
AcDbEntity
  8
0
100
AcDbLine
 10
-1.090140682897134
 20
9.272778562096908
 30
0.0
 11
0.0
 21
9.272778562096908
 31
0.0
  0
SPLINE
  5
11870
330
1184A
100
AcDbEntity
  8
0
100
AcDbSpline
210
0.0
220
0.0
230
1.0
 70
     8
 71
     3
 72
     8
 73
     4
 74
     0
 42
0.000000001
 43
0.0000000001
 40
0.0
 40
0.0
 40
0.0
 40
0.0
 40
1.0
 40
1.0
 40
1.0
 40
1.0
 10
0.0000000000000072
 20
9.272778562096881
 30
0.0
 10
0.0000000000000064
 20
8.598270045254409
 30
0.0
 10
-1.429203673205079
 20
7.92376152841189
 30
0.0
 10
-3.000000000000006
 20
7.249253011569621
 30
0.0
  0
SPLINE
  5
11871
330
1184A
100
AcDbEntity
  8
0
100
AcDbSpline
210
0.0
220
0.0
230
1.0
 70
     8
 71
     3
 72
     8
 73
     4
 74
     0
 42
0.000000001
 43
0.0000000001
 40
-1.0
 40
-1.0
 40
-1.0
 40
-1.0
 40
0.0
 40
0.0
 40
0.0
 40
0.0
 10
-3.000000000000001
 20
7.249253011569622
 30
0.0
 10
-2.214601836602537
 20
7.923761528411893
 30
0.0
 10
-1.499999999999993
 20
8.598270045254409
 30
0.0
 10
-1.499999999999992
 20
9.272778562096881
 30
0.0
  0
LINE
  5
11872
330
1184A
100
AcDbEntity
  8
0
100
AcDbLine
 10
-1.500000000000003
 20
1.500000000000002
 30
0.0
 11
-1.090140682897461
 21
1.500000000000002
 31
0.0
  0
SPLINE
  5
11873
330
1184A
100
AcDbEntity
  8
0
100
AcDbSpline
210
0.0
220
0.0
230
1.0
 70
     8
 71
     3
 72
     8
 73
     4
 74
     0
 42
0.000000001
 43
0.0000000001
 40
-1.0
 40
-1.0
 40
-1.0
 40
-1.0
 40
0.0
 40
0.0
 40
0.0
 40
0.0
 10
-2.999999999999998
 20
0.0000000000000066
 30
0.0
 10
-2.21460183660253
 20
0.0000000000000064
 30
0.0
 10
-1.500000000000003
 20
0.7146018366025587
 30
0.0
 10
-1.500000000000002
 20
1.500000000000002
 30
0.0
  0
SPLINE
  5
11874
330
1184A
100
AcDbEntity
  8
0
100
AcDbSpline
210
0.0
220
0.0
230
1.0
 70
     8
 71
     3
 72
     8
 73
     4
 74
     0
 42
0.000000001
 43
0.0000000001
 40
0.0
 40
0.0
 40
0.0
 40
0.0
 40
1.0
 40
1.0
 40
1.0
 40
1.0
 10
-0.0000000000000025
 20
1.500000000000001
 30
0.0
 10
-0.0000000000000027
 20
-0.0707963267948875
 30
0.0
 10
-1.42920367320506
 20
-1.499999999999993
 30
0.0
 10
-2.999999999999998
 20
-1.499999999999993
 30
0.0
  0
LINE
  5
11875
330
1184A
100
AcDbEntity
  8
0
100
AcDbLine
 10
-1.090140682897461
 20
1.500000000000002
 30
0.0
 11
0.0
 21
1.500000000000002
 31
0.0
  0
LINE
  5
11876
330
1184A
100
AcDbEntity
  8
0
100
AcDbLine
 10
0.0
 20
8.5
 30
0.0
 11
0.0
 21
4.799999999999999
 31
0.0
  0
LINE
  5
11877
330
1184A
100
AcDbEntity
  8
0
100
AcDbLine
 10
-0.5237942703962594
 20
8.5
 30
0.0
 11
0.0
 21
8.5
 31
0.0
  0
LINE
  5
11878
330
1184A
100
AcDbEntity
  8
0
100
AcDbLine
 10
-1.500000000000003
 20
4.799999999999999
 30
0.0
 11
-1.500000000000003
 21
7.923761528412061
 31
0.0
  0
LINE
  5
11879
330
1184A
100
AcDbEntity
  8
0
100
AcDbLine
 10
-1.500000000000003
 20
4.8
 30
0.0
 11
0.0
 21
4.800000000000001
 31
0.0
  0
LINE
  5
1187A
330
1184A
100
AcDbEntity
  8
0
100
AcDbLine
 10
0.0
 20
4.800000000000001
 30
0.0
 11
0.0
 21
1.500000000000003
 31
0.0
  0
LINE
  5
1187B
330
1184A
100
AcDbEntity
  8
0
100
AcDbLine
 10
-1.500000000000003
 20
1.500000000000002
 30
0.0
 11
-1.500000000000003
 21
4.8
 31
0.0
  0
LINE
  5
1187C
330
1184A
100
AcDbEntity
  8
0
100
AcDbLine
 10
-54.0
 20
-1.499999999999994
 30
0.0
 11
-2.999999999999998
 21
-1.499999999999994
 31
0.0
  0
LINE
  5
1187D
330
1184A
100
AcDbEntity
  8
0
100
AcDbLine
 10
-54.0
 20
1.500000000000021
 30
0.0
 11
-54.0
 21
-1.49999999999999
 31
0.0
  0
ARC
  5
1187E
330
1184A
100
AcDbEntity
  8
0
100
AcDbCircle
 10
1.500000000000004
 20
39.00000000000009
 30
0.0
 40
3.0
100
AcDbArc
 50
90.0000000000003
 51
120.0000000000001
  0
ARC
  5
1187F
330
1184A
100
AcDbEntity
  8
0
100
AcDbCircle
 10
1.500000000000004
 20
39.00000000000009
 30
0.0
 40
1.5
100
AcDbArc
 50
90.00000000000049
 51
180.0
  0
ENDBLK
  5
1184C
330
1184A
100
AcDbEntity
  8
0
100
AcDbBlockEnd
  0
BLOCK
  5
11881
330
11880
100
AcDbEntity
  8
0
100
AcDbBlockBegin
  2
SBE60_85-Top
 70
     0
 10
0.0
 20
0.0
 30
0.0
  3
SBE60_85-Top
  1

  0
ARC
  5
11883
330
11880
100
AcDbEntity
  8
0
100
AcDbCircle
 10
-33.00000000000002
 20
-3.000000000000002
 30
0.0
 40
1.500000000000003
100
AcDbArc
 50
0.0
 51
90.0
  0
ARC
  5
11884
330
11880
100
AcDbEntity
  8
0
100
AcDbCircle
 10
-33.00000000000002
 20
-3.000000000000002
 30
0.0
 40
3.000000000000002
100
AcDbArc
 50
0.0
 51
90.0
  0
ARC
  5
11885
330
11880
100
AcDbEntity
  8
0
100
AcDbCircle
 10
32.99999999999985
 20
-2.999999999999996
 30
0.0
 40
3.000000000000002
100
AcDbArc
 50
90.00000000000007
 51
180.0
  0
LINE
  5
11886
330
11880
100
AcDbEntity
  8
0
100
AcDbLine
 10
-28.5
 20
-2.999999999999998
 30
0.0
 11
-30.0
 21
-2.999999999999998
 31
0.0
  0
ARC
  5
11887
330
11880
100
AcDbEntity
  8
0
100
AcDbCircle
 10
32.99999999999985
 20
-2.999999999999996
 30
0.0
 40
1.500000000000003
100
AcDbArc
 50
90.0
 51
180.0
  0
LINE
  5
11888
330
11880
100
AcDbEntity
  8
0
100
AcDbLine
 10
30.0
 20
-2.999999999999998
 30
0.0
 11
28.50000000000001
 21
-2.999999999999998
 31
0.0
  0
LINE
  5
11889
330
11880
100
AcDbEntity
  8
0
100
AcDbLine
 10
-31.5
 20
-53.99999999999999
 30
0.0
 11
-31.5
 21
-41.78968515835103
 31
0.0
  0
LINE
  5
1188A
330
11880
100
AcDbEntity
  8
0
100
AcDbLine
 10
-30.0
 20
-41.78968515835103
 30
0.0
 11
-30.0
 21
-54.0
 31
0.0
  0
LINE
  5
1188B
330
11880
100
AcDbEntity
  8
0
100
AcDbLine
 10
29.99999999999998
 20
-53.99999999999999
 30
0.0
 11
29.99999999999996
 21
-41.78968515835103
 31
0.0
  0
LINE
  5
1188C
330
11880
100
AcDbEntity
  8
0
100
AcDbLine
 10
31.49999999999996
 20
-41.78968515835103
 30
0.0
 11
31.49999999999998
 21
-53.99999999999999
 31
0.0
  0
LINE
  5
1188D
330
11880
100
AcDbEntity
  8
0
100
AcDbLine
 10
31.49999999999998
 20
-53.99999999999999
 30
0.0
 11
29.99999999999998
 21
-53.99999999999999
 31
0.0
  0
LINE
  5
1188E
330
11880
100
AcDbEntity
  8
0
100
AcDbLine
 10
-30.0
 20
-54.0
 30
0.0
 11
-31.5
 21
-53.99999999999999
 31
0.0
  0
LINE
  5
1188F
330
11880
100
AcDbEntity
  8
0
100
AcDbLine
 10
-31.49999999999999
 20
-36.49999999999999
 30
0.0
 11
-31.49999999999999
 21
-41.78968515835103
 31
0.0
  0
LINE
  5
11890
330
11880
100
AcDbEntity
  8
0
100
AcDbLine
 10
-30.0
 20
-41.78968515835103
 30
0.0
 11
-30.0
 21
-36.49999999999999
 31
0.0
  0
LINE
  5
11891
330
11880
100
AcDbEntity
  8
0
100
AcDbLine
 10
30.00000000000005
 20
-36.49999999999999
 30
0.0
 11
30.00000000000007
 21
-41.78968515835103
 31
0.0
  0
LINE
  5
11892
330
11880
100
AcDbEntity
  8
0
100
AcDbLine
 10
31.50000000000007
 20
-41.78968515835103
 30
0.0
 11
31.50000000000006
 21
-36.49999999999999
 31
0.0
  0
LINE
  5
11893
330
11880
100
AcDbEntity
  8
0
100
AcDbLine
 10
-31.50000000000002
 20
-30.50000000000001
 30
0.0
 11
-31.50000000000002
 21
-36.5
 31
0.0
  0
LINE
  5
11894
330
11880
100
AcDbEntity
  8
0
100
AcDbLine
 10
-30.00000000000002
 20
-36.5
 30
0.0
 11
-30.00000000000002
 21
-30.50000000000001
 31
0.0
  0
LINE
  5
11895
330
11880
100
AcDbEntity
  8
0
100
AcDbLine
 10
29.99999999999985
 20
-30.50000000000001
 30
0.0
 11
29.99999999999986
 21
-36.5
 31
0.0
  0
LINE
  5
11896
330
11880
100
AcDbEntity
  8
0
100
AcDbLine
 10
31.49999999999986
 20
-36.5
 30
0.0
 11
31.49999999999985
 21
-30.50000000000001
 31
0.0
  0
LINE
  5
11897
330
11880
100
AcDbEntity
  8
0
100
AcDbLine
 10
-53.0
 20
0.0
 30
0.0
 11
-59.00000000000002
 21
0.0
 31
0.0
  0
LINE
  5
11898
330
11880
100
AcDbEntity
  8
0
100
AcDbLine
 10
-59.00000000000002
 20
0.0
 30
0.0
 11
-59.00000000000002
 21
-1.499999999999991
 31
0.0
  0
LINE
  5
11899
330
11880
100
AcDbEntity
  8
0
100
AcDbLine
 10
-59.00000000000002
 20
-1.499999999999991
 30
0.0
 11
-53.0
 21
-1.499999999999992
 31
0.0
  0
LINE
  5
1189A
330
11880
100
AcDbEntity
  8
0
100
AcDbLine
 10
-53.0
 20
-1.499999999999992
 30
0.0
 11
-53.0
 21
0.0
 31
0.0
  0
LINE
  5
1189B
330
11880
100
AcDbEntity
  8
0
100
AcDbLine
 10
-30.00000000000002
 20
-30.50000000000001
 30
0.0
 11
-31.50000000000002
 21
-30.50000000000001
 31
0.0
  0
LINE
  5
1189C
330
11880
100
AcDbEntity
  8
0
100
AcDbLine
 10
-31.50000000000002
 20
-36.5
 30
0.0
 11
-30.00000000000002
 21
-36.5
 31
0.0
  0
LINE
  5
1189D
330
11880
100
AcDbEntity
  8
0
100
AcDbLine
 10
31.49999999999985
 20
-30.50000000000001
 30
0.0
 11
29.99999999999985
 21
-30.50000000000001
 31
0.0
  0
LINE
  5
1189E
330
11880
100
AcDbEntity
  8
0
100
AcDbLine
 10
29.99999999999986
 20
-36.5
 30
0.0
 11
31.49999999999986
 21
-36.5
 31
0.0
  0
LINE
  5
1189F
330
11880
100
AcDbEntity
  8
0
100
AcDbLine
 10
58.99999999999986
 20
0.0
 30
0.0
 11
52.99999999999986
 21
0.0
 31
0.0
  0
LINE
  5
118A0
330
11880
100
AcDbEntity
  8
0
100
AcDbLine
 10
52.99999999999986
 20
0.0
 30
0.0
 11
52.99999999999986
 21
-1.499999999999988
 31
0.0
  0
LINE
  5
118A1
330
11880
100
AcDbEntity
  8
0
100
AcDbLine
 10
52.99999999999986
 20
-1.499999999999988
 30
0.0
 11
58.99999999999986
 21
-1.499999999999993
 31
0.0
  0
LINE
  5
118A2
330
11880
100
AcDbEntity
  8
0
100
AcDbLine
 10
58.99999999999986
 20
-1.499999999999993
 30
0.0
 11
58.99999999999986
 21
0.0
 31
0.0
  0
LINE
  5
118A3
330
11880
100
AcDbEntity
  8
0
100
AcDbLine
 10
-31.50000000000002
 20
-2.999999999999998
 30
0.0
 11
-31.50000000000002
 21
-30.50000000000001
 31
0.0
  0
LINE
  5
118A4
330
11880
100
AcDbEntity
  8
0
100
AcDbLine
 10
-30.00000000000002
 20
-2.999999999999998
 30
0.0
 11
-30.00000000000002
 21
-30.50000000000001
 31
0.0
  0
LINE
  5
118A5
330
11880
100
AcDbEntity
  8
0
100
AcDbLine
 10
29.99999999999984
 20
-2.999999999999998
 30
0.0
 11
29.99999999999985
 21
-30.50000000000001
 31
0.0
  0
LINE
  5
118A6
330
11880
100
AcDbEntity
  8
0
100
AcDbLine
 10
31.49999999999985
 20
-30.50000000000001
 30
0.0
 11
31.49999999999985
 21
-2.999999999999998
 31
0.0
  0
LINE
  5
118A7
330
11880
100
AcDbEntity
  8
0
100
AcDbLine
 10
-28.49999999999999
 20
-54.0
 30
0.0
 11
28.50000000000001
 21
-54.0
 31
0.0
  0
LINE
  5
118A8
330
11880
100
AcDbEntity
  8
0
100
AcDbLine
 10
-33.00000000000002
 20
-1.499999999999999
 30
0.0
 11
-53.0
 21
-1.499999999999992
 31
0.0
  0
LINE
  5
118A9
330
11880
100
AcDbEntity
  8
0
100
AcDbLine
 10
52.99999999999986
 20
0.0
 30
0.0
 11
32.99999999999984
 21
0.0
 31
0.0
  0
LINE
  5
118AA
330
11880
100
AcDbEntity
  8
0
100
AcDbLine
 10
32.99999999999985
 20
-1.499999999999994
 30
0.0
 11
52.99999999999986
 21
-1.499999999999988
 31
0.0
  0
LINE
  5
118AB
330
11880
100
AcDbEntity
  8
0
100
AcDbLine
 10
-33.00000000000002
 20
0.0
 30
0.0
 11
-53.0
 21
0.0
 31
0.0
  0
LINE
  5
118AC
330
11880
100
AcDbEntity
  8
0
100
AcDbLine
 10
-48.49999999999977
 20
0.0
 30
0.0
 11
-48.49999999999976
 21
1.50000000000001
 31
0.0
  0
LINE
  5
118AD
330
11880
100
AcDbEntity
  8
0
100
AcDbLine
 10
-44.49999999999982
 20
1.499999999999972
 30
0.0
 11
-44.49999999999984
 21
0.0
 31
0.0
  0
LINE
  5
118AE
330
11880
100
AcDbEntity
  8
0
100
AcDbLine
 10
-44.49999999999983
 20
1.499999999999985
 30
0.0
 11
-44.49999999999984
 21
6.999999999999975
 31
0.0
  0
LINE
  5
118AF
330
11880
100
AcDbEntity
  8
0
100
AcDbLine
 10
-44.49999999999984
 20
6.999999999999975
 30
0.0
 11
-46.49999999999984
 21
8.999999999999976
 31
0.0
  0
LINE
  5
118B0
330
11880
100
AcDbEntity
  8
0
100
AcDbLine
 10
-46.49999999999984
 20
8.999999999999976
 30
0.0
 11
-48.49999999999984
 21
6.999999999999975
 31
0.0
  0
LINE
  5
118B1
330
11880
100
AcDbEntity
  8
0
100
AcDbLine
 10
-48.49999999999984
 20
6.999999999999975
 30
0.0
 11
-48.49999999999983
 21
1.499999999999994
 31
0.0
  0
ARC
  5
118B2
330
11880
100
AcDbEntity
  8
0
100
AcDbCircle
 10
-39.32677949145464
 20
-7.495925238298273
 30
0.0
 40
5.000000000000004
100
AcDbArc
 50
9.000000000000065
 51
72.00000000000013
  0
LINE
  5
118B3
330
11880
100
AcDbEntity
  8
0
100
AcDbLine
 10
-34.38833778847895
 20
-6.713752913097108
 30
0.0
 11
-31.51846748910731
 21
-24.83340086267576
 31
0.0
  0
LINE
  5
118B4
330
11880
100
AcDbEntity
  8
0
100
AcDbLine
 10
-41.37405116892428
 20
-1.573415225557267
 30
0.0
 11
-37.78169451957991
 21
-2.740642656822502
 31
0.0
  0
SPLINE
  5
118B5
330
11880
100
AcDbEntity
  8
0
100
AcDbSpline
210
0.0
220
0.0
230
1.0
 70
     8
 71
     3
 72
     8
 73
     4
 74
     0
 42
0.000000001
 43
0.0000000001
 40
-1.0
 40
-1.0
 40
-1.0
 40
-1.0
 40
0.0
 40
0.0
 40
0.0
 40
0.0
 10
-25.49999999999999
 20
-1.500000000000002
 30
0.0
 10
-26.50000000000016
 20
-1.500000000000002
 30
0.0
 10
-27.50000000000091
 20
-2.214601836602604
 30
0.0
 10
-28.49999999999996
 20
-2.999999999999997
 30
0.0
  0
LINE
  5
118B6
330
11880
100
AcDbEntity
  8
0
100
AcDbLine
 10
-25.49999999999999
 20
-1.500000000000002
 30
0.0
 11
-25.49999999999999
 21
-1.090140682896955
 31
0.0
  0
LINE
  5
118B7
330
11880
100
AcDbEntity
  8
0
100
AcDbLine
 10
-25.49999999999999
 20
-1.090140682896955
 30
0.0
 11
-25.49999999999999
 21
0.0
 31
0.0
  0
SPLINE
  5
118B8
330
11880
100
AcDbEntity
  8
0
100
AcDbSpline
210
0.0
220
0.0
230
1.0
 70
     8
 71
     3
 72
     8
 73
     4
 74
     0
 42
0.000000001
 43
0.0000000001
 40
0.0
 40
0.0
 40
0.0
 40
0.0
 40
1.0
 40
1.0
 40
1.0
 40
1.0
 10
-28.49999999999996
 20
-2.999999999999995
 30
0.0
 10
-27.50000000000091
 20
-1.429203673205207
 30
0.0
 10
-26.50000000000016
 20
-0.0000000000000022
 30
0.0
 10
-25.49999999999999
 20
-0.0000000000000025
 30
0.0
  0
LINE
  5
118B9
330
11880
100
AcDbEntity
  8
0
100
AcDbLine
 10
-25.49999999999999
 20
0.0
 30
0.0
 11
-22.19999999999999
 21
0.0
 31
0.0
  0
LINE
  5
118BA
330
11880
100
AcDbEntity
  8
0
100
AcDbLine
 10
-22.19999999999999
 20
-1.500000000000002
 30
0.0
 11
-25.49999999999999
 21
-1.500000000000002
 31
0.0
  0
LINE
  5
118BB
330
11880
100
AcDbEntity
  8
0
100
AcDbLine
 10
-22.19999999999999
 20
-1.500000000000002
 30
0.0
 11
-22.19999999999999
 21
0.0
 31
0.0
  0
LINE
  5
118BC
330
11880
100
AcDbEntity
  8
0
100
AcDbLine
 10
-22.19999999999999
 20
0.0
 30
0.0
 11
-14.94999999999999
 21
0.0
 31
0.0
  0
LINE
  5
118BD
330
11880
100
AcDbEntity
  8
0
100
AcDbLine
 10
-14.94999999999999
 20
-1.500000000000003
 30
0.0
 11
-22.19999999999999
 21
-1.500000000000002
 31
0.0
  0
LINE
  5
118BE
330
11880
100
AcDbEntity
  8
0
100
AcDbLine
 10
-14.94999999999999
 20
-1.500000000000003
 30
0.0
 11
-14.94999999999999
 21
0.0
 31
0.0
  0
LINE
  5
118BF
330
11880
100
AcDbEntity
  8
0
100
AcDbLine
 10
-14.94999999999999
 20
0.0
 30
0.0
 11
-11.24999999999999
 21
0.0
 31
0.0
  0
LINE
  5
118C0
330
11880
100
AcDbEntity
  8
0
100
AcDbLine
 10
-11.24999999999999
 20
-1.500000000000003
 30
0.0
 11
-14.94999999999999
 21
-1.500000000000003
 31
0.0
  0
LINE
  5
118C1
330
11880
100
AcDbEntity
  8
0
100
AcDbLine
 10
-11.24999999999999
 20
0.0
 30
0.0
 11
-11.24999999999999
 21
-1.500000000000003
 31
0.0
  0
LINE
  5
118C2
330
11880
100
AcDbEntity
  8
0
100
AcDbLine
 10
25.50000000000002
 20
-1.500000000000003
 30
0.0
 11
25.50000000000002
 21
-1.090140682897461
 31
0.0
  0
SPLINE
  5
118C3
330
11880
100
AcDbEntity
  8
0
100
AcDbSpline
210
0.0
220
0.0
230
1.0
 70
     8
 71
     3
 72
     8
 73
     4
 74
     0
 42
0.000000001
 43
0.0000000001
 40
-1.0
 40
-1.0
 40
-1.0
 40
-1.0
 40
0.0
 40
0.0
 40
0.0
 40
0.0
 10
28.50000000000003
 20
-2.999999999999998
 30
0.0
 10
27.49999999999982
 20
-2.21460183660253
 30
0.0
 10
26.4999999999999
 20
-1.500000000000003
 30
0.0
 10
25.50000000000001
 20
-1.500000000000002
 30
0.0
  0
SPLINE
  5
118C4
330
11880
100
AcDbEntity
  8
0
100
AcDbSpline
210
0.0
220
0.0
230
1.0
 70
     8
 71
     3
 72
     8
 73
     4
 74
     0
 42
0.000000001
 43
0.0000000001
 40
0.0
 40
0.0
 40
0.0
 40
0.0
 40
1.0
 40
1.0
 40
1.0
 40
1.0
 10
25.50000000000001
 20
-0.0000000000000025
 30
0.0
 10
26.4999999999999
 20
-0.0000000000000027
 30
0.0
 10
27.49999999999982
 20
-1.42920367320506
 30
0.0
 10
28.50000000000003
 20
-2.999999999999998
 30
0.0
  0
LINE
  5
118C5
330
11880
100
AcDbEntity
  8
0
100
AcDbLine
 10
25.50000000000002
 20
-1.090140682897461
 30
0.0
 11
25.50000000000002
 21
0.0
 31
0.0
  0
LINE
  5
118C6
330
11880
100
AcDbEntity
  8
0
100
AcDbLine
 10
11.25000000000001
 20
0.0
 30
0.0
 11
14.95000000000001
 21
0.0
 31
0.0
  0
LINE
  5
118C7
330
11880
100
AcDbEntity
  8
0
100
AcDbLine
 10
11.25000000000001
 20
-1.500000000000003
 30
0.0
 11
11.25000000000001
 21
0.0
 31
0.0
  0
LINE
  5
118C8
330
11880
100
AcDbEntity
  8
0
100
AcDbLine
 10
14.95000000000001
 20
-1.500000000000003
 30
0.0
 11
11.25000000000001
 21
-1.500000000000003
 31
0.0
  0
LINE
  5
118C9
330
11880
100
AcDbEntity
  8
0
100
AcDbLine
 10
14.95000000000001
 20
-1.500000000000003
 30
0.0
 11
14.95000000000001
 21
0.0
 31
0.0
  0
LINE
  5
118CA
330
11880
100
AcDbEntity
  8
0
100
AcDbLine
 10
14.95000000000001
 20
0.0
 30
0.0
 11
22.20000000000002
 21
0.0
 31
0.0
  0
LINE
  5
118CB
330
11880
100
AcDbEntity
  8
0
100
AcDbLine
 10
22.20000000000002
 20
-1.500000000000003
 30
0.0
 11
14.95000000000001
 21
-1.500000000000003
 31
0.0
  0
LINE
  5
118CC
330
11880
100
AcDbEntity
  8
0
100
AcDbLine
 10
22.20000000000002
 20
-1.500000000000003
 30
0.0
 11
22.20000000000002
 21
0.0
 31
0.0
  0
LINE
  5
118CD
330
11880
100
AcDbEntity
  8
0
100
AcDbLine
 10
22.20000000000002
 20
0.0
 30
0.0
 11
25.50000000000002
 21
0.0
 31
0.0
  0
LINE
  5
118CE
330
11880
100
AcDbEntity
  8
0
100
AcDbLine
 10
25.50000000000002
 20
-1.500000000000003
 30
0.0
 11
22.20000000000002
 21
-1.500000000000003
 31
0.0
  0
LINE
  5
118CF
330
11880
100
AcDbEntity
  8
0
100
AcDbLine
 10
11.25000000000001
 20
-1.500000000000003
 30
0.0
 11
-11.24999999999999
 21
-1.500000000000003
 31
0.0
  0
LINE
  5
118D0
330
11880
100
AcDbEntity
  8
0
100
AcDbLine
 10
11.25000000000001
 20
0.0
 30
0.0
 11
-11.24999999999999
 21
0.0
 31
0.0
  0
LINE
  5
118D1
330
11880
100
AcDbEntity
  8
0
100
AcDbLine
 10
44.49999999999973
 20
0.0
 30
0.0
 11
44.49999999999971
 21
1.500000000000003
 31
0.0
  0
LINE
  5
118D2
330
11880
100
AcDbEntity
  8
0
100
AcDbLine
 10
48.49999999999983
 20
1.499999999999989
 30
0.0
 11
48.49999999999984
 21
0.0
 31
0.0
  0
LINE
  5
118D3
330
11880
100
AcDbEntity
  8
0
100
AcDbLine
 10
-30.0
 20
-54.0
 30
0.0
 11
-28.49999999999999
 21
-54.0
 31
0.0
  0
LINE
  5
118D4
330
11880
100
AcDbEntity
  8
0
100
AcDbLine
 10
28.50000000000001
 20
-54.0
 30
0.0
 11
30.0
 21
-54.0
 31
0.0
  0
LINE
  5
118D5
330
11880
100
AcDbEntity
  8
0
100
AcDbLine
 10
48.49999999999984
 20
1.500000000000003
 30
0.0
 11
48.49999999999984
 21
6.999999999999984
 31
0.0
  0
LINE
  5
118D6
330
11880
100
AcDbEntity
  8
0
100
AcDbLine
 10
48.49999999999984
 20
6.999999999999984
 30
0.0
 11
46.49999999999985
 21
8.999999999999985
 31
0.0
  0
LINE
  5
118D7
330
11880
100
AcDbEntity
  8
0
100
AcDbLine
 10
46.49999999999985
 20
8.999999999999985
 30
0.0
 11
44.49999999999984
 21
6.999999999999984
 31
0.0
  0
LINE
  5
118D8
330
11880
100
AcDbEntity
  8
0
100
AcDbLine
 10
44.49999999999984
 20
6.999999999999984
 30
0.0
 11
44.49999999999984
 21
1.499999999999994
 31
0.0
  0
ARC
  5
118D9
330
11880
100
AcDbEntity
  8
0
100
AcDbCircle
 10
-41.8375766604867
 20
-2.999999999999998
 30
0.0
 40
1.5
100
AcDbArc
 50
72.00000000000006
 51
90.0
  0
ARC
  5
118DA
330
11880
100
AcDbEntity
  8
0
100
AcDbCircle
 10
-33.00000000000002
 20
-25.06805256023611
 30
0.0
 40
1.5
100
AcDbArc
 50
0.0
 51
9.000000000000065
  0
ARC
  5
118DB
330
11880
100
AcDbEntity
  8
0
100
AcDbCircle
 10
32.99999999999989
 20
-25.06805256023693
 30
0.0
 40
1.5
100
AcDbArc
 50
171.0000000000001
 51
180.0
  0
ARC
  5
118DC
330
11880
100
AcDbEntity
  8
0
100
AcDbCircle
 10
41.83757666048673
 20
-2.999999999999987
 30
0.0
 40
1.5
100
AcDbArc
 50
90.0
 51
107.9999999999999
  0
LINE
  5
118DD
330
11880
100
AcDbEntity
  8
0
100
AcDbLine
 10
37.78169451957991
 20
-2.740642656822502
 30
0.0
 11
41.37405116892431
 21
-1.573415225557255
 31
0.0
  0
LINE
  5
118DE
330
11880
100
AcDbEntity
  8
0
100
AcDbLine
 10
31.51846748910717
 20
-24.83340086267659
 30
0.0
 11
34.38833778847895
 21
-6.713752913097108
 31
0.0
  0
ARC
  5
118DF
330
11880
100
AcDbEntity
  8
0
100
AcDbCircle
 10
39.32677949145464
 20
-7.495925238298273
 30
0.0
 40
5.000000000000004
100
AcDbArc
 50
107.9999999999998
 51
170.9999999999999
  0
ENDBLK
  5
11882
330
11880
100
AcDbEntity
  8
0
100
AcDbBlockEnd
  0
BLOCK
  5
118E1
330
118E0
100
AcDbEntity
  8
0
100
AcDbBlockBegin
  2
SBE60_85-Bottom
 70
     0
 10
0.0
 20
0.0
 30
0.0
  3
SBE60_85-Bottom
  1

  0
LINE
  5
118E3
330
118E0
100
AcDbEntity
  8
0
100
AcDbLine
 10
-31.5
 20
54.0
 30
0.0
 11
-31.5
 21
2.999999999999998
 31
0.0
  0
LINE
  5
118E4
330
118E0
100
AcDbEntity
  8
0
100
AcDbLine
 10
31.5
 20
54.0
 30
0.0
 11
31.5
 21
2.999999999999998
 31
0.0
  0
LINE
  5
118E5
330
118E0
100
AcDbEntity
  8
0
100
AcDbLine
 10
31.5
 20
54.0
 30
0.0
 11
28.50000000000001
 21
54.0
 31
0.0
  0
LINE
  5
118E6
330
118E0
100
AcDbEntity
  8
0
100
AcDbLine
 10
-28.5
 20
54.0
 30
0.0
 11
-31.5
 21
54.0
 31
0.0
  0
LINE
  5
118E7
330
118E0
100
AcDbEntity
  8
0
100
AcDbLine
 10
-59.00000000000002
 20
1.5
 30
0.0
 11
-53.71031484164899
 21
1.500000000000002
 31
0.0
  0
LINE
  5
118E8
330
118E0
100
AcDbEntity
  8
0
100
AcDbLine
 10
-59.0
 20
1.499999999999997
 30
0.0
 11
-59.0
 21
0.0
 31
0.0
  0
LINE
  5
118E9
330
118E0
100
AcDbEntity
  8
0
100
AcDbLine
 10
58.99999999999995
 20
0.0
 30
0.0
 11
53.71031484164892
 21
0.0
 31
0.0
  0
LINE
  5
118EA
330
118E0
100
AcDbEntity
  8
0
100
AcDbLine
 10
-53.71031484164899
 20
0.0
 30
0.0
 11
-59.00000000000002
 21
0.0
 31
0.0
  0
LINE
  5
118EB
330
118E0
100
AcDbEntity
  8
0
100
AcDbLine
 10
58.99999999999993
 20
0.0
 30
0.0
 11
58.99999999999993
 21
1.499999999999999
 31
0.0
  0
LINE
  5
118EC
330
118E0
100
AcDbEntity
  8
0
100
AcDbLine
 10
53.71031484164892
 20
1.499999999999993
 30
0.0
 11
58.99999999999995
 21
1.499999999999991
 31
0.0
  0
LINE
  5
118ED
330
118E0
100
AcDbEntity
  8
0
100
AcDbLine
 10
-53.71031484164899
 20
1.499999999999999
 30
0.0
 11
-32.99999999999998
 21
1.499999999999995
 31
0.0
  0
LINE
  5
118EE
330
118E0
100
AcDbEntity
  8
0
100
AcDbLine
 10
-48.49999999999981
 20
0.0
 30
0.0
 11
-48.49999999999979
 21
-1.500000000000007
 31
0.0
  0
LINE
  5
118EF
330
118E0
100
AcDbEntity
  8
0
100
AcDbLine
 10
-44.49999999999984
 20
-1.49999999999997
 30
0.0
 11
-44.49999999999985
 21
0.0
 31
0.0
  0
LINE
  5
118F0
330
118E0
100
AcDbEntity
  8
0
100
AcDbLine
 10
-32.99999999999998
 20
0.0
 30
0.0
 11
-53.71031484164899
 21
0.0
 31
0.0
  0
SPLINE
  5
118F1
330
118E0
100
AcDbEntity
  8
0
100
AcDbSpline
210
0.0
220
0.0
230
1.0
 70
     8
 71
     3
 72
     8
 73
     4
 74
     0
 42
0.000000001
 43
0.0000000001
 40
-1.0
 40
-1.0
 40
-1.0
 40
-1.0
 40
0.0
 40
0.0
 40
0.0
 40
0.0
 10
-29.99999999999998
 20
3.000000000000006
 30
0.0
 10
-29.99999999999998
 20
1.429203673205079
 30
0.0
 10
-31.42920367320508
 20
-0.0000000000000064
 30
0.0
 10
-32.99999999999998
 20
-0.0000000000000072
 30
0.0
  0
SPLINE
  5
118F2
330
118E0
100
AcDbEntity
  8
0
100
AcDbSpline
210
0.0
220
0.0
230
1.0
 70
     8
 71
     3
 72
     8
 73
     4
 74
     0
 42
0.000000001
 43
0.0000000001
 40
0.0
 40
0.0
 40
0.0
 40
0.0
 40
1.0
 40
1.0
 40
1.0
 40
1.0
 10
-32.99999999999998
 20
1.499999999999992
 30
0.0
 10
-32.21460183660254
 20
1.499999999999993
 30
0.0
 10
-31.49999999999998
 20
2.214601836602537
 30
0.0
 10
-31.49999999999999
 20
3.000000000000001
 30
0.0
  0
LINE
  5
118F3
330
118E0
100
AcDbEntity
  8
0
100
AcDbLine
 10
-32.99999999999998
 20
1.499999999999995
 30
0.0
 11
-32.99999999999998
 21
1.090140682897134
 31
0.0
  0
LINE
  5
118F4
330
118E0
100
AcDbEntity
  8
0
100
AcDbLine
 10
-32.99999999999998
 20
1.090140682897134
 30
0.0
 11
-32.99999999999998
 21
0.0
 31
0.0
  0
LINE
  5
118F5
330
118E0
100
AcDbEntity
  8
0
100
AcDbLine
 10
-46.49999999999984
 20
-8.999999999999976
 30
0.0
 11
-44.49999999999984
 21
-6.999999999999975
 31
0.0
  0
LINE
  5
118F6
330
118E0
100
AcDbEntity
  8
0
100
AcDbLine
 10
-44.49999999999984
 20
-6.999999999999975
 30
0.0
 11
-44.49999999999983
 21
-1.499999999999985
 31
0.0
  0
LINE
  5
118F7
330
118E0
100
AcDbEntity
  8
0
100
AcDbLine
 10
-48.49999999999983
 20
-1.499999999999994
 30
0.0
 11
-48.49999999999984
 21
-6.999999999999975
 31
0.0
  0
LINE
  5
118F8
330
118E0
100
AcDbEntity
  8
0
100
AcDbLine
 10
-48.49999999999984
 20
-6.999999999999975
 30
0.0
 11
-46.49999999999984
 21
-8.999999999999976
 31
0.0
  0
ARC
  5
118F9
330
118E0
100
AcDbEntity
  8
0
100
AcDbCircle
 10
-39.32677949145464
 20
7.495925238298273
 30
0.0
 40
5.000000000000004
100
AcDbArc
 50
287.9999999999999
 51
350.9999999999999
  0
LINE
  5
118FA
330
118E0
100
AcDbEntity
  8
0
100
AcDbLine
 10
-34.38833778847895
 20
6.713752913097108
 30
0.0
 11
-31.51846748910731
 21
24.83340086267576
 31
0.0
  0
LINE
  5
118FB
330
118E0
100
AcDbEntity
  8
0
100
AcDbLine
 10
-41.37405116892428
 20
1.573415225557267
 30
0.0
 11
-37.78169451957991
 21
2.740642656822502
 31
0.0
  0
LINE
  5
118FC
330
118E0
100
AcDbEntity
  8
0
100
AcDbLine
 10
53.71031484164892
 20
0.0
 30
0.0
 11
32.99999999999998
 21
0.0
 31
0.0
  0
LINE
  5
118FD
330
118E0
100
AcDbEntity
  8
0
100
AcDbLine
 10
32.99999999999998
 20
1.499999999999995
 30
0.0
 11
53.71031484164892
 21
1.499999999999992
 31
0.0
  0
LINE
  5
118FE
330
118E0
100
AcDbEntity
  8
0
100
AcDbLine
 10
32.99999999999998
 20
1.499999999999995
 30
0.0
 11
32.99999999999998
 21
1.090140682897134
 31
0.0
  0
LINE
  5
118FF
330
118E0
100
AcDbEntity
  8
0
100
AcDbLine
 10
32.99999999999998
 20
1.090140682897134
 30
0.0
 11
32.99999999999998
 21
0.0
 31
0.0
  0
SPLINE
  5
11900
330
118E0
100
AcDbEntity
  8
0
100
AcDbSpline
210
0.0
220
0.0
230
1.0
 70
     8
 71
     3
 72
     8
 73
     4
 74
     0
 42
0.000000001
 43
0.0000000001
 40
0.0
 40
0.0
 40
0.0
 40
0.0
 40
1.0
 40
1.0
 40
1.0
 40
1.0
 10
32.99999999999998
 20
-0.0000000000000072
 30
0.0
 10
31.42920367320508
 20
-0.0000000000000064
 30
0.0
 10
29.99999999999998
 20
1.429203673205079
 30
0.0
 10
29.99999999999998
 20
3.000000000000006
 30
0.0
  0
SPLINE
  5
11901
330
118E0
100
AcDbEntity
  8
0
100
AcDbSpline
210
0.0
220
0.0
230
1.0
 70
     8
 71
     3
 72
     8
 73
     4
 74
     0
 42
0.000000001
 43
0.0000000001
 40
-1.0
 40
-1.0
 40
-1.0
 40
-1.0
 40
0.0
 40
0.0
 40
0.0
 40
0.0
 10
31.49999999999999
 20
3.000000000000001
 30
0.0
 10
31.49999999999998
 20
2.214601836602537
 30
0.0
 10
32.21460183660254
 20
1.499999999999993
 30
0.0
 10
32.99999999999998
 20
1.499999999999992
 30
0.0
  0
SPLINE
  5
11902
330
118E0
100
AcDbEntity
  8
0
100
AcDbSpline
210
0.0
220
0.0
230
1.0
 70
     8
 71
     3
 72
     8
 73
     4
 74
     0
 42
0.000000001
 43
0.0000000001
 40
0.0
 40
0.0
 40
0.0
 40
0.0
 40
1.0
 40
1.0
 40
1.0
 40
1.0
 10
-28.49999999999996
 20
2.999999999999995
 30
0.0
 10
-27.50000000000091
 20
1.429203673205207
 30
0.0
 10
-26.50000000000016
 20
0.0000000000000022
 30
0.0
 10
-25.49999999999999
 20
0.0000000000000025
 30
0.0
  0
SPLINE
  5
11903
330
118E0
100
AcDbEntity
  8
0
100
AcDbSpline
210
0.0
220
0.0
230
1.0
 70
     8
 71
     3
 72
     8
 73
     4
 74
     0
 42
0.000000001
 43
0.0000000001
 40
0.0
 40
0.0
 40
0.0
 40
0.0
 40
1.0
 40
1.0
 40
1.0
 40
1.0
 10
25.50000000000001
 20
0.0000000000000025
 30
0.0
 10
26.4999999999999
 20
0.0000000000000027
 30
0.0
 10
27.49999999999982
 20
1.42920367320506
 30
0.0
 10
28.50000000000003
 20
2.999999999999998
 30
0.0
  0
LINE
  5
11904
330
118E0
100
AcDbEntity
  8
0
100
AcDbLine
 10
25.50000000000002
 20
0.0
 30
0.0
 11
-25.49999999999999
 21
0.0
 31
0.0
  0
LINE
  5
11905
330
118E0
100
AcDbEntity
  8
0
100
AcDbLine
 10
-28.5
 20
2.999999999999998
 30
0.0
 11
-31.49999999999999
 21
2.999999999999998
 31
0.0
  0
LINE
  5
11906
330
118E0
100
AcDbEntity
  8
0
100
AcDbLine
 10
31.5
 20
2.999999999999998
 30
0.0
 11
28.50000000000001
 21
2.999999999999998
 31
0.0
  0
LINE
  5
11907
330
118E0
100
AcDbEntity
  8
0
100
AcDbLine
 10
-28.5
 20
54.0
 30
0.0
 11
28.50000000000001
 21
54.0
 31
0.0
  0
LINE
  5
11908
330
118E0
100
AcDbEntity
  8
0
100
AcDbLine
 10
44.49999999999983
 20
0.0
 30
0.0
 11
44.49999999999977
 21
-1.500000000000004
 31
0.0
  0
LINE
  5
11909
330
118E0
100
AcDbEntity
  8
0
100
AcDbLine
 10
48.49999999999984
 20
-1.499999999999991
 30
0.0
 11
48.49999999999986
 21
0.0
 31
0.0
  0
LINE
  5
1190A
330
118E0
100
AcDbEntity
  8
0
100
AcDbLine
 10
44.49999999999984
 20
-6.999999999999984
 30
0.0
 11
46.49999999999985
 21
-8.999999999999985
 31
0.0
  0
LINE
  5
1190B
330
118E0
100
AcDbEntity
  8
0
100
AcDbLine
 10
46.49999999999985
 20
-8.999999999999985
 30
0.0
 11
48.49999999999984
 21
-6.999999999999984
 31
0.0
  0
LINE
  5
1190C
330
118E0
100
AcDbEntity
  8
0
100
AcDbLine
 10
44.49999999999984
 20
-1.499999999999994
 30
0.0
 11
44.49999999999984
 21
-6.999999999999984
 31
0.0
  0
LINE
  5
1190D
330
118E0
100
AcDbEntity
  8
0
100
AcDbLine
 10
48.49999999999984
 20
-6.999999999999984
 30
0.0
 11
48.49999999999984
 21
-1.500000000000003
 31
0.0
  0
ARC
  5
1190E
330
118E0
100
AcDbEntity
  8
0
100
AcDbCircle
 10
-41.8375766604867
 20
2.999999999999998
 30
0.0
 40
1.5
100
AcDbArc
 50
270.0
 51
287.9999999999999
  0
ARC
  5
1190F
330
118E0
100
AcDbEntity
  8
0
100
AcDbCircle
 10
-33.00000000000002
 20
25.06805256023611
 30
0.0
 40
1.5
100
AcDbArc
 50
350.9999999999999
 51
0.0
  0
ARC
  5
11910
330
118E0
100
AcDbEntity
  8
0
100
AcDbCircle
 10
32.99999999999989
 20
25.06805256023693
 30
0.0
 40
1.5
100
AcDbArc
 50
180.0
 51
188.9999999999998
  0
ARC
  5
11911
330
118E0
100
AcDbEntity
  8
0
100
AcDbCircle
 10
41.83757666048673
 20
2.999999999999987
 30
0.0
 40
1.5
100
AcDbArc
 50
252.0
 51
270.0
  0
LINE
  5
11912
330
118E0
100
AcDbEntity
  8
0
100
AcDbLine
 10
37.78169451957991
 20
2.740642656822502
 30
0.0
 11
41.37405116892431
 21
1.573415225557255
 31
0.0
  0
LINE
  5
11913
330
118E0
100
AcDbEntity
  8
0
100
AcDbLine
 10
31.51846748910717
 20
24.83340086267659
 30
0.0
 11
34.38833778847895
 21
6.713752913097108
 31
0.0
  0
ARC
  5
11914
330
118E0
100
AcDbEntity
  8
0
100
AcDbCircle
 10
39.32677949145464
 20
7.495925238298273
 30
0.0
 40
5.000000000000004
100
AcDbArc
 50
189.0
 51
252.0
  0
ENDBLK
  5
118E2
330
118E0
100
AcDbEntity
  8
0
100
AcDbBlockEnd
  0
BLOCK
  5
11916
330
11915
100
AcDbEntity
  8
0
100
AcDbBlockBegin
  2
SBE60_85-ISO
 70
     0
 10
0.0
 20
0.0
 30
0.0
  3
SBE60_85-ISO
  1

  0
ELLIPSE
  5
11918
330
11915
100
AcDbEntity
  8
0
100
AcDbEllipse
 10
-9.545941546018376
 20
56.76514446129006
 30
0.0
 11
1.500000000000003
 21
0.0000000000000001
 31
0.0
210
0.0
220
0.0
230
1.0
 40
0.5773502691896259
 41
5.497787143782135
 42
7.068583470577034
  0
LINE
  5
11919
330
11915
100
AcDbEntity
  8
0
100
AcDbLine
 10
-8.485281374238553
 20
56.15277202559427
 30
0.0
 11
-8.485281374238553
 21
57.37751689698585
 31
0.0
  0
LINE
  5
1191A
330
11915
100
AcDbEntity
  8
0
100
AcDbLine
 10
-7.424621202440691
 20
44.90475288437415
 30
0.0
 11
-7.424621202458738
 21
55.54039958989847
 31
0.0
  0
LINE
  5
1191B
330
11915
100
AcDbEntity
  8
0
100
AcDbLine
 10
-7.424621202458725
 20
-12.63706491756666
 30
0.0
 11
-7.424621202458716
 21
-7.94281949073166
 31
0.0
  0
LINE
  5
1191C
330
11915
100
AcDbEntity
  8
0
100
AcDbLine
 10
-7.424621202458716
 20
-7.94281949073166
 30
0.0
 11
-7.424621202458663
 21
23.28878464325325
 31
0.0
  0
LINE
  5
1191D
330
11915
100
AcDbEntity
  8
0
100
AcDbLine
 10
-7.424621202458658
 20
26.55477096696425
 30
0.0
 11
-7.424621202447805
 21
37.59866596292751
 31
0.0
  0
ELLIPSE
  5
1191E
330
11915
100
AcDbEntity
  8
0
100
AcDbEllipse
 10
-9.545941546018376
 20
56.76514446129006
 30
0.0
 11
3.000000000000002
 21
0.0000000000000003
 31
0.0
210
0.0
220
0.0
230
1.0
 40
0.5773502691896259
 41
5.497787143782139
 42
7.068583470577033
  0
ELLIPSE
  5
1191F
330
11915
100
AcDbEntity
  8
0
100
AcDbEllipse
 10
37.12310601229367
 20
29.82075729067521
 30
0.0
 11
-3.000000000000002
 21
-0.000000000000184
 31
0.0
210
0.0
220
0.0
230
1.0
 40
0.577350269189625
 41
3.926990816987
 42
5.497787143781895
  0
LINE
  5
11920
330
11915
100
AcDbEntity
  8
0
100
AcDbLine
 10
36.06244584051388
 20
1.447501103436752
 30
0.0
 11
36.06244584051388
 21
11.59344655020137
 31
0.0
  0
LINE
  5
11921
330
11915
100
AcDbEntity
  8
0
100
AcDbLine
 10
38.18376618407352
 20
11.59344655020138
 30
0.0
 11
38.18376618407354
 21
1.447501103436654
 31
0.0
  0
LINE
  5
11922
330
11915
100
AcDbEntity
  8
0
100
AcDbLine
 10
36.06244584051386
 20
20.69543257007016
 30
0.0
 11
36.06244584051385
 21
30.43312972637098
 31
0.0
  0
LINE
  5
11923
330
11915
100
AcDbEntity
  8
0
100
AcDbLine
 10
36.06244584051395
 20
-37.74433478109423
 30
0.0
 11
36.06244584051394
 21
-33.05008935425922
 31
0.0
  0
LINE
  5
11924
330
11915
100
AcDbEntity
  8
0
100
AcDbLine
 10
36.06244584051394
 20
-33.05008935425922
 30
0.0
 11
36.0624458405139
 21
-1.818485220274257
 31
0.0
  0
LINE
  5
11925
330
11915
100
AcDbEntity
  8
0
100
AcDbLine
 10
36.06244584051385
 20
30.43312972637098
 30
0.0
 11
35.00178566873402
 21
31.04550216206677
 31
0.0
  0
LINE
  5
11926
330
11915
100
AcDbEntity
  8
0
100
AcDbLine
 10
39.24442635585331
 20
31.04550216206681
 30
0.0
 11
38.18376618407349
 21
30.433129726371
 31
0.0
  0
LINE
  5
11927
330
11915
100
AcDbEntity
  8
0
100
AcDbLine
 10
38.18376618407354
 20
-1.81848522027415
 30
0.0
 11
38.18376618407358
 21
-31.39788766083379
 31
0.0
  0
LINE
  5
11928
330
11915
100
AcDbEntity
  8
0
100
AcDbLine
 10
38.18376618407349
 20
30.433129726371
 30
0.0
 11
38.18376618407351
 21
20.69543257007016
 31
0.0
  0
ELLIPSE
  5
11929
330
11915
100
AcDbEntity
  8
0
100
AcDbEllipse
 10
-6.363961030678901
 20
-13.24943735326246
 30
0.0
 11
-0.7499999999999233
 21
1.299038105676703
 31
0.0
210
0.0
220
0.0
230
0.9999999999999998
 40
0.5773502691896259
 41
0.785398163397689
 42
2.356194490192587
  0
ELLIPSE
  5
1192A
330
11915
100
AcDbEntity
  8
0
100
AcDbEllipse
 10
37.12310601229367
 20
29.82075729067518
 30
0.0
 11
1.500000000000003
 21
-0.0000000000000897
 31
0.0
210
0.0
220
0.0
230
1.0
 40
0.5773502691896259
 41
0.785398163397689
 42
2.35619449019259
  0
LINE
  5
1192B
330
11915
100
AcDbEntity
  8
0
100
AcDbLine
 10
-8.485281374238553
 20
57.37751689698585
 30
0.0
 11
-7.424621202458734
 21
57.98988933268164
 31
0.0
  0
LINE
  5
1192C
330
11915
100
AcDbEntity
  8
0
100
AcDbLine
 10
-7.424621202458738
 20
55.54039958989847
 30
0.0
 11
-8.485281374238557
 21
56.15277202559427
 31
0.0
  0
ELLIPSE
  5
1192D
330
11915
100
AcDbEntity
  8
0
100
AcDbEllipse
 10
33.94112549695432
 20
-36.51958990970265
 30
0.0
 11
1.499999999999997
 21
-2.598076211353312
 31
0.0
210
0.0
220
0.0
230
0.9999999999999998
 40
0.5773502691896258
 41
0.0000000000000029
 42
0.7853981633974563
  0
LINE
  5
1192E
330
11915
100
AcDbEntity
  8
0
100
AcDbLine
 10
-6.545941546018374
 20
46.20313748394692
 30
0.0
 11
-6.545941546018374
 21
56.76514446129006
 31
0.0
  0
LINE
  5
1192F
330
11915
100
AcDbEntity
  8
0
100
AcDbLine
 10
-6.54594154601837
 20
28.18776412881462
 30
0.0
 11
-6.545941546018374
 21
38.74977110612005
 31
0.0
  0
LINE
  5
11930
330
11915
100
AcDbEntity
  8
0
100
AcDbLine
 10
-6.545941546018365
 20
-5.891973772627334
 30
0.0
 11
-6.54594154601837
 21
24.10528122418615
 31
0.0
  0
ELLIPSE
  5
11931
330
11915
100
AcDbEntity
  8
0
100
AcDbEllipse
 10
-26.87005768508879
 20
6.754728879466829
 30
0.0
 11
1.249999999999871
 21
2.165063509461171
 31
0.0
210
0.0
220
0.0
230
0.9999999999999998
 40
0.5773502691896258
 41
3.579741684173544
 42
5.845036276595002
  0
ELLIPSE
  5
11932
330
11915
100
AcDbEntity
  8
0
100
AcDbEllipse
 10
-26.87005768508881
 20
39.41459211657588
 30
0.0
 11
1.249999999999871
 21
2.165063509461172
 31
0.0
210
0.0
220
0.0
230
1.0
 40
0.5773502691896259
 41
3.579741684173541
 42
5.845036276594999
  0
ELLIPSE
  5
11933
330
11915
100
AcDbEntity
  8
0
100
AcDbEllipse
 10
-26.87005768508879
 20
23.08466049802134
 30
0.0
 11
1.249999999999871
 21
2.165063509461172
 31
0.0
210
0.0
220
0.0
230
1.0
 40
0.5773502691896259
 41
3.579741684173541
 42
5.845036276594997
  0
ELLIPSE
  5
11934
330
11915
100
AcDbEntity
  8
0
100
AcDbEllipse
 10
-25.80939751330897
 20
22.47228806232556
 30
0.0
 11
1.249999999999999
 21
2.165063509461097
 31
0.0
210
0.0
220
0.0
230
1.0
 40
0.5773502691896259
 41
0.0
 42
6.283185307179586
  0
ELLIPSE
  5
11935
330
11915
100
AcDbEntity
  8
0
100
AcDbEllipse
 10
-25.80939751330899
 20
38.80221968088008
 30
0.0
 11
1.249999999999999
 21
2.165063509461097
 31
0.0
210
0.0
220
0.0
230
1.0
 40
0.5773502691896259
 41
0.0
 42
6.283185307179586
  0
ELLIPSE
  5
11936
330
11915
100
AcDbEntity
  8
0
100
AcDbEllipse
 10
-25.80939751330897
 20
6.14235644377103
 30
0.0
 11
1.249999999999999
 21
2.165063509461097
 31
0.0
210
0.0
220
0.0
230
1.0
 40
0.5773502691896259
 41
0.0
 42
6.283185307179586
  0
LINE
  5
11937
330
11915
100
AcDbEntity
  8
0
100
AcDbLine
 10
-44.54772721475247
 20
-21.81767004389542
 30
0.0
 11
-44.54772721475247
 21
-32.8453552955279
 31
0.0
  0
LINE
  5
11938
330
11915
100
AcDbEntity
  8
0
100
AcDbLine
 10
-8.485281374238557
 20
56.15277202559427
 30
0.0
 11
-27.93071785686862
 21
44.92594403783804
 31
0.0
  0
LINE
  5
11939
330
11915
100
AcDbEntity
  8
0
100
AcDbLine
 10
-7.424621202458738
 20
55.54039958989847
 30
0.0
 11
-26.87005768508881
 21
44.31357160214225
 31
0.0
  0
LINE
  5
1193A
330
11915
100
AcDbEntity
  8
0
100
AcDbLine
 10
-43.48706704297265
 20
-22.43004247959122
 30
0.0
 11
-43.48706704297265
 21
-33.45772773122369
 31
0.0
  0
LINE
  5
1193B
330
11915
100
AcDbEntity
  8
0
100
AcDbLine
 10
-1.060660171779796
 20
-57.95262515905545
 30
0.0
 11
-1.06066017177981
 21
-46.92493990742299
 31
0.0
  0
LINE
  5
1193C
330
11915
100
AcDbEntity
  8
0
100
AcDbLine
 10
35.00178566873402
 20
31.04550216206677
 30
0.0
 11
15.55634918610396
 21
19.81867417431053
 31
0.0
  0
LINE
  5
1193D
330
11915
100
AcDbEntity
  8
0
100
AcDbLine
 10
16.61700935788378
 20
19.20630173861473
 30
0.0
 11
36.06244584051385
 21
30.43312972637098
 31
0.0
  0
LINE
  5
1193E
330
11915
100
AcDbEntity
  8
0
100
AcDbLine
 10
0.0
 20
-58.56499759475126
 30
0.0
 11
0.0
 21
-47.53731234311878
 31
0.0
  0
LINE
  5
1193F
330
11915
100
AcDbEntity
  8
0
100
AcDbLine
 10
-42.42640687119283
 20
-36.51958990970267
 30
0.0
 11
-2.12132034355962
 21
-59.78974246614285
 31
0.0
  0
LINE
  5
11940
330
11915
100
AcDbEntity
  8
0
100
AcDbLine
 10
-42.42640687119282
 20
-35.29484503831108
 30
0.0
 11
-2.12132034355962
 21
-58.56499759475126
 31
0.0
  0
LINE
  5
11941
330
11915
100
AcDbEntity
  8
0
100
AcDbLine
 10
-44.54772721475247
 20
-21.81767004389542
 30
0.0
 11
-35.91373078979975
 21
-10.10819559755671
 31
0.0
  0
LINE
  5
11942
330
11915
100
AcDbEntity
  8
0
100
AcDbLine
 10
-32.1733585439879
 20
0.1741854468539339
 30
0.0
 11
-32.1733585439879
 21
37.5774748094885
 31
0.0
  0
LINE
  5
11943
330
11915
100
AcDbEntity
  8
0
100
AcDbLine
 10
-31.11269837220808
 20
36.9651023737927
 30
0.0
 11
-31.11269837220807
 21
-0.4381869888418644
 31
0.0
  0
LINE
  5
11944
330
11915
100
AcDbEntity
  8
0
100
AcDbLine
 10
-34.85307061801993
 20
-10.7205680332525
 30
0.0
 11
-43.48706704297265
 21
-22.43004247959122
 31
0.0
  0
LINE
  5
11945
330
11915
100
AcDbEntity
  8
0
100
AcDbLine
 10
-1.06066017177981
 20
-46.92493990742299
 30
0.0
 11
7.573336253172904
 21
-35.21546546108428
 31
0.0
  0
LINE
  5
11946
330
11915
100
AcDbEntity
  8
0
100
AcDbLine
 10
11.31370849898474
 20
-24.93308441667363
 30
0.0
 11
11.31370849898469
 21
12.47020494596098
 31
0.0
  0
LINE
  5
11947
330
11915
100
AcDbEntity
  8
0
100
AcDbLine
 10
12.37436867076451
 20
11.85783251026521
 30
0.0
 11
12.37436867076457
 21
-25.54545685236942
 31
0.0
  0
LINE
  5
11948
330
11915
100
AcDbEntity
  8
0
100
AcDbLine
 10
8.633996424952723
 20
-35.82783789678007
 30
0.0
 11
0.0
 21
-47.53731234311878
 31
0.0
  0
LINE
  5
11949
330
11915
100
AcDbEntity
  8
0
100
AcDbLine
 10
0.0
 20
-47.53731234311878
 30
0.0
 11
-1.06066017177981
 21
-46.92493990742299
 31
0.0
  0
LINE
  5
1194A
330
11915
100
AcDbEntity
  8
0
100
AcDbLine
 10
-43.48706704297265
 20
-22.43004247959122
 30
0.0
 11
-44.54772721475247
 21
-21.81767004389542
 31
0.0
  0
ELLIPSE
  5
1194B
330
11915
100
AcDbEntity
  8
0
100
AcDbEllipse
 10
-40.65863991822645
 20
-4.724794038712425
 30
0.0
 11
-6.000000000000621
 21
-10.39230484541291
 31
0.0
210
0.0
220
0.0
230
0.9999999999999998
 40
0.577350269189626
 41
1.378810109075633
 42
2.356194490192585
  0
ELLIPSE
  5
1194C
330
11915
100
AcDbEntity
  8
0
100
AcDbEllipse
 10
-39.59797974644664
 20
-5.337166474408223
 30
0.0
 11
5.999999999999996
 21
10.39230484541326
 31
0.0
210
0.0
220
0.0
230
1.0
 40
0.5773502691896258
 41
4.520402762665312
 42
5.497787143782137
  0
ELLIPSE
  5
1194D
330
11915
100
AcDbEntity
  8
0
100
AcDbEllipse
 10
2.828427124746264
 20
-29.83206390224003
 30
0.0
 11
-6.0000000000006
 21
-10.39230484541292
 31
0.0
210
0.0
220
0.0
230
1.0
 40
0.5773502691896263
 41
1.378810109075631
 42
2.356194490192585
  0
ELLIPSE
  5
1194E
330
11915
100
AcDbEntity
  8
0
100
AcDbEllipse
 10
3.889087296526083
 20
-30.44443633793582
 30
0.0
 11
5.999999999999985
 21
10.39230484541328
 31
0.0
210
0.0
220
0.0
230
1.0
 40
0.5773502691896262
 41
4.520402762665312
 42
5.497787143782137
  0
ELLIPSE
  5
1194F
330
11915
100
AcDbEntity
  8
0
100
AcDbEllipse
 10
-18.38477631085022
 20
20.79072411527908
 30
0.0
 11
-5.999999999999998
 21
10.39230484541326
 31
0.0
210
0.0
220
0.0
230
1.0
 40
0.5773502691896259
 41
0.9794938541811841
 42
1.178784220247869
  0
LINE
  5
11950
330
11915
100
AcDbEntity
  8
0
100
AcDbLine
 10
-31.11269837220807
 20
-0.4381869888418644
 30
0.0
 11
-32.1733585439879
 21
0.1741854468539339
 31
0.0
  0
ELLIPSE
  5
11951
330
11915
100
AcDbEntity
  8
0
100
AcDbEllipse
 10
49.14392129246504
 20
-16.97224275262827
 30
0.0
 11
6.000000000000001
 21
-10.39230484541327
 31
0.0
210
0.0
220
0.0
230
1.0
 40
0.5773502691896259
 41
0.0000000000000002
 42
0.7853981633974505
  0
LINE
  5
11952
330
11915
100
AcDbEntity
  8
0
100
AcDbLine
 10
-35.91373078979975
 20
-10.10819559755671
 30
0.0
 11
-34.85307061801993
 21
-10.7205680332525
 31
0.0
  0
LINE
  5
11953
330
11915
100
AcDbEntity
  8
0
100
AcDbLine
 10
12.37436867076457
 20
-25.54545685236942
 30
0.0
 11
11.31370849898474
 21
-24.93308441667363
 31
0.0
  0
LINE
  5
11954
330
11915
100
AcDbEntity
  8
0
100
AcDbLine
 10
7.573336253172904
 20
-35.21546546108428
 30
0.0
 11
8.633996424952723
 21
-35.82783789678007
 31
0.0
  0
LINE
  5
11955
330
11915
100
AcDbEntity
  8
0
100
AcDbLine
 10
57.62920266670359
 20
-21.87122223819461
 30
0.0
 11
56.56854249492377
 21
-22.48359467389041
 31
0.0
  0
ELLIPSE
  5
11956
330
11915
100
AcDbEntity
  8
0
100
AcDbEllipse
 10
48.08326112068522
 20
-17.58461518832406
 30
0.0
 11
6.000000000000001
 21
-10.39230484541327
 31
0.0
210
0.0
220
0.0
230
1.0
 40
0.577350269189626
 41
6.091199089460212
 42
7.068583470577036
  0
LINE
  5
11957
330
11915
100
AcDbEntity
  8
0
100
AcDbLine
 10
54.08326112068522
 20
-27.97692003373734
 30
0.0
 11
55.14392129246504
 21
-27.36454759804154
 31
0.0
  0
LINE
  5
11958
330
11915
100
AcDbEntity
  8
0
100
AcDbLine
 10
-27.93071785686862
 20
44.92594403783804
 30
0.0
 11
-32.1733585439879
 21
37.5774748094885
 31
0.0
  0
LINE
  5
11959
330
11915
100
AcDbEntity
  8
0
100
AcDbLine
 10
-31.11269837220808
 20
36.9651023737927
 30
0.0
 11
-26.87005768508881
 21
44.31357160214225
 31
0.0
  0
LINE
  5
1195A
330
11915
100
AcDbEntity
  8
0
100
AcDbLine
 10
15.55634918610396
 20
19.81867417431053
 30
0.0
 11
11.31370849898469
 21
12.47020494596098
 31
0.0
  0
LINE
  5
1195B
330
11915
100
AcDbEntity
  8
0
100
AcDbLine
 10
12.37436867076451
 20
11.85783251026521
 30
0.0
 11
16.61700935788378
 21
19.20630173861473
 31
0.0
  0
LINE
  5
1195C
330
11915
100
AcDbEntity
  8
0
100
AcDbLine
 10
-26.87005768508879
 20
63.09299296347996
 30
0.0
 11
-22.62741699796949
 21
65.54248270626311
 31
0.0
  0
LINE
  5
1195D
330
11915
100
AcDbEntity
  8
0
100
AcDbLine
 10
-22.62741699796949
 20
65.54248270626311
 30
0.0
 11
-21.56675682618967
 21
66.1548551419589
 31
0.0
  0
LINE
  5
1195E
330
11915
100
AcDbEntity
  8
0
100
AcDbLine
 10
-26.87005768508881
 20
44.31357160214225
 30
0.0
 11
-27.93071785686862
 21
44.92594403783804
 31
0.0
  0
LINE
  5
1195F
330
11915
100
AcDbEntity
  8
0
100
AcDbLine
 10
-32.1733585439879
 20
37.5774748094885
 30
0.0
 11
-31.11269837220808
 21
36.9651023737927
 31
0.0
  0
LINE
  5
11960
330
11915
100
AcDbEntity
  8
0
100
AcDbLine
 10
16.61700935788378
 20
19.20630173861473
 30
0.0
 11
15.55634918610396
 21
19.81867417431053
 31
0.0
  0
LINE
  5
11961
330
11915
100
AcDbEntity
  8
0
100
AcDbLine
 10
11.31370849898469
 20
12.47020494596098
 30
0.0
 11
12.37436867076451
 21
11.85783251026521
 31
0.0
  0
LINE
  5
11962
330
11915
100
AcDbEntity
  8
0
100
AcDbLine
 10
57.62920266670356
 20
15.53206712444
 30
0.0
 11
53.38656197958428
 21
22.88053635278977
 31
0.0
  0
LINE
  5
11963
330
11915
100
AcDbEntity
  8
0
100
AcDbLine
 10
53.38656197958428
 20
22.88053635278977
 30
0.0
 11
52.32590180780445
 21
22.26816391709396
 31
0.0
  0
LINE
  5
11964
330
11915
100
AcDbEntity
  8
0
100
AcDbLine
 10
52.32590180780445
 20
22.26816391709396
 30
0.0
 11
56.56854249492375
 21
14.9196946887442
 31
0.0
  0
LINE
  5
11965
330
11915
100
AcDbEntity
  8
0
100
AcDbLine
 10
56.56854249492375
 20
14.9196946887442
 30
0.0
 11
57.62920266670356
 21
15.53206712444
 31
0.0
  0
ELLIPSE
  5
11966
330
11915
100
AcDbEntity
  8
0
100
AcDbEllipse
 10
-9.665175923254487
 20
40.60179235229529
 30
0.0
 11
0.9850528317504773
 21
1.131225405767196
 31
0.0
210
0.0
220
0.0
230
1.0
 40
0.4173680013367599
 41
0.0
 42
0.5753553954488222
  0
SPLINE
  5
11967
330
11915
100
AcDbEntity
  8
0
100
AcDbSpline
210
0.0
220
0.0
230
1.0
 70
     8
 71
     3
 72
    10
 73
     6
 74
     0
 42
0.000000001
 43
0.0000000001
 40
0.1396843436542992
 40
0.1396843436542992
 40
0.1396843436542992
 40
0.1396843436542992
 40
0.1418729186708972
 40
0.1418729186708972
 40
0.2837458373417943
 40
0.2837458373417943
 40
0.2837458373417943
 40
0.2837458373417943
 10
-9.830152938176915
 20
42.64960718899519
 30
0.0
 10
-9.826179037894902
 20
42.64497641566307
 30
0.0
 10
-9.822209806836683
 20
42.64034802582975
 30
0.0
 10
-9.561242150051242
 20
42.33584800678944
 30
0.0
 10
-9.323485039561226
 20
42.04575123669316
 30
0.0
 10
-9.095623087935237
 20
41.77459845200267
 30
0.0
  0
ELLIPSE
  5
11968
330
11915
100
AcDbEntity
  8
0
100
AcDbEllipse
 10
-8.485281374238535
 20
39.54047972742815
 30
0.0
 11
1.018271863351761
 21
1.101418363886387
 31
0.0
210
0.0
220
0.0
230
0.9999999999999996
 40
0.3866729749327972
 41
0.0
 42
0.6279471263398762
  0
SPLINE
  5
11969
330
11915
100
AcDbEntity
  8
0
100
AcDbSpline
210
0.0
220
0.0
230
1.0
 70
     8
 71
     3
 72
    10
 73
     6
 74
     0
 42
0.000000001
 43
0.0000000001
 40
0.0
 40
0.0
 40
0.0
 40
0.0
 40
0.0866240026524897
 40
0.0866240026524897
 40
0.1732480053049794
 40
0.1732480053049794
 40
0.1732480053049794
 40
0.1732480053049794
 10
-9.095623087867558
 20
41.77459845195517
 30
0.0
 10
-8.895656311934363
 20
41.59271208819584
 30
0.0
 10
-8.697230239039996
 20
41.40879513430909
 30
0.0
 10
-8.30272998183458
 20
41.03799035706855
 30
0.0
 10
-8.106655793759252
 20
40.85109927377482
 30
0.0
 10
-7.911463014788084
 20
40.66310147658452
 30
0.0
  0
ELLIPSE
  5
1196A
330
11915
100
AcDbEntity
  8
0
100
AcDbEllipse
 10
-8.485281374227628
 20
38.2110383986233
 30
0.0
 11
0.4817249453118979
 21
-1.420542529129003
 31
0.0
210
0.0
220
0.0
230
0.9999999999999998
 40
0.6821022831553126
 41
0.9100452509960081
 42
2.14259599152259
  0
SPLINE
  5
1196B
330
11915
100
AcDbEntity
  8
0
100
AcDbSpline
210
0.0
220
0.0
230
1.0
 70
     8
 71
     3
 72
    10
 73
     6
 74
     0
 42
0.000000001
 43
0.0000000001
 40
-0.2385842614456977
 40
-0.2385842614456977
 40
-0.2385842614456977
 40
-0.2385842614456977
 40
-0.1421416204810495
 40
-0.1421416204810495
 40
-0.1200897735668753
 40
-0.1200897735668753
 40
-0.1200897735668753
 40
-0.1200897735668753
 10
-7.424621202436885
 20
37.59866596293382
 30
0.0
 10
-6.979364237776191
 20
37.80269686907038
 30
0.0
 10
-6.672397835551042
 20
38.12121370507151
 30
0.0
 10
-6.556740238590372
 20
38.57473171873396
 30
0.0
 10
-6.546137125309887
 20
38.66155850122363
 30
0.0
 10
-6.54622308570937
 20
38.74976894128636
 30
0.0
  0
SPLINE
  5
1196C
330
11915
100
AcDbEntity
  8
0
100
AcDbSpline
210
0.0
220
0.0
230
1.0
 70
     8
 71
     3
 72
    14
 73
    10
 74
     0
 42
0.000000001
 43
0.0000000001
 40
0.0000000000000016
 40
0.0000000000000016
 40
0.0000000000000016
 40
0.0000000000000016
 40
0.0303721411284306
 40
0.0303721411284306
 40
0.0789675669339171
 40
0.0789675669339171
 40
0.1421416204810495
 40
0.1421416204810495
 40
0.2385842614456977
 40
0.2385842614456977
 40
0.2385842614456977
 40
0.2385842614456977
 10
-7.911463014788076
 20
40.6631014765845
 30
0.0
 10
-7.843024447547701
 20
40.59718561662356
 30
0.0
 10
-7.780852182486954
 20
40.52871466055858
 30
0.0
 10
-7.63933066911699
 20
40.34680680514002
 30
0.0
 10
-7.572253571830889
 20
40.23105600714791
 30
0.0
 10
-7.475150036112827
 20
39.96868692302335
 30
0.0
 10
-7.462837411249814
 20
39.82339131680568
 30
0.0
 10
-7.546126432062552
 20
39.49759867068329
 30
0.0
 10
-7.70398405614741
 20
39.34124983496401
 30
0.0
 10
-7.931142966539761
 20
39.25607680411554
 30
0.0
  0
ELLIPSE
  5
1196D
330
11915
100
AcDbEntity
  8
0
100
AcDbEllipse
 10
-10.78782268457396
 20
37.25430981146504
 30
0.0
 11
0.6735304878558958
 21
-1.340282314263904
 31
0.0
210
0.0
220
0.0
230
1.0
 40
0.6134744499317049
 41
0.8199141697227316
 42
2.003105718372864
  0
SPLINE
  5
1196E
330
11915
100
AcDbEntity
  8
0
100
AcDbSpline
210
0.0
220
0.0
230
1.0
 70
     8
 71
     3
 72
    10
 73
     6
 74
     0
 42
0.000000001
 43
0.0000000001
 40
-0.3290771859225742
 40
-0.3290771859225742
 40
-0.3290771859225742
 40
-0.3290771859225742
 40
-0.1645385929612871
 40
-0.1645385929612871
 40
0.0
 40
0.0
 40
0.0
 40
0.0
 10
-9.727162512794148
 20
36.64193737576925
 30
0.0
 10
-9.340152944966643
 20
36.83642083664141
 30
0.0
 10
-8.95423464391856
 20
37.01149846325824
 30
0.0
 10
-8.186386288966037
 20
37.32815890220332
 30
0.0
 10
-7.804442585082087
 20
37.46986345893629
 30
0.0
 10
-7.424621202447818
 20
37.59866596292751
 30
0.0
  0
SPLINE
  5
1196F
330
11915
100
AcDbEntity
  8
0
100
AcDbSpline
210
0.0
220
0.0
230
1.0
 70
     8
 71
     3
 72
    10
 73
     6
 74
     0
 42
0.000000001
 43
0.0000000001
 40
0.0
 40
0.0
 40
0.0
 40
0.0
 40
0.1645385929612871
 40
0.1645385929612871
 40
0.3290771859225742
 40
0.3290771859225742
 40
0.3290771859225742
 40
0.3290771859225742
 10
-7.931142966539765
 20
39.25607680411554
 30
0.0
 10
-8.318693609295632
 20
39.11076503627625
 30
0.0
 10
-8.71133765167336
 20
38.95128401392319
 30
0.0
 10
-9.508647311616304
 20
38.59785534094042
 30
0.0
 10
-9.913400316227054
 20
38.40380030409566
 30
0.0
 10
-10.32342658423158
 20
38.19102651949043
 30
0.0
  0
ELLIPSE
  5
11970
330
11915
100
AcDbEntity
  8
0
100
AcDbEllipse
 10
-12.2867563136609
 20
36.50105246581605
 30
0.0
 11
0.6735304878558979
 21
-1.340282314263903
 31
0.0
210
0.0
220
0.0
230
1.0
 40
0.6134744499317041
 41
0.8199141697227299
 42
2.003105718372863
  0
LINE
  5
11971
330
11915
100
AcDbEntity
  8
0
100
AcDbLine
 10
-11.22609614188109
 20
35.88868003012026
 30
0.0
 11
-9.727162512794143
 21
36.64193737576925
 31
0.0
  0
LINE
  5
11972
330
11915
100
AcDbEntity
  8
0
100
AcDbLine
 10
-10.32342658423158
 20
38.19102651949043
 30
0.0
 11
-11.82236021331852
 21
37.43776917384144
 31
0.0
  0
ELLIPSE
  5
11973
330
11915
100
AcDbEntity
  8
0
100
AcDbEllipse
 10
-12.28675631539018
 20
42.83754609255289
 30
0.0
 11
0.8193997375741329
 21
-1.256417156128792
 31
0.0
210
0.0
220
0.0
230
0.9999999999999998
 40
0.5388095822648812
 41
0.0000000001435024
 42
0.7550720329637628
  0
ELLIPSE
  5
11974
330
11915
100
AcDbEntity
  8
0
100
AcDbEllipse
 10
-3.960997559874002
 20
43.25143346608114
 30
0.0
 11
-18.92465153915225
 21
-11.19850234446448
 31
0.0
210
0.0
220
0.0
230
1.0
 40
0.1346372153812724
 41
5.025585556707156
 42
7.381780046922148
  0
ELLIPSE
  5
11975
330
11915
100
AcDbEntity
  8
0
100
AcDbEllipse
 10
-5.021657731653821
 20
43.86380590177694
 30
0.0
 11
-17.74233703997128
 21
-11.5766113040507
 31
0.0
210
0.0
220
0.0
230
1.0
 40
0.0872913523692789
 41
5.532780666771415
 42
7.404387711445656
  0
ELLIPSE
  5
11976
330
11915
100
AcDbEntity
  8
0
100
AcDbEllipse
 10
-10.78782268457397
 20
43.815108216496
 30
0.0
 11
0.8193997375596758
 21
-1.256417156077994
 31
0.0
210
0.0
220
0.0
230
1.0
 40
0.5388095822689447
 41
0.0
 42
0.755072032837286
  0
LINE
  5
11977
330
11915
100
AcDbEntity
  8
0
100
AcDbLine
 10
-9.727162512794151
 20
43.20273578080021
 30
0.0
 11
-11.22609614361036
 21
42.2251736568571
 31
0.0
  0
ELLIPSE
  5
11978
330
11915
100
AcDbEntity
  8
0
100
AcDbEllipse
 10
-8.485281374202472
 20
45.51712532008036
 30
0.0
 11
0.9480488983984374
 21
-1.162412700483586
 31
0.0
210
0.0
220
0.0
230
0.9999999999999998
 40
0.4487796140200803
 41
0.0
 42
0.7024165027825946
  0
SPLINE
  5
11979
330
11915
100
AcDbEntity
  8
0
100
AcDbSpline
210
0.0
220
0.0
230
1.0
 70
     8
 71
     3
 72
    10
 73
     6
 74
     0
 42
0.000000001
 43
0.0000000001
 40
-0.3290771859266628
 40
-0.3290771859266628
 40
-0.3290771859266628
 40
-0.3290771859266628
 40
-0.1645385929633314
 40
-0.1645385929633314
 40
0.0
 40
0.0
 40
0.0
 40
0.0
 10
-7.424621202422643
 20
44.90475288438455
 30
0.0
 10
-7.804442585060513
 20
44.59497543335055
 30
0.0
 10
-8.186386288948384
 20
44.29564938956936
 30
0.0
 10
-8.954234643909341
 20
43.72567491964175
 30
0.0
 10
-9.340152944961941
 20
43.45513247626138
 30
0.0
 10
-9.727162512794148
 20
43.20273578080021
 30
0.0
  0
SPLINE
  5
1197A
330
11915
100
AcDbEntity
  8
0
100
AcDbSpline
210
0.0
220
0.0
230
1.0
 70
     8
 71
     3
 72
    12
 73
     8
 74
     0
 42
0.000000001
 43
0.0000000001
 40
-0.1184914436323649
 40
-0.1184914436323649
 40
-0.1184914436323649
 40
-0.1184914436323649
 40
-0.075362782947225
 40
-0.075362782947225
 40
-0.0289856857501223
 40
-0.0289856857501223
 40
-0.0000000000019332
 40
-0.0000000000019332
 40
-0.0000000000019332
 40
-0.0000000000019332
 10
-6.546137877117663
 20
46.20311190869715
 30
0.0
 10
-6.546337362795964
 20
46.04415941599497
 30
0.0
 10
-6.587560215946459
 20
45.87899699092041
 30
0.0
 10
-6.756576948610022
 20
45.5387706245684
 30
0.0
 10
-6.890157022983691
 20
45.36408854839663
 30
0.0
 10
-7.168910811643289
 20
45.09678339168401
 30
0.0
 10
-7.290799914178034
 20
44.99795522644773
 30
0.0
 10
-7.424621202413055
 20
44.90475288438694
 30
0.0
  0
ELLIPSE
  5
1197B
330
11915
100
AcDbEntity
  8
0
100
AcDbEllipse
 10
34.65257263427641
 20
10.04930394504276
 30
0.0
 11
-0.6444133738665745
 21
1.354522574039243
 31
0.0
210
0.0
220
0.0
230
1.0
 40
0.625733120609092
 41
0.3725120245364
 42
0.833304307752269
  0
ELLIPSE
  5
1197C
330
11915
100
AcDbEntity
  8
0
100
AcDbEllipse
 10
47.28347442100819
 20
21.39815856027706
 30
0.0
 11
-26.60789148696049
 21
-14.33873511477723
 31
0.0
210
0.0
220
0.0
230
0.9999999999999998
 40
0.1000225409266448
 41
5.170902668615088
 42
7.081851048126987
  0
ELLIPSE
  5
1197D
330
11915
100
AcDbEntity
  8
0
100
AcDbEllipse
 10
34.6525726342764
 20
18.16210408215669
 30
0.0
 11
-0.8425747043855601
 21
1.240994708904739
 31
0.0
210
0.0
220
0.0
230
1.0
 40
0.5245233345042652
 41
0.7452041137883532
 42
1.810549179579981
  0
ELLIPSE
  5
1197E
330
11915
100
AcDbEntity
  8
0
100
AcDbEllipse
 10
46.22281424922838
 20
22.01053099597285
 30
0.0
 11
-25.68345566027805
 21
-15.19796746748749
 31
0.0
210
0.0
220
0.0
230
1.0
 40
0.1346372153812727
 41
5.145249232568374
 42
7.262116370962242
  0
ELLIPSE
  5
1197F
330
11915
100
AcDbEntity
  8
0
100
AcDbEllipse
 10
36.09273585709082
 20
10.63741910490657
 30
0.0
 11
0.5208505218990958
 21
-1.40666795436501
 31
0.0
210
0.0
220
0.0
230
1.0
 40
0.6701973449423533
 41
3.592562058822004
 42
4.032922845143475
  0
SPLINE
  5
11980
330
11915
100
AcDbEntity
  8
0
100
AcDbSpline
210
0.0
220
0.0
230
1.0
 70
     8
 71
     3
 72
    10
 73
     6
 74
     0
 42
0.000000001
 43
0.0000000001
 40
-0.1489505020863127
 40
-0.1489505020863127
 40
-0.1489505020863127
 40
-0.1489505020863127
 40
-0.0744752510431564
 40
-0.0744752510431564
 40
0.0
 40
0.0
 40
0.0
 40
0.0
 10
35.032075685311
 20
11.24979154060236
 30
0.0
 10
35.20485908865588
 20
11.31376849090424
 30
0.0
 10
35.37711228169631
 20
11.37404460236198
 30
0.0
 10
35.72055762793005
 20
11.48825298389307
 30
0.0
 10
35.89175064380218
 20
11.54218747539334
 30
0.0
 10
36.06244584051388
 20
11.59344655020137
 30
0.0
  0
ELLIPSE
  5
11981
330
11915
100
AcDbEntity
  8
0
100
AcDbEllipse
 10
37.1231060122937
 20
10.98107411450558
 30
0.0
 11
-0.4314118640183648
 21
1.436622359419551
 31
0.0
210
0.0
220
0.0
230
0.9999999999999998
 40
0.6961202208620327
 41
0.5876585946227034
 42
0.9343160604977969
  0
ELLIPSE
  5
11982
330
11915
100
AcDbEntity
  8
0
100
AcDbEllipse
 10
37.78572113648519
 20
19.44926963718096
 30
0.0
 11
1.030044369542926
 21
1.090416707856644
 31
0.0
210
0.0
220
0.0
230
1.0
 40
0.3751864151476548
 41
4.287665715117306
 42
5.610805162114781
  0
SPLINE
  5
11983
330
11915
100
AcDbEntity
  8
0
100
AcDbSpline
210
0.0
220
0.0
230
1.0
 70
     8
 71
     3
 72
    10
 73
     6
 74
     0
 42
0.000000001
 43
0.0000000001
 40
-0.098631505759579
 40
-0.098631505759579
 40
-0.098631505759579
 40
-0.098631505759579
 40
-0.0493157528797895
 40
-0.0493157528797895
 40
0.0
 40
0.0
 40
0.0
 40
0.0
 10
38.84638130826501
 20
20.06164207287675
 30
0.0
 10
38.73561143221631
 20
20.16627903076344
 30
0.0
 10
38.62502335586345
 20
20.27147030627746
 30
0.0
 10
38.40416578274785
 20
20.48278648925236
 30
0.0
 10
38.29389630795341
 20
20.58891161815231
 30
0.0
 10
38.18376618407351
 20
20.69543257007016
 30
0.0
  0
ELLIPSE
  5
11984
330
11915
100
AcDbEntity
  8
0
100
AcDbEllipse
 10
37.12310601229369
 20
20.08306013437437
 30
0.0
 11
-1.042846028619084
 21
-1.078180022349424
 31
0.0
210
0.0
220
0.0
230
0.9999999999999998
 40
0.362315975059225
 41
1.126298842996771
 42
2.473566334048445
  0
SPLINE
  5
11985
330
11915
100
AcDbEntity
  8
0
100
AcDbSpline
210
0.0
220
0.0
230
1.0
 70
     8
 71
     3
 72
    10
 73
     6
 74
     0
 42
0.000000001
 43
0.0000000001
 40
0.0
 40
0.0
 40
0.0
 40
0.0
 40
0.0493157528797895
 40
0.0493157528797895
 40
0.098631505759579
 40
0.098631505759579
 40
0.098631505759579
 40
0.098631505759579
 10
37.027359741074
 20
19.27831424346232
 30
0.0
 10
37.14406869188962
 20
19.17243583987245
 30
0.0
 10
37.26126716858056
 20
19.0669198529954
 30
0.0
 10
37.49677785882577
 20
18.85671724451963
 30
0.0
 10
37.61509012578095
 20
18.75203052207595
 30
0.0
 10
37.7340334433294
 20
18.64782021086135
 30
0.0
  0
ELLIPSE
  5
11986
330
11915
100
AcDbEntity
  8
0
100
AcDbEllipse
 10
40.5638627397117
 20
16.43055424588979
 30
0.0
 11
1.075724519468967
 21
1.045378763039153
 31
0.0
210
0.0
220
0.0
230
1.0
 40
0.3273577323099469
 41
4.897499714566529
 42
5.625840623118907
  0
SPLINE
  5
11987
330
11915
100
AcDbEntity
  8
0
100
AcDbSpline
210
0.0
220
0.0
230
1.0
 70
     8
 71
     3
 72
    10
 73
     6
 74
     0
 42
0.000000001
 43
0.0000000001
 40
-0.4298105547536726
 40
-0.4298105547536726
 40
-0.4298105547536726
 40
-0.4298105547536726
 40
-0.2527935054382401
 40
-0.2527935054382401
 40
0.0
 40
0.0
 40
0.0
 40
0.0
 10
41.62452291149152
 20
17.0429266815856
 30
0.0
 10
41.23595912222839
 20
17.44276988700232
 30
0.0
 10
40.86562329860099
 20
17.88062378482438
 30
0.0
 10
39.95738157622308
 20
18.92321776305461
 30
0.0
 10
39.41418984059277
 20
19.52527099795778
 30
0.0
 10
38.84638130826501
 20
20.06164207287676
 30
0.0
  0
SPLINE
  5
11988
330
11915
100
AcDbEntity
  8
0
100
AcDbSpline
210
0.0
220
0.0
230
1.0
 70
     8
 71
     3
 72
    10
 73
     6
 74
     0
 42
0.000000001
 43
0.0000000001
 40
0.0
 40
0.0
 40
0.0
 40
0.0
 40
0.2527935054382401
 40
0.2527935054382401
 40
0.4298105547536726
 40
0.4298105547536726
 40
0.4298105547536726
 40
0.4298105547536726
 10
37.7340334433294
 20
18.64782021086137
 30
0.0
 10
38.32912761460777
 20
18.26182347454249
 30
0.0
 10
38.94858523982533
 20
17.82007916104147
 30
0.0
 10
40.08195258481928
 20
17.00105627986979
 30
0.0
 10
40.57342965451711
 20
16.64160794234142
 30
0.0
 10
41.0982220365425
 20
16.27683120774773
 30
0.0
  0
ELLIPSE
  5
11989
330
11915
100
AcDbEntity
  8
0
100
AcDbEllipse
 10
40.56386273971172
 20
10.66053635740857
 30
0.0
 11
0.1870368933165778
 21
1.488293385236421
 31
0.0
210
0.0
220
0.0
230
1.0
 40
0.7479997204301352
 41
5.22819043460479
 42
5.956531343157156
  0
ELLIPSE
  5
1198A
330
11915
100
AcDbEntity
  8
0
100
AcDbEllipse
 10
31.38987658571652
 20
20.06689354859178
 30
0.0
 11
12.86670137892407
 21
-8.191212071365304
 31
0.0
210
0.0
220
0.0
230
0.9999999999999998
 40
0.260920061353403
 41
5.779181046885873
 42
7.116398104046123
  0
ELLIPSE
  5
1198B
330
11915
100
AcDbEntity
  8
0
100
AcDbEllipse
 10
30.32921641393669
 20
19.45452111289598
 30
0.0
 11
13.65152717823381
 21
-7.07498550002568
 31
0.0
210
0.0
220
0.0
230
1.0
 40
0.1990675239603157
 41
5.71738100495395
 42
7.054598062114201
  0
ELLIPSE
  5
1198C
330
11915
100
AcDbEntity
  8
0
100
AcDbEllipse
 10
37.78572113648519
 20
10.84974257105685
 30
0.0
 11
0.3083698224032489
 21
1.467960507858097
 31
0.0
210
0.0
220
0.0
230
1.0
 40
0.7251908855986273
 41
5.2886530740363
 42
6.047746408756564
  0
SPLINE
  5
1198D
330
11915
100
AcDbEntity
  8
0
100
AcDbSpline
210
0.0
220
0.0
230
1.0
 70
     8
 71
     3
 72
    10
 73
     6
 74
     0
 42
0.000000001
 43
0.0000000001
 40
-0.4298560553329331
 40
-0.4298560553329331
 40
-0.4298560553329331
 40
-0.4298560553329331
 40
-0.2504545042259927
 40
-0.2504545042259927
 40
-0.0000000000000005
 40
-0.0000000000000005
 40
-0.0000000000000005
 40
-0.0000000000000005
 10
38.84638130826501
 20
11.46211500675264
 30
0.0
 10
39.24934154751151
 20
11.37746642339714
 30
0.0
 10
39.64084508595525
 20
11.33870254633452
 30
0.0
 10
40.5592314664498
 20
11.30257185531066
 30
0.0
 10
41.07475919338401
 20
11.34199873122613
 30
0.0
 10
41.62452291149154
 20
11.27290879310437
 30
0.0
  0
SPLINE
  5
1198E
330
11915
100
AcDbEntity
  8
0
100
AcDbSpline
210
0.0
220
0.0
230
1.0
 70
     8
 71
     3
 72
    10
 73
     6
 74
     0
 42
0.000000001
 43
0.0000000001
 40
0.0000000000000005
 40
0.0000000000000005
 40
0.0000000000000005
 40
0.0000000000000005
 40
0.2504545042259927
 40
0.2504545042259927
 40
0.2614164267501695
 40
0.2614164267501695
 40
0.2614164267501695
 40
0.2614164267501695
 10
41.09822203654251
 20
12.02523907939314
 30
0.0
 10
40.35571380713725
 20
12.1754076240839
 30
0.0
 10
39.68108707964403
 20
12.18028117994865
 30
0.0
 10
39.01839609710155
 20
12.2100868203944
 30
0.0
 10
38.9906813070977
 20
12.21135813629411
 30
0.0
 10
38.96303861354272
 20
12.21265637832457
 30
0.0
  0
ELLIPSE
  5
1198F
330
11915
100
AcDbEntity
  8
0
100
AcDbEllipse
 10
37.12310601229371
 20
10.98107411450558
 30
0.0
 11
-0.2763935293054346
 21
-1.474315643598104
 31
0.0
210
0.0
220
0.0
230
1.0
 40
0.7317060891393134
 41
2.13122701721199
 42
2.680687794904647
  0
SPLINE
  5
11990
330
11915
100
AcDbEntity
  8
0
100
AcDbSpline
210
0.0
220
0.0
230
1.0
 70
     8
 71
     3
 72
    10
 73
     6
 74
     0
 42
0.000000001
 43
0.0000000001
 40
-0.0986315057595766
 40
-0.0986315057595766
 40
-0.0986315057595766
 40
-0.0986315057595766
 40
-0.0493157528797883
 40
-0.0493157528797883
 40
0.0
 40
0.0
 40
0.0
 40
0.0
 10
38.18376618407352
 20
11.59344655020138
 30
0.0
 10
38.29389630795342
 20
11.57280018878334
 30
0.0
 10
38.40416578274785
 20
11.55159709577134
 30
0.0
 10
38.62502335586345
 20
11.50788892016454
 30
0.0
 10
38.7356114322163
 20
11.48538408437558
 30
0.0
 10
38.84638130826501
 20
11.46211500675264
 30
0.0
  0
ELLIPSE
  5
11991
330
11915
100
AcDbEntity
  8
0
100
AcDbEllipse
 10
37.12310601229368
 20
20.08306013437437
 30
0.0
 11
-0.9743856472127133
 21
1.140426503772107
 31
0.0
210
0.0
220
0.0
230
1.0
 40
0.4267122036849451
 41
0.692402391295385
 42
1.945961861863239
  0
SPLINE
  5
11992
330
11915
100
AcDbEntity
  8
0
100
AcDbSpline
210
0.0
220
0.0
230
1.0
 70
     8
 71
     3
 72
    10
 73
     6
 74
     0
 42
0.000000001
 43
0.0000000001
 40
-0.1489505020863184
 40
-0.1489505020863184
 40
-0.1489505020863184
 40
-0.1489505020863184
 40
-0.0744752510431592
 40
-0.0744752510431592
 40
0.0
 40
0.0
 40
0.0
 40
0.0
 10
36.06244584051387
 20
20.69543257007016
 30
0.0
 10
35.89175064380216
 20
20.54958980933644
 30
0.0
 10
35.72055762793002
 20
20.4058476332424
 30
0.0
 10
35.37711228169627
 20
20.12347948857351
 30
0.0
 10
35.20485908865583
 20
19.98485474528993
 30
0.0
 10
35.03207568531095
 20
19.84931860672648
 30
0.0
  0
ELLIPSE
  5
11993
330
11915
100
AcDbEntity
  8
0
100
AcDbEllipse
 10
36.09273585709077
 20
19.23694617103067
 30
0.0
 11
0.9257933986362091
 21
-1.180214634310901
 31
0.0
210
0.0
220
0.0
230
0.9999999999999998
 40
0.4663712957493057
 41
3.852704097088725
 42
5.071307076913495
  0
SPLINE
  5
11994
330
11915
100
AcDbEntity
  8
0
100
AcDbSpline
210
0.0
220
0.0
230
1.0
 70
     8
 71
     3
 72
    10
 73
     6
 74
     0
 42
0.000000001
 43
0.0000000001
 40
0.0
 40
0.0
 40
0.0
 40
0.0
 40
0.0744752510431592
 40
0.0744752510431592
 40
0.1489505020863184
 40
0.1489505020863184
 40
0.1489505020863184
 40
0.1489505020863184
 10
35.90258726485858
 20
18.4181318577413
 30
0.0
 10
36.09236787904901
 20
18.55711322692742
 30
0.0
 10
36.28106993223214
 20
18.69855408270064
 30
0.0
 10
36.65604227378331
 20
18.98553247165917
 30
0.0
 10
36.8423153587992
 20
19.13107001020447
 30
0.0
 10
37.02735974107399
 20
19.27831424346232
 30
0.0
  0
ELLIPSE
  5
11995
330
11915
100
AcDbEntity
  8
0
100
AcDbEllipse
 10
37.12310601229368
 20
20.08306013437437
 30
0.0
 11
-1.500000000000003
 21
-0.0000000000000919
 31
0.0
210
0.0
220
0.0
230
1.0
 40
0.5773502691896249
 41
3.926990816986997
 42
5.497787143781898
  0
ELLIPSE
  5
11996
330
11915
100
AcDbEntity
  8
0
100
AcDbEllipse
 10
37.1231060122937
 20
10.98107411450558
 30
0.0
 11
1.500000000000003
 21
-0.0000000000000895
 31
0.0
210
0.0
220
0.0
230
1.0
 40
0.5773502691896259
 41
0.7853981633976846
 42
2.356194490192581
  0
SPLINE
  5
11997
330
11915
100
AcDbEntity
  8
0
100
AcDbSpline
210
0.0
220
0.0
230
1.0
 70
     8
 71
     3
 72
     8
 73
     4
 74
     0
 42
0.000000001
 43
0.0000000001
 40
-1.158510647660076
 40
-1.158510647660076
 40
-1.158510647660076
 40
-1.158510647660076
 40
-0.9525469336706875
 40
-0.9525469336706875
 40
-0.9525469336706875
 40
-0.9525469336706875
 10
33.5919124624966
 20
10.66167638073856
 30
0.0
 10
34.07550520305291
 20
10.89174536260128
 30
0.0
 10
34.55421388313454
 20
11.07285243547322
 30
0.0
 10
35.032075685311
 20
11.24979154060237
 30
0.0
  0
SPLINE
  5
11998
330
11915
100
AcDbEntity
  8
0
100
AcDbSpline
210
0.0
220
0.0
230
1.0
 70
     8
 71
     3
 72
     8
 73
     4
 74
     0
 42
0.000000001
 43
0.0000000001
 40
-0.2059637139893828
 40
-0.2059637139893828
 40
-0.2059637139893828
 40
-0.2059637139893828
 40
-0.0000000000000001
 40
-0.0000000000000001
 40
-0.0000000000000001
 40
-0.0000000000000001
 10
35.03207568531094
 20
19.84931860672647
 30
0.0
 10
34.55421286617578
 20
19.47446963388072
 30
0.0
 10
34.07550520305287
 20
19.10281233386646
 30
0.0
 10
33.59191246249658
 20
18.77447651785252
 30
0.0
  0
SPLINE
  5
11999
330
11915
100
AcDbEntity
  8
0
100
AcDbSpline
210
0.0
220
0.0
230
1.0
 70
     8
 71
     3
 72
     8
 73
     4
 74
     0
 42
0.000000001
 43
0.0000000001
 40
0.0000000000000001
 40
0.0000000000000001
 40
0.0000000000000001
 40
0.0000000000000001
 40
0.2059637139893828
 40
0.2059637139893828
 40
0.2059637139893828
 40
0.2059637139893828
 10
34.22034066446001
 20
17.43810544778696
 30
0.0
 10
34.78321673699541
 20
17.76667625816218
 30
0.0
 10
35.35173380766747
 20
18.10146592506762
 30
0.0
 10
35.90258726485858
 20
18.4181318577413
 30
0.0
  0
SPLINE
  5
1199A
330
11915
100
AcDbEntity
  8
0
100
AcDbSpline
210
0.0
220
0.0
230
1.0
 70
     8
 71
     3
 72
    12
 73
     8
 74
     0
 42
0.000000001
 43
0.0000000001
 40
0.1197625046292583
 40
0.1197625046292583
 40
0.1197625046292583
 40
0.1197625046292583
 40
0.1702475024050766
 40
0.1702475024050766
 40
0.2269966698734355
 40
0.2269966698734355
 40
0.2837458373417943
 40
0.2837458373417943
 40
0.2837458373417943
 40
0.2837458373417943
 10
-9.737182728619515
 20
42.71156328046915
 30
0.0
 10
-9.625138484729163
 20
42.604188015124
 30
0.0
 10
-9.51456110509639
 20
42.49850825834016
 30
0.0
 10
-9.281930545415004
 20
42.2785233573748
 30
0.0
 10
-9.160158421942314
 20
42.16477093003383
 30
0.0
 10
-8.918651447211267
 20
41.94374132378406
 30
0.0
 10
-8.798917247351386
 20
41.83646179231096
 30
0.0
 10
-8.680123091500369
 20
41.7330177580625
 30
0.0
  0
SPLINE
  5
1199B
330
11915
100
AcDbEntity
  8
0
100
AcDbSpline
210
0.0
220
0.0
230
1.0
 70
     8
 71
     3
 72
    16
 73
    12
 74
     0
 42
0.000000001
 43
0.0000000001
 40
0.0
 40
0.0
 40
0.0
 40
0.0
 40
0.0346496010609959
 40
0.0346496010609959
 40
0.0692992021219918
 40
0.0692992021219918
 40
0.1039488031829877
 40
0.1039488031829877
 40
0.1385984042439836
 40
0.1385984042439836
 40
0.1732480053049794
 40
0.1732480053049794
 40
0.1732480053049794
 40
0.1732480053049794
 10
-8.680123091479927
 20
41.73301775800947
 30
0.0
 10
-8.598139790115091
 20
41.66162802192459
 30
0.0
 10
-8.516411025799826
 20
41.58991955902338
 30
0.0
 10
-8.353421486443348
 20
41.44592898235723
 30
0.0
 10
-8.27216070202262
 20
41.37364684264435
 30
0.0
 10
-8.11006822085436
 20
41.22856522478992
 30
0.0
 10
-8.029236519867527
 20
41.15576572164727
 30
0.0
 10
-7.867965716922209
 20
41.00969901831049
 30
0.0
 10
-7.787526614172501
 20
40.93643179451046
 30
0.0
 10
-7.627007001156909
 20
40.78947335070431
 30
0.0
 10
-7.546926492202907
 20
40.7157821086384
 30
0.0
 10
-7.467009510886772
 20
40.64189809131452
 30
0.0
  0
SPLINE
  5
1199C
330
11915
100
AcDbEntity
  8
0
100
AcDbSpline
210
0.0
220
0.0
230
1.0
 70
     8
 71
     3
 72
    16
 73
    12
 74
     0
 42
0.000000001
 43
0.0000000001
 40
0.0000000000000016
 40
0.0000000000000016
 40
0.0000000000000016
 40
0.0000000000000016
 40
0.0240179547133769
 40
0.0240179547133769
 40
0.0480359094267522
 40
0.0480359094267522
 40
0.0720538641401274
 40
0.0720538641401274
 40
0.0960718188535027
 40
0.0960718188535027
 40
0.120089773566878
 40
0.120089773566878
 40
0.120089773566878
 40
0.120089773566878
 10
-7.467009510886772
 20
40.64189809131452
 30
0.0
 10
-7.376013596162693
 20
40.55777149357327
 30
0.0
 10
-7.287886368572698
 20
40.46792699015586
 30
0.0
 10
-7.119168643436757
 20
40.27407469433907
 30
0.0
 10
-7.038546946319672
 20
40.17007343311728
 30
0.0
 10
-6.888250754111946
 20
39.94414285845665
 30
0.0
 10
-6.8185054627686
 20
39.82217233932333
 30
0.0
 10
-6.696455176259132
 20
39.55573469882537
 30
0.0
 10
-6.644099158449803
 20
39.41108207762297
 30
0.0
 10
-6.568747947697657
 20
39.09718352712265
 30
0.0
 10
-6.54594154601837
 20
38.92764098221528
 30
0.0
 10
-6.545941546018374
 20
38.74977110612004
 30
0.0
  0
SPLINE
  5
1199D
330
11915
100
AcDbEntity
  8
0
100
AcDbSpline
210
0.0
220
0.0
230
1.0
 70
     8
 71
     3
 72
    16
 73
    12
 74
     0
 42
0.000000001
 43
0.0000000001
 40
0.6935097995171966
 40
0.6935097995171966
 40
0.6935097995171966
 40
0.6935097995171966
 40
0.7904272886253877
 40
0.7904272886253877
 40
0.8873447777335787
 40
0.8873447777335787
 40
0.9842622668417696
 40
0.9842622668417696
 40
1.08117975594996
 40
1.08117975594996
 40
1.178097245058151
 40
1.178097245058151
 40
1.178097245058151
 40
1.178097245058151
 10
-18.68775456496705
 20
36.45267026140731
 30
0.0
 10
-18.3059793009501
 20
36.75604968236356
 30
0.0
 10
-17.90046346672092
 20
37.07010448137309
 30
0.0
 10
-17.04634666093983
 20
37.71596833667505
 30
0.0
 10
-16.5977444380342
 20
38.04778046012724
 30
0.0
 10
-15.66208400144255
 20
38.72562607637682
 30
0.0
 10
-15.17502569172491
 20
39.07166068169295
 30
0.0
 10
-14.1673391685471
 20
39.77441197489215
 30
0.0
 10
-13.64671153664682
 20
40.13112880464563
 30
0.0
 10
-12.57702049481654
 20
40.85168324705286
 30
0.0
 10
-12.02795808070075
 20
41.21552049017852
 30
0.0
 10
-11.46735657782257
 20
41.58112893648004
 30
0.0
  0
LINE
  5
1199E
330
11915
100
AcDbEntity
  8
0
100
AcDbLine
 10
-11.4673565778232
 20
41.58112893643506
 30
0.0
 11
-9.968422947014289
 21
42.55869106041799
 31
0.0
  0
SPLINE
  5
1199F
330
11915
100
AcDbEntity
  8
0
100
AcDbSpline
210
0.0
220
0.0
230
1.0
 70
     8
 71
     3
 72
    16
 73
    12
 74
     0
 42
0.000000001
 43
0.0000000001
 40
0.0
 40
0.0
 40
0.0
 40
0.0
 40
0.0658154371853326
 40
0.0658154371853326
 40
0.1316308743706651
 40
0.1316308743706651
 40
0.1974463115559977
 40
0.1974463115559977
 40
0.2632617487413303
 40
0.2632617487413303
 40
0.3290771859266628
 40
0.3290771859266628
 40
0.3290771859266628
 40
0.3290771859266628
 10
-9.968422947014289
 20
42.55869106041801
 30
0.0
 10
-9.802256300255907
 20
42.66706024822027
 30
0.0
 10
-9.636792606826487
 20
42.77818918670371
 30
0.0
 10
-9.307499617824994
 20
43.00538016944894
 30
0.0
 10
-9.143669576388289
 20
43.12144079162904
 30
0.0
 10
-8.817746722406321
 20
43.3578955169954
 30
0.0
 10
-8.655652997908308
 20
43.47828860939173
 30
0.0
 10
-8.333206524401063
 20
43.72283564230953
 30
0.0
 10
-8.172852945647331
 20
43.84698894796908
 30
0.0
 10
-7.8538184381155
 20
44.09853520686779
 30
0.0
 10
-7.695136906061215
 20
44.22592779033749
 30
0.0
 10
-7.537232475792423
 20
44.35471261960625
 30
0.0
  0
SPLINE
  5
119A0
330
11915
100
AcDbEntity
  8
0
100
AcDbSpline
210
0.0
220
0.0
230
1.0
 70
     8
 71
     3
 72
    16
 73
    12
 74
     0
 42
0.000000001
 43
0.0000000001
 40
0.0000000000038472
 40
0.0000000000038472
 40
0.0000000000038472
 40
0.0000000000038472
 40
0.0236982887295508
 40
0.0236982887295508
 40
0.0473965774552543
 40
0.0473965774552543
 40
0.0710948661809578
 40
0.0710948661809578
 40
0.0947931549066613
 40
0.0947931549066613
 40
0.1184914436323648
 40
0.1184914436323648
 40
0.1184914436323648
 40
0.1184914436323648
 10
-7.537232475769184
 20
44.3547126196252
 30
0.0
 10
-7.445156400214023
 20
44.4298086865969
 30
0.0
 10
-7.355240155518294
 20
44.51043707270648
 30
0.0
 10
-7.181054238733186
 20
44.68630081656849
 30
0.0
 10
-7.096733431618988
 20
44.78150896666938
 30
0.0
 10
-6.936605008131708
 20
44.99217792679714
 30
0.0
 10
-6.860661410804222
 20
45.10767790786644
 30
0.0
 10
-6.724315913486709
 20
45.36697844622643
 30
0.0
 10
-6.663759877929265
 20
45.51108975123056
 30
0.0
 10
-6.574400703943483
 20
45.8335461430299
 30
0.0
 10
-6.54594154601837
 20
46.01254090722263
 30
0.0
 10
-6.545941546018374
 20
46.20313748394692
 30
0.0
  0
LINE
  5
119A1
330
11915
100
AcDbEntity
  8
0
100
AcDbLine
 10
-7.424621202458725
 20
-12.63706491756666
 30
0.0
 11
-43.48706704297265
 21
-33.45772773122369
 31
0.0
  0
LINE
  5
119A2
330
11915
100
AcDbEntity
  8
0
100
AcDbLine
 10
0.0
 20
-58.56499759475126
 30
0.0
 11
36.06244584051395
 21
-37.74433478109423
 31
0.0
  0
LINE
  5
119A3
330
11915
100
AcDbEntity
  8
0
100
AcDbLine
 10
-43.48706704297265
 20
-33.45772773122369
 30
0.0
 11
-44.54772721475247
 21
-32.8453552955279
 31
0.0
  0
ELLIPSE
  5
119A4
330
11915
100
AcDbEntity
  8
0
100
AcDbEllipse
 10
-42.42640687119283
 20
-34.07010016691948
 30
0.0
 11
0.7500000000000793
 21
-1.299038105676616
 31
0.0
210
0.0
220
0.0
230
0.9999999999999998
 40
0.5773502691896259
 41
3.926990816987
 42
5.497787143781907
  0
LINE
  5
119A5
330
11915
100
AcDbEntity
  8
0
100
AcDbLine
 10
-6.363961030678901
 20
-14.47418222465405
 30
0.0
 11
-42.42640687119282
 21
-35.29484503831108
 31
0.0
  0
ELLIPSE
  5
119A6
330
11915
100
AcDbEntity
  8
0
100
AcDbEllipse
 10
-2.121320343559616
 20
-57.34025272335968
 30
0.0
 11
1.499999999999999
 21
-2.598076211353315
 31
0.0
210
0.0
220
0.0
230
1.0
 40
0.5773502691896258
 41
5.497787143782137
 42
7.068583470577038
  0
LINE
  5
119A7
330
11915
100
AcDbEntity
  8
0
100
AcDbLine
 10
-1.060660171779796
 20
-57.95262515905545
 30
0.0
 11
0.0
 21
-58.56499759475126
 31
0.0
  0
LINE
  5
119A8
330
11915
100
AcDbEntity
  8
0
100
AcDbLine
 10
-1.060660171779792
 20
-57.95262515905547
 30
0.0
 11
-2.121320343559616
 21
-58.56499759475126
 31
0.0
  0
ELLIPSE
  5
119A9
330
11915
100
AcDbEntity
  8
0
100
AcDbEllipse
 10
-2.121320343559616
 20
-57.34025272335968
 30
0.0
 11
0.7499999999999974
 21
-1.299038105676653
 31
0.0
210
0.0
220
0.0
230
1.0
 40
0.5773502691896258
 41
5.497787143782137
 42
7.068583470577037
  0
LINE
  5
119AA
330
11915
100
AcDbEntity
  8
0
100
AcDbLine
 10
-2.121320343559616
 20
-58.56499759475126
 30
0.0
 11
-2.121320343559616
 21
-59.78974246614285
 31
0.0
  0
LINE
  5
119AB
330
11915
100
AcDbEntity
  8
0
100
AcDbLine
 10
-42.42640687119282
 20
-35.29484503831108
 30
0.0
 11
-42.42640687119283
 21
-36.51958990970267
 31
0.0
  0
ELLIPSE
  5
119AC
330
11915
100
AcDbEntity
  8
0
100
AcDbEllipse
 10
-42.42640687119283
 20
-34.07010016691948
 30
0.0
 11
1.500000000000158
 21
-2.598076211353233
 31
0.0
210
0.0
220
0.0
230
1.0
 40
0.5773502691896259
 41
3.926990816986998
 42
5.497787143781895
  0
LINE
  5
119AD
330
11915
100
AcDbEntity
  8
0
100
AcDbLine
 10
35.44112549695431
 20
-39.11766612105596
 30
0.0
 11
-0.6213203435596171
 21
-59.93832893471298
 31
0.0
  0
ELLIPSE
  5
119AE
330
11915
100
AcDbEntity
  8
0
100
AcDbEllipse
 10
-6.363961030678959
 20
25.53415024080455
 30
0.0
 11
-1.25
 21
-2.165063509461097
 31
0.0
210
0.0
220
0.0
230
1.0
 40
0.5773502691896259
 41
4.570491925780483
 42
6.425082361783791
  0
ELLIPSE
  5
119AF
330
11915
100
AcDbEntity
  8
0
100
AcDbEllipse
 10
-17.19874945120638
 20
41.18716731928445
 30
0.0
 11
8.166754732810669
 21
0.000000000000033
 31
0.0
210
0.0
220
0.0
230
1.0
 40
0.5773502691896267
 41
5.654866776461625
 42
6.408095538707122
  0
LINE
  5
119B0
330
11915
100
AcDbEntity
  8
0
100
AcDbLine
 10
-10.59170608347051
 20
38.4157139819695
 30
0.0
 11
-10.32342658423158
 21
38.19102651949043
 31
0.0
  0
ELLIPSE
  5
119B1
330
11915
100
AcDbEntity
  8
0
100
AcDbEllipse
 10
-9.755793102956848
 20
40.10180405653635
 30
0.0
 11
1.679777606426227
 21
-2.113846539592925
 31
0.0
210
0.0
220
0.0
230
1.0
 40
0.6605596098195698
 41
3.711761074681897
 42
5.013199698257077
  0
ELLIPSE
  5
119B2
330
11915
100
AcDbEntity
  8
0
100
AcDbEllipse
 10
-13.43502884254427
 20
54.11153057327495
 30
0.0
 11
-1.249999999999999
 21
2.165063509461097
 31
0.0
210
0.0
220
0.0
230
1.0
 40
0.5773502691896259
 41
4.425632428173164
 42
8.140738186186002
  0
ELLIPSE
  5
119B3
330
11915
100
AcDbEntity
  8
0
100
AcDbEllipse
 10
-20.50609665440974
 20
50.02904766863631
 30
0.0
 11
-1.249999999999999
 21
2.165063509461097
 31
0.0
210
0.0
220
0.0
230
1.0
 40
0.5773502691896259
 41
4.425632428173164
 42
8.140738186186002
  0
ELLIPSE
  5
119B4
330
11915
100
AcDbEntity
  8
0
100
AcDbEllipse
 10
-12.37436867076445
 20
54.72390300897074
 30
0.0
 11
1.250000000000128
 21
-2.165063509461022
 31
0.0
210
0.0
220
0.0
230
0.9999999999999998
 40
0.5773502691896259
 41
3.579741684173546
 42
4.999145532595992
  0
ELLIPSE
  5
119B5
330
11915
100
AcDbEntity
  8
0
100
AcDbEllipse
 10
-19.44543648262992
 20
50.6414201043321
 30
0.0
 11
1.250000000000128
 21
-2.165063509461022
 31
0.0
210
0.0
220
0.0
230
0.9999999999999998
 40
0.5773502691896259
 41
3.579741684173546
 42
4.999145532595992
  0
ELLIPSE
  5
119B6
330
11915
100
AcDbEntity
  8
0
100
AcDbEllipse
 10
-6.363961030678777
 20
26.75889511219611
 30
0.0
 11
1.249999999999999
 21
-2.165063509461097
 31
0.0
210
0.0
220
0.0
230
0.9999999999999998
 40
0.5773502691896259
 41
4.662295549665588
 42
4.854286034988811
  0
LINE
  5
119B7
330
11915
100
AcDbEntity
  8
0
100
AcDbLine
 10
-7.778174593052096
 20
23.49290878848528
 30
0.0
 11
-7.424621202458663
 21
23.28878464325325
 31
0.0
  0
SPLINE
  5
119B8
330
11915
100
AcDbEntity
  8
0
100
AcDbSpline
210
0.0
220
0.0
230
1.0
 70
     8
 71
     3
 72
    11
 73
     7
 74
     0
 42
0.000000001
 43
0.0000000001
 40
-1.0
 40
-1.0
 40
-1.0
 40
-1.0
 40
-0.8649350770694436
 40
-0.8649350770694436
 40
-0.8649350770694436
 40
-0.4999999999999935
 40
-0.4999999999999935
 40
-0.4999999999999935
 40
-0.4999999999999935
 10
-7.424621202458654
 20
26.55477096696426
 30
0.0
 10
-7.295904395040722
 20
26.70005095021516
 30
0.0
 10
-7.170505371100612
 20
26.8488587863777
 30
0.0
 10
-7.057206573063852
 20
26.99957122260507
 30
0.0
 10
-6.751081898379229
 20
27.40678468215174
 30
0.0
 10
-6.62194785493178
 20
27.82342630811895
 30
0.0
 10
-6.636859388939559
 20
28.17065985207328
 30
0.0
  0
SPLINE
  5
119B9
330
11915
100
AcDbEntity
  8
0
100
AcDbSpline
210
0.0
220
0.0
230
1.0
 70
     8
 71
     3
 72
    11
 73
     7
 74
     0
 42
0.000000001
 43
0.0000000001
 40
-1.0
 40
-1.0
 40
-1.0
 40
-1.0
 40
-0.864935077068354
 40
-0.864935077068354
 40
-0.864935077068354
 40
0.0
 40
0.0
 40
0.0
 40
0.0
 10
-7.424621202458663
 20
25.73827438603653
 30
0.0
 10
-7.295904395039705
 20
25.59299440278451
 30
0.0
 10
-7.170505371098614
 20
25.44418656662069
 30
0.0
 10
-7.057206573061134
 20
25.29347413039206
 30
0.0
 10
-6.331658425657318
 20
24.32833477507224
 30
0.0
 10
-6.600338484722541
 20
23.31023358259334
 30
0.0
 10
-7.424621202458663
 20
23.28878464325325
 30
0.0
  0
LINE
  5
119BA
330
11915
100
AcDbEntity
  8
0
100
AcDbLine
 10
-7.98414620528093
 20
25.41523247503877
 30
0.0
 11
-7.424621202458658
 21
25.73827438603653
 31
0.0
  0
SPLINE
  5
119BB
330
11915
100
AcDbEntity
  8
0
100
AcDbSpline
210
0.0
220
0.0
230
1.0
 70
     8
 71
     3
 72
     8
 73
     4
 74
     0
 42
0.000000001
 43
0.0000000001
 40
0.4105686222822376
 40
0.4105686222822376
 40
0.4105686222822376
 40
0.4105686222822376
 40
0.7033723312469851
 40
0.7033723312469851
 40
0.7033723312469851
 40
0.7033723312469851
 10
-8.109615363198191
 20
24.0037388135997
 30
0.0
 10
-8.076104256854401
 20
24.11296041537853
 30
0.0
 10
-8.086359619212387
 20
24.27352569779229
 30
0.0
 10
-8.148889756621011
 20
24.46584059245477
 30
0.0
  0
SPLINE
  5
119BC
330
11915
100
AcDbEntity
  8
0
100
AcDbSpline
210
0.0
220
0.0
230
1.0
 70
     8
 71
     3
 72
     8
 73
     4
 74
     0
 42
0.000000001
 43
0.0000000001
 40
-1.0
 40
-1.0
 40
-1.0
 40
-1.0
 40
-0.4999999999999987
 40
-0.4999999999999987
 40
-0.4999999999999987
 40
-0.4999999999999987
 10
-7.424621202458716
 20
-7.942819490731651
 30
0.0
 10
-6.86926083518891
 20
-7.346815084287006
 30
0.0
 10
-6.591580651554007
 20
-6.619394428457217
 30
0.0
 10
-6.591580651554007
 20
-5.891973772627414
 30
0.0
  0
LINE
  5
119BD
330
11915
100
AcDbEntity
  8
0
100
AcDbLine
 10
-11.82236021331852
 20
37.43776917384144
 30
0.0
 11
-10.59170608347051
 21
38.4157139819695
 31
0.0
  0
ELLIPSE
  5
119BE
330
11915
100
AcDbEntity
  8
0
100
AcDbEllipse
 10
16.61700935788383
 20
-10.18757517478346
 30
0.0
 11
1.249999999999867
 21
2.165063509461173
 31
0.0
210
0.0
220
0.0
230
1.0
 40
0.5773502691896267
 41
3.579741684173541
 42
5.845036276594997
  0
ELLIPSE
  5
119BF
330
11915
100
AcDbEntity
  8
0
100
AcDbEllipse
 10
16.61700935788381
 20
6.142356443771075
 30
0.0
 11
1.249999999999867
 21
2.165063509461173
 31
0.0
210
0.0
220
0.0
230
1.0
 40
0.5773502691896267
 41
3.579741684173541
 42
5.845036276594997
  0
ELLIPSE
  5
119C0
330
11915
100
AcDbEntity
  8
0
100
AcDbEllipse
 10
16.61700935788385
 20
-26.517506793338
 30
0.0
 11
1.249999999999867
 21
2.165063509461173
 31
0.0
210
0.0
220
0.0
230
1.0
 40
0.5773502691896269
 41
3.579741684173544
 42
5.845036276595
  0
ELLIPSE
  5
119C1
330
11915
100
AcDbEntity
  8
0
100
AcDbEllipse
 10
17.67766952966367
 20
-27.1298792290338
 30
0.0
 11
-1.249999999999996
 21
-2.165063509461099
 31
0.0
210
0.0
220
0.0
230
1.0
 40
0.5773502691896269
 41
0.0
 42
6.283185307179586
  0
ELLIPSE
  5
119C2
330
11915
100
AcDbEntity
  8
0
100
AcDbEllipse
 10
17.67766952966363
 20
5.529984008075281
 30
0.0
 11
-1.249999999999996
 21
-2.165063509461099
 31
0.0
210
0.0
220
0.0
230
1.0
 40
0.5773502691896269
 41
0.0
 42
6.283185307179586
  0
ELLIPSE
  5
119C3
330
11915
100
AcDbEntity
  8
0
100
AcDbEllipse
 10
17.67766952966365
 20
-10.79994761047925
 30
0.0
 11
-1.249999999999996
 21
-2.165063509461099
 31
0.0
210
0.0
220
0.0
230
1.0
 40
0.5773502691896269
 41
0.0
 42
6.283185307179586
  0
ELLIPSE
  5
119C4
330
11915
100
AcDbEntity
  8
0
100
AcDbEllipse
 10
42.5944280676687
 20
15.84640670094992
 30
0.0
 11
-1.185309973000753
 21
-4.029272920503768
 31
0.0
210
0.0
220
0.0
230
1.0
 40
0.3706816908110097
 41
4.714609510599313
 42
6.051826567759564
  0
ELLIPSE
  5
119C5
330
11915
100
AcDbEntity
  8
0
100
AcDbEllipse
 10
38.41771547006486
 20
14.28196323415831
 30
0.0
 11
7.592729584066626
 21
0.0000000000000075
 31
0.0
210
0.0
220
0.0
230
1.0
 40
0.5773502691896292
 41
1.660962753237626
 42
1.90842948738755
  0
ELLIPSE
  5
119C6
330
11915
100
AcDbEntity
  8
0
100
AcDbEllipse
 10
33.01009114897412
 20
15.41090927155163
 30
0.0
 11
1.62462978483087
 21
-3.873057973002779
 31
0.0
210
0.0
220
0.0
230
1.0
 40
0.4799246488165452
 41
0.0
 42
1.910948379511898
  0
LINE
  5
119C7
330
11915
100
AcDbEntity
  8
0
100
AcDbLine
 10
29.74762258834123
 20
9.487862481241666
 30
0.0
 11
34.63472093380499
 21
11.53785129854884
 31
0.0
  0
SPLINE
  5
119C8
330
11915
100
AcDbEntity
  8
0
100
AcDbSpline
210
0.0
220
0.0
230
1.0
 70
     8
 71
     3
 72
    16
 73
    12
 74
     0
 42
0.000000001
 43
0.0000000001
 40
3.298672286269283
 40
3.298672286269283
 40
3.298672286269283
 40
3.298672286269283
 40
3.440463867569785
 40
3.440463867569785
 40
3.582255448870286
 40
3.582255448870286
 40
3.724047030170788
 40
3.724047030170788
 40
3.865838611471289
 40
3.865838611471289
 40
4.00763019277179
 40
4.00763019277179
 40
4.00763019277179
 40
4.00763019277179
 10
34.63472093380499
 20
11.53785129854885
 30
0.0
 10
34.84918919310632
 20
11.62781419721717
 30
0.0
 10
35.08679276314986
 20
11.71392089283037
 30
0.0
 10
35.59891100565401
 20
11.87031202252168
 30
0.0
 10
35.87340345759187
 20
11.94061552577899
 30
0.0
 10
36.44894966378412
 20
12.05993277683753
 30
0.0
 10
36.74999241771774
 20
12.10895959182483
 30
0.0
 10
37.36784710327093
 20
12.18236393514927
 30
0.0
 10
37.68465282117408
 20
12.20674861329023
 30
0.0
 10
38.32303601809182
 20
12.2293156626677
 30
0.0
 10
38.64460896237375
 20
12.22750008912844
 30
0.0
 10
38.96304186187585
 20
12.2126425372358
 30
0.0
  0
SPLINE
  5
119C9
330
11915
100
AcDbEntity
  8
0
100
AcDbSpline
210
0.0
220
0.0
230
1.0
 70
     8
 71
     3
 72
    11
 73
     7
 74
     0
 42
0.000000001
 43
0.0000000001
 40
-1.0
 40
-1.0
 40
-1.0
 40
-1.0
 40
-0.8649350770694436
 40
-0.8649350770694436
 40
-0.8649350770694436
 40
0.0
 40
0.0
 40
0.0
 40
0.0
 10
36.06244584051389
 20
1.447501103436752
 30
0.0
 10
36.12680424422285
 20
1.55562374498166
 30
0.0
 10
36.20135870409595
 20
1.654543086304136
 30
0.0
 10
36.2855204592913
 20
1.740780444269192
 30
0.0
 10
36.82447944758178
 20
2.293031274753993
 30
0.0
 10
37.77162482520494
 20
2.139901937557526
 30
0.0
 10
38.18376618407354
 20
1.447501103436663
 30
0.0
  0
ELLIPSE
  5
119CA
330
11915
100
AcDbEntity
  8
0
100
AcDbEllipse
 10
37.12310601229376
 20
0.4268803772769437
 30
0.0
 11
-1.249999999999995
 21
-2.165063509461099
 31
0.0
210
0.0
220
0.0
230
0.9999999999999998
 40
0.5773502691896267
 41
4.570491925780482
 42
6.425082361783791
  0
ELLIPSE
  5
119CB
330
11915
100
AcDbEntity
  8
0
100
AcDbEllipse
 10
48.7903679018717
 20
-5.084471543985078
 30
0.0
 11
2.75
 21
-4.763139720814414
 31
0.0
210
0.0
220
0.0
230
1.0
 40
0.5773502691896259
 41
5.871908223239689
 42
6.089122209761023
  0
ELLIPSE
  5
119CC
330
11915
100
AcDbEntity
  8
0
100
AcDbEllipse
 10
48.7903679018717
 20
-5.084471543985078
 30
0.0
 11
-2.750000000000001
 21
4.763139720814412
 31
0.0
210
0.0
220
0.0
230
0.9999999999999998
 40
0.577350269189626
 41
0.1940630974185661
 42
1.982073410734792
  0
LINE
  5
119CD
330
11915
100
AcDbEntity
  8
0
100
AcDbLine
 10
47.36908327168674
 20
-8.443996147128769
 30
0.0
 11
47.36908327168674
 21
-9.095693083574143
 31
0.0
  0
ELLIPSE
  5
119CE
330
11915
100
AcDbEntity
  8
0
100
AcDbEllipse
 10
37.12310601229366
 20
0.4268803772770769
 30
0.0
 11
1.25
 21
-2.165063509461097
 31
0.0
210
0.0
220
0.0
230
1.0
 40
0.5773502691896259
 41
6.14128825257546
 42
7.995878688578606
  0
LINE
  5
119CF
330
11915
100
AcDbEntity
  8
0
100
AcDbLine
 10
46.31190206527037
 20
-11.81849443532328
 30
0.0
 11
46.30842309990692
 21
-11.81648585373418
 31
0.0
  0
LINE
  5
119D0
330
11915
100
AcDbEntity
  8
0
100
AcDbLine
 10
46.30842309990692
 20
-11.81648585373418
 30
0.0
 11
46.30842309990692
 21
-9.056368582824564
 31
0.0
  0
ELLIPSE
  5
119D1
330
11915
100
AcDbEntity
  8
0
100
AcDbEllipse
 10
47.72970773009188
 20
-5.696843979680872
 30
0.0
 11
-2.749999999999716
 21
4.763139720814577
 31
0.0
210
0.0
220
0.0
230
1.0
 40
0.5773502691896259
 41
2.730315569650135
 42
8.265258717914431
  0
LINE
  5
119D2
330
11915
100
AcDbEntity
  8
0
100
AcDbLine
 10
49.15099236027685
 20
-10.69752671048929
 30
0.0
 11
49.15099236027683
 21
-13.45764398139891
 31
0.0
  0
LINE
  5
119D3
330
11915
100
AcDbEntity
  8
0
100
AcDbLine
 10
49.15099236027683
 20
-13.45764398139891
 30
0.0
 11
49.14751339491342
 21
-13.45563539980984
 31
0.0
  0
SPLINE
  5
119D4
330
11915
100
AcDbEntity
  8
0
100
AcDbSpline
210
0.0
220
0.0
230
1.0
 70
     8
 71
     3
 72
    11
 73
     7
 74
     0
 42
0.000000001
 43
0.0000000001
 40
0.1340645268892127
 40
0.1340645268892127
 40
0.1340645268892127
 40
0.1340645268892127
 40
0.864935077068354
 40
0.864935077068354
 40
0.864935077068354
 40
0.8659354731107729
 40
0.8659354731107729
 40
0.8659354731107729
 40
0.8659354731107729
 10
35.45517173576065
 20
-1.192747110588285
 30
0.0
 10
36.39368348844274
 20
-1.163741440126404
 30
0.0
 10
37.88743591705384
 20
-1.116903695730413
 30
0.0
 10
38.7982771182945
 20
-1.181201722632603
 30
0.0
 10
38.79952385334596
 20
-1.181289732050463
 30
0.0
 10
38.80076953427776
 20
-1.181377620617474
 30
0.0
 10
38.80201416061142
 20
-1.181465386656626
 30
0.0
  0
LINE
  5
119D5
330
11915
100
AcDbEntity
  8
0
100
AcDbLine
 10
46.30842309990692
 20
-11.81648585373418
 30
0.0
 11
46.31550595286454
 21
-11.81239656667247
 31
0.0
  0
LINE
  5
119D6
330
11915
100
AcDbEntity
  8
0
100
AcDbLine
 10
36.0624458405139
 20
-1.818485220274257
 30
0.0
 11
35.77263145084412
 21
-1.651160804383393
 31
0.0
  0
LINE
  5
119D7
330
11915
100
AcDbEntity
  8
0
100
AcDbLine
 10
35.77263145084412
 20
-1.651160804383393
 30
0.0
 11
35.70889244992062
 21
-1.614361075042327
 31
0.0
  0
SPLINE
  5
119D8
330
11915
100
AcDbEntity
  8
0
100
AcDbSpline
210
0.0
220
0.0
230
1.0
 70
     8
 71
     3
 72
    11
 73
     7
 74
     0
 42
0.000000001
 43
0.0000000001
 40
-1.0
 40
-1.0
 40
-1.0
 40
-1.0
 40
-0.864935077068354
 40
-0.864935077068354
 40
-0.864935077068354
 40
0.0
 40
0.0
 40
0.0
 40
0.0
 10
38.18376618407354
 20
-1.818485220274155
 30
0.0
 10
38.11940778036406
 20
-1.852293178407329
 30
0.0
 10
38.04485332049028
 20
-1.878813359502067
 30
0.0
 10
37.96069156529411
 20
-1.899637625921832
 30
0.0
 10
37.42173257700335
 20
-2.032993038191186
 30
0.0
 10
36.47458719938196
 20
-2.034986205420827
 30
0.0
 10
36.0624458405139
 20
-1.818485220274257
 30
0.0
  0
LINE
  5
119D9
330
11915
100
AcDbEntity
  8
0
100
AcDbLine
 10
38.18376618407354
 20
-1.81848522027415
 30
0.0
 11
38.47358057374293
 21
-1.6511608043835
 31
0.0
  0
LINE
  5
119DA
330
11915
100
AcDbEntity
  8
0
100
AcDbLine
 10
38.47358057374293
 20
-1.6511608043835
 30
0.0
 11
38.53731957466671
 21
-1.614361075042283
 31
0.0
  0
LINE
  5
119DB
330
11915
100
AcDbEntity
  8
0
100
AcDbLine
 10
49.15099236027685
 20
-10.69752671048929
 30
0.0
 11
50.21165253205666
 21
-10.0851542747935
 31
0.0
  0
LINE
  5
119DC
330
11915
100
AcDbEntity
  8
0
100
AcDbLine
 10
46.30842309990692
 20
-9.056368582824564
 30
0.0
 11
47.36908327168674
 21
-8.443996147128769
 31
0.0
  0
LINE
  5
119DD
330
11915
100
AcDbEntity
  8
0
100
AcDbLine
 10
51.42300493521689
 20
-6.422255877351688
 30
0.0
 11
48.43681451127842
 21
-8.146333722464049
 31
0.0
  0
LINE
  5
119DE
330
11915
100
AcDbEntity
  8
0
100
AcDbLine
 10
-8.485281374238553
 20
57.37751689698585
 30
0.0
 11
-22.62741699796949
 21
65.54248270626311
 31
0.0
  0
LINE
  5
119DF
330
11915
100
AcDbEntity
  8
0
100
AcDbLine
 10
-26.87005768508879
 20
63.09299296347996
 30
0.0
 11
-26.87005768508879
 21
45.53831647353383
 31
0.0
  0
LINE
  5
119E0
330
11915
100
AcDbEntity
  8
0
100
AcDbLine
 10
-26.87005768508879
 20
39.82284040703977
 30
0.0
 11
-26.87005768508879
 21
37.37335066425656
 31
0.0
  0
LINE
  5
119E1
330
11915
100
AcDbEntity
  8
0
100
AcDbLine
 10
53.38656197958428
 20
22.88053635278977
 30
0.0
 11
39.24442635585331
 21
31.04550216206681
 31
0.0
  0
LINE
  5
119E2
330
11915
100
AcDbEntity
  8
0
100
AcDbLine
 10
38.18376618407349
 20
30.433129726371
 30
0.0
 11
52.32590180780445
 21
22.26816391709396
 31
0.0
  0
LINE
  5
119E3
330
11915
100
AcDbEntity
  8
0
100
AcDbLine
 10
57.62920266670359
 20
-21.87122223819461
 30
0.0
 11
57.62920266670356
 21
15.53206712444
 31
0.0
  0
LINE
  5
119E4
330
11915
100
AcDbEntity
  8
0
100
AcDbLine
 10
56.56854249492377
 20
-22.48359467389041
 30
0.0
 11
56.56854249492375
 21
14.9196946887442
 31
0.0
  0
LINE
  5
119E5
330
11915
100
AcDbEntity
  8
0
100
AcDbLine
 10
-7.424621202458734
 20
57.98988933268164
 30
0.0
 11
-21.56675682618967
 21
66.1548551419589
 31
0.0
  0
ELLIPSE
  5
119E6
330
11915
100
AcDbEntity
  8
0
100
AcDbEllipse
 10
44.19417382415914
 20
-22.0267755982354
 30
0.0
 11
1.250000000000129
 21
-2.165063509461022
 31
0.0
210
0.0
220
0.0
230
1.0
 40
0.5773502691896259
 41
3.579741684173537
 42
5.845036276594999
  0
ELLIPSE
  5
119E7
330
11915
100
AcDbEntity
  8
0
100
AcDbEllipse
 10
44.19417382415915
 20
5.734108153307291
 30
0.0
 11
1.250000000000129
 21
-2.165063509461022
 31
0.0
210
0.0
220
0.0
230
1.0
 40
0.5773502691896259
 41
3.579741684173541
 42
5.845036276594998
  0
ELLIPSE
  5
119E8
330
11915
100
AcDbEntity
  8
0
100
AcDbEllipse
 10
44.19417382415915
 20
22.06403977186182
 30
0.0
 11
1.250000000000129
 21
-2.165063509461022
 31
0.0
210
0.0
220
0.0
230
1.0
 40
0.5773502691896259
 41
3.579741684173541
 42
5.845036276594998
  0
ELLIPSE
  5
119E9
330
11915
100
AcDbEntity
  8
0
100
AcDbEllipse
 10
51.26524163602462
 20
9.816591057945927
 30
0.0
 11
1.250000000000129
 21
-2.165063509461022
 31
0.0
210
0.0
220
0.0
230
1.0
 40
0.5773502691896259
 41
3.579741684173541
 42
5.845036276594998
  0
ELLIPSE
  5
119EA
330
11915
100
AcDbEntity
  8
0
100
AcDbEllipse
 10
44.19417382415915
 20
-10.59582346524723
 30
0.0
 11
1.250000000000129
 21
-2.165063509461022
 31
0.0
210
0.0
220
0.0
230
1.0
 40
0.5773502691896259
 41
3.579741684173546
 42
5.845036276594998
  0
ELLIPSE
  5
119EB
330
11915
100
AcDbEntity
  8
0
100
AcDbEllipse
 10
51.26524163602462
 20
-20.39378243637995
 30
0.0
 11
1.250000000000129
 21
-2.165063509461022
 31
0.0
210
0.0
220
0.0
230
1.0
 40
0.5773502691896259
 41
3.579741684173541
 42
5.845036276594998
  0
ELLIPSE
  5
119EC
330
11915
100
AcDbEntity
  8
0
100
AcDbEllipse
 10
43.13351365237934
 20
-22.6391480339312
 30
0.0
 11
1.25
 21
-2.165063509461097
 31
0.0
210
0.0
220
0.0
230
1.0
 40
0.5773502691896259
 41
0.0
 42
6.283185307179586
  0
ELLIPSE
  5
119ED
330
11915
100
AcDbEntity
  8
0
100
AcDbEllipse
 10
50.20458146424481
 20
-21.00615487207574
 30
0.0
 11
1.25
 21
-2.165063509461097
 31
0.0
210
0.0
220
0.0
230
1.0
 40
0.5773502691896259
 41
0.0
 42
6.283185307179586
  0
ELLIPSE
  5
119EE
330
11915
100
AcDbEntity
  8
0
100
AcDbEllipse
 10
43.13351365237934
 20
-11.20819590094303
 30
0.0
 11
1.25
 21
-2.165063509461097
 31
0.0
210
0.0
220
0.0
230
1.0
 40
0.5773502691896259
 41
0.0
 42
6.283185307179586
  0
ELLIPSE
  5
119EF
330
11915
100
AcDbEntity
  8
0
100
AcDbEllipse
 10
50.20458146424481
 20
9.204218622250133
 30
0.0
 11
1.25
 21
-2.165063509461097
 31
0.0
210
0.0
220
0.0
230
1.0
 40
0.5773502691896259
 41
0.0
 42
6.283185307179586
  0
ELLIPSE
  5
119F0
330
11915
100
AcDbEntity
  8
0
100
AcDbEllipse
 10
43.13351365237934
 20
21.45166733616602
 30
0.0
 11
1.25
 21
-2.165063509461097
 31
0.0
210
0.0
220
0.0
230
1.0
 40
0.5773502691896259
 41
0.0
 42
6.283185307179586
  0
ELLIPSE
  5
119F1
330
11915
100
AcDbEntity
  8
0
100
AcDbEllipse
 10
43.13351365237934
 20
5.121735717611497
 30
0.0
 11
1.25
 21
-2.165063509461097
 31
0.0
210
0.0
220
0.0
230
1.0
 40
0.5773502691896259
 41
0.0
 42
6.283185307179586
  0
LINE
  5
119F2
330
11915
100
AcDbEntity
  8
0
100
AcDbLine
 10
38.18376618407358
 20
-31.39788766083379
 30
0.0
 11
52.82817024911196
 21
-28.4469658723233
 31
0.0
  0
SPLINE
  5
119F3
330
11915
100
AcDbEntity
  8
0
100
AcDbSpline
210
0.0
220
0.0
230
1.0
 70
     8
 71
     3
 72
     8
 73
     4
 74
     0
 42
0.000000001
 43
0.0000000001
 40
-1.0
 40
-1.0
 40
-1.0
 40
-1.0
 40
0.0
 40
0.0
 40
0.0
 40
0.0
 10
36.06244584051394
 20
-33.05008935425922
 30
0.0
 10
36.61780620778375
 20
-32.17871799891039
 30
0.0
 10
37.62840581680379
 20
-31.62798410110185
 30
0.0
 10
38.18376618407359
 20
-31.39788766083381
 30
0.0
  0
LINE
  5
119F4
330
11915
100
AcDbEntity
  8
0
100
AcDbLine
 10
46.31190206527037
 20
-11.82264223795437
 30
0.0
 11
46.31190206527037
 21
-11.81849443532328
 31
0.0
  0
LINE
  5
119F5
330
11915
100
AcDbEntity
  8
0
100
AcDbLine
 10
49.14751339491342
 20
-13.45563539980984
 30
0.0
 11
49.14751339491342
 21
-13.45978320244093
 31
0.0
  0
LINE
  5
119F6
330
11915
100
AcDbEntity
  8
0
100
AcDbLine
 10
49.14751339491342
 20
-13.45978320244093
 30
0.0
 11
49.143921292465
 21
-13.45770930112538
 31
0.0
  0
LINE
  5
119F7
330
11915
100
AcDbEntity
  8
0
100
AcDbLine
 10
49.143921292465
 20
-13.45770930112538
 30
0.0
 11
49.143921292465
 21
-13.45356149849428
 31
0.0
  0
LINE
  5
119F8
330
11915
100
AcDbEntity
  8
0
100
AcDbLine
 10
49.143921292465
 20
-13.45356149849428
 30
0.0
 11
46.31549416771881
 21
-11.82056833663883
 31
0.0
  0
LINE
  5
119F9
330
11915
100
AcDbEntity
  8
0
100
AcDbLine
 10
46.31549416771881
 20
-11.82056833663883
 30
0.0
 11
46.31549416771881
 21
-11.82471613926993
 31
0.0
  0
LINE
  5
119FA
330
11915
100
AcDbEntity
  8
0
100
AcDbLine
 10
46.31549416771881
 20
-11.82471613926993
 30
0.0
 11
46.31190206527037
 21
-11.82264223795437
 31
0.0
  0
ELLIPSE
  5
119FB
330
11915
100
AcDbEntity
  8
0
100
AcDbEllipse
 10
48.43681451127842
 20
-10.59582346524722
 30
0.0
 11
-1.499999999999757
 21
-2.598076211353458
 31
0.0
210
0.0
220
0.0
230
1.0
 40
0.5773502691896476
 41
3.926990816986981
 42
5.497787143781874
  0
ELLIPSE
  5
119FC
330
11915
100
AcDbEntity
  8
0
100
AcDbEllipse
 10
51.26524163602461
 20
-12.22881662710267
 30
0.0
 11
1.500000000000155
 21
2.598076211353227
 31
0.0
210
0.0
220
0.0
230
0.9999999999999998
 40
0.5773502691896255
 41
2.274522134612073
 42
2.356194490192581
  0
ELLIPSE
  5
119FD
330
11915
100
AcDbEntity
  8
0
100
AcDbEllipse
 10
51.26524163602461
 20
-12.22881662710267
 30
0.0
 11
1.499999999999989
 21
2.598076211353324
 31
0.0
210
0.0
220
0.0
230
0.9999999999999998
 40
0.5773502691896237
 41
0.8625158344705852
 42
0.9940868618318834
  0
LINE
  5
119FE
330
11915
100
AcDbEntity
  8
0
100
AcDbLine
 10
49.143921292465
 20
-13.45356149849428
 30
0.0
 11
49.15099236027683
 21
-13.44947901558966
 31
0.0
  0
LINE
  5
119FF
330
11915
100
AcDbEntity
  8
0
100
AcDbLine
 10
48.43681451127842
 20
-8.146333722464049
 30
0.0
 11
51.19380934522964
 21
-9.738085432000191
 31
0.0
  0
LINE
  5
11A00
330
11915
100
AcDbEntity
  8
0
100
AcDbLine
 10
46.31549416771877
 20
-11.82056833663883
 30
0.0
 11
46.31190206527037
 21
-11.82264223795437
 31
0.0
  0
LINE
  5
11A01
330
11915
100
AcDbEntity
  8
0
100
AcDbLine
 10
46.31190206527037
 20
-11.81849443532328
 30
0.0
 11
46.31549720903436
 21
-11.81641877810336
 31
0.0
  0
LINE
  5
11A02
330
11915
100
AcDbEntity
  8
0
100
AcDbLine
 10
49.1475133949134
 20
-13.45563539980983
 30
0.0
 11
49.143921292465
 21
-13.45770930112538
 31
0.0
  0
LINE
  5
11A03
330
11915
100
AcDbEntity
  8
0
100
AcDbLine
 10
49.15099236027683
 20
-13.45362681822077
 30
0.0
 11
49.14751339491342
 21
-13.45563539980984
 31
0.0
  0
SPLINE
  5
11A04
330
11915
100
AcDbEntity
  8
0
100
AcDbSpline
210
0.0
220
0.0
230
1.0
 70
     8
 71
     3
 72
     8
 73
     4
 74
     0
 42
0.000000001
 43
0.0000000001
 40
-1.0
 40
-1.0
 40
-1.0
 40
-1.0
 40
0.0
 40
0.0
 40
0.0
 40
0.0
 10
-3.181980515339433
 20
-13.86180978895827
 30
0.0
 10
-3.889087296526096
 20
-14.09483641357527
 30
0.0
 10
-5.101493882223242
 20
-14.5617930575771
 30
0.0
 10
-6.363961030678875
 20
-14.47418222465407
 30
0.0
  0
LINE
  5
11A05
330
11915
100
AcDbEntity
  8
0
100
AcDbLine
 10
-0.8485281374238251
 20
-12.51459043042752
 30
0.0
 11
-3.181980515339433
 21
-13.86180978895827
 31
0.0
  0
LINE
  5
11A06
330
11915
100
AcDbEntity
  8
0
100
AcDbLine
 10
-0.8485281374238251
 20
-12.51459043042752
 30
0.0
 11
0.2121320343559963
 21
-11.90221799473173
 31
0.0
  0
LINE
  5
11A07
330
11915
100
AcDbEntity
  8
0
100
AcDbLine
 10
0.2121320343559963
 20
-11.90221799473173
 30
0.0
 11
5.338656197958466
 21
-14.86201810059473
 31
0.0
  0
LINE
  5
11A08
330
11915
100
AcDbEntity
  8
0
100
AcDbLine
 10
4.277996026178644
 20
-15.47439053629053
 30
0.0
 11
-0.8485281374238251
 21
-12.51459043042752
 31
0.0
  0
LINE
  5
11A09
330
11915
100
AcDbEntity
  8
0
100
AcDbLine
 10
6.894291116568869
 20
-13.96387186157423
 30
0.0
 11
4.277996026178644
 21
-15.47439053629053
 31
0.0
  0
LINE
  5
11A0A
330
11915
100
AcDbEntity
  8
0
100
AcDbLine
 10
7.95495128834869
 20
-13.35149942587844
 30
0.0
 11
6.894291116568869
 21
-13.96387186157423
 31
0.0
  0
SPLINE
  5
11A0B
330
11915
100
AcDbEntity
  8
0
100
AcDbSpline
210
0.0
220
0.0
230
1.0
 70
     8
 71
     3
 72
     8
 73
     4
 74
     0
 42
0.000000001
 43
0.0000000001
 40
0.0
 40
0.0
 40
0.0
 40
0.0
 40
0.0647569243097498
 40
0.0647569243097498
 40
0.0647569243097498
 40
0.0647569243097498
 10
-3.46791893885656
 20
-13.95955566193918
 30
0.0
 10
-3.264633604215774
 20
-13.88894184199619
 30
0.0
 10
-3.068412237184556
 20
-13.79624111299415
 30
0.0
 10
-2.89216621288338
 20
-13.69448542342026
 30
0.0
  0
LINE
  5
11A0C
330
11915
100
AcDbEntity
  8
0
100
AcDbLine
 10
11.31370849898474
 20
-16.51542367697335
 30
0.0
 11
6.894291116568869
 21
-13.96387186157423
 31
0.0
  0
LINE
  5
11A0D
330
11915
100
AcDbEntity
  8
0
100
AcDbLine
 10
11.31370849898474
 20
-15.29067880558175
 30
0.0
 11
7.95495128834869
 21
-13.35149942587844
 31
0.0
  0
LINE
  5
11A0E
330
11915
100
AcDbEntity
  8
0
100
AcDbLine
 10
17.21860241426114
 20
-28.08958157777162
 30
0.0
 11
16.0154163015066
 21
-27.39492175168756
 31
0.0
  0
LINE
  5
11A0F
330
11915
100
AcDbEntity
  8
0
100
AcDbLine
 10
11.31370849898476
 20
-24.68038948625061
 30
0.0
 11
-6.363961030678901
 21
-14.47418222465405
 31
0.0
  0
LINE
  5
11A10
330
11915
100
AcDbEntity
  8
0
100
AcDbLine
 10
-3.181980515339433
 20
-13.86180978895827
 30
0.0
 11
11.31370849898474
 21
-22.23089974346744
 31
0.0
  0
LINE
  5
11A11
330
11915
100
AcDbEntity
  8
0
100
AcDbLine
 10
17.07607647328641
 20
-25.55780444460018
 30
0.0
 11
18.27926258604095
 21
-26.25246427068423
 31
0.0
  0
ENDBLK
  5
11917
330
11915
100
AcDbEntity
  8
0
100
AcDbBlockEnd
  0
ENDSEC
  0
SECTION
  2
ENTITIES
  0
INSERT
  5
11A12
330
1F
100
AcDbEntity
  8
0
100
AcDbBlockReference
  2
SBE60_85-Front
 10
0.0
 20
0.0
 30
0.0
  0
INSERT
  5
11A13
330
1F
100
AcDbEntity
  8
0
100
AcDbBlockReference
  2
SBE60_85-Left
 10
93.94999999999999
 20
0.0
 30
0.0
  0
INSERT
  5
11A14
330
1F
100
AcDbEntity
  8
0
100
AcDbBlockReference
  2
SBE60_85-Right
 10
-93.95000000000008
 20
0.0
 30
0.0
  0
INSERT
  5
11A15
330
1F
100
AcDbEntity
  8
0
100
AcDbBlockReference
  2
SBE60_85-Top
 10
0.0
 20
-36.45000000000006
 30
0.0
  0
INSERT
  5
11A16
330
1F
100
AcDbEntity
  8
0
100
AcDbBlockReference
  2
SBE60_85-Bottom
 10
0.0
 20
119.9500000000004
 30
0.0
  0
INSERT
  5
11A17
330
1F
100
AcDbEntity
  8
0
100
AcDbBlockReference
  2
SBE60_85-ISO
 10
129.4977272147526
 20
-93.60485514195898
 30
0.0
  0
MTEXT
  5
11A18
330
1F
100
AcDbEntity
  8
0
100
AcDbMText
 10
0.0
 20
-116.4000000000001
 30
0.0
 40
8.650000000000023
 41
0.0
 71
     5
 72
     5
  1
SBE60/85
 73
     1
 44
1.0
1001
ACAD
1000
MTEXTBEGIN
1070
    73
1070
     1
1070
    44
1040
1.0
1070
    74
1070
     0
1000
MTEXTEND
  0
ENDSEC
  0
SECTION
  2
OBJECTS
  0
DICTIONARY
  5
C
330
0
100
AcDbDictionary
281
     1
  3
ACAD_CIP_PREVIOUS_PRODUCT_INFO
350
216
  3
ACAD_COLOR
350
6B
  3
ACAD_DETAILVIEWSTYLE
350
21B
  3
ACAD_GROUP
350
D
  3
ACAD_LAYOUT
350
1A
  3
ACAD_MATERIAL
350
6A
  3
ACAD_MLEADERSTYLE
350
12D
  3
ACAD_MLINESTYLE
350
17
  3
ACAD_PLOTSETTINGS
350
19
  3
ACAD_PLOTSTYLENAME
350
E
  3
ACAD_SCALELIST
350
10C
  3
ACAD_SECTIONVIEWSTYLE
350
219
  3
ACAD_TABLESTYLE
350
7E
  3
ACAD_VISUALSTYLE
350
EF
  3
ACDB_RECOMPOSE_DATA
350
11B19
  3
AcDbVariableDictionary
350
5E
  3
DWGPROPS
350
11B1A
  0
DICTIONARY
  5
11A69
330
8
100
AcDbDictionary
280
     1
281
     1
  0
DICTIONARY
  5
1FF
330
2
100
AcDbDictionary
280
     1
281
     1
  3
ACAD_LAYERSTATES
360
200
  0
DICTIONARY
  5
13C
330
10
100
AcDbDictionary
280
     1
281
     1
  0
DICTIONARY
  5
1CE
330
1F
100
AcDbDictionary
280
     1
281
     1
  3
ACAD_LAYOUTSELFREF
360
11A71
  0
DICTIONARY
  5
11A1C
330
D2
100
AcDbDictionary
280
     1
281
     1
  3
ACAD_LAYOUTSELFREF
360
11A7A
  0
DICTIONARY
  5
11A1E
330
D6
100
AcDbDictionary
280
     1
281
     1
  3
ACAD_LAYOUTSELFREF
360
11A7D
  0
XRECORD
  5
216
102
{ACAD_REACTORS
330
C
102
}
330
C
100
AcDbXrecord
280
     1
300
ACD
300
2021
300

  0
DICTIONARY
  5
6B
102
{ACAD_REACTORS
330
C
102
}
330
C
100
AcDbDictionary
281
     1
  0
DICTIONARY
  5
21B
102
{ACAD_REACTORS
330
C
102
}
330
C
100
AcDbDictionary
281
     1
  3
Metric50
350
21C
  0
DICTIONARY
  5
D
102
{ACAD_REACTORS
330
C
102
}
330
C
100
AcDbDictionary
281
     1
  0
DICTIONARY
  5
1A
102
{ACAD_REACTORS
330
C
102
}
330
C
100
AcDbDictionary
281
     1
  3
Layout1
350
D3
  3
Layout2
350
D7
  3
Model
350
22
  0
DICTIONARY
  5
6A
102
{ACAD_REACTORS
330
C
102
}
330
C
100
AcDbDictionary
281
     1
  3
ByBlock
350
ED
  3
ByLayer
350
EC
  3
Global
350
EE
  0
DICTIONARY
  5
12D
102
{ACAD_REACTORS
330
C
102
}
330
C
100
AcDbDictionary
281
     1
  3
Standard
350
12E
  0
DICTIONARY
  5
17
102
{ACAD_REACTORS
330
C
102
}
330
C
100
AcDbDictionary
281
     1
  3
Standard
350
18
  0
DICTIONARY
  5
19
102
{ACAD_REACTORS
330
C
102
}
330
C
100
AcDbDictionary
281
     1
  0
ACDBDICTIONARYWDFLT
  5
E
102
{ACAD_REACTORS
330
C
102
}
330
C
100
AcDbDictionary
281
     1
  3
Normal
350
F
100
AcDbDictionaryWithDefault
340
F
  0
DICTIONARY
  5
10C
102
{ACAD_REACTORS
330
C
102
}
330
C
100
AcDbDictionary
281
     1
  3
A0
350
10D
  3
A1
350
1BE
  3
A2
350
1BF
  3
A3
350
1C0
  3
A4
350
1C1
  3
A5
350
1C2
  3
A6
350
1C3
  3
A7
350
1C4
  3
A8
350
1C5
  3
A9
350
1C6
  3
B0
350
1C7
  3
B1
350
1C8
  3
B2
350
1C9
  3
B3
350
1CA
  3
B4
350
1CB
  3
B5
350
1CC
  3
B6
350
1CD
  0
DICTIONARY
  5
219
102
{ACAD_REACTORS
330
C
102
}
330
C
100
AcDbDictionary
281
     1
  3
Metric50
350
21A
  0
DICTIONARY
  5
7E
102
{ACAD_REACTORS
330
C
102
}
330
C
100
AcDbDictionary
281
     1
  3
Standard
350
7F
  0
DICTIONARY
  5
EF
102
{ACAD_REACTORS
330
C
102
}
330
C
100
AcDbDictionary
281
     1
  3
2dWireframe
350
F5
  3
Basic
350
F4
  3
Brighten
350
FB
  3
ColorChange
350
FF
  3
Conceptual
350
F8
  3
Dim
350
FA
  3
EdgeColorOff
350
1E6
  3
Facepattern
350
FE
  3
Flat
350
F0
  3
FlatWithEdges
350
F1
  3
Gouraud
350
F2
  3
GouraudWithEdges
350
F3
  3
Hidden
350
F7
  3
JitterOff
350
1E4
  3
Linepattern
350
FD
  3
OverhangOff
350
1E5
  3
Realistic
350
F9
  3
Shaded
350
1F3
  3
Shaded with edges
350
1F2
  3
Shades of Gray
350
1EF
  3
Sketchy
350
1F0
  3
Thicken
350
FC
  3
Wireframe
350
F6
  3
X-Ray
350
1F1
  0
XRECORD
  5
11B19
102
{ACAD_REACTORS
330
C
102
}
330
C
100
AcDbXrecord
280
     1
 90
        1
330
7F
  0
DICTIONARY
  5
5E
102
{ACAD_REACTORS
330
C
102
}
330
C
100
AcDbDictionary
281
     1
  3
CANNOSCALE
350
146
  3
CENTEREXE
350
259
  3
CENTERLTYPEFILE
350
25A
  3
CMLEADERSTYLE
350
145
  3
CTABLESTYLE
350
84
  3
CVIEWDETAILSTYLE
350
227
  3
CVIEWSECTIONSTYLE
350
228
  3
DIMASSOC
350
5F
  3
HIDETEXT
350
63
  3
INDEXCTL
350
11AC6
  3
LAYEREVAL
350
1AE
  3
LAYERNOTIFY
350
1AF
  3
LIGHTINGUNITS
350
11AC4
  3
MSLTSCALE
350
11AC3
  3
PSOLHEIGHT
350
11B16
  3
PSOLWIDTH
350
11B15
  3
SORTENTS
350
11AC5
  3
XCLIPFRAME
350
11B17
  0
XRECORD
  5
11B1A
102
{ACAD_REACTORS
330
C
102
}
330
C
100
AcDbXrecord
280
     1
  1
DWGPROPS COOKIE
  2

  3

  4

  6

  7

  8
tronnguyen
  9

300
=
301
=
302
=
303
=
304
=
305
=
306
=
307
=
308
=
309
=
 40
0.0050347222222222
 41
2460286.6225
 42
2460287.382083334
  1

 90
        0
  0
DICTIONARY
  5
200
102
{ACAD_REACTORS
330
1FF
102
}
330
1FF
100
AcDbDictionary
281
     1
  0
XRECORD
  5
11A71
102
{ACAD_REACTORS
330
1CE
102
}
330
1CE
100
AcDbXrecord
280
     1
340
1F
  0
XRECORD
  5
11A7A
102
{ACAD_REACTORS
330
11A1C
102
}
330
11A1C
100
AcDbXrecord
280
     1
340
D2
  0
XRECORD
  5
11A7D
102
{ACAD_REACTORS
330
11A1E
102
}
330
11A1E
100
AcDbXrecord
280
     1
340
D6
  0
ACDBDETAILVIEWSTYLE
  5
21C
102
{ACAD_XDICTIONARY
360
11B59
102
}
102
{ACAD_REACTORS
330
21B
102
}
330
21B
100
AcDbModelDocViewStyle
 70
     0
  3
Metric50
290
     0
100
AcDbDetailViewStyle
 70
     0
 71
     0
 90
        3
 71
     1
340
11
 40
5.0
340
0
 40
5.0
300

 40
0.0
280
     1
 71
     2
340
16
 90
       25
 71
     3
340
11
 40
5.0
 90
        0
 40
15.0
 90
        1
300
%<\AcVar ViewDetailId>% (%<\AcVar ViewScale \f "%sn">%)
 71
     4
340
16
 90
       25
340
16
 90
       25
280
     0
  0
LAYOUT
  5
D3
102
{ACAD_XDICTIONARY
360
11B1E
102
}
102
{ACAD_REACTORS
330
1A
102
}
330
1A
100
AcDbPlotSettings
  1

  2
C:\Documents and Settings\basas\Application Data\Autodesk\AutoCAD 2005\R16.1\enu\plotters\Default Windows System Printer.pc3
  4

  6

 40
0.0
 41
0.0
 42
0.0
 43
0.0
 44
0.0
 45
0.0
 46
0.0
 47
0.0
 48
0.0
 49
0.0
140
0.0
141
0.0
142
1.0
143
1.0
 70
   688
 72
     0
 73
     0
 74
     5
  7

 75
    16
147
1.0
148
0.0
149
0.0
100
AcDbLayout
  1
Layout1
 70
     1
 71
     1
 10
0.0
 20
0.0
 11
12.0
 21
9.0
 12
0.0
 22
0.0
 32
0.0
 14
0.0
 24
0.0
 34
0.0
 15
0.0
 25
0.0
 35
0.0
146
0.0
 13
0.0
 23
0.0
 33
0.0
 16
1.0
 26
0.0
 36
0.0
 17
0.0
 27
1.0
 37
0.0
 76
     0
330
D2
  0
LAYOUT
  5
D7
102
{ACAD_XDICTIONARY
360
11B20
102
}
102
{ACAD_REACTORS
330
1A
102
}
330
1A
100
AcDbPlotSettings
  1

  2
C:\Documents and Settings\basas\Application Data\Autodesk\AutoCAD 2005\R16.1\enu\plotters\Default Windows System Printer.pc3
  4

  6

 40
0.0
 41
0.0
 42
0.0
 43
0.0
 44
0.0
 45
0.0
 46
0.0
 47
0.0
 48
0.0
 49
0.0
140
0.0
141
0.0
142
1.0
143
1.0
 70
   688
 72
     0
 73
     0
 74
     5
  7

 75
    16
147
1.0
148
0.0
149
0.0
100
AcDbLayout
  1
Layout2
 70
     1
 71
     2
 10
0.0
 20
0.0
 11
12.0
 21
9.0
 12
0.0
 22
0.0
 32
0.0
 14
0.0
 24
0.0
 34
0.0
 15
0.0
 25
0.0
 35
0.0
146
0.0
 13
0.0
 23
0.0
 33
0.0
 16
1.0
 26
0.0
 36
0.0
 17
0.0
 27
1.0
 37
0.0
 76
     0
330
D6
  0
LAYOUT
  5
22
102
{ACAD_XDICTIONARY
360
11B1B
102
}
102
{ACAD_REACTORS
330
1A
102
}
330
1A
100
AcDbPlotSettings
  1

  2
none_device
  4
ISO_A4_(210.00_x_297.00_MM)
  6

 40
7.5
 41
20.0
 42
7.5
 43
20.0
 44
210.0
 45
297.0
 46
11.54999923706054
 47
-13.65000009536743
 48
0.0
 49
0.0
140
0.0
141
0.0
142
1.0
143
8.704084754739808
 70
 11952
 72
     1
 73
     0
 74
     0
  7

 75
     0
147
0.1148885871608098
148
0.0
149
0.0
100
AcDbLayout
  1
Model
 70
     1
 71
     0
 10
0.0
 20
0.0
 11
12.0
 21
9.0
 12
0.0
 22
0.0
 32
0.0
 14
0.0
 24
0.0
 34
0.0
 15
0.0
 25
0.0
 35
0.0
146
0.0
 13
0.0
 23
0.0
 33
0.0
 16
1.0
 26
0.0
 36
0.0
 17
0.0
 27
1.0
 37
0.0
 76
     0
330
1F
331
EA
1001
ACAD_PSEXT
1000
None
1000
None
1000
Not applicable
1000
The layout will not be plotted unless a new plotter configuration name is selected.
1070
     0
  0
MATERIAL
  5
ED
102
{ACAD_XDICTIONARY
360
1F9
102
}
102
{ACAD_REACTORS
330
6A
102
}
330
6A
100
AcDbMaterial
  1
ByBlock
  0
MATERIAL
  5
EC
102
{ACAD_XDICTIONARY
360
1F7
102
}
102
{ACAD_REACTORS
330
6A
102
}
330
6A
100
AcDbMaterial
  1
ByLayer
  0
MATERIAL
  5
EE
102
{ACAD_XDICTIONARY
360
173
102
}
102
{ACAD_REACTORS
330
6A
102
}
330
6A
100
AcDbMaterial
  1
Global
 43
0.0007999999797903
 43
0.0
 43
0.0
 43
0.0
 43
0.0
 43
0.0007999999797903
 43
0.0
 43
0.0
 43
0.0
 43
0.0
 43
1.0
 43
0.0
 43
0.0
 43
0.0
 43
0.0
 43
1.0
 49
0.0007999999797903
 49
0.0
 49
0.0
 49
0.0
 49
0.0
 49
0.0007999999797903
 49
0.0
 49
0.0
 49
0.0
 49
0.0
 49
1.0
 49
0.0
 49
0.0
 49
0.0
 49
0.0
 49
1.0
142
0.0007999999797903
142
0.0
142
0.0
142
0.0
142
0.0
142
0.0007999999797903
142
0.0
142
0.0
142
0.0
142
0.0
142
1.0
142
0.0
142
0.0
142
0.0
142
0.0
142
1.0
144
0.0007999999797903
144
0.0
144
0.0
144
0.0
144
0.0
144
0.0007999999797903
144
0.0
144
0.0
144
0.0
144
0.0
144
1.0
144
0.0
144
0.0
144
0.0
144
0.0
144
1.0
1001
ACAD
1070
    -1
1070
     3
1070
     0
1000

1071
        0
1070
     0
  0
MLEADERSTYLE
  5
12E
102
{ACAD_XDICTIONARY
360
11B45
102
}
102
{ACAD_REACTORS
330
12D
102
}
330
12D
100
AcDbMLeaderStyle
170
     2
171
     1
172
     0
 90
        2
 40
0.0
 41
0.0
173
     1
 91
-1056964608
340
14
 92
       -2
290
     1
 42
2.0
291
     1
 43
8.0
  3
Standard
 44
4.0
300

342
11
174
     1
178
     1
175
     1
176
     0
 93
-1056964608
 45
4.0
292
     0
297
     0
 46
4.0
 94
-1056964608
 47
1.0
 49
1.0
140
1.0
293
     1
141
0.0
294
     1
177
     0
142
1.0
295
     0
296
     0
143
3.75
1001
ACAD_MLEADERVER
1070
     2
  0
MLINESTYLE
  5
18
102
{ACAD_REACTORS
330
17
102
}
330
17
100
AcDbMlineStyle
  2
STANDARD
 70
     0
  3

 62
   256
 51
90.0
 52
90.0
 71
     2
 49
0.5
 62
   256
  6
BYLAYER
 49
-0.5
 62
   256
  6
BYLAYER
  0
ACDBPLACEHOLDER
  5
F
102
{ACAD_REACTORS
330
E
102
}
330
E
  0
SCALE
  5
10D
102
{ACAD_REACTORS
330
10C
102
}
330
10C
100
AcDbScale
 70
     0
300
1:1
140
1.0
141
1.0
290
     1
  0
SCALE
  5
1BE
102
{ACAD_REACTORS
330
10C
102
}
330
10C
100
AcDbScale
 70
     0
300
1:2
140
1.0
141
2.0
290
     0
  0
SCALE
  5
1BF
102
{ACAD_REACTORS
330
10C
102
}
330
10C
100
AcDbScale
 70
     0
300
1:4
140
1.0
141
4.0
290
     0
  0
SCALE
  5
1C0
102
{ACAD_REACTORS
330
10C
102
}
330
10C
100
AcDbScale
 70
     0
300
1:5
140
1.0
141
5.0
290
     0
  0
SCALE
  5
1C1
102
{ACAD_REACTORS
330
10C
102
}
330
10C
100
AcDbScale
 70
     0
300
1:8
140
1.0
141
8.0
290
     0
  0
SCALE
  5
1C2
102
{ACAD_REACTORS
330
10C
102
}
330
10C
100
AcDbScale
 70
     0
300
1:10
140
1.0
141
10.0
290
     0
  0
SCALE
  5
1C3
102
{ACAD_REACTORS
330
10C
102
}
330
10C
100
AcDbScale
 70
     0
300
1:16
140
1.0
141
16.0
290
     0
  0
SCALE
  5
1C4
102
{ACAD_REACTORS
330
10C
102
}
330
10C
100
AcDbScale
 70
     0
300
1:20
140
1.0
141
20.0
290
     0
  0
SCALE
  5
1C5
102
{ACAD_REACTORS
330
10C
102
}
330
10C
100
AcDbScale
 70
     0
300
1:30
140
1.0
141
30.0
290
     0
  0
SCALE
  5
1C6
102
{ACAD_REACTORS
330
10C
102
}
330
10C
100
AcDbScale
 70
     0
300
1:40
140
1.0
141
40.0
290
     0
  0
SCALE
  5
1C7
102
{ACAD_REACTORS
330
10C
102
}
330
10C
100
AcDbScale
 70
     0
300
1:50
140
1.0
141
50.0
290
     0
  0
SCALE
  5
1C8
102
{ACAD_REACTORS
330
10C
102
}
330
10C
100
AcDbScale
 70
     0
300
1:100
140
1.0
141
100.0
290
     0
  0
SCALE
  5
1C9
102
{ACAD_REACTORS
330
10C
102
}
330
10C
100
AcDbScale
 70
     0
300
2:1
140
2.0
141
1.0
290
     0
  0
SCALE
  5
1CA
102
{ACAD_REACTORS
330
10C
102
}
330
10C
100
AcDbScale
 70
     0
300
4:1
140
4.0
141
1.0
290
     0
  0
SCALE
  5
1CB
102
{ACAD_REACTORS
330
10C
102
}
330
10C
100
AcDbScale
 70
     0
300
8:1
140
8.0
141
1.0
290
     0
  0
SCALE
  5
1CC
102
{ACAD_REACTORS
330
10C
102
}
330
10C
100
AcDbScale
 70
     0
300
10:1
140
10.0
141
1.0
290
     0
  0
SCALE
  5
1CD
102
{ACAD_REACTORS
330
10C
102
}
330
10C
100
AcDbScale
 70
     0
300
100:1
140
100.0
141
1.0
290
     0
  0
ACDBSECTIONVIEWSTYLE
  5
21A
102
{ACAD_XDICTIONARY
360
11B57
102
}
102
{ACAD_REACTORS
330
219
102
}
330
219
100
AcDbModelDocViewStyle
 70
     0
  3
Metric50
290
     0
100
AcDbSectionViewStyle
 70
     0
 71
     0
 90
      102
 71
     1
340
11
 40
5.0
340
0
340
0
 40
5.0
300
I, O, Q, S, X, Z
 40
10.0
 90
        0
 40
2.5
 90
        0
 71
     2
340
16
 90
       25
340
16
 90
       50
 40
5.0
 40
2.5
 40
5.0
 71
     3
340
11
 40
5.0
 90
        0
 40
15.0
 90
        1
300
%<\AcVar ViewSectionStartId>%-%<\AcVar ViewSectionEndId>% (%<\AcVar ViewScale \f "%sn">%)
 71
     4
300
ANSI31
 40
1.0
 90
        0
290
     0
290
     0
 90
        6
 40
0.0
 40
1.570796326794896
 40
0.2617993877991494
 40
1.308996938995747
 40
-0.2617993877991494
 40
1.832595714594046
  0
TABLESTYLE
  5
7F
102
{ACAD_XDICTIONARY
360
162
102
}
102
{ACAD_REACTORS
330
7E
102
}
330
7E
100
AcDbTableStyle
  3
Standard
 70
     0
 71
     0
 40
1.5
 41
1.5
280
     0
281
     0
  7
Standard
140
4.5
170
     2
 62
     0
 63
     7
283
     0
274
    -2
284
     1
 64
     0
275
    -2
285
     1
 65
     0
276
    -2
286
     1
 66
     0
277
    -2
287
     1
 67
     0
278
    -2
288
     1
 68
     0
279
    -2
289
     1
 69
     0
  7
Standard
140
6.0
170
     5
 62
     0
 63
     7
283
     0
274
    -2
284
     1
 64
     0
275
    -2
285
     1
 65
     0
276
    -2
286
     1
 66
     0
277
    -2
287
     1
 67
     0
278
    -2
288
     1
 68
     0
279
    -2
289
     1
 69
     0
  7
Standard
140
4.5
170
     5
 62
     0
 63
     7
283
     0
274
    -2
284
     1
 64
     0
275
    -2
285
     1
 65
     0
276
    -2
286
     1
 66
     0
277
    -2
287
     1
 67
     0
278
    -2
288
     1
 68
     0
279
    -2
289
     1
 69
     0
  0
VISUALSTYLE
  5
F5
102
{ACAD_XDICTIONARY
360
11B2F
102
}
102
{ACAD_REACTORS
330
EF
102
}
330
EF
100
AcDbVisualStyle
  2
2dWireframe
 70
     4
 71
     0
 72
     2
 73
     1
 90
        0
 40
-0.6
 41
-30.0
 62
     5
 63
     7
 74
     1
 91
        4
 64
     7
 65
   257
 75
     1
175
     1
 42
1.0
 92
        0
 66
   257
 43
1.0
 76
     1
 77
     6
 78
     2
 67
     7
 79
     5
170
     0
171
     0
290
     0
174
     0
 93
        1
 44
0.0
173
     0
291
     0
 45
0.0
1001
ACAD
1000
AcDbSavedByObjectVersion
1070
     0
  0
VISUALSTYLE
  5
F4
102
{ACAD_XDICTIONARY
360
11B2D
102
}
102
{ACAD_REACTORS
330
EF
102
}
330
EF
100
AcDbVisualStyle
  2
Basic
 70
     7
 71
     1
 72
     0
 73
     1
 90
        0
 40
-0.6
 41
-30.0
 62
     5
 63
     7
 74
     0
 91
        4
 64
     7
 65
   257
 75
     1
175
     1
 42
1.0
 92
        8
 66
     7
 43
1.0
 76
     1
 77
     6
 78
     2
 67
     7
 79
     5
170
     0
171
     0
290
     0
174
     0
 93
        1
 44
0.0
173
     0
291
     1
 45
0.0
1001
ACAD
1000
AcDbSavedByObjectVersion
1070
     0
  0
VISUALSTYLE
  5
FB
102
{ACAD_XDICTIONARY
360
11B3B
102
}
102
{ACAD_REACTORS
330
EF
102
}
330
EF
100
AcDbVisualStyle
  2
Brighten
 70
    12
 71
     2
 72
     2
 73
     1
 90
        0
 40
-0.6
 41
-30.0
 62
     5
 63
     7
 74
     1
 91
        4
 64
     7
 65
   257
 75
     1
175
     1
 42
1.0
 92
        8
 66
     7
 43
1.0
 76
     1
 77
     6
 78
     2
 67
     7
 79
     5
170
     0
171
     0
290
     0
174
     0
 93
        1
 44
50.0
173
     0
291
     1
 45
0.0
1001
ACAD
1000
AcDbSavedByObjectVersion
1070
     0
  0
VISUALSTYLE
  5
FF
102
{ACAD_XDICTIONARY
360
11B43
102
}
102
{ACAD_REACTORS
330
EF
102
}
330
EF
100
AcDbVisualStyle
  2
ColorChange
 70
    16
 71
     2
 72
     2
 73
     3
 90
        0
 40
-0.6
 41
-30.0
 62
     5
 63
     8
 74
     1
 91
        4
 64
     7
 65
   257
 75
     1
175
     1
 42
1.0
 92
        8
 66
     8
 43
1.0
 76
     1
 77
     6
 78
     2
 67
     7
 79
     5
170
     0
171
     0
290
     0
174
     0
 93
        1
 44
0.0
173
     0
291
     1
 45
0.0
1001
ACAD
1000
AcDbSavedByObjectVersion
1070
     0
  0
VISUALSTYLE
  5
F8
102
{ACAD_XDICTIONARY
360
11B35
102
}
102
{ACAD_REACTORS
330
EF
102
}
330
EF
100
AcDbVisualStyle
  2
Conceptual
 70
     9
 71
     3
 72
     2
 73
     1
 90
        0
 40
-0.6
 41
-30.0
 62
     5
 63
     7
 74
     2
 91
        2
 64
     7
 65
   257
 75
     1
175
     1
 42
40.0
 92
        8
 66
     7
 43
1.0
 76
     1
 77
     6
 78
     2
 67
     7
 79
     3
170
     0
171
     0
290
     0
174
     0
 93
        1
 44
0.0
173
     0
291
     0
 45
0.0
1001
ACAD
1000
AcDbSavedByObjectVersion
1070
     0
  0
VISUALSTYLE
  5
FA
102
{ACAD_XDICTIONARY
360
11B39
102
}
102
{ACAD_REACTORS
330
EF
102
}
330
EF
100
AcDbVisualStyle
  2
Dim
 70
    11
 71
     2
 72
     2
 73
     1
 90
        0
 40
-0.6
 41
-30.0
 62
     5
 63
     7
 74
     1
 91
        4
 64
     7
 65
   257
 75
     1
175
     1
 42
1.0
 92
        8
 66
     7
 43
1.0
 76
     1
 77
     6
 78
     2
 67
     7
 79
     5
170
     0
171
     0
290
     0
174
     0
 93
        1
 44
-50.0
173
     0
291
     1
 45
0.0
1001
ACAD
1000
AcDbSavedByObjectVersion
1070
     0
  0
VISUALSTYLE
  5
1E6
102
{ACAD_XDICTIONARY
360
11B4B
102
}
102
{ACAD_REACTORS
330
EF
102
}
330
EF
100
AcDbVisualStyle
  2
EdgeColorOff
 70
    22
 71
     2
 72
     2
 73
     0
 90
        0
 40
-0.6
 41
-30.0
 62
     5
 63
     7
 74
     1
 91
        4
 64
     7
 65
   257
 75
     1
175
     1
 42
1.0
 92
        8
 66
     7
 43
1.0
 76
     1
 77
     6
 78
     2
 67
     7
 79
     5
170
     0
171
     0
290
     0
174
     0
 93
        1
 44
0.0
173
     0
291
     1
 45
0.0
1001
ACAD
1000
AcDbSavedByObjectVersion
1070
     0
  0
VISUALSTYLE
  5
FE
102
{ACAD_XDICTIONARY
360
11B41
102
}
102
{ACAD_REACTORS
330
EF
102
}
330
EF
100
AcDbVisualStyle
  2
Facepattern
 70
    15
 71
     2
 72
     2
 73
     1
 90
        0
 40
-0.6
 41
-30.0
 62
     5
 63
     7
 74
     1
 91
        4
 64
     7
 65
   257
 75
     1
175
     1
 42
1.0
 92
        8
 66
     7
 43
1.0
 76
     1
 77
     6
 78
     2
 67
     7
 79
     5
170
     0
171
     0
290
     0
174
     0
 93
        1
 44
0.0
173
     0
291
     1
 45
0.0
1001
ACAD
1000
AcDbSavedByObjectVersion
1070
     0
  0
VISUALSTYLE
  5
F0
102
{ACAD_XDICTIONARY
360
11B25
102
}
102
{ACAD_REACTORS
330
EF
102
}
330
EF
100
AcDbVisualStyle
  2
Flat
 70
     0
 71
     2
 72
     1
 73
     1
 90
        2
 40
-0.6
 41
30.0
 62
     5
 63
     7
 74
     0
 91
        0
 64
     7
 65
   257
 75
     1
175
     1
 42
1.0
 92
        8
 66
     7
 43
1.0
 76
     1
 77
     6
 78
     2
 67
     7
 79
     5
170
     0
171
     0
290
     0
174
     0
 93
       13
 44
0.0
173
     0
291
     1
 45
0.0
1001
ACAD
1000
AcDbSavedByObjectVersion
1070
     0
  0
VISUALSTYLE
  5
F1
102
{ACAD_XDICTIONARY
360
11B27
102
}
102
{ACAD_REACTORS
330
EF
102
}
330
EF
100
AcDbVisualStyle
  2
FlatWithEdges
 70
     1
 71
     2
 72
     1
 73
     1
 90
        2
 40
-0.6
 41
30.0
 62
     5
 63
     7
 74
     1
 91
        0
 64
     7
 65
   257
 75
     1
175
     1
 42
1.0
 92
        0
 66
   257
 43
1.0
 76
     1
 77
     6
 78
     2
 67
     7
 79
     5
170
     0
171
     0
290
     0
174
     0
 93
       13
 44
0.0
173
     0
291
     1
 45
0.0
1001
ACAD
1000
AcDbSavedByObjectVersion
1070
     0
  0
VISUALSTYLE
  5
F2
102
{ACAD_XDICTIONARY
360
11B29
102
}
102
{ACAD_REACTORS
330
EF
102
}
330
EF
100
AcDbVisualStyle
  2
Gouraud
 70
     2
 71
     2
 72
     2
 73
     1
 90
        2
 40
-0.6
 41
30.0
 62
     5
 63
     7
 74
     0
 91
        0
 64
     7
 65
   257
 75
     1
175
     1
 42
1.0
 92
        0
 66
     7
 43
1.0
 76
     1
 77
     6
 78
     2
 67
     7
 79
     5
170
     0
171
     0
290
     0
174
     0
 93
       13
 44
0.0
173
     0
291
     1
 45
0.0
1001
ACAD
1000
AcDbSavedByObjectVersion
1070
     0
  0
VISUALSTYLE
  5
F3
102
{ACAD_XDICTIONARY
360
11B2B
102
}
102
{ACAD_REACTORS
330
EF
102
}
330
EF
100
AcDbVisualStyle
  2
GouraudWithEdges
 70
     3
 71
     2
 72
     2
 73
     1
 90
        2
 40
-0.6
 41
30.0
 62
     5
 63
     7
 74
     1
 91
        0
 64
     7
 65
   257
 75
     1
175
     1
 42
1.0
 92
        0
 66
   257
 43
1.0
 76
     1
 77
     6
 78
     2
 67
     7
 79
     5
170
     0
171
     0
290
     0
174
     0
 93
       13
 44
0.0
173
     0
291
     1
 45
0.0
1001
ACAD
1000
AcDbSavedByObjectVersion
1070
     0
  0
VISUALSTYLE
  5
F7
102
{ACAD_XDICTIONARY
360
11B33
102
}
102
{ACAD_REACTORS
330
EF
102
}
330
EF
100
AcDbVisualStyle
  2
Hidden
 70
     6
 71
     1
 72
     2
 73
     2
 90
        0
 40
-0.6
 41
-30.0
 62
     5
 63
     7
 74
     2
 91
        2
 64
     7
 65
   257
 75
     2
175
     1
 42
40.0
 92
        0
 66
   257
 43
1.0
 76
     1
 77
     6
 78
     2
 67
     7
 79
     3
170
     0
171
     0
290
     0
174
     0
 93
        1
 44
0.0
173
     0
291
     0
 45
0.0
1001
ACAD
1000
AcDbSavedByObjectVersion
1070
     0
  0
VISUALSTYLE
  5
1E4
102
{ACAD_XDICTIONARY
360
11B47
102
}
102
{ACAD_REACTORS
330
EF
102
}
330
EF
100
AcDbVisualStyle
  2
JitterOff
 70
    20
 71
     2
 72
     2
 73
     0
 90
        0
 40
-0.6
 41
-30.0
 62
     5
 63
     7
 74
     1
 91
        4
 64
     7
 65
   257
 75
     1
175
     1
 42
1.0
 92
       10
 66
     7
 43
1.0
 76
     1
 77
     6
 78
     2
 67
     7
 79
     5
170
     0
171
     0
290
     0
174
     0
 93
        1
 44
0.0
173
     0
291
     1
 45
0.0
1001
ACAD
1000
AcDbSavedByObjectVersion
1070
     0
  0
VISUALSTYLE
  5
FD
102
{ACAD_XDICTIONARY
360
11B3F
102
}
102
{ACAD_REACTORS
330
EF
102
}
330
EF
100
AcDbVisualStyle
  2
Linepattern
 70
    14
 71
     2
 72
     2
 73
     1
 90
        0
 40
-0.6
 41
-30.0
 62
     5
 63
     7
 74
     1
 91
        4
 64
     7
 65
   257
 75
     7
175
     7
 42
1.0
 92
        8
 66
     7
 43
1.0
 76
     1
 77
     6
 78
     2
 67
     7
 79
     5
170
     0
171
     0
290
     0
174
     0
 93
        1
 44
0.0
173
     0
291
     1
 45
0.0
1001
ACAD
1000
AcDbSavedByObjectVersion
1070
     0
  0
VISUALSTYLE
  5
1E5
102
{ACAD_XDICTIONARY
360
11B49
102
}
102
{ACAD_REACTORS
330
EF
102
}
330
EF
100
AcDbVisualStyle
  2
OverhangOff
 70
    21
 71
     2
 72
     2
 73
     0
 90
        0
 40
-0.6
 41
-30.0
 62
     5
 63
     7
 74
     1
 91
        4
 64
     7
 65
   257
 75
     1
175
     1
 42
1.0
 92
        9
 66
     7
 43
1.0
 76
     1
 77
     6
 78
     2
 67
     7
 79
     5
170
     0
171
     0
290
     0
174
     0
 93
        1
 44
0.0
173
     0
291
     1
 45
0.0
1001
ACAD
1000
AcDbSavedByObjectVersion
1070
     0
  0
VISUALSTYLE
  5
F9
102
{ACAD_XDICTIONARY
360
11B37
102
}
102
{ACAD_REACTORS
330
EF
102
}
330
EF
100
AcDbVisualStyle
  2
Realistic
 70
     8
 71
     2
 72
     2
 73
     0
 90
        2
 40
-0.6
 41
30.0
 62
     5
 63
     7
 74
     0
 91
        0
 64
     7
 65
   257
 75
     1
175
     1
 42
1.0
 92
        8
 66
   257
 43
1.0
 76
     1
 77
     6
 78
     2
 67
     7
 79
     3
170
     0
171
     0
290
     0
174
     0
 93
       13
 44
0.0
173
     0
291
     0
 45
0.0
1001
ACAD
1000
AcDbSavedByObjectVersion
1070
     0
  0
VISUALSTYLE
  5
1F3
102
{ACAD_XDICTIONARY
360
11B55
102
}
102
{ACAD_REACTORS
330
EF
102
}
330
EF
100
AcDbVisualStyle
  2
Shaded
 70
    27
 71
     2
 72
     2
 73
     1
 90
        2
 40
-0.6
 41
30.0
 62
     5
 63
     7
 74
     0
 91
        4
 64
     7
 65
   257
 75
     1
175
     1
 42
1.0
 92
        8
 66
   257
 43
1.0
 76
     1
 77
     6
 78
     2
 67
     8
 79
     3
170
     0
171
     0
290
     0
174
     0
 93
        5
 44
0.0
173
     0
291
     0
 45
0.0
1001
ACAD
1000
AcDbSavedByObjectVersion
1070
     0
  0
VISUALSTYLE
  5
1F2
102
{ACAD_XDICTIONARY
360
11B53
102
}
102
{ACAD_REACTORS
330
EF
102
}
330
EF
100
AcDbVisualStyle
  2
Shaded with edges
 70
    26
 71
     2
 72
     2
 73
     1
 90
        2
 40
-0.6
 41
30.0
 62
     5
 63
     7
 74
     1
 91
        2
 64
     7
 65
   257
 75
     2
175
     1
 42
1.0
 92
        8
 66
   257
 43
1.0
 76
     1
 77
     6
 78
     2
 67
     7
 79
     3
170
     0
171
     0
290
     0
174
     0
 93
        5
 44
0.0
173
     0
291
     0
 45
0.0
1001
ACAD
1000
AcDbSavedByObjectVersion
1070
     0
  0
VISUALSTYLE
  5
1EF
102
{ACAD_XDICTIONARY
360
11B4D
102
}
102
{ACAD_REACTORS
330
EF
102
}
330
EF
100
AcDbVisualStyle
  2
Shades of Gray
 70
    23
 71
     2
 72
     2
 73
     3
 90
        0
 40
-0.6
 41
-30.0
 62
     5
 63
     7
 74
     2
 91
        2
 64
     7
 65
     7
 75
     1
175
     1
 42
40.0
 92
        8
 66
     7
 43
1.0
 76
     1
 77
     6
 78
     2
 67
     7
 79
     3
170
     0
171
     0
290
     0
174
     0
 93
        1
 44
0.0
173
     0
291
     0
 45
0.0
1001
ACAD
1000
AcDbSavedByObjectVersion
1070
     0
  0
VISUALSTYLE
  5
1F0
102
{ACAD_XDICTIONARY
360
11B4F
102
}
102
{ACAD_REACTORS
330
EF
102
}
330
EF
100
AcDbVisualStyle
  2
Sketchy
 70
    24
 71
     1
 72
     2
 73
     2
 90
        0
 40
-0.6
 41
-30.0
 62
     5
 63
     7
 74
     2
 91
        2
 64
     7
 65
     7
 75
     1
175
     1
 42
40.0
 92
       11
 66
     7
 43
1.0
 76
     1
 77
     6
 78
     2
 67
     7
 79
     6
170
     0
171
     0
290
     0
174
     0
 93
        1
 44
0.0
173
     0
291
     0
 45
0.0
1001
ACAD
1000
AcDbSavedByObjectVersion
1070
     0
  0
VISUALSTYLE
  5
FC
102
{ACAD_XDICTIONARY
360
11B3D
102
}
102
{ACAD_REACTORS
330
EF
102
}
330
EF
100
AcDbVisualStyle
  2
Thicken
 70
    13
 71
     2
 72
     2
 73
     1
 90
        0
 40
-0.6
 41
-30.0
 62
     5
 63
     7
 74
     1
 91
        4
 64
     7
 65
   257
 75
     1
175
     1
 42
1.0
 92
       12
 66
     7
 43
1.0
 76
     1
 77
     6
 78
     2
 67
     7
 79
     5
170
     0
171
     0
290
     0
174
     0
 93
        1
 44
0.0
173
     0
291
     1
 45
0.0
1001
ACAD
1000
AcDbSavedByObjectVersion
1070
     0
  0
VISUALSTYLE
  5
F6
102
{ACAD_XDICTIONARY
360
11B31
102
}
102
{ACAD_REACTORS
330
EF
102
}
330
EF
100
AcDbVisualStyle
  2
Wireframe
 70
     5
 71
     0
 72
     2
 73
     0
 90
        0
 40
-0.6
 41
-30.0
 62
     5
 63
     7
 74
     1
 91
        4
 64
     7
 65
   257
 75
     1
175
     1
 42
1.0
 92
        0
 66
   257
 43
1.0
 76
     1
 77
     6
 78
     2
 67
     7
 79
     3
170
     0
171
     0
290
     0
174
     0
 93
        1
 44
0.0
173
     0
291
     0
 45
0.0
1001
ACAD
1000
AcDbSavedByObjectVersion
1070
     0
  0
VISUALSTYLE
  5
1F1
102
{ACAD_XDICTIONARY
360
11B51
102
}
102
{ACAD_REACTORS
330
EF
102
}
330
EF
100
AcDbVisualStyle
  2
X-Ray
 70
    25
 71
     2
 72
     2
 73
     1
 90
        1
 40
0.5
 41
-30.0
 62
     5
 63
     7
 74
     1
 91
        0
 64
     7
 65
   257
 75
     1
175
     1
 42
1.0
 92
        8
 66
     7
 43
1.0
 76
     1
 77
     6
 78
     2
 67
     7
 79
     3
170
     0
171
     0
290
     0
174
     0
 93
       13
 44
0.0
173
     0
291
     0
 45
0.0
1001
ACAD
1000
AcDbSavedByObjectVersion
1070
     0
  0
DICTIONARYVAR
  5
146
102
{ACAD_REACTORS
330
5E
102
}
330
5E
100
DictionaryVariables
280
     0
  1
1:1
  0
DICTIONARYVAR
  5
259
102
{ACAD_REACTORS
330
5E
102
}
330
5E
100
DictionaryVariables
280
     0
  1
3.500000
  0
DICTIONARYVAR
  5
25A
102
{ACAD_REACTORS
330
5E
102
}
330
5E
100
DictionaryVariables
280
     0
  1
acadiso.lin
  0
DICTIONARYVAR
  5
145
102
{ACAD_REACTORS
330
5E
102
}
330
5E
100
DictionaryVariables
280
     0
  1
STANDARD
  0
DICTIONARYVAR
  5
84
102
{ACAD_REACTORS
330
5E
102
}
330
5E
100
DictionaryVariables
280
     0
  1
STANDARD
  0
DICTIONARYVAR
  5
227
102
{ACAD_REACTORS
330
5E
102
}
330
5E
100
DictionaryVariables
280
     0
  1
Metric50
  0
DICTIONARYVAR
  5
228
102
{ACAD_REACTORS
330
5E
102
}
330
5E
100
DictionaryVariables
280
     0
  1
Metric50
  0
DICTIONARYVAR
  5
5F
102
{ACAD_REACTORS
330
5E
102
}
330
5E
100
DictionaryVariables
280
     0
  1
2
  0
DICTIONARYVAR
  5
63
102
{ACAD_REACTORS
330
5E
102
}
330
5E
100
DictionaryVariables
280
     0
  1
1
  0
DICTIONARYVAR
  5
11AC6
102
{ACAD_REACTORS
330
5E
102
}
330
5E
100
DictionaryVariables
280
     0
  1
0
  0
DICTIONARYVAR
  5
1AE
102
{ACAD_REACTORS
330
5E
102
}
330
5E
100
DictionaryVariables
280
     0
  1
0
  0
DICTIONARYVAR
  5
1AF
102
{ACAD_REACTORS
330
5E
102
}
330
5E
100
DictionaryVariables
280
     0
  1
0
  0
DICTIONARYVAR
  5
11AC4
102
{ACAD_REACTORS
330
5E
102
}
330
5E
100
DictionaryVariables
280
     0
  1
2
  0
DICTIONARYVAR
  5
11AC3
102
{ACAD_REACTORS
330
5E
102
}
330
5E
100
DictionaryVariables
280
     0
  1
1
  0
DICTIONARYVAR
  5
11B16
102
{ACAD_REACTORS
330
5E
102
}
330
5E
100
DictionaryVariables
280
     0
  1
80.000000
  0
DICTIONARYVAR
  5
11B15
102
{ACAD_REACTORS
330
5E
102
}
330
5E
100
DictionaryVariables
280
     0
  1
5.000000
  0
DICTIONARYVAR
  5
11AC5
102
{ACAD_REACTORS
330
5E
102
}
330
5E
100
DictionaryVariables
280
     0
  1
127
  0
DICTIONARYVAR
  5
11B17
102
{ACAD_REACTORS
330
5E
102
}
330
5E
100
DictionaryVariables
280
     0
  1
2
  0
DICTIONARY
  5
11B59
330
21C
100
AcDbDictionary
280
     1
281
     1
  3
ACAD_XREC_ROUNDTRIP
360
11B5A
  0
DICTIONARY
  5
11B1E
330
D3
100
AcDbDictionary
280
     1
281
     1
  3
ACAD_XREC_ROUNDTRIP
360
11B1F
  0
DICTIONARY
  5
11B20
330
D7
100
AcDbDictionary
280
     1
281
     1
  3
ACAD_XREC_ROUNDTRIP
360
11B21
  0
DICTIONARY
  5
11B1B
330
22
100
AcDbDictionary
280
     1
281
     1
  3
ACAD_XREC_ROUNDTRIP
360
11B1C
  0
DICTIONARY
  5
1F9
330
ED
100
AcDbDictionary
280
     1
281
     1
  3
ACAD_XREC_ROUNDTRIP
360
11B23
  3
FBXASSET
360
1FA
  0
DICTIONARY
  5
1F7
330
EC
100
AcDbDictionary
280
     1
281
     1
  3
ACAD_XREC_ROUNDTRIP
360
11B22
  3
FBXASSET
360
1F8
  0
DICTIONARY
  5
173
330
EE
100
AcDbDictionary
280
     1
281
     1
  3
ACAD_XREC_ROUNDTRIP
360
11B24
  3
BUMPTILE
360
175
  3
DIFFUSETILE
360
174
  3
FBXASSET
360
1FB
  3
OPACITYTILE
360
176
  3
REFLECTIONTILE
360
177
  0
DICTIONARY
  5
11B45
330
12E
100
AcDbDictionary
280
     1
281
     1
  3
ACAD_XREC_ROUNDTRIP
360
11B46
  0
DICTIONARY
  5
11B57
330
21A
100
AcDbDictionary
280
     1
281
     1
  3
ACAD_XREC_ROUNDTRIP
360
11B58
  0
DICTIONARY
  5
162
330
7F
100
AcDbDictionary
280
     1
281
     1
  3
ACAD_ROUNDTRIP_2008_TABLESTYLE_CELLSTYLEMAP
360
11B18
  3
ACAD_XREC_ROUNDTRIP
360
11B1D
  0
DICTIONARY
  5
11B2F
330
F5
100
AcDbDictionary
280
     1
281
     1
  3
ACAD_XREC_ROUNDTRIP
360
11B30
  0
DICTIONARY
  5
11B2D
330
F4
100
AcDbDictionary
280
     1
281
     1
  3
ACAD_XREC_ROUNDTRIP
360
11B2E
  0
DICTIONARY
  5
11B3B
330
FB
100
AcDbDictionary
280
     1
281
     1
  3
ACAD_XREC_ROUNDTRIP
360
11B3C
  0
DICTIONARY
  5
11B43
330
FF
100
AcDbDictionary
280
     1
281
     1
  3
ACAD_XREC_ROUNDTRIP
360
11B44
  0
DICTIONARY
  5
11B35
330
F8
100
AcDbDictionary
280
     1
281
     1
  3
ACAD_XREC_ROUNDTRIP
360
11B36
  0
DICTIONARY
  5
11B39
330
FA
100
AcDbDictionary
280
     1
281
     1
  3
ACAD_XREC_ROUNDTRIP
360
11B3A
  0
DICTIONARY
  5
11B4B
330
1E6
100
AcDbDictionary
280
     1
281
     1
  3
ACAD_XREC_ROUNDTRIP
360
11B4C
  0
DICTIONARY
  5
11B41
330
FE
100
AcDbDictionary
280
     1
281
     1
  3
ACAD_XREC_ROUNDTRIP
360
11B42
  0
DICTIONARY
  5
11B25
330
F0
100
AcDbDictionary
280
     1
281
     1
  3
ACAD_XREC_ROUNDTRIP
360
11B26
  0
DICTIONARY
  5
11B27
330
F1
100
AcDbDictionary
280
     1
281
     1
  3
ACAD_XREC_ROUNDTRIP
360
11B28
  0
DICTIONARY
  5
11B29
330
F2
100
AcDbDictionary
280
     1
281
     1
  3
ACAD_XREC_ROUNDTRIP
360
11B2A
  0
DICTIONARY
  5
11B2B
330
F3
100
AcDbDictionary
280
     1
281
     1
  3
ACAD_XREC_ROUNDTRIP
360
11B2C
  0
DICTIONARY
  5
11B33
330
F7
100
AcDbDictionary
280
     1
281
     1
  3
ACAD_XREC_ROUNDTRIP
360
11B34
  0
DICTIONARY
  5
11B47
330
1E4
100
AcDbDictionary
280
     1
281
     1
  3
ACAD_XREC_ROUNDTRIP
360
11B48
  0
DICTIONARY
  5
11B3F
330
FD
100
AcDbDictionary
280
     1
281
     1
  3
ACAD_XREC_ROUNDTRIP
360
11B40
  0
DICTIONARY
  5
11B49
330
1E5
100
AcDbDictionary
280
     1
281
     1
  3
ACAD_XREC_ROUNDTRIP
360
11B4A
  0
DICTIONARY
  5
11B37
330
F9
100
AcDbDictionary
280
     1
281
     1
  3
ACAD_XREC_ROUNDTRIP
360
11B38
  0
DICTIONARY
  5
11B55
330
1F3
100
AcDbDictionary
280
     1
281
     1
  3
ACAD_XREC_ROUNDTRIP
360
11B56
  0
DICTIONARY
  5
11B53
330
1F2
100
AcDbDictionary
280
     1
281
     1
  3
ACAD_XREC_ROUNDTRIP
360
11B54
  0
DICTIONARY
  5
11B4D
330
1EF
100
AcDbDictionary
280
     1
281
     1
  3
ACAD_XREC_ROUNDTRIP
360
11B4E
  0
DICTIONARY
  5
11B4F
330
1F0
100
AcDbDictionary
280
     1
281
     1
  3
ACAD_XREC_ROUNDTRIP
360
11B50
  0
DICTIONARY
  5
11B3D
330
FC
100
AcDbDictionary
280
     1
281
     1
  3
ACAD_XREC_ROUNDTRIP
360
11B3E
  0
DICTIONARY
  5
11B31
330
F6
100
AcDbDictionary
280
     1
281
     1
  3
ACAD_XREC_ROUNDTRIP
360
11B32
  0
DICTIONARY
  5
11B51
330
1F1
100
AcDbDictionary
280
     1
281
     1
  3
ACAD_XREC_ROUNDTRIP
360
11B52
  0
XRECORD
  5
11B5A
102
{ACAD_REACTORS
330
11B59
102
}
330
11B59
100
AcDbXrecord
280
     1
102
DISPLAYNAME
  1
Metric50
102
FLAGS
 90
        0
  0
XRECORD
  5
11B1F
102
{ACAD_REACTORS
330
11B1E
102
}
330
11B1E
100
AcDbXrecord
280
     1
102
SHADEPLOT
 70
     0
102
SHADEPLOTRESLEVEL
 70
     2
102
SHADEPLOTCUSTOMDPI
 70
   300
  0
XRECORD
  5
11B21
102
{ACAD_REACTORS
330
11B20
102
}
330
11B20
100
AcDbXrecord
280
     1
102
SHADEPLOT
 70
     0
102
SHADEPLOTRESLEVEL
 70
     2
102
SHADEPLOTCUSTOMDPI
 70
   300
  0
XRECORD
  5
11B1C
102
{ACAD_REACTORS
330
11B1B
102
}
330
11B1B
100
AcDbXrecord
280
     1
102
SHADEPLOT
 70
     0
102
SHADEPLOTRESLEVEL
 70
     2
102
SHADEPLOTCUSTOMDPI
 70
   300
  0
XRECORD
  5
11B23
102
{ACAD_REACTORS
330
1F9
102
}
330
1F9
100
AcDbXrecord
280
     1
102
MATERIAL
148
0.0
149
0.0
149
0.0
 93
        0
 94
       63
282
     0
 72
     1
 77
     1
171
     1
175
     1
179
     1
273
     0
  0
XRECORD
  5
1FA
102
{ACAD_REACTORS
330
1F9
102
}
330
1F9
100
AcDbXrecord
280
     1
 70
     1
 90
429727718
  1
D62C5603-E3A1-4AEA-B7FB-FE5D8D0755AF
310
504B03040A0000080000CC70623B3DEE336E79000000790000001B0000006175746F6465736B2D64657369676E2D7061636B6167652E786D6C3C3F786D6C2076657273696F6E3D22312E302220656E636F64696E673D227574662D3822203F3E3C666F726D6174733E3C666F726D61743E687474703A2F2F736368656D612E
310
6175746F6465736B2E636F6D2F64657369676E2D7061636B6167652F323030393C2F666F726D61743E3C2F666F726D6174733E504B0304140006080800CC70623BD486FD9CA0000000F4000000130000005B436F6E74656E745F54797065735D2E786D6C7D8EC10E82300C865F65E91D8A1E8C310C0EEA1BF002731658846E
310
D98AC1B77784ABF1D8FE5FBFBF75BBCE937A534CCEB38643598122B6FEE978D0B0485F9C41B54DDD7D022595594E1A469170414C76A4D9A4D207E29CF43ECE46F218070CC6BECC4078ACAA135ACF422C856C0E68EA1BF5669944DDD7BCDE7B1F8E415D77AECB980613C2E4AC91FC167A2B244592486606FC29C8FD7F045B9A
310
EF7053A7E60B504B0304140006080800CC70623B853B8169EB0000007C01000008000000636F72652E786D6C8D90416EC3201045AF62CDB6C206821CC7C244919D9CA01740401C94182C03558F5F9C3852BBEB6A467FFE9B197D7EFC9E1EC5975982F5AE035262288C535E5B377690E21535501C055FBC8FBF6C503839990E
310
5619041F179FE64D52DE45E362569DD7661365082642A11EB9E920A89B99642953CC8E702F67A9EE7234257977194EC9EAE275C4EABCCF5EAD5940D4AC6F0E35A568B8F43562CD7046CD199FD07E60174276A7BE677B5EADB0E0D14EEFFB6A31321A0D82627C4084204C3F096B71DD52F6819B16635EADF63F509AF53FA164
310
5DDCD1EDDD17164090FCC8732078B56691CB33A85CD7DCC40F504B0304140006080800CC70623B55019EA25F0000007C00000007000000636E782E786D6C4DCB3B0E80201045D1AD90E915ED2CF8AC45050C11660C8261F98AB1B07AC9C97D42D718D865D3E909258CFD00CCE24AC6E326A164D74DC0B4128928FF32603847
310
2BA13128B1252AC747C6BAB984FC68F0B87FE8960A5C09FE86CFB69FBA01504B0304140006080800CC70623BDBABAAF470010000D40300000C0000006662782F636F72652E786D6CC553D16E823014FD95A6AF4B694182CC941A83FA05FB810A9511A125A5257EFE2E82712ECEB8A7F100CD39F7F69E734AF9FADC366850B6
310
AF8DCE7018308C942E4C59EB2AC3DE1D498AD15A706B8CFB56869196ADCAF00863C12B6B7C374385D14E6907A836A59A41D9F7CA615434B0C8705F7CAA5606D23BA8E84F41278B93AC54100640439DE0BDB320004D43C63716C7C399D30917DCFBBA9CD9BA8469F5B156168B24CED3F7248AC8769F27244EB73B92EED8862C
310
B7F13E0C179B3C8F979C8ECD82BBBABDAA2BAC924E9558448CBD9330242CFA08E3154B5651FCC6D215639C8EE5774DBE2B5F6CF2B5768B68963BB5F5588420E442FC700B1139D4CB01F450C1E918227C2E09DF070D8140C84E1E9AAB8F1340832A9CB13130A5F1376A908D57309505ECF2A0DF179C4E9D30F5B239B87E3823
310
7A79C6F31DE1A8A5AEC08474B03C7837EAE4938639B44E5932B833D2C6B6B279CDC613877FA26EE21F4A2A4C63EC7F29A2F301D1F9F7A0E37D145F504B0304140006080800CC70623B9C113CC27E0000009D0000000B0000006662782F636E782E786D6C4DCCDF0A83201C86E15B91DFB94BFB330DD428C8FB886521330DA7
310
6397BF1A1DECE883878F57749FCDA1B7892F1BBC047A23808C7F84D9FA55424E0BE6803A256208E9EF06C84F9B91703228B1C690F78B66B34CD9A5439DF5CF0BFBF65E35BCA1B8D6A5C6F540381E886698B5741C695F9503EBA150A2F8958E3DC3EA0B504B0304140006080800CC70623B7DF2F77C2A010000120200003100
310
00006662782F41393633353835312D344632462D344230382D423046372D3739314545314133324237412F636F72652E786D6C8D51DB8EC22014FC15C2939B0D2DB4B45643319AE817EC0F6041255A68B86CFCFC856D4D76DF7CE190393373060EDB3DC707F856CE6B6B7A480A0C81328395DA5C7B18C3057510EC3873D686
310
3F34088C18550F330C39BB3A1BA7051AAC09CA84841A2BD5020AEF55806078A44B0FFD7053A328440C89E1EFC52486BBB8AA8214A99D789CF9E05200300FC927E4FB4D5B375D43103D5527440FB843077C5AA3F5861C8F645F5787F59E95B390B318B55CE45AA638FAA2957BD7248B390B7A7CC51F9C124149C82B8C378810
310
84AB2F42B7B8DD56F413775B8C5999E9FF4471926F8AA236A1AE96B8B3CC434E5839373893369E1FAF30EA395917409EB7F26AF8801C171837A4A6AC9C89E9F9C9B1A58BA30FD6A5EF5DDDCF894B9AD9B6A59C957943A9FCAE2FD5BC4DFE03504B0304140006080800CC70623BAD7543B64E01000033030000300000006662
310
782F41393633353835312D344632462D344230382D423046372D3739314545314133324237412F636E782E786D6CD593CD6EC32010845F0571AD6CE3D48AD20813A9873E410FBD12D82434182C7EAAE6EDBB2424CD25871E7B41D6EC30B3FA84F9E67BB2E40B4234DE8DB46F1925E094D7C6ED479AD3AE5951B2113C789FEE
310
6C943839C1488B4C05DF079FE72A69D8C96C13AAD6B8631503449F83828872B949AC57D26200B826A308D316B4064D6E46FCDA41C05550DC9E483A00797BFD207EFB092A45DE9514C1BBD22178396BD39D891265658C238DEA00936C654E5E433CB65A26D9F6EDB5EBC14EBF49A45CB856E66048291F6939A9A81BB5C89177
310
38143CA680F4AA299D66A042CEB3354A2684DC9D8D178FE0D9B8B41CAAD720F880EE7EF93C0C18769E099ECC04D5A102C8049A8A05632F4DDF376CF1DE0F6BB65C2F8627B65A33C6BB62177CEBBDAD973006829F89F22E814B54F4BC2BE347F8AA8F681390B50FA73F804400B5F542E796F19FF974E7F78DB802FE05E20750
310
4B0304140006080800CC70623BE75B7789680500003C100000340000006662782F41393633353835312D344632462D344230382D423046372D3739314545314133324237412F6F626A656374732E786D6CAD575B8F9B3818FD2B887D06C22499CB8AA1CA655245D5B455A356FB305264C061D8018C6C3393D95FBFC7600890
310
A4CD5EF210B0B1BFEBF98E3F7B1FF6596ABC522E1296DF9BAE3D320D9A872C4AF2F8DE2CE5CEBA358D0FBEC719939D65A691938CDE9B6ADAF4BD98B3B2D05311DD91329583D9D5FC0F438434A7A611A644887B5384CF34233629258BA878B12322891DEFF6B66BD70BFB62634E8AE781D082709A4B588AF91C528CDA28B73F
310
1C998EEF39EABBEFA97FBD6A7C7E9553F9D3D79FE442923C3C523610337627CB87ABE99D359D4CC6D6E4FACAB5E6ABF9D2726FC6A3C5F56271377BB88362213924694B38DD99FE47C48627A1E7D49F5A8BB5E1A74C0A599ED3B0F21F1E56366B89112D681E218F0915D0D6F17AD41FBA2A369DCF6335D62ABBD39779D5DDD1
310
11D4D8DE3CBB96B2E04FB8202E41051754A1AA8E8F76B4C6DFE810B580B1547F4B84911149794252234D024EF8BBE963A95AE27B3D310A9D5C215C7960FAEE415ED75694C6AFB17BCACA5D99A60A9AA65F217B0BFC53292ACB92BF283FAD0D3621576592CB5BED907C2FA8E9DF794E35E97BEA31BED21FEB401ABB94C44839
310
DCACBF0E1C5DA8DA5B2F4DFFD32AD86F543D9E565E7056502E157C00AD2671CD534549AB752FCA9CDA00677A313F04E51B22FF19E57B300579E3C97EB29F682D92935CEC18CF901B7B54FD8C51F362B56FC72FE0B3C1EAE335EDCCBF5AEC39ADB17DC238973F804BA5E6F6BFE7AF1FB32E523BE9F3BD571418E3631DCA4D48
310
5250CF639223210A9446CA30052EDF057BD35F8329C1ECD84552BF0DC8D18BE7BCE23BFE6BD960AB4A7DE79923A103BEBD80F911CBAA2C60DB19B01CF164A5583B772EE6D3FFA56666CBCDA74DC97724A48F9A58967497E489C4D979006FD7A05E227A1EBDD0F737C623387A9C844D3709995625106D157315F8B8392CD4E0
310
A0B9A720C4BE9829CEF37EA1E13111214D53925356365ADA634861B52519DD27A00AEB808EAF0628E6F435519D446F45CF2C9CF5214F0A15B2F6D06B79DA3EE3CBF7F56780D2F4E7EF73A0F5E5B02A38D07DC852C6B7C1FBB6664213E0C39E3EBA7FF4E1AD23EA2829407C85E586727488B751B2DB9502BC7B228A3FD68B6E
310
A65A22397E690AA8D158D7E404EC8CDA235CC3B7D1898680131CEC2CDF2638C65196279577750F15884AEE19F94199155B92B13297978469D4F8D358DF0AEF7631E28DC8F0D9F437D5D39A83B2231A1D52D543813A824EF8D44BCFF2FA6A31BD1E8DAD87F1CCB526B3879935BF59CDADD5C37479BB1CDD4CA7B3556B516589
310
EF352754B706114D9C885EC9131DE6EFEB43D99AFE2391C2F958179413D7CFEF6B1B6DB1E7600F00DE6E5C67454A339A4BA2E0FBA85ED26F045D454F463DBFCE484C2F90F2E5E3666003662ED8F755951A7D1BECD5B30B550B2785C8E7320B7292A4838DDA71BBC863ED7613CAF659337A3354231D4FF4A182A54904C2898C
310
98B28C4AD0CE056CCF332A80986E571EE9DBC305BB5FEB7E509220A58D25CF042D712A806AC0AD0C657FDEF80D2D9CEAA2EE4D1C76F60BFE74219A06527D6F82DF6412526107381E55E353090704D085B52408A8913C4ED159D79BDA71BB4BC506F4831350EB6F975CD22D69BF7AC49B91A2C0A9DDA3D5CA36AD20FC478E37
310
E61844E2352865EBCB61A275A65283CAAA9DD27703B4102F5AF51EF5F573B75CBB5AD38BC845F7A49F82A0966A49C2E3EA5EA0ECD326CD965F1DB402C6FA8B51A4658C5C5E2EC9E214602E55810345408596591009A82E7E7FFACA19EEA299B14A0081A705CB3296EBC14CDF658DCD336EA6D1136881AAEB87B81AB9EE53D5
310
F5EB8BC8362082DA24122F98680A4E7930C01A0079749CEA14382A0783E5EBA5A10F8C098456A03D6A4AEB6BB881E2513747552A5DB22C7EDAF83BD5528081A365F7FF06504B0304140006080000CC70623B000000000000000000000000350000006662782F41393633353835312D344632462D344230382D423046372D37
310
39314545314133324237412F76657274696365732E62696E504B0304140006080800CC70623BF270F1330600000004000000360000006662782F41393633353835312D344632462D344230382D423046372D3739314545314133324237412F747269616E676C65732E62696E636660600000504B0304140006080000CC7062
310
3B000000000000000000000000370000006662782F41393633353835312D344632462D344230382D423046372D3739314545314133324237412F617474726962757465732E62696E504B0304140006080800CC70623B08DA0BD19000000041010000360000006662782F41393633353835312D344632462D344230382D4230
310
46372D3739314545314133324237412F6469726563746F72792E786D6C858F410AC3201045AF22B36F53E9A60B35CBEEBAE80D244E44489C6234F4F835464A48035D0DF398FF9F8AF63D0E6CC63039F212F8F9020C7D47C6792B21C5FE7403D62A1188E2E60C98D7234A5830286103A55745067B9D86B8A3CF9C7F90C11DE6
310
07FB144396D7B6A82D282E9A152AD114D5EF2CB866EEE831B8EEA07A7BB5A8D7D61A2BAAEB7FD5F70921FF497D00504B0304140006080800CC70623BEDD1DC58FD000000A00100003B0000006662782F41393633353835312D344632462D344230382D423046372D3739314545314133324237412F7265736F75726365732F
310
636F72652E786D6C8D504B6E833010BD0A9A6D65B00922041947112427E8052C33A156828DFCA97AFC9A40A576D7CDCCE87D344F8F9FBFE667F689CE6B6B3A6039850C8DB2A336530731DC4903D95970676DF82583CCC8193B5861107C72362E3BA4AC096842428D1D7107A5F7182053CF7474E0D507CE32973124857FE48B
310
540F3961CEF244279DE03EB81420DB9EAC1384436FA353E879B1B182C7A8C75DA3C7F453DF353A1075D537A7BA6464B8F535A99AE14A9A2BBD90E350DD183B5CFABE3AF262350B1EF4FC9351399401471025A527C218A1E53BAB5A5AB765F5469B96525EACF23FA6B88CFF34456DC2A1DCE36E360F82A5202F42F062ED2BAD
310
579969AFDD8A6F504B010214000A0000080000CC70623B3DEE336E79000000790000001B00000000000000000000000000000000006175746F6465736B2D64657369676E2D7061636B6167652E786D6C504B01021400140006080800CC70623BD486FD9CA0000000F40000001300000000000000000000000000B20000005B
310
436F6E74656E745F54797065735D2E786D6C504B01021400140006080800CC70623B853B8169EB0000007C010000080000000000000000000000000083010000636F72652E786D6C504B01021400140006080800CC70623B55019EA25F0000007C000000070000000000000000000000000094020000636E782E786D6C504B
310
01021400140006080800CC70623BDBABAAF470010000D40300000C00000000000000000000000000180300006662782F636F72652E786D6C504B01021400140006080800CC70623B9C113CC27E0000009D0000000B00000000000000000000000000B20400006662782F636E782E786D6C504B01021400140006080800CC70
310
623B7DF2F77C2A010000120200003100000000000000000000000000590500006662782F41393633353835312D344632462D344230382D423046372D3739314545314133324237412F636F72652E786D6C504B01021400140006080800CC70623BAD7543B64E010000330300003000000000000000000000000000D2060000
310
6662782F41393633353835312D344632462D344230382D423046372D3739314545314133324237412F636E782E786D6C504B01021400140006080800CC70623BE75B7789680500003C10000034000000000000000000000000006E0800006662782F41393633353835312D344632462D344230382D423046372D3739314545
310
314133324237412F6F626A656374732E786D6C504B01021400140006080000CC70623B0000000000000000000000003500000000000000000000000000280E00006662782F41393633353835312D344632462D344230382D423046372D3739314545314133324237412F76657274696365732E62696E504B01021400140006
310
080800CC70623BF270F133060000000400000036000000000000000000000000007B0E00006662782F41393633353835312D344632462D344230382D423046372D3739314545314133324237412F747269616E676C65732E62696E504B01021400140006080000CC70623B0000000000000000000000003700000000000000
310
000000000000D50E00006662782F41393633353835312D344632462D344230382D423046372D3739314545314133324237412F617474726962757465732E62696E504B01021400140006080800CC70623B08DA0BD1900000004101000036000000000000000000000000002A0F00006662782F41393633353835312D344632
310
462D344230382D423046372D3739314545314133324237412F6469726563746F72792E786D6C504B01021400140006080800CC70623BEDD1DC58FD000000A00100003B000000000000000000000000000E1000006662782F41393633353835312D344632462D344230382D423046372D3739314545314133324237412F7265
310
736F75726365732F636F72652E786D6C504B0506000000000E000E0080040000641100000000
  0
XRECORD
  5
11B22
102
{ACAD_REACTORS
330
1F7
102
}
330
1F7
100
AcDbXrecord
280
     1
102
MATERIAL
148
0.0
149
0.0
149
0.0
 93
        0
 94
       63
282
     0
 72
     1
 77
     1
171
     1
175
     1
179
     1
273
     0
  0
XRECORD
  5
1F8
102
{ACAD_REACTORS
330
1F7
102
}
330
1F7
100
AcDbXrecord
280
     1
 70
     1
 90
429727718
  1
30362254-06B7-45E0-A893-8CFA70E3D6BC
310
504B03040A0000080000CC70623B3DEE336E79000000790000001B0000006175746F6465736B2D64657369676E2D7061636B6167652E786D6C3C3F786D6C2076657273696F6E3D22312E302220656E636F64696E673D227574662D3822203F3E3C666F726D6174733E3C666F726D61743E687474703A2F2F736368656D612E
310
6175746F6465736B2E636F6D2F64657369676E2D7061636B6167652F323030393C2F666F726D61743E3C2F666F726D6174733E504B0304140006080800CC70623BD486FD9CA0000000F4000000130000005B436F6E74656E745F54797065735D2E786D6C7D8EC10E82300C865F65E91D8A1E8C310C0EEA1BF002731658846E
310
D98AC1B77784ABF1D8FE5FBFBF75BBCE937A534CCEB38643598122B6FEE978D0B0485F9C41B54DDD7D022595594E1A469170414C76A4D9A4D207E29CF43ECE46F218070CC6BECC4078ACAA135ACF422C856C0E68EA1BF5669944DDD7BCDE7B1F8E415D77AECB980613C2E4AC91FC167A2B244592486606FC29C8FD7F045B9A
310
EF7053A7E60B504B0304140006080800CC70623B1EC5D7A3EB0000007C01000008000000636F72652E786D6C8D90416EC3201045AF82665B6103C6756C6122AB4D4ED00B204C5C94182C03558F5F9C3852BBEB6A467FFE9B197D71FC9E6FE8CBACC17AD7032D0820E3B41FAD9B7A48F1820F808E52ACDEC75F36404ECDA687
310
4D0629A6D5A76597B477D1B89855E747B38B2A041301E95B6E7A08FAD3CCAA50296647B8168BD2573599823EBB0CA76447F43862C7BCCF5EAC59410E4DDD9C7973C2755553CCCFA4C603E3040F1565ED3B1FDE4E432BCA0D9622DAF9795FAF464533826484B498524CD807E51D79ED187F21878E10516EF63F505AC67F42C9
310
BA58B1FDDD071640D2FCC87D2045B96591CB3DA85CB7DCE40F504B0304140006080800CC70623B55019EA25F0000007C00000007000000636E782E786D6C4DCB3B0E80201045D1AD90E915ED2CF8AC45050C11660C8261F98AB1B07AC9C97D42D718D865D3E909258CFD00CCE24AC6E326A164D74DC0B4128928FF32603847
310
2BA13128B1252AC747C6BAB984FC68F0B87FE8960A5C09FE86CFB69FBA01504B0304140006080800CC70623B8C9102E971010000D40300000C0000006662782F636F72652E786D6CC5535B6E833010BC8AE5DF0A6C08340F1947A84D4ED00B38C6A128602363A31CBFCB234A53A551FA553EC09AD9F5CE8C31DB9E9B1AF5CA
310
7695D1198E428A91D2D214952E33ECDD315861B4E5CC1AE3BE9561A445A3323CC098B3D21ADFCE9034DA29ED00D5A6503328BA4E398C640D8B0C77F253352214DE4145770A5B214FA2546114020D759C75CE8200340D19DE981F0F6746269C33EFAB6266AB02A655C74A59CCF365BADC27CB5D902ED22848F6340DF238A141
310
BE88E2F57B92BFEDF23523433367AE6A2EEAA455C2A902F398D2751045018D3FA264435F3771F242571B4A1919CA6F9A7C5B3CD9E42BED16F12C776AEB308F40C848FC700B1139D4891EF410CEC810227CC6846F8386402064270EF5C5C709A05E49676C024C61FC95EA45ED154CA5211D1FF4FB8291A913A68E9B83EBBB33
310
E2A7673CDE118E5AE8124C0807CB8377834E366998436B950D7A7746DAD846D4CFD978E0F04FD455FC5D49D2D4C6FE9722321F10997F0F32DC47FE05504B0304140006080800CC70623BFFEA85907E0000009D0000000B0000006662782F636E782E786D6C4DCCD10A83201886E15B91FFDC95D95A811AB6F23E625948A6C3
310
E9D8E5AF46073BFAE0E1E365ED67B3E8ADC3CB78C7815C7240DA3DFC64DCC221C519D7805AC182F7F1EF06C88D9BE6703008B6049F9E274D7A1E938DBB5AE3D6131B2589BA0D3D965551E0B2EA732C9B9A624AAEB41E3A557677029960D9AFB4EF11165F504B0304140006080800CC70623B4FEEA4082C0100001202000031
310
0000006662782F39464131463745442D413632322D343644302D413938332D3331353338454246344243312F636F72652E786D6C8D515B6EC32010BC0AE2AB55850DD871ED0813254D72825EC00192A2C460F1A872FC42ED48ED5F7E00CDCECCCEB26C731F6FE05B39AFADE921293004CA082BB5B9F43086336A21D870E6AC
310
0D7F68109861543DCC30E4ECE26C9C164858139409093556AA051CBC570102714B8F1E7AF1A5C6A11862480C7F2DA6415C878B2A4891CA89C7990F2E050073937C42DE1DB7E4F87ED8A36D4329AA9B3D46DBAEAD504556557BD81DEBDD0761E52CE42C462D17B996298E3E6BE59E35C962CE821E1FF18553435012728A7187
310
0841987E927A8D9B35ADDF70BBC6989599FE4F1427F9A4286A132ABAC49D651EF234CD5CE04CDA78BA3DC2A8FB645D00B9DF8B57E215725C60BCA2A463E54C4CE327C7A65E1C7DB02E7DEFCBF594B864C5CA6CDBD49C957943E9FA5D5FBAF336F90F504B0304140006080800CC70623BAD7543B64E01000033030000300000
310
006662782F39464131463745442D413632322D343644302D413938332D3331353338454246344243312F636E782E786D6CD593CD6EC32010845F0571AD6CE3D48AD20813A9873E410FBD12D82434182C7EAAE6EDBB2424CD25871E7B41D6EC30B3FA84F9E67BB2E40B4234DE8DB46F1925E094D7C6ED479AD3AE5951B2113C
310
789FEE6C943839C1488B4C05DF079FE72A69D8C96C13AAD6B8631503449F83828872B949AC57D26200B826A308D316B4064D6E46FCDA41C05550DC9E483A00797BFD207EFB092A45DE9514C1BBD22178396BD39D891265658C238DEA00936C654E5E433CB65A26D9F6EDB5EBC14EBF49A45CB856E66048291F6939A9A81BB5
310
C8917738143CA680F4AA299D66A042CEB3354A2684DC9D8D178FE0D9B8B41CAAD720F880EE7EF93C0C18769E099ECC04D5A102C8049A8A05632F4DDF376CF1DE0F6BB65C2F8627B65A33C6BB62177CEBBDAD973006829F89F22E814B54F4BC2BE347F8AA8F681390B50FA73F804400B5F542E796F19FF974E7F78DB802FE05
310
E207504B0304140006080800CC70623B16AB87BA640500003C100000340000006662782F39464131463745442D413632322D343644302D413938332D3331353338454246344243312F6F626A656374732E786D6CAD575B6FA33818FD2B887DE6924B3BED8A326A92B68A663B534DD4D13E548A0C38942D60649B369D5FBFC7
310
600890A493BDE42160637FD7F31D7FF63E6FB3D478A55C242CBF3247B66B1A340F5994E4F19559CA8D75611A9F7D8F33263BCB4C232719BD32D5B4E97B316765A1A722BA21652A07B3B7B33F0D11D29C9A46981221AE4C113ED38CD8A4942CA2E2C58E882476BCD9DA23BB5ED8171B73523C0F841684D35CC252CCE79062D4
310
468DFA43D7747CCF51DF7D4FFDEB5593E3AB9CCA9FBEFE241792E4E19EB28198C968BAB8199F5D5A67D3E9C49A9E8F47D6EC76B6B0469F26EEFC7C3EBFBCBEB98462213924694B38DD98FE1D62C393D073EA4FADC5DAF04326852CCF6958F90F0F2B9BB5C48816348F90C7840A68EB78EDF68723159BCEE7891A6B95DDE9D3
310
BCEAEEE8086A6C6F9E5D4B59F0175C10A7A0820BAA5055C7473B5AE3CFDD452D602CD5DF12616444529E90D448938013FE6EFA58AA96F85E4F8C42275708571E98FE6827AF6B2B4AE3D7D83D64E5A64C53054DD3AF90BD06FEA9149565C94FCA0F6B834DC85599E4F2423B24DF0B6AFA979E534DFA9E7A4CC6FA631D486393
310
921829879BF5D781A373557BCB85E97FB90DB62B558F8795179C15944B051F40AB495CF35451D26A4727654E6D8033BD98EF82F21D91FF8AF2DD9982BCF1643BDD4EB516C9492E368C67C88DED563FC36D5EACF66DFF057C3658BDBFA69DF9578B3DA735B64F18C7F20770A9D45CFCF7FCF563D6456A277DBEF78A02637CA2
310
43B90A490AEAB94F72244481D24819A6C0E59B606BFA4B3025981DBB48EAB701D97BF19C577CC77F2D1B6C55A9EF3C732474C0B727303F625995056C3B02963D9EAC146BE78EC5FCEC7FA999EBC5EACBAAE41B12D27B4D2C0BBA49F244E2ECDC81B76B502F113D8F5EE8FB1BE3111CDD4FC2AA9B844CAB1288B68AB90A7CDC
310
1C166AB0D3DC5310625FCC14E779BFD0709F8890A629C9292B1B2DED31A4B0DA928CEE135085754027E3018A397D4D5427D15BD1330B677DC8934285AC3DF45A9EB68FF8F2B8FC0A509AFEECFD0FF2DE25CC6047F7214B195F07EFEB9A094D800F7BFAE8FED187B78EA8A3A400F115961BCAD1215E47C966530AF0EE8128FE
310
58CEBB996A8964FFA529A046635D9353B0336A8F700DDF46271A024E70B0B37C9DE01847591E54DED53D54202AB947E4076556AC49C6CA5C9E1226B7F1A7B1BE15DEED62C41B91E1B3E9AFAAA735036547343A925075041DF0A9979E893B391F8FCFA6967B3EFB644DCF6E5CEBFAE272625DCC6FAF3FB93793C5F90CE1EF57
310
407342756B10D1C489E8953CD1617E5CEECAD6F4EF8914CE5D5D504E5C3F1F9736DA62CFC11E00BCDDB8CC8A9466349744C1F75EBDA4DF09BA8A9E8C7A7E9991989E20E5DBDD6A6003664ED8F7A04A8DBE0DF6EAD9B9AA858342E47399053949D2C146EDB85DE4B176BB0965FBAC19BD19AA918E27FA50C1D22402E144464C
310
59462568E704B6E71915404CB72B8FF4EDE184DDAF753F284990D2C6926782963815403548A70C657FDEF80D2D9CEAA2AE4C1C76F60BFE74219A06527D6582DF6412526107381E55E353090704D085B52408D0933C4ED159D79BDA71BB4BC506F4831350EB6F979CD22D69BF7AC49B91A2C0A9DDA3D5CA36AD20FC478E37E6
310
1844E2352865EBCB6EA275A652E3836BE04EFB400BF1A2556F515F1FBB35B2AB35BD889C744FFA1004B5544B121E57F70215746DD2F5E2C1412B602CBF19455AC6C8E5E9922C4E01E65215385004546899059180EAFCF7A707CE7017CD8CDB0410789AB32C63B91E5CEBBBACB17AC6CD347A022D5075FD106377347AAABA7E
310
7D11590744509B44E205134DC1290F06580320F78E537D3D73540E06CB970B431F185308AD40BBD794D6D77003C5A36E8EAA54BA64597CD8F83BD552A080A365F7FF06504B0304140006080000CC70623B000000000000000000000000350000006662782F39464131463745442D413632322D343644302D413938332D3331
310
353338454246344243312F76657274696365732E62696E504B0304140006080800CC70623BF270F1330600000004000000360000006662782F39464131463745442D413632322D343644302D413938332D3331353338454246344243312F747269616E676C65732E62696E636660600000504B0304140006080000CC70623B
310
000000000000000000000000370000006662782F39464131463745442D413632322D343644302D413938332D3331353338454246344243312F617474726962757465732E62696E504B0304140006080800CC70623B08DA0BD19000000041010000360000006662782F39464131463745442D413632322D343644302D413938
310
332D3331353338454246344243312F6469726563746F72792E786D6C858F410AC3201045AF22B36F53E9A60B35CBEEBAE80D244E44489C6234F4F835464A48035D0DF398FF9F8AF63D0E6CC63039F212F8F9020C7D47C6792B21C5FE7403D62A1188E2E60C98D7234A5830286103A55745067B9D86B8A3CF9C7F90C11DE607
310
FB144396D7B6A82D282E9A152AD114D5EF2CB866EEE831B8EEA07A7BB5A8D7D61A2BAAEB7FD5F70921FF497D00504B0304140006080800CC70623B0D6EF93BFE000000A00100003B0000006662782F39464131463745442D413632322D343644302D413938332D3331353338454246344243312F7265736F75726365732F63
310
6F72652E786D6C8D50596E833010BD0A9ADFCA60B334011947A8694ED00B586642AC041B79A97AFC9A40A5F6AF3F33A3B7689E1E3F7DCD8FEC139DD7D6F4C0720A191A65476DA61E62B892236427C19DB5E1970C322367EC618541F0C9D9B8EC90B226A009093576C41D94DE63804C3DD2D18357379C652E63480A7FCF17A9
310
EE72C29CE5894E3AC17D702940B63D59270887DE46A7D0F36263058F518FBB468FE9A7BE6A7420864373B8D4873369AA8691FA421B3294352543C5CAF65C0F6FEF43CB8BD52C78D0F34F46E550061C419494B6843142CB0F5677F4B52BEB177AEC28E5C52AFF638ACBF84F53D42654E51E77B379102C05791282176B5F693D
310
CB4C7BED567C03504B010214000A0000080000CC70623B3DEE336E79000000790000001B00000000000000000000000000000000006175746F6465736B2D64657369676E2D7061636B6167652E786D6C504B01021400140006080800CC70623BD486FD9CA0000000F40000001300000000000000000000000000B20000005B
310
436F6E74656E745F54797065735D2E786D6C504B01021400140006080800CC70623B1EC5D7A3EB0000007C010000080000000000000000000000000083010000636F72652E786D6C504B01021400140006080800CC70623B55019EA25F0000007C000000070000000000000000000000000094020000636E782E786D6C504B
310
01021400140006080800CC70623B8C9102E971010000D40300000C00000000000000000000000000180300006662782F636F72652E786D6C504B01021400140006080800CC70623BFFEA85907E0000009D0000000B00000000000000000000000000B30400006662782F636E782E786D6C504B01021400140006080800CC70
310
623B4FEEA4082C0100001202000031000000000000000000000000005A0500006662782F39464131463745442D413632322D343644302D413938332D3331353338454246344243312F636F72652E786D6C504B01021400140006080800CC70623BAD7543B64E010000330300003000000000000000000000000000D5060000
310
6662782F39464131463745442D413632322D343644302D413938332D3331353338454246344243312F636E782E786D6C504B01021400140006080800CC70623B16AB87BA640500003C1000003400000000000000000000000000710800006662782F39464131463745442D413632322D343644302D413938332D3331353338
310
454246344243312F6F626A656374732E786D6C504B01021400140006080000CC70623B0000000000000000000000003500000000000000000000000000270E00006662782F39464131463745442D413632322D343644302D413938332D3331353338454246344243312F76657274696365732E62696E504B01021400140006
310
080800CC70623BF270F133060000000400000036000000000000000000000000007A0E00006662782F39464131463745442D413632322D343644302D413938332D3331353338454246344243312F747269616E676C65732E62696E504B01021400140006080000CC70623B0000000000000000000000003700000000000000
310
000000000000D40E00006662782F39464131463745442D413632322D343644302D413938332D3331353338454246344243312F617474726962757465732E62696E504B01021400140006080800CC70623B08DA0BD190000000410100003600000000000000000000000000290F00006662782F39464131463745442D413632
310
322D343644302D413938332D3331353338454246344243312F6469726563746F72792E786D6C504B01021400140006080800CC70623B0D6EF93BFE000000A00100003B000000000000000000000000000D1000006662782F39464131463745442D413632322D343644302D413938332D3331353338454246344243312F7265
310
736F75726365732F636F72652E786D6C504B0506000000000E000E0080040000641100000000
  0
XRECORD
  5
11B24
102
{ACAD_REACTORS
330
173
102
}
330
173
100
AcDbXrecord
280
     1
102
MATERIAL
148
0.0
149
0.0
149
0.0
 93
        0
 94
       63
282
     0
 72
     1
 77
     1
171
     1
175
     1
179
     1
273
     0
  0
XRECORD
  5
175
102
{ACAD_REACTORS
330
173
102
}
330
173
100
AcDbXrecord
280
     1
270
     1
271
     1
  0
XRECORD
  5
174
102
{ACAD_REACTORS
330
173
102
}
330
173
100
AcDbXrecord
280
     1
270
     1
271
     1
  0
XRECORD
  5
1FB
102
{ACAD_REACTORS
330
173
102
}
330
173
100
AcDbXrecord
280
     1
 70
     0
 90
1673772943
  1
ECE7A1D2-D628-4531-984C-D00F80459256
310
504B03040A0000080000CC70623B3DEE336E79000000790000001B0000006175746F6465736B2D64657369676E2D7061636B6167652E786D6C3C3F786D6C2076657273696F6E3D22312E302220656E636F64696E673D227574662D3822203F3E3C666F726D6174733E3C666F726D61743E687474703A2F2F736368656D612E
310
6175746F6465736B2E636F6D2F64657369676E2D7061636B6167652F323030393C2F666F726D61743E3C2F666F726D6174733E504B0304140006080800CC70623BD486FD9CA0000000F4000000130000005B436F6E74656E745F54797065735D2E786D6C7D8EC10E82300C865F65E91D8A1E8C310C0EEA1BF002731658846E
310
D98AC1B77784ABF1D8FE5FBFBF75BBCE937A534CCEB38643598122B6FEE978D0B0485F9C41B54DDD7D022595594E1A469170414C76A4D9A4D207E29CF43ECE46F218070CC6BECC4078ACAA135ACF422C856C0E68EA1BF5669944DDD7BCDE7B1F8E415D77AECB980613C2E4AC91FC167A2B244592486606FC29C8FD7F045B9A
310
EF7053A7E60B504B0304140006080800CC70623BD9DDAED0EC0000007C01000008000000636F72652E786D6C8D90416EC3201045AF82665B61836D9CD8C2444DD39CA01740405C94182C03558F5F9C3852BBEB6A467FFE9B197D7EF89E6EE8CB2CC17A37002D0820E394D7D68D03A478C17B4007C117EFE32F1B20272733C0
310
2A83E0E3E2D3BC49CABB685CCCAAF3DA6CA20CC14440EA969B0182FA34932C648AD911AEC52CD5558EA6A0CF2EC329598D1E47ACCEFBECC59A050463A7EA5833865FEBDD0E37353BE3EE8DBDE3F6786A48D375FBF6CC78B9C282473B3DEFABC5C86834888A900E538A49F5419B9EB47DD5BC907D4F082F57FB1F28CDFA9F50
310
B22ED6D5F6EE030B20687EE43E10BC5CB3C8E51E54AE6B6EE207504B0304140006080800CC70623B55019EA25F0000007C00000007000000636E782E786D6C4DCB3B0E80201045D1AD90E915ED2CF8AC45050C11660C8261F98AB1B07AC9C97D42D718D865D3E909258CFD00CCE24AC6E326A164D74DC0B4128928FF326038
310
472BA13128B1252AC747C6BAB984FC68F0B87FE8960A5C09FE86CFB69FBA01504B0304140006080800CC70623BA24EB22D72010000D40300000C0000006662782F636F72652E786D6CC5535B6E833010BC8AE5DF0A6C5E49888CA3A6694ED00B38E05014B091B1518EDFE511A5A9D228FD2A1F60CDEC7A67C6986DCE4D8D7A
310
69BA4AAB0C073EC548AA5C17952A33ECECD15B61B4E1CC686DBF9561A44423333CC098B3D268D7CE50AE9595CA02AA74216750749DB418E5352C32DCE59FB211BE70162ABA93DF8AFC244AE9073ED050C759670D0840D390E18DF9F1706664C23973AE2A66B62A605A75ACA4C13C4976E1364A12EF355A2EBD384AF65EFA96
310
BC7B8BED2EA6719AAE16FB8491A199335B351775B991C2CA02F390D2D40B028F861F41BCA68B7518BFD0D59A524686F29B26D7164F36B94AD9289CE54E6D1DE6010819891F6E21228B3AD1831EC219194284CF98F06DD01008846CC5A1BEF83801D4CBDC6A1303536877A57A513B0953A94FC707FDBE6064EA84A9E3E6E0FA
310
EE8CF0E9198F7784A316AA0413C2C2F2E0ECA0934D1AE6D05A69BCDE9E91D2A611F573361E38FC1375157F5752AE6B6DFE4B11990F88CCBF0719EE23FF02504B0304140006080800CC70623B408A7D3B7C0000009D0000000B0000006662782F636E782E786D6C4DCCD10A83201886E15B91FFDC552A92A0064DBC8F581632
310
D3703A76F9ABD1C18E3E78F878E5F0D9027ABBFCF2292AE86E2D20171F69F6715550CB827B40839639A5F2770314A7CD293819B45C73AAFB45B35BA61ACAA1C1C7E7855C58C15BC331339661262CC762340413D68D77DA5B42298546CBE6573AF60CEB2F504B0304140006080800CC70623B449FB9BD290100001202000031
310
0000006662782F36394639363044362D344446342D343946362D394244322D3234314243333846323333332F636F72652E786D6C8D515B6EC32010BC0AE22B55850D98B871848994463E412FE002495162B07854397EA176A4F62F3F2C9A9D991D587EB84F37F0AD7D30CEF6905418026DA553C65E7A98E219ED203808EE9D
310
8B7F6810D871D23D2C3014FCE25D9A57483A1BB58D19B54EE9151C43D0110279CB971E06F9A5A7B11A53CC8C70ADE6515EC78BAE4895DB992778883E0700CB907242D17643D7E2538BD869608875438BBAE38922CAC8F1BDD90DB4691A5E2F42C153326A951B95E398B3D1FE599322163C9AE9115F7A3D46ADA0A018778810
310
84E907617BDCEE297BC5BB3DC6BC2EF47FA234AB2745C9D8D8D035EE220B50105E2F0DC1954B9FB747187D9F9D8FA0CCDB042D5FA0C015C65B42DF78BD10F3F3B363CB56C7109DCFDFBBB97E662ED92EB62D13BC2E1BCAE5777DB9966D8A1F504B0304140006080800CC70623BAD7543B64E01000033030000300000006662
310
782F36394639363044362D344446342D343946362D394244322D3234314243333846323333332F636E782E786D6CD593CD6EC32010845F0571AD6CE3D48AD20813A9873E410FBD12D82434182C7EAAE6EDBB2424CD25871E7B41D6EC30B3FA84F9E67BB2E40B4234DE8DB46F1925E094D7C6ED479AD3AE5951B2113C789FEE
310
6C943839C1488B4C05DF079FE72A69D8C96C13AAD6B8631503449F83828872B949AC57D26200B826A308D316B4064D6E46FCDA41C05550DC9E483A00797BFD207EFB092A45DE9514C1BBD22178396BD39D891265658C238DEA00936C654E5E433CB65A26D9F6EDB5EBC14EBF49A45CB856E66048291F6939A9A81BB5C89177
310
38143CA680F4AA299D66A042CEB3354A2684DC9D8D178FE0D9B8B41CAAD720F880EE7EF93C0C18769E099ECC04D5A102C8049A8A05632F4DDF376CF1DE0F6BB65C2F8627B65A33C6BB62177CEBBDAD973006829F89F22E814B54F4BC2BE347F8AA8F681390B50FA73F804400B5F542E796F19FF974E7F78DB802FE05E20750
310
4B0304140006080800CC70623B8D05915C650500003B100000340000006662782F36394639363044362D344446342D343946362D394244322D3234314243333846323333332F6F626A656374732E786D6CAD575B6FA33814FE2B887D06429276DA1565D4266D158D3A339A6846FB502932E050B66023DB74D2FDF5FB190C01
310
9276B2973C046C8ECFF53B17071F77456EBD502133CEAE6CDF9DD81665314F32965ED995DA3A17B6F5310C04E7AA47665B8C14F4CAD6DB7618A48257A5D94AE89654B91AEDDEDDFC61C998326A5B714EA4BCB265FC440BE2924AF184CA6737218AB8E976E7FA6E4338649B0A523E8D98964450A6A029F619B8588D52FE7039
310
B1BD30F0F4F730D0FF866AF6369557DB33949F31A9088B0F848DD8CCFCF9F2767A76E99CCDE733677E3EF59D9BBB9BA5E37F984D16E78BC5E5F5ED25044B25C0C96822E8D60EEFE11B91C581D77CEA34368A1F5329E68CD1B8B61F16D63A1B8E092D294B10C78C4A48EB593D192E7DED9BDEE7995E1B91FDEDD3ACEA9FE831
310
6A756F9F7D4D79F4274C90A7A04248AA51D5F8C718DAE06FB2F75AC4796EBE65D22A88A22223B995679120E2D50E41AA49C260C046A35368846B0BECD0DFF3EBEB8AD4F835768F69B9ADF25C43D30E6B646F807FAA64AD59F61715C7A54127C4AACA98BA3006A9D792DAE165E0D59B61A01FB3A9F9D838D2DAE62445C86166
310
F37564E842E7DE6A69879FEEA2DD5AE7E371E1A5E025154AC307D06A03D73EB5978C58FFA4C8E9033066E0F3BD53BEC1F39F91BE7B55103791EDE6BBB991A2046172CB4581D8B893FA674DDA17A77B3B7C413D1B511FD2743BFF8A38F03A658705E3ADF8015C3A3417FF3D7E439FF591DA0B5F18BC20C1B8981957AE6392A3
310
F43C640C01D1A0B4728E2DD4F26DB4B3C3152A252A3B4E913CEC1C72F012782FF88EFF8637AA552DBEF76408E8A8DE9E50F9E1CB3A2DA0DB1B6039A893B56063DC5B3E3FFB5F72E67AB9FEB4AEC496C4F4C1149625DD662C53E89D7BF0F6151A046260D1337DFDC94502430F83B0EE07A130A224BCAD7DAE1D9FB6CD422FF6
310
920702629C4BB9AE79C12F243C6432A6794E18E5552BA56B431AAB5D91317302B2B071E86C3A42B1A02F999E24061403B5D0EB639195DA655DD3EBEAB4FB862DDF579F014AD0E73C22F99E28DA57FB98E75C6CA2D74D53086D600F4786E0FE3144B771A8A7B900F03594DB8A633CBC49B2EDB69228BB479CF863B5E807AAAB
310
23872F6DFEB4129B949CA33823F58830E86D65621E10047D9DB34D862E8EAC3C2ABC2F7B2C40D67CDFE01F5545B92105AF983AC54D93D69E56FB8E797F88913F898A9FEC705D3F9D1B54EC8426FB500D40A03BD0119B06E1B95DDC7EB8F6975367793EBD70E66733DFB9BC982F9CE564727731999F5D4ECFCE3B8D6A4DC2A0
310
6D50FD148437D110834A64C6CDDF57FBACB5C307A2A477DFE4939736CFEF2B175371E0E10CF0DD1D5C15654E0BCA14D1E87DD02FF93782A162C0A3D95F1524A52770F972BF1EE9809D13CE7DD599467F8ECE9ADD85CE85A34CD45355448C64F9E8A031DC2D596ACC6E5DD93D9B82DE2EF5CAF81363A8E47996A0DE24564A79
310
4115AACE09C55E14540231FDA13C319787134EBF34E3A022514E5B4D9E0826E25C02D5805B15ABE1BEF51B26383D445DD9E875EE33FE4C22DA16427D65A3BCA92CA6D28DD01DF5DC53330704308475351050232CCD31583787BA75774AFB06E5070DD0C8EF484E19968C5D83BA5B90B244D31E54D55A372320FE4786B7EA58
310
44E135AA5467CB7EA333A61683CC6A8C3257034C10CF46F40EF9F5BE59BE5BD30C3C72D235E95D10345C1D45445A5F0BB47E46A5EBE5570F9380B5FA629579952296A773720405982B9DE04011506178964401AA8BDF1FBF0A8EAB6861DD6580C0E38217056766716DAEB2D6FA0917D3E4116581EADB879C4E7CFFB11EFACD
310
3D641311495D92C8676CB409A72D18610D803CE8A626049E8EC1887CB5B44CC39883690DDA8399B4B9855B481E7D71D4A9D22F96E5BB73BF5793020C02137BF837504B0304140006080000CC70623B000000000000000000000000350000006662782F36394639363044362D344446342D343946362D394244322D32343142
310
43333846323333332F76657274696365732E62696E504B0304140006080800CC70623BF270F1330600000004000000360000006662782F36394639363044362D344446342D343946362D394244322D3234314243333846323333332F747269616E676C65732E62696E636660600000504B0304140006080000CC70623B0000
310
00000000000000000000370000006662782F36394639363044362D344446342D343946362D394244322D3234314243333846323333332F617474726962757465732E62696E504B0304140006080800CC70623B08DA0BD19000000041010000360000006662782F36394639363044362D344446342D343946362D394244322D
310
3234314243333846323333332F6469726563746F72792E786D6C858F410AC3201045AF22B36F53E9A60B35CBEEBAE80D244E44489C6234F4F835464A48035D0DF398FF9F8AF63D0E6CC63039F212F8F9020C7D47C6792B21C5FE7403D62A1188E2E60C98D7234A5830286103A55745067B9D86B8A3CF9C7F90C11DE607FB14
310
4396D7B6A82D282E9A152AD114D5EF2CB866EEE831B8EEA07A7BB5A8D7D61A2BAAEB7FD5F70921FF497D00504B0304140006080800CC70623BCA768048FE000000A00100003B0000006662782F36394639363044362D344446342D343946362D394244322D3234314243333846323333332F7265736F75726365732F636F72
310
652E786D6C8D50596E833010BD0A9ADFCA60D600328E9AA639412F609909B1126CE4A5EAF16B0295DABFFECC8CDEA2797AECF8353F924FB44E193D409E5248504B332A3D0D10FC95B4901C39B3C6F85F3248B49871801506CE266BC2B243D2688FDA47549B11775038871E12F988C7004EDE7016A9083E2ADC3D5D84BC8B09
310
D33C8D74D471E6BC8D0192EDC93A815B742658898E651BCB59086ADC356A8C3FD555A1055ED7E7E254D615792D0F075295F585746FF53B694EE78A565DD736979A65AB9933AFE69F8CD2A2F038022F28ED489E135A7CE4554F9BBEA85E68DB53CAB255FEC71496F19FA6A0B42F8B3DEE6673C0F318E4497096AD7DC5F52C33
310
EEB55BFE0D504B010214000A0000080000CC70623B3DEE336E79000000790000001B00000000000000000000000000000000006175746F6465736B2D64657369676E2D7061636B6167652E786D6C504B01021400140006080800CC70623BD486FD9CA0000000F40000001300000000000000000000000000B20000005B436F
310
6E74656E745F54797065735D2E786D6C504B01021400140006080800CC70623BD9DDAED0EC0000007C010000080000000000000000000000000083010000636F72652E786D6C504B01021400140006080800CC70623B55019EA25F0000007C000000070000000000000000000000000095020000636E782E786D6C504B0102
310
1400140006080800CC70623BA24EB22D72010000D40300000C00000000000000000000000000190300006662782F636F72652E786D6C504B01021400140006080800CC70623B408A7D3B7C0000009D0000000B00000000000000000000000000B50400006662782F636E782E786D6C504B01021400140006080800CC70623B
310
449FB9BD290100001202000031000000000000000000000000005A0500006662782F36394639363044362D344446342D343946362D394244322D3234314243333846323333332F636F72652E786D6C504B01021400140006080800CC70623BAD7543B64E010000330300003000000000000000000000000000D20600006662
310
782F36394639363044362D344446342D343946362D394244322D3234314243333846323333332F636E782E786D6C504B01021400140006080800CC70623B8D05915C650500003B10000034000000000000000000000000006E0800006662782F36394639363044362D344446342D343946362D394244322D32343142433338
310
46323333332F6F626A656374732E786D6C504B01021400140006080000CC70623B0000000000000000000000003500000000000000000000000000250E00006662782F36394639363044362D344446342D343946362D394244322D3234314243333846323333332F76657274696365732E62696E504B010214001400060808
310
00CC70623BF270F13306000000040000003600000000000000000000000000780E00006662782F36394639363044362D344446342D343946362D394244322D3234314243333846323333332F747269616E676C65732E62696E504B01021400140006080000CC70623B00000000000000000000000037000000000000000000
310
00000000D20E00006662782F36394639363044362D344446342D343946362D394244322D3234314243333846323333332F617474726962757465732E62696E504B01021400140006080800CC70623B08DA0BD190000000410100003600000000000000000000000000270F00006662782F36394639363044362D344446342D
310
343946362D394244322D3234314243333846323333332F6469726563746F72792E786D6C504B01021400140006080800CC70623BCA768048FE000000A00100003B000000000000000000000000000B1000006662782F36394639363044362D344446342D343946362D394244322D3234314243333846323333332F7265736F
310
75726365732F636F72652E786D6C504B0506000000000E000E0080040000621100000000
  0
XRECORD
  5
176
102
{ACAD_REACTORS
330
173
102
}
330
173
100
AcDbXrecord
280
     1
270
     1
271
     1
  0
XRECORD
  5
177
102
{ACAD_REACTORS
330
173
102
}
330
173
100
AcDbXrecord
280
     1
270
     1
271
     1
  0
XRECORD
  5
11B46
102
{ACAD_REACTORS
330
11B45
102
}
330
11B45
100
AcDbXrecord
280
     1
102
ACAD_ROUNDTRIP_2012_MLEADER_STYLE
298
     1
  0
XRECORD
  5
11B58
102
{ACAD_REACTORS
330
11B57
102
}
330
11B57
100
AcDbXrecord
280
     1
102
DISPLAYNAME
  1
Metric50
102
FLAGS
 90
        0
  0
CELLSTYLEMAP
  5
11B18
102
{ACAD_REACTORS
330
162
102
}
330
162
100
AcDbCellStyleMap
 90
        3
300
CELLSTYLE
  1
TABLEFORMAT_BEGIN
 90
        5
170
     1
 91
        0
 92
    32768
 62
   257
 93
        1
300
CONTENTFORMAT
  1
CONTENTFORMAT_BEGIN
 90
        0
 91
        0
 92
      512
 93
        0
300

 40
0.0
140
1.0
 94
        5
 62
     0
340
11
144
6.0
309
CONTENTFORMAT_END
171
     1
301
MARGIN
  1
CELLMARGIN_BEGIN
 40
1.5
 40
1.5
 40
1.5
 40
1.5
 40
4.5
 40
4.5
309
CELLMARGIN_END
 94
        6
 95
        1
302
GRIDFORMAT
  1
GRIDFORMAT_BEGIN
 90
        0
 91
        1
 62
     0
 92
       -2
340
14
 93
        0
 40
1.125
309
GRIDFORMAT_END
 95
        2
302
GRIDFORMAT
  1
GRIDFORMAT_BEGIN
 90
        0
 91
        1
 62
     0
 92
       -2
340
14
 93
        0
 40
1.125
309
GRIDFORMAT_END
 95
        4
302
GRIDFORMAT
  1
GRIDFORMAT_BEGIN
 90
        0
 91
        1
 62
     0
 92
       -2
340
14
 93
        0
 40
1.125
309
GRIDFORMAT_END
 95
        8
302
GRIDFORMAT
  1
GRIDFORMAT_BEGIN
 90
        0
 91
        1
 62
     0
 92
       -2
340
14
 93
        0
 40
1.125
309
GRIDFORMAT_END
 95
       16
302
GRIDFORMAT
  1
GRIDFORMAT_BEGIN
 90
        0
 91
        1
 62
     0
 92
       -2
340
14
 93
        0
 40
1.125
309
GRIDFORMAT_END
 95
       32
302
GRIDFORMAT
  1
GRIDFORMAT_BEGIN
 90
        0
 91
        1
 62
     0
 92
       -2
340
14
 93
        0
 40
1.125
309
GRIDFORMAT_END
309
TABLEFORMAT_END
  1
CELLSTYLE_BEGIN
 90
        1
 91
        1
300
_TITLE
309
CELLSTYLE_END
300
CELLSTYLE
  1
TABLEFORMAT_BEGIN
 90
        5
170
     1
 91
        0
 92
        0
 62
   257
 93
        1
300
CONTENTFORMAT
  1
CONTENTFORMAT_BEGIN
 90
        0
 91
        0
 92
      512
 93
        0
300

 40
0.0
140
1.0
 94
        5
 62
     0
340
11
144
4.5
309
CONTENTFORMAT_END
171
     1
301
MARGIN
  1
CELLMARGIN_BEGIN
 40
1.5
 40
1.5
 40
1.5
 40
1.5
 40
4.5
 40
4.5
309
CELLMARGIN_END
 94
        6
 95
        1
302
GRIDFORMAT
  1
GRIDFORMAT_BEGIN
 90
        0
 91
        1
 62
     0
 92
       -2
340
14
 93
        0
 40
1.125
309
GRIDFORMAT_END
 95
        2
302
GRIDFORMAT
  1
GRIDFORMAT_BEGIN
 90
        0
 91
        1
 62
     0
 92
       -2
340
14
 93
        0
 40
1.125
309
GRIDFORMAT_END
 95
        4
302
GRIDFORMAT
  1
GRIDFORMAT_BEGIN
 90
        0
 91
        1
 62
     0
 92
       -2
340
14
 93
        0
 40
1.125
309
GRIDFORMAT_END
 95
        8
302
GRIDFORMAT
  1
GRIDFORMAT_BEGIN
 90
        0
 91
        1
 62
     0
 92
       -2
340
14
 93
        0
 40
1.125
309
GRIDFORMAT_END
 95
       16
302
GRIDFORMAT
  1
GRIDFORMAT_BEGIN
 90
        0
 91
        1
 62
     0
 92
       -2
340
14
 93
        0
 40
1.125
309
GRIDFORMAT_END
 95
       32
302
GRIDFORMAT
  1
GRIDFORMAT_BEGIN
 90
        0
 91
        1
 62
     0
 92
       -2
340
14
 93
        0
 40
1.125
309
GRIDFORMAT_END
309
TABLEFORMAT_END
  1
CELLSTYLE_BEGIN
 90
        2
 91
        1
300
_HEADER
309
CELLSTYLE_END
300
CELLSTYLE
  1
TABLEFORMAT_BEGIN
 90
        5
170
     1
 91
        0
 92
        0
 62
   257
 93
        1
300
CONTENTFORMAT
  1
CONTENTFORMAT_BEGIN
 90
        0
 91
        0
 92
      512
 93
        0
300

 40
0.0
140
1.0
 94
        2
 62
     0
340
11
144
4.5
309
CONTENTFORMAT_END
171
     1
301
MARGIN
  1
CELLMARGIN_BEGIN
 40
1.5
 40
1.5
 40
1.5
 40
1.5
 40
4.5
 40
4.5
309
CELLMARGIN_END
 94
        6
 95
        1
302
GRIDFORMAT
  1
GRIDFORMAT_BEGIN
 90
        0
 91
        1
 62
     0
 92
       -2
340
14
 93
        0
 40
1.125
309
GRIDFORMAT_END
 95
        2
302
GRIDFORMAT
  1
GRIDFORMAT_BEGIN
 90
        0
 91
        1
 62
     0
 92
       -2
340
14
 93
        0
 40
1.125
309
GRIDFORMAT_END
 95
        4
302
GRIDFORMAT
  1
GRIDFORMAT_BEGIN
 90
        0
 91
        1
 62
     0
 92
       -2
340
14
 93
        0
 40
1.125
309
GRIDFORMAT_END
 95
        8
302
GRIDFORMAT
  1
GRIDFORMAT_BEGIN
 90
        0
 91
        1
 62
     0
 92
       -2
340
14
 93
        0
 40
1.125
309
GRIDFORMAT_END
 95
       16
302
GRIDFORMAT
  1
GRIDFORMAT_BEGIN
 90
        0
 91
        1
 62
     0
 92
       -2
340
14
 93
        0
 40
1.125
309
GRIDFORMAT_END
 95
       32
302
GRIDFORMAT
  1
GRIDFORMAT_BEGIN
 90
        0
 91
        1
 62
     0
 92
       -2
340
14
 93
        0
 40
1.125
309
GRIDFORMAT_END
309
TABLEFORMAT_END
  1
CELLSTYLE_BEGIN
 90
        3
 91
        2
300
_DATA
309
CELLSTYLE_END
  0
XRECORD
  5
11B1D
102
{ACAD_REACTORS
330
162
102
}
330
162
100
AcDbXrecord
280
     1
102
ACAD_ROUNDTRIP_PRE2007_TABLESTYLE
 90
      512
 91
        0
  1

 92
      512
 93
        0
  2

 94
      512
 95
        0
  3

  0
XRECORD
  5
11B30
102
{ACAD_REACTORS
330
11B2F
102
}
330
11B2F
100
AcDbXrecord
280
     1
102
RTVSPost2010Prop28
280
     1
102
RTVSPost2010PropOp28
 70
     1
102
RTVSPost2010Prop29
280
     1
102
RTVSPost2010PropOp29
 70
     1
102
RTVSPost2010Prop30
280
     0
102
RTVSPost2010PropOp30
 70
     1
102
RTVSPost2010Prop31
280
     0
102
RTVSPost2010PropOp31
 70
     1
102
RTVSPost2010Prop32
280
     0
102
RTVSPost2010PropOp32
 70
     1
102
RTVSPost2010Prop33
280
     0
102
RTVSPost2010PropOp33
 70
     1
102
RTVSPost2010Prop34
280
     0
102
RTVSPost2010PropOp34
 70
     1
102
RTVSPost2010Prop35
280
     0
102
RTVSPost2010PropOp35
 70
     1
102
RTVSPost2010Prop36
280
     0
102
RTVSPost2010PropOp36
 70
     1
102
RTVSPost2010Prop37
 90
       50
102
RTVSPost2010PropOp37
 70
     1
102
RTVSPost2010Prop38
140
0.0
102
RTVSPost2010PropOp38
 70
     1
102
RTVSPost2010Prop39
140
1.0
102
RTVSPost2010PropOp39
 70
     1
102
RTVSPost2010Prop40
 90
        0
102
RTVSPost2010PropOp40
 70
     1
102
RTVSPost2010Prop41ColorIndex
 90
       18
102
RTVSPost2010Prop41ColorRGB
 90
        0
102
RTVSPost2010PropOp41
 70
     1
102
RTVSPost2010Prop42
 90
       50
102
RTVSPost2010PropOp42
 70
     1
102
RTVSPost2010Prop43
 90
        3
102
RTVSPost2010PropOp43
 70
     1
102
RTVSPost2010Prop44ColorIndex
 90
        5
102
RTVSPost2010Prop44ColorRGB
 90
      255
102
RTVSPost2010PropOp44
 70
     1
102
RTVSPost2010Prop45
280
     0
102
RTVSPost2010PropOp45
 70
     1
102
RTVSPost2010Prop46
 90
       50
102
RTVSPost2010PropOp46
 70
     1
102
RTVSPost2010Prop47
 90
       50
102
RTVSPost2010PropOp47
 70
     1
102
RTVSPost2010Prop48
 90
       50
102
RTVSPost2010PropOp48
 70
     1
102
RTVSPost2010Prop49
280
     0
102
RTVSPost2010PropOp49
 70
     1
102
RTVSPost2010Prop50
 90
       50
102
RTVSPost2010PropOp50
 70
     1
102
RTVSPost2010Prop51ColorIndex
 90
      256
102
RTVSPost2010Prop51ColorRGB
 90
-16777216
102
RTVSPost2010PropOp51
 70
     0
102
RTVSPost2010Prop52
140
1.0
102
RTVSPost2010PropOp52
 70
     0
102
RTVSPost2010Prop53
 90
        2
102
RTVSPost2010PropOp53
 70
     1
102
RTVSPost2010Prop54
  1
strokes_ogs.tif
102
RTVSPost2010PropOp54
 70
     1
102
RTVSPost2010Prop55
280
     0
102
RTVSPost2010PropOp55
 70
     1
102
RTVSPost2010Prop56
140
1.0
102
RTVSPost2010PropOp56
 70
     1
102
RTVSPost2010Prop57
140
1.0
102
RTVSPost2010PropOp57
 70
     1
102
RTVSPropertyOp0
 70
     1
102
RTVSPropertyOp1
 70
     1
102
RTVSPropertyOp2
 70
     1
102
RTVSPropertyOp3
 70
     1
102
RTVSPropertyOp4
 70
     1
102
RTVSPropertyOp5
 70
     1
102
RTVSPropertyOp6
 70
     1
102
RTVSPropertyOp7
 70
     1
102
RTVSPropertyOp8
 70
     1
102
RTVSPropertyOp9
 70
     1
102
RTVSPropertyOp10
 70
     1
102
RTVSPropertyOp11
 70
     1
102
RTVSPropertyOp12
 70
     1
102
RTVSPropertyOp13
 70
     1
102
RTVSPropertyOp14
 70
     1
102
RTVSPropertyOp15
 70
     1
102
RTVSPropertyOp16
 70
     1
102
RTVSPropertyOp17
 70
     1
102
RTVSPropertyOp18
 70
     1
102
RTVSPropertyOp19
 70
     1
102
RTVSPropertyOp20
 70
     1
102
RTVSPropertyOp21
 70
     1
102
RTVSPropertyOp22
 70
     1
102
RTVSPropertyOp23
 70
     1
102
RTVSPropertyOp24
 70
     1
102
RTVSPropertyOp25
 70
     1
102
RTVSPropertyOp26
 70
     1
102
RTVSPropertyOp27
 70
     1
102
RTVSPropertyOp28
 70
     1
102
RTVSPropertyOp29
 70
     1
102
RTVSPropertyOp30
 70
     1
102
RTVSPropertyOp31
 70
     1
102
RTVSPropertyOp32
 70
     1
102
RTVSPropertyOp33
 70
     1
102
RTVSPropertyOp34
 70
     1
102
RTVSPropertyOp35
 70
     1
102
RTVSPropertyOp36
 70
     1
102
RTVSPropertyOp37
 70
     1
102
RTVSPropertyOp38
 70
     1
102
RTVSPropertyOp39
 70
     1
102
RTVSPropertyOp40
 70
     1
102
RTVSPropertyOp41
 70
     1
102
RTVSPropertyOp42
 70
     1
102
RTVSPropertyOp43
 70
     1
102
RTVSPropertyOp44
 70
     1
102
RTVSPropertyOp45
 70
     1
102
RTVSPropertyOp46
 70
     1
102
RTVSPropertyOp47
 70
     1
102
RTVSPropertyOp48
 70
     1
102
RTVSPropertyOp49
 70
     1
102
RTVSPropertyOp50
 70
     1
102
RTVSPropertyOp51
 70
     0
102
RTVSPropertyOp52
 70
     0
102
RTVSPropertyOp53
 70
     1
102
RTVSPropertyOp54
 70
     1
102
RTVSPropertyOp55
 70
     1
102
RTVSPropertyOp56
 70
     1
102
RTVSPropertyOp57
 70
     1
102
RTVSPropertyOp58
 70
     1
102
RTVSPropertyOp59
 70
     1
102
RTVSPropertyOp60
 70
     1
102
RTVSPropertyOp61
 70
     1
102
RTVSPropertyOp62
 70
     1
  0
XRECORD
  5
11B2E
102
{ACAD_REACTORS
330
11B2D
102
}
330
11B2D
100
AcDbXrecord
280
     1
102
RTVSPost2010Prop28
280
     0
102
RTVSPost2010PropOp28
 70
     1
102
RTVSPost2010Prop29
280
     1
102
RTVSPost2010PropOp29
 70
     1
102
RTVSPost2010Prop30
280
     1
102
RTVSPost2010PropOp30
 70
     1
102
RTVSPost2010Prop31
280
     0
102
RTVSPost2010PropOp31
 70
     1
102
RTVSPost2010Prop32
280
     0
102
RTVSPost2010PropOp32
 70
     1
102
RTVSPost2010Prop33
280
     0
102
RTVSPost2010PropOp33
 70
     1
102
RTVSPost2010Prop34
280
     0
102
RTVSPost2010PropOp34
 70
     1
102
RTVSPost2010Prop35
280
     0
102
RTVSPost2010PropOp35
 70
     1
102
RTVSPost2010Prop36
280
     0
102
RTVSPost2010PropOp36
 70
     1
102
RTVSPost2010Prop37
 90
       50
102
RTVSPost2010PropOp37
 70
     1
102
RTVSPost2010Prop38
140
0.0
102
RTVSPost2010PropOp38
 70
     1
102
RTVSPost2010Prop39
140
1.0
102
RTVSPost2010PropOp39
 70
     1
102
RTVSPost2010Prop40
 90
        0
102
RTVSPost2010PropOp40
 70
     1
102
RTVSPost2010Prop41ColorIndex
 90
       18
102
RTVSPost2010Prop41ColorRGB
 90
        0
102
RTVSPost2010PropOp41
 70
     1
102
RTVSPost2010Prop42
 90
       50
102
RTVSPost2010PropOp42
 70
     1
102
RTVSPost2010Prop43
 90
        3
102
RTVSPost2010PropOp43
 70
     1
102
RTVSPost2010Prop44ColorIndex
 90
        5
102
RTVSPost2010Prop44ColorRGB
 90
      255
102
RTVSPost2010PropOp44
 70
     1
102
RTVSPost2010Prop45
280
     0
102
RTVSPost2010PropOp45
 70
     1
102
RTVSPost2010Prop46
 90
       50
102
RTVSPost2010PropOp46
 70
     1
102
RTVSPost2010Prop47
 90
       50
102
RTVSPost2010PropOp47
 70
     1
102
RTVSPost2010Prop48
 90
       50
102
RTVSPost2010PropOp48
 70
     1
102
RTVSPost2010Prop49
280
     0
102
RTVSPost2010PropOp49
 70
     1
102
RTVSPost2010Prop50
 90
       50
102
RTVSPost2010PropOp50
 70
     1
102
RTVSPost2010Prop51ColorIndex
 90
      256
102
RTVSPost2010Prop51ColorRGB
 90
-16777216
102
RTVSPost2010PropOp51
 70
     0
102
RTVSPost2010Prop52
140
1.0
102
RTVSPost2010PropOp52
 70
     0
102
RTVSPost2010Prop53
 90
        2
102
RTVSPost2010PropOp53
 70
     1
102
RTVSPost2010Prop54
  1
strokes_ogs.tif
102
RTVSPost2010PropOp54
 70
     1
102
RTVSPost2010Prop55
280
     0
102
RTVSPost2010PropOp55
 70
     1
102
RTVSPost2010Prop56
140
1.0
102
RTVSPost2010PropOp56
 70
     1
102
RTVSPost2010Prop57
140
1.0
102
RTVSPost2010PropOp57
 70
     1
102
RTVSPropertyOp0
 70
     1
102
RTVSPropertyOp1
 70
     1
102
RTVSPropertyOp2
 70
     1
102
RTVSPropertyOp3
 70
     1
102
RTVSPropertyOp4
 70
     1
102
RTVSPropertyOp5
 70
     1
102
RTVSPropertyOp6
 70
     1
102
RTVSPropertyOp7
 70
     1
102
RTVSPropertyOp8
 70
     1
102
RTVSPropertyOp9
 70
     1
102
RTVSPropertyOp10
 70
     1
102
RTVSPropertyOp11
 70
     1
102
RTVSPropertyOp12
 70
     1
102
RTVSPropertyOp13
 70
     1
102
RTVSPropertyOp14
 70
     1
102
RTVSPropertyOp15
 70
     1
102
RTVSPropertyOp16
 70
     1
102
RTVSPropertyOp17
 70
     1
102
RTVSPropertyOp18
 70
     1
102
RTVSPropertyOp19
 70
     1
102
RTVSPropertyOp20
 70
     1
102
RTVSPropertyOp21
 70
     1
102
RTVSPropertyOp22
 70
     1
102
RTVSPropertyOp23
 70
     1
102
RTVSPropertyOp24
 70
     1
102
RTVSPropertyOp25
 70
     1
102
RTVSPropertyOp26
 70
     1
102
RTVSPropertyOp27
 70
     1
102
RTVSPropertyOp28
 70
     1
102
RTVSPropertyOp29
 70
     1
102
RTVSPropertyOp30
 70
     1
102
RTVSPropertyOp31
 70
     1
102
RTVSPropertyOp32
 70
     1
102
RTVSPropertyOp33
 70
     1
102
RTVSPropertyOp34
 70
     1
102
RTVSPropertyOp35
 70
     1
102
RTVSPropertyOp36
 70
     1
102
RTVSPropertyOp37
 70
     1
102
RTVSPropertyOp38
 70
     1
102
RTVSPropertyOp39
 70
     1
102
RTVSPropertyOp40
 70
     1
102
RTVSPropertyOp41
 70
     1
102
RTVSPropertyOp42
 70
     1
102
RTVSPropertyOp43
 70
     1
102
RTVSPropertyOp44
 70
     1
102
RTVSPropertyOp45
 70
     1
102
RTVSPropertyOp46
 70
     1
102
RTVSPropertyOp47
 70
     1
102
RTVSPropertyOp48
 70
     1
102
RTVSPropertyOp49
 70
     1
102
RTVSPropertyOp50
 70
     1
102
RTVSPropertyOp51
 70
     0
102
RTVSPropertyOp52
 70
     0
102
RTVSPropertyOp53
 70
     1
102
RTVSPropertyOp54
 70
     1
102
RTVSPropertyOp55
 70
     1
102
RTVSPropertyOp56
 70
     1
102
RTVSPropertyOp57
 70
     1
102
RTVSPropertyOp58
 70
     1
102
RTVSPropertyOp59
 70
     1
102
RTVSPropertyOp60
 70
     1
102
RTVSPropertyOp61
 70
     1
102
RTVSPropertyOp62
 70
     1
  0
XRECORD
  5
11B3C
102
{ACAD_REACTORS
330
11B3B
102
}
330
11B3B
100
AcDbXrecord
280
     1
102
RTVSPost2010Prop28
280
     0
102
RTVSPost2010PropOp28
 70
     1
102
RTVSPost2010Prop29
280
     1
102
RTVSPost2010PropOp29
 70
     1
102
RTVSPost2010Prop30
280
     1
102
RTVSPost2010PropOp30
 70
     1
102
RTVSPost2010Prop31
280
     0
102
RTVSPost2010PropOp31
 70
     1
102
RTVSPost2010Prop32
280
     0
102
RTVSPost2010PropOp32
 70
     1
102
RTVSPost2010Prop33
280
     0
102
RTVSPost2010PropOp33
 70
     1
102
RTVSPost2010Prop34
280
     0
102
RTVSPost2010PropOp34
 70
     1
102
RTVSPost2010Prop35
280
     0
102
RTVSPost2010PropOp35
 70
     1
102
RTVSPost2010Prop36
280
     0
102
RTVSPost2010PropOp36
 70
     1
102
RTVSPost2010Prop37
 90
       50
102
RTVSPost2010PropOp37
 70
     1
102
RTVSPost2010Prop38
140
0.0
102
RTVSPost2010PropOp38
 70
     1
102
RTVSPost2010Prop39
140
1.0
102
RTVSPost2010PropOp39
 70
     1
102
RTVSPost2010Prop40
 90
        0
102
RTVSPost2010PropOp40
 70
     1
102
RTVSPost2010Prop41ColorIndex
 90
       18
102
RTVSPost2010Prop41ColorRGB
 90
        0
102
RTVSPost2010PropOp41
 70
     1
102
RTVSPost2010Prop42
 90
       50
102
RTVSPost2010PropOp42
 70
     1
102
RTVSPost2010Prop43
 90
        3
102
RTVSPost2010PropOp43
 70
     1
102
RTVSPost2010Prop44ColorIndex
 90
        5
102
RTVSPost2010Prop44ColorRGB
 90
      255
102
RTVSPost2010PropOp44
 70
     1
102
RTVSPost2010Prop45
280
     0
102
RTVSPost2010PropOp45
 70
     1
102
RTVSPost2010Prop46
 90
       50
102
RTVSPost2010PropOp46
 70
     1
102
RTVSPost2010Prop47
 90
       50
102
RTVSPost2010PropOp47
 70
     1
102
RTVSPost2010Prop48
 90
       50
102
RTVSPost2010PropOp48
 70
     1
102
RTVSPost2010Prop49
280
     0
102
RTVSPost2010PropOp49
 70
     1
102
RTVSPost2010Prop50
 90
       50
102
RTVSPost2010PropOp50
 70
     1
102
RTVSPost2010Prop51ColorIndex
 90
      256
102
RTVSPost2010Prop51ColorRGB
 90
-16777216
102
RTVSPost2010PropOp51
 70
     0
102
RTVSPost2010Prop52
140
1.0
102
RTVSPost2010PropOp52
 70
     0
102
RTVSPost2010Prop53
 90
        2
102
RTVSPost2010PropOp53
 70
     1
102
RTVSPost2010Prop54
  1
strokes_ogs.tif
102
RTVSPost2010PropOp54
 70
     1
102
RTVSPost2010Prop55
280
     0
102
RTVSPost2010PropOp55
 70
     1
102
RTVSPost2010Prop56
140
1.0
102
RTVSPost2010PropOp56
 70
     1
102
RTVSPost2010Prop57
140
1.0
102
RTVSPost2010PropOp57
 70
     1
102
RTVSPropertyOp0
 70
     1
102
RTVSPropertyOp1
 70
     1
102
RTVSPropertyOp2
 70
     1
102
RTVSPropertyOp3
 70
     1
102
RTVSPropertyOp4
 70
     1
102
RTVSPropertyOp5
 70
     1
102
RTVSPropertyOp6
 70
     1
102
RTVSPropertyOp7
 70
     1
102
RTVSPropertyOp8
 70
     1
102
RTVSPropertyOp9
 70
     1
102
RTVSPropertyOp10
 70
     1
102
RTVSPropertyOp11
 70
     1
102
RTVSPropertyOp12
 70
     1
102
RTVSPropertyOp13
 70
     1
102
RTVSPropertyOp14
 70
     1
102
RTVSPropertyOp15
 70
     1
102
RTVSPropertyOp16
 70
     1
102
RTVSPropertyOp17
 70
     1
102
RTVSPropertyOp18
 70
     1
102
RTVSPropertyOp19
 70
     1
102
RTVSPropertyOp20
 70
     1
102
RTVSPropertyOp21
 70
     1
102
RTVSPropertyOp22
 70
     1
102
RTVSPropertyOp23
 70
     1
102
RTVSPropertyOp24
 70
     1
102
RTVSPropertyOp25
 70
     1
102
RTVSPropertyOp26
 70
     1
102
RTVSPropertyOp27
 70
     1
102
RTVSPropertyOp28
 70
     1
102
RTVSPropertyOp29
 70
     1
102
RTVSPropertyOp30
 70
     1
102
RTVSPropertyOp31
 70
     1
102
RTVSPropertyOp32
 70
     1
102
RTVSPropertyOp33
 70
     1
102
RTVSPropertyOp34
 70
     1
102
RTVSPropertyOp35
 70
     1
102
RTVSPropertyOp36
 70
     1
102
RTVSPropertyOp37
 70
     1
102
RTVSPropertyOp38
 70
     1
102
RTVSPropertyOp39
 70
     1
102
RTVSPropertyOp40
 70
     1
102
RTVSPropertyOp41
 70
     1
102
RTVSPropertyOp42
 70
     1
102
RTVSPropertyOp43
 70
     1
102
RTVSPropertyOp44
 70
     1
102
RTVSPropertyOp45
 70
     1
102
RTVSPropertyOp46
 70
     1
102
RTVSPropertyOp47
 70
     1
102
RTVSPropertyOp48
 70
     1
102
RTVSPropertyOp49
 70
     1
102
RTVSPropertyOp50
 70
     1
102
RTVSPropertyOp51
 70
     0
102
RTVSPropertyOp52
 70
     0
102
RTVSPropertyOp53
 70
     1
102
RTVSPropertyOp54
 70
     1
102
RTVSPropertyOp55
 70
     1
102
RTVSPropertyOp56
 70
     1
102
RTVSPropertyOp57
 70
     1
102
RTVSPropertyOp58
 70
     1
102
RTVSPropertyOp59
 70
     1
102
RTVSPropertyOp60
 70
     1
102
RTVSPropertyOp61
 70
     1
102
RTVSPropertyOp62
 70
     1
  0
XRECORD
  5
11B44
102
{ACAD_REACTORS
330
11B43
102
}
330
11B43
100
AcDbXrecord
280
     1
102
RTVSPost2010Prop28
280
     0
102
RTVSPost2010PropOp28
 70
     1
102
RTVSPost2010Prop29
280
     1
102
RTVSPost2010PropOp29
 70
     1
102
RTVSPost2010Prop30
280
     1
102
RTVSPost2010PropOp30
 70
     1
102
RTVSPost2010Prop31
280
     0
102
RTVSPost2010PropOp31
 70
     1
102
RTVSPost2010Prop32
280
     0
102
RTVSPost2010PropOp32
 70
     1
102
RTVSPost2010Prop33
280
     0
102
RTVSPost2010PropOp33
 70
     1
102
RTVSPost2010Prop34
280
     0
102
RTVSPost2010PropOp34
 70
     1
102
RTVSPost2010Prop35
280
     0
102
RTVSPost2010PropOp35
 70
     1
102
RTVSPost2010Prop36
280
     0
102
RTVSPost2010PropOp36
 70
     1
102
RTVSPost2010Prop37
 90
       50
102
RTVSPost2010PropOp37
 70
     1
102
RTVSPost2010Prop38
140
0.0
102
RTVSPost2010PropOp38
 70
     1
102
RTVSPost2010Prop39
140
1.0
102
RTVSPost2010PropOp39
 70
     1
102
RTVSPost2010Prop40
 90
        0
102
RTVSPost2010PropOp40
 70
     1
102
RTVSPost2010Prop41ColorIndex
 90
       18
102
RTVSPost2010Prop41ColorRGB
 90
        0
102
RTVSPost2010PropOp41
 70
     1
102
RTVSPost2010Prop42
 90
       50
102
RTVSPost2010PropOp42
 70
     1
102
RTVSPost2010Prop43
 90
        3
102
RTVSPost2010PropOp43
 70
     1
102
RTVSPost2010Prop44ColorIndex
 90
        5
102
RTVSPost2010Prop44ColorRGB
 90
      255
102
RTVSPost2010PropOp44
 70
     1
102
RTVSPost2010Prop45
280
     0
102
RTVSPost2010PropOp45
 70
     1
102
RTVSPost2010Prop46
 90
       50
102
RTVSPost2010PropOp46
 70
     1
102
RTVSPost2010Prop47
 90
       50
102
RTVSPost2010PropOp47
 70
     1
102
RTVSPost2010Prop48
 90
       50
102
RTVSPost2010PropOp48
 70
     1
102
RTVSPost2010Prop49
280
     0
102
RTVSPost2010PropOp49
 70
     1
102
RTVSPost2010Prop50
 90
       50
102
RTVSPost2010PropOp50
 70
     1
102
RTVSPost2010Prop51ColorIndex
 90
      256
102
RTVSPost2010Prop51ColorRGB
 90
-16777216
102
RTVSPost2010PropOp51
 70
     0
102
RTVSPost2010Prop52
140
1.0
102
RTVSPost2010PropOp52
 70
     0
102
RTVSPost2010Prop53
 90
        2
102
RTVSPost2010PropOp53
 70
     1
102
RTVSPost2010Prop54
  1
strokes_ogs.tif
102
RTVSPost2010PropOp54
 70
     1
102
RTVSPost2010Prop55
280
     0
102
RTVSPost2010PropOp55
 70
     1
102
RTVSPost2010Prop56
140
1.0
102
RTVSPost2010PropOp56
 70
     1
102
RTVSPost2010Prop57
140
1.0
102
RTVSPost2010PropOp57
 70
     1
102
RTVSPropertyOp0
 70
     1
102
RTVSPropertyOp1
 70
     1
102
RTVSPropertyOp2
 70
     1
102
RTVSPropertyOp3
 70
     1
102
RTVSPropertyOp4
 70
     1
102
RTVSPropertyOp5
 70
     1
102
RTVSPropertyOp6
 70
     1
102
RTVSPropertyOp7
 70
     1
102
RTVSPropertyOp8
 70
     1
102
RTVSPropertyOp9
 70
     1
102
RTVSPropertyOp10
 70
     1
102
RTVSPropertyOp11
 70
     1
102
RTVSPropertyOp12
 70
     1
102
RTVSPropertyOp13
 70
     1
102
RTVSPropertyOp14
 70
     1
102
RTVSPropertyOp15
 70
     1
102
RTVSPropertyOp16
 70
     1
102
RTVSPropertyOp17
 70
     1
102
RTVSPropertyOp18
 70
     1
102
RTVSPropertyOp19
 70
     1
102
RTVSPropertyOp20
 70
     1
102
RTVSPropertyOp21
 70
     1
102
RTVSPropertyOp22
 70
     1
102
RTVSPropertyOp23
 70
     1
102
RTVSPropertyOp24
 70
     1
102
RTVSPropertyOp25
 70
     1
102
RTVSPropertyOp26
 70
     1
102
RTVSPropertyOp27
 70
     1
102
RTVSPropertyOp28
 70
     1
102
RTVSPropertyOp29
 70
     1
102
RTVSPropertyOp30
 70
     1
102
RTVSPropertyOp31
 70
     1
102
RTVSPropertyOp32
 70
     1
102
RTVSPropertyOp33
 70
     1
102
RTVSPropertyOp34
 70
     1
102
RTVSPropertyOp35
 70
     1
102
RTVSPropertyOp36
 70
     1
102
RTVSPropertyOp37
 70
     1
102
RTVSPropertyOp38
 70
     1
102
RTVSPropertyOp39
 70
     1
102
RTVSPropertyOp40
 70
     1
102
RTVSPropertyOp41
 70
     1
102
RTVSPropertyOp42
 70
     1
102
RTVSPropertyOp43
 70
     1
102
RTVSPropertyOp44
 70
     1
102
RTVSPropertyOp45
 70
     1
102
RTVSPropertyOp46
 70
     1
102
RTVSPropertyOp47
 70
     1
102
RTVSPropertyOp48
 70
     1
102
RTVSPropertyOp49
 70
     1
102
RTVSPropertyOp50
 70
     1
102
RTVSPropertyOp51
 70
     0
102
RTVSPropertyOp52
 70
     0
102
RTVSPropertyOp53
 70
     1
102
RTVSPropertyOp54
 70
     1
102
RTVSPropertyOp55
 70
     1
102
RTVSPropertyOp56
 70
     1
102
RTVSPropertyOp57
 70
     1
102
RTVSPropertyOp58
 70
     1
102
RTVSPropertyOp59
 70
     1
102
RTVSPropertyOp60
 70
     1
102
RTVSPropertyOp61
 70
     1
102
RTVSPropertyOp62
 70
     1
  0
XRECORD
  5
11B36
102
{ACAD_REACTORS
330
11B35
102
}
330
11B35
100
AcDbXrecord
280
     1
102
RTVSPost2010Prop28
280
     0
102
RTVSPost2010PropOp28
 70
     1
102
RTVSPost2010Prop29
280
     1
102
RTVSPost2010PropOp29
 70
     1
102
RTVSPost2010Prop30
280
     1
102
RTVSPost2010PropOp30
 70
     1
102
RTVSPost2010Prop31
280
     0
102
RTVSPost2010PropOp31
 70
     1
102
RTVSPost2010Prop32
280
     0
102
RTVSPost2010PropOp32
 70
     1
102
RTVSPost2010Prop33
280
     0
102
RTVSPost2010PropOp33
 70
     1
102
RTVSPost2010Prop34
280
     0
102
RTVSPost2010PropOp34
 70
     1
102
RTVSPost2010Prop35
280
     0
102
RTVSPost2010PropOp35
 70
     1
102
RTVSPost2010Prop36
280
     0
102
RTVSPost2010PropOp36
 70
     1
102
RTVSPost2010Prop37
 90
       50
102
RTVSPost2010PropOp37
 70
     1
102
RTVSPost2010Prop38
140
0.0
102
RTVSPost2010PropOp38
 70
     1
102
RTVSPost2010Prop39
140
1.0
102
RTVSPost2010PropOp39
 70
     1
102
RTVSPost2010Prop40
 90
        0
102
RTVSPost2010PropOp40
 70
     1
102
RTVSPost2010Prop41ColorIndex
 90
       18
102
RTVSPost2010Prop41ColorRGB
 90
        0
102
RTVSPost2010PropOp41
 70
     1
102
RTVSPost2010Prop42
 90
       50
102
RTVSPost2010PropOp42
 70
     1
102
RTVSPost2010Prop43
 90
        3
102
RTVSPost2010PropOp43
 70
     1
102
RTVSPost2010Prop44ColorIndex
 90
        5
102
RTVSPost2010Prop44ColorRGB
 90
      255
102
RTVSPost2010PropOp44
 70
     1
102
RTVSPost2010Prop45
280
     0
102
RTVSPost2010PropOp45
 70
     1
102
RTVSPost2010Prop46
 90
       50
102
RTVSPost2010PropOp46
 70
     1
102
RTVSPost2010Prop47
 90
       50
102
RTVSPost2010PropOp47
 70
     1
102
RTVSPost2010Prop48
 90
       50
102
RTVSPost2010PropOp48
 70
     1
102
RTVSPost2010Prop49
280
     0
102
RTVSPost2010PropOp49
 70
     1
102
RTVSPost2010Prop50
 90
       50
102
RTVSPost2010PropOp50
 70
     1
102
RTVSPost2010Prop51ColorIndex
 90
      256
102
RTVSPost2010Prop51ColorRGB
 90
-16777216
102
RTVSPost2010PropOp51
 70
     0
102
RTVSPost2010Prop52
140
1.0
102
RTVSPost2010PropOp52
 70
     0
102
RTVSPost2010Prop53
 90
        2
102
RTVSPost2010PropOp53
 70
     1
102
RTVSPost2010Prop54
  1
strokes_ogs.tif
102
RTVSPost2010PropOp54
 70
     1
102
RTVSPost2010Prop55
280
     0
102
RTVSPost2010PropOp55
 70
     1
102
RTVSPost2010Prop56
140
1.0
102
RTVSPost2010PropOp56
 70
     1
102
RTVSPost2010Prop57
140
1.0
102
RTVSPost2010PropOp57
 70
     1
102
RTVSPropertyOp0
 70
     1
102
RTVSPropertyOp1
 70
     1
102
RTVSPropertyOp2
 70
     1
102
RTVSPropertyOp3
 70
     1
102
RTVSPropertyOp4
 70
     1
102
RTVSPropertyOp5
 70
     1
102
RTVSPropertyOp6
 70
     1
102
RTVSPropertyOp7
 70
     1
102
RTVSPropertyOp8
 70
     1
102
RTVSPropertyOp9
 70
     1
102
RTVSPropertyOp10
 70
     1
102
RTVSPropertyOp11
 70
     1
102
RTVSPropertyOp12
 70
     1
102
RTVSPropertyOp13
 70
     1
102
RTVSPropertyOp14
 70
     1
102
RTVSPropertyOp15
 70
     1
102
RTVSPropertyOp16
 70
     1
102
RTVSPropertyOp17
 70
     1
102
RTVSPropertyOp18
 70
     1
102
RTVSPropertyOp19
 70
     1
102
RTVSPropertyOp20
 70
     1
102
RTVSPropertyOp21
 70
     1
102
RTVSPropertyOp22
 70
     1
102
RTVSPropertyOp23
 70
     1
102
RTVSPropertyOp24
 70
     1
102
RTVSPropertyOp25
 70
     1
102
RTVSPropertyOp26
 70
     1
102
RTVSPropertyOp27
 70
     1
102
RTVSPropertyOp28
 70
     1
102
RTVSPropertyOp29
 70
     1
102
RTVSPropertyOp30
 70
     1
102
RTVSPropertyOp31
 70
     1
102
RTVSPropertyOp32
 70
     1
102
RTVSPropertyOp33
 70
     1
102
RTVSPropertyOp34
 70
     1
102
RTVSPropertyOp35
 70
     1
102
RTVSPropertyOp36
 70
     1
102
RTVSPropertyOp37
 70
     1
102
RTVSPropertyOp38
 70
     1
102
RTVSPropertyOp39
 70
     1
102
RTVSPropertyOp40
 70
     1
102
RTVSPropertyOp41
 70
     1
102
RTVSPropertyOp42
 70
     1
102
RTVSPropertyOp43
 70
     1
102
RTVSPropertyOp44
 70
     1
102
RTVSPropertyOp45
 70
     1
102
RTVSPropertyOp46
 70
     1
102
RTVSPropertyOp47
 70
     1
102
RTVSPropertyOp48
 70
     1
102
RTVSPropertyOp49
 70
     1
102
RTVSPropertyOp50
 70
     1
102
RTVSPropertyOp51
 70
     0
102
RTVSPropertyOp52
 70
     0
102
RTVSPropertyOp53
 70
     1
102
RTVSPropertyOp54
 70
     1
102
RTVSPropertyOp55
 70
     1
102
RTVSPropertyOp56
 70
     1
102
RTVSPropertyOp57
 70
     1
102
RTVSPropertyOp58
 70
     1
102
RTVSPropertyOp59
 70
     1
102
RTVSPropertyOp60
 70
     1
102
RTVSPropertyOp61
 70
     1
102
RTVSPropertyOp62
 70
     1
  0
XRECORD
  5
11B3A
102
{ACAD_REACTORS
330
11B39
102
}
330
11B39
100
AcDbXrecord
280
     1
102
RTVSPost2010Prop28
280
     0
102
RTVSPost2010PropOp28
 70
     1
102
RTVSPost2010Prop29
280
     1
102
RTVSPost2010PropOp29
 70
     1
102
RTVSPost2010Prop30
280
     1
102
RTVSPost2010PropOp30
 70
     1
102
RTVSPost2010Prop31
280
     0
102
RTVSPost2010PropOp31
 70
     1
102
RTVSPost2010Prop32
280
     0
102
RTVSPost2010PropOp32
 70
     1
102
RTVSPost2010Prop33
280
     0
102
RTVSPost2010PropOp33
 70
     1
102
RTVSPost2010Prop34
280
     0
102
RTVSPost2010PropOp34
 70
     1
102
RTVSPost2010Prop35
280
     0
102
RTVSPost2010PropOp35
 70
     1
102
RTVSPost2010Prop36
280
     0
102
RTVSPost2010PropOp36
 70
     1
102
RTVSPost2010Prop37
 90
       50
102
RTVSPost2010PropOp37
 70
     1
102
RTVSPost2010Prop38
140
0.0
102
RTVSPost2010PropOp38
 70
     1
102
RTVSPost2010Prop39
140
1.0
102
RTVSPost2010PropOp39
 70
     1
102
RTVSPost2010Prop40
 90
        0
102
RTVSPost2010PropOp40
 70
     1
102
RTVSPost2010Prop41ColorIndex
 90
       18
102
RTVSPost2010Prop41ColorRGB
 90
        0
102
RTVSPost2010PropOp41
 70
     1
102
RTVSPost2010Prop42
 90
       50
102
RTVSPost2010PropOp42
 70
     1
102
RTVSPost2010Prop43
 90
        3
102
RTVSPost2010PropOp43
 70
     1
102
RTVSPost2010Prop44ColorIndex
 90
        5
102
RTVSPost2010Prop44ColorRGB
 90
      255
102
RTVSPost2010PropOp44
 70
     1
102
RTVSPost2010Prop45
280
     0
102
RTVSPost2010PropOp45
 70
     1
102
RTVSPost2010Prop46
 90
       50
102
RTVSPost2010PropOp46
 70
     1
102
RTVSPost2010Prop47
 90
       50
102
RTVSPost2010PropOp47
 70
     1
102
RTVSPost2010Prop48
 90
       50
102
RTVSPost2010PropOp48
 70
     1
102
RTVSPost2010Prop49
280
     0
102
RTVSPost2010PropOp49
 70
     1
102
RTVSPost2010Prop50
 90
       50
102
RTVSPost2010PropOp50
 70
     1
102
RTVSPost2010Prop51ColorIndex
 90
      256
102
RTVSPost2010Prop51ColorRGB
 90
-16777216
102
RTVSPost2010PropOp51
 70
     0
102
RTVSPost2010Prop52
140
1.0
102
RTVSPost2010PropOp52
 70
     0
102
RTVSPost2010Prop53
 90
        2
102
RTVSPost2010PropOp53
 70
     1
102
RTVSPost2010Prop54
  1
strokes_ogs.tif
102
RTVSPost2010PropOp54
 70
     1
102
RTVSPost2010Prop55
280
     0
102
RTVSPost2010PropOp55
 70
     1
102
RTVSPost2010Prop56
140
1.0
102
RTVSPost2010PropOp56
 70
     1
102
RTVSPost2010Prop57
140
1.0
102
RTVSPost2010PropOp57
 70
     1
102
RTVSPropertyOp0
 70
     1
102
RTVSPropertyOp1
 70
     1
102
RTVSPropertyOp2
 70
     1
102
RTVSPropertyOp3
 70
     1
102
RTVSPropertyOp4
 70
     1
102
RTVSPropertyOp5
 70
     1
102
RTVSPropertyOp6
 70
     1
102
RTVSPropertyOp7
 70
     1
102
RTVSPropertyOp8
 70
     1
102
RTVSPropertyOp9
 70
     1
102
RTVSPropertyOp10
 70
     1
102
RTVSPropertyOp11
 70
     1
102
RTVSPropertyOp12
 70
     1
102
RTVSPropertyOp13
 70
     1
102
RTVSPropertyOp14
 70
     1
102
RTVSPropertyOp15
 70
     1
102
RTVSPropertyOp16
 70
     1
102
RTVSPropertyOp17
 70
     1
102
RTVSPropertyOp18
 70
     1
102
RTVSPropertyOp19
 70
     1
102
RTVSPropertyOp20
 70
     1
102
RTVSPropertyOp21
 70
     1
102
RTVSPropertyOp22
 70
     1
102
RTVSPropertyOp23
 70
     1
102
RTVSPropertyOp24
 70
     1
102
RTVSPropertyOp25
 70
     1
102
RTVSPropertyOp26
 70
     1
102
RTVSPropertyOp27
 70
     1
102
RTVSPropertyOp28
 70
     1
102
RTVSPropertyOp29
 70
     1
102
RTVSPropertyOp30
 70
     1
102
RTVSPropertyOp31
 70
     1
102
RTVSPropertyOp32
 70
     1
102
RTVSPropertyOp33
 70
     1
102
RTVSPropertyOp34
 70
     1
102
RTVSPropertyOp35
 70
     1
102
RTVSPropertyOp36
 70
     1
102
RTVSPropertyOp37
 70
     1
102
RTVSPropertyOp38
 70
     1
102
RTVSPropertyOp39
 70
     1
102
RTVSPropertyOp40
 70
     1
102
RTVSPropertyOp41
 70
     1
102
RTVSPropertyOp42
 70
     1
102
RTVSPropertyOp43
 70
     1
102
RTVSPropertyOp44
 70
     1
102
RTVSPropertyOp45
 70
     1
102
RTVSPropertyOp46
 70
     1
102
RTVSPropertyOp47
 70
     1
102
RTVSPropertyOp48
 70
     1
102
RTVSPropertyOp49
 70
     1
102
RTVSPropertyOp50
 70
     1
102
RTVSPropertyOp51
 70
     0
102
RTVSPropertyOp52
 70
     0
102
RTVSPropertyOp53
 70
     1
102
RTVSPropertyOp54
 70
     1
102
RTVSPropertyOp55
 70
     1
102
RTVSPropertyOp56
 70
     1
102
RTVSPropertyOp57
 70
     1
102
RTVSPropertyOp58
 70
     1
102
RTVSPropertyOp59
 70
     1
102
RTVSPropertyOp60
 70
     1
102
RTVSPropertyOp61
 70
     1
102
RTVSPropertyOp62
 70
     1
  0
XRECORD
  5
11B4C
102
{ACAD_REACTORS
330
11B4B
102
}
330
11B4B
100
AcDbXrecord
280
     1
102
RTVSPost2010Prop28
280
     0
102
RTVSPost2010PropOp28
 70
     1
102
RTVSPost2010Prop29
280
     1
102
RTVSPost2010PropOp29
 70
     1
102
RTVSPost2010Prop30
280
     1
102
RTVSPost2010PropOp30
 70
     1
102
RTVSPost2010Prop31
280
     0
102
RTVSPost2010PropOp31
 70
     1
102
RTVSPost2010Prop32
280
     0
102
RTVSPost2010PropOp32
 70
     1
102
RTVSPost2010Prop33
280
     0
102
RTVSPost2010PropOp33
 70
     1
102
RTVSPost2010Prop34
280
     0
102
RTVSPost2010PropOp34
 70
     1
102
RTVSPost2010Prop35
280
     0
102
RTVSPost2010PropOp35
 70
     1
102
RTVSPost2010Prop36
280
     0
102
RTVSPost2010PropOp36
 70
     1
102
RTVSPost2010Prop37
 90
       50
102
RTVSPost2010PropOp37
 70
     1
102
RTVSPost2010Prop38
140
0.0
102
RTVSPost2010PropOp38
 70
     1
102
RTVSPost2010Prop39
140
1.0
102
RTVSPost2010PropOp39
 70
     1
102
RTVSPost2010Prop40
 90
        0
102
RTVSPost2010PropOp40
 70
     1
102
RTVSPost2010Prop41ColorIndex
 90
       18
102
RTVSPost2010Prop41ColorRGB
 90
        0
102
RTVSPost2010PropOp41
 70
     1
102
RTVSPost2010Prop42
 90
       50
102
RTVSPost2010PropOp42
 70
     1
102
RTVSPost2010Prop43
 90
        3
102
RTVSPost2010PropOp43
 70
     1
102
RTVSPost2010Prop44ColorIndex
 90
        5
102
RTVSPost2010Prop44ColorRGB
 90
      255
102
RTVSPost2010PropOp44
 70
     1
102
RTVSPost2010Prop45
280
     0
102
RTVSPost2010PropOp45
 70
     1
102
RTVSPost2010Prop46
 90
       50
102
RTVSPost2010PropOp46
 70
     1
102
RTVSPost2010Prop47
 90
       50
102
RTVSPost2010PropOp47
 70
     1
102
RTVSPost2010Prop48
 90
       50
102
RTVSPost2010PropOp48
 70
     1
102
RTVSPost2010Prop49
280
     0
102
RTVSPost2010PropOp49
 70
     1
102
RTVSPost2010Prop50
 90
       50
102
RTVSPost2010PropOp50
 70
     1
102
RTVSPost2010Prop51ColorIndex
 90
      256
102
RTVSPost2010Prop51ColorRGB
 90
-16777216
102
RTVSPost2010PropOp51
 70
     0
102
RTVSPost2010Prop52
140
1.0
102
RTVSPost2010PropOp52
 70
     0
102
RTVSPost2010Prop53
 90
        2
102
RTVSPost2010PropOp53
 70
     1
102
RTVSPost2010Prop54
  1
strokes_ogs.tif
102
RTVSPost2010PropOp54
 70
     1
102
RTVSPost2010Prop55
280
     0
102
RTVSPost2010PropOp55
 70
     1
102
RTVSPost2010Prop56
140
1.0
102
RTVSPost2010PropOp56
 70
     1
102
RTVSPost2010Prop57
140
1.0
102
RTVSPost2010PropOp57
 70
     1
102
RTVSPropertyOp0
 70
     0
102
RTVSPropertyOp1
 70
     0
102
RTVSPropertyOp2
 70
     0
102
RTVSPropertyOp3
 70
     0
102
RTVSPropertyOp4
 70
     0
102
RTVSPropertyOp5
 70
     0
102
RTVSPropertyOp6
 70
     0
102
RTVSPropertyOp7
 70
     0
102
RTVSPropertyOp8
 70
     0
102
RTVSPropertyOp9
 70
     0
102
RTVSPropertyOp10
 70
     0
102
RTVSPropertyOp11
 70
     0
102
RTVSPropertyOp12
 70
     0
102
RTVSPropertyOp13
 70
     0
102
RTVSPropertyOp14
 70
     2
102
RTVSPropertyOp15
 70
     0
102
RTVSPropertyOp16
 70
     0
102
RTVSPropertyOp17
 70
     0
102
RTVSPropertyOp18
 70
     0
102
RTVSPropertyOp19
 70
     0
102
RTVSPropertyOp20
 70
     0
102
RTVSPropertyOp21
 70
     0
102
RTVSPropertyOp22
 70
     0
102
RTVSPropertyOp23
 70
     0
102
RTVSPropertyOp24
 70
     0
102
RTVSPropertyOp25
 70
     0
102
RTVSPropertyOp26
 70
     0
102
RTVSPropertyOp27
 70
     0
102
RTVSPropertyOp28
 70
     1
102
RTVSPropertyOp29
 70
     1
102
RTVSPropertyOp30
 70
     1
102
RTVSPropertyOp31
 70
     1
102
RTVSPropertyOp32
 70
     1
102
RTVSPropertyOp33
 70
     1
102
RTVSPropertyOp34
 70
     1
102
RTVSPropertyOp35
 70
     1
102
RTVSPropertyOp36
 70
     1
102
RTVSPropertyOp37
 70
     1
102
RTVSPropertyOp38
 70
     1
102
RTVSPropertyOp39
 70
     1
102
RTVSPropertyOp40
 70
     1
102
RTVSPropertyOp41
 70
     1
102
RTVSPropertyOp42
 70
     1
102
RTVSPropertyOp43
 70
     1
102
RTVSPropertyOp44
 70
     1
102
RTVSPropertyOp45
 70
     1
102
RTVSPropertyOp46
 70
     1
102
RTVSPropertyOp47
 70
     1
102
RTVSPropertyOp48
 70
     1
102
RTVSPropertyOp49
 70
     1
102
RTVSPropertyOp50
 70
     1
102
RTVSPropertyOp51
 70
     0
102
RTVSPropertyOp52
 70
     0
102
RTVSPropertyOp53
 70
     1
102
RTVSPropertyOp54
 70
     1
102
RTVSPropertyOp55
 70
     1
102
RTVSPropertyOp56
 70
     1
102
RTVSPropertyOp57
 70
     1
102
RTVSPropertyOp58
 70
     1
102
RTVSPropertyOp59
 70
     1
102
RTVSPropertyOp60
 70
     1
102
RTVSPropertyOp61
 70
     1
102
RTVSPropertyOp62
 70
     1
  0
XRECORD
  5
11B42
102
{ACAD_REACTORS
330
11B41
102
}
330
11B41
100
AcDbXrecord
280
     1
102
RTVSPost2010Prop28
280
     0
102
RTVSPost2010PropOp28
 70
     1
102
RTVSPost2010Prop29
280
     1
102
RTVSPost2010PropOp29
 70
     1
102
RTVSPost2010Prop30
280
     1
102
RTVSPost2010PropOp30
 70
     1
102
RTVSPost2010Prop31
280
     0
102
RTVSPost2010PropOp31
 70
     1
102
RTVSPost2010Prop32
280
     0
102
RTVSPost2010PropOp32
 70
     1
102
RTVSPost2010Prop33
280
     0
102
RTVSPost2010PropOp33
 70
     1
102
RTVSPost2010Prop34
280
     0
102
RTVSPost2010PropOp34
 70
     1
102
RTVSPost2010Prop35
280
     0
102
RTVSPost2010PropOp35
 70
     1
102
RTVSPost2010Prop36
280
     0
102
RTVSPost2010PropOp36
 70
     1
102
RTVSPost2010Prop37
 90
       50
102
RTVSPost2010PropOp37
 70
     1
102
RTVSPost2010Prop38
140
0.0
102
RTVSPost2010PropOp38
 70
     1
102
RTVSPost2010Prop39
140
1.0
102
RTVSPost2010PropOp39
 70
     1
102
RTVSPost2010Prop40
 90
        0
102
RTVSPost2010PropOp40
 70
     1
102
RTVSPost2010Prop41ColorIndex
 90
       18
102
RTVSPost2010Prop41ColorRGB
 90
        0
102
RTVSPost2010PropOp41
 70
     1
102
RTVSPost2010Prop42
 90
       50
102
RTVSPost2010PropOp42
 70
     1
102
RTVSPost2010Prop43
 90
        3
102
RTVSPost2010PropOp43
 70
     1
102
RTVSPost2010Prop44ColorIndex
 90
        5
102
RTVSPost2010Prop44ColorRGB
 90
      255
102
RTVSPost2010PropOp44
 70
     1
102
RTVSPost2010Prop45
280
     0
102
RTVSPost2010PropOp45
 70
     1
102
RTVSPost2010Prop46
 90
       50
102
RTVSPost2010PropOp46
 70
     1
102
RTVSPost2010Prop47
 90
       50
102
RTVSPost2010PropOp47
 70
     1
102
RTVSPost2010Prop48
 90
       50
102
RTVSPost2010PropOp48
 70
     1
102
RTVSPost2010Prop49
280
     0
102
RTVSPost2010PropOp49
 70
     1
102
RTVSPost2010Prop50
 90
       50
102
RTVSPost2010PropOp50
 70
     1
102
RTVSPost2010Prop51ColorIndex
 90
      256
102
RTVSPost2010Prop51ColorRGB
 90
-16777216
102
RTVSPost2010PropOp51
 70
     0
102
RTVSPost2010Prop52
140
1.0
102
RTVSPost2010PropOp52
 70
     0
102
RTVSPost2010Prop53
 90
        2
102
RTVSPost2010PropOp53
 70
     1
102
RTVSPost2010Prop54
  1
strokes_ogs.tif
102
RTVSPost2010PropOp54
 70
     1
102
RTVSPost2010Prop55
280
     0
102
RTVSPost2010PropOp55
 70
     1
102
RTVSPost2010Prop56
140
1.0
102
RTVSPost2010PropOp56
 70
     1
102
RTVSPost2010Prop57
140
1.0
102
RTVSPost2010PropOp57
 70
     1
102
RTVSPropertyOp0
 70
     1
102
RTVSPropertyOp1
 70
     1
102
RTVSPropertyOp2
 70
     1
102
RTVSPropertyOp3
 70
     1
102
RTVSPropertyOp4
 70
     1
102
RTVSPropertyOp5
 70
     1
102
RTVSPropertyOp6
 70
     1
102
RTVSPropertyOp7
 70
     1
102
RTVSPropertyOp8
 70
     1
102
RTVSPropertyOp9
 70
     1
102
RTVSPropertyOp10
 70
     1
102
RTVSPropertyOp11
 70
     1
102
RTVSPropertyOp12
 70
     1
102
RTVSPropertyOp13
 70
     1
102
RTVSPropertyOp14
 70
     1
102
RTVSPropertyOp15
 70
     1
102
RTVSPropertyOp16
 70
     1
102
RTVSPropertyOp17
 70
     1
102
RTVSPropertyOp18
 70
     1
102
RTVSPropertyOp19
 70
     1
102
RTVSPropertyOp20
 70
     1
102
RTVSPropertyOp21
 70
     1
102
RTVSPropertyOp22
 70
     1
102
RTVSPropertyOp23
 70
     1
102
RTVSPropertyOp24
 70
     1
102
RTVSPropertyOp25
 70
     1
102
RTVSPropertyOp26
 70
     1
102
RTVSPropertyOp27
 70
     1
102
RTVSPropertyOp28
 70
     1
102
RTVSPropertyOp29
 70
     1
102
RTVSPropertyOp30
 70
     1
102
RTVSPropertyOp31
 70
     1
102
RTVSPropertyOp32
 70
     1
102
RTVSPropertyOp33
 70
     1
102
RTVSPropertyOp34
 70
     1
102
RTVSPropertyOp35
 70
     1
102
RTVSPropertyOp36
 70
     1
102
RTVSPropertyOp37
 70
     1
102
RTVSPropertyOp38
 70
     1
102
RTVSPropertyOp39
 70
     1
102
RTVSPropertyOp40
 70
     1
102
RTVSPropertyOp41
 70
     1
102
RTVSPropertyOp42
 70
     1
102
RTVSPropertyOp43
 70
     1
102
RTVSPropertyOp44
 70
     1
102
RTVSPropertyOp45
 70
     1
102
RTVSPropertyOp46
 70
     1
102
RTVSPropertyOp47
 70
     1
102
RTVSPropertyOp48
 70
     1
102
RTVSPropertyOp49
 70
     1
102
RTVSPropertyOp50
 70
     1
102
RTVSPropertyOp51
 70
     0
102
RTVSPropertyOp52
 70
     0
102
RTVSPropertyOp53
 70
     1
102
RTVSPropertyOp54
 70
     1
102
RTVSPropertyOp55
 70
     1
102
RTVSPropertyOp56
 70
     1
102
RTVSPropertyOp57
 70
     1
102
RTVSPropertyOp58
 70
     1
102
RTVSPropertyOp59
 70
     1
102
RTVSPropertyOp60
 70
     1
102
RTVSPropertyOp61
 70
     1
102
RTVSPropertyOp62
 70
     1
  0
XRECORD
  5
11B26
102
{ACAD_REACTORS
330
11B25
102
}
330
11B25
100
AcDbXrecord
280
     1
102
RTVSPost2010Prop28
280
     0
102
RTVSPost2010PropOp28
 70
     1
102
RTVSPost2010Prop29
280
     1
102
RTVSPost2010PropOp29
 70
     1
102
RTVSPost2010Prop30
280
     1
102
RTVSPost2010PropOp30
 70
     1
102
RTVSPost2010Prop31
280
     0
102
RTVSPost2010PropOp31
 70
     1
102
RTVSPost2010Prop32
280
     0
102
RTVSPost2010PropOp32
 70
     1
102
RTVSPost2010Prop33
280
     0
102
RTVSPost2010PropOp33
 70
     1
102
RTVSPost2010Prop34
280
     0
102
RTVSPost2010PropOp34
 70
     1
102
RTVSPost2010Prop35
280
     0
102
RTVSPost2010PropOp35
 70
     1
102
RTVSPost2010Prop36
280
     0
102
RTVSPost2010PropOp36
 70
     1
102
RTVSPost2010Prop37
 90
       50
102
RTVSPost2010PropOp37
 70
     1
102
RTVSPost2010Prop38
140
0.0
102
RTVSPost2010PropOp38
 70
     1
102
RTVSPost2010Prop39
140
1.0
102
RTVSPost2010PropOp39
 70
     1
102
RTVSPost2010Prop40
 90
        0
102
RTVSPost2010PropOp40
 70
     1
102
RTVSPost2010Prop41ColorIndex
 90
       18
102
RTVSPost2010Prop41ColorRGB
 90
        0
102
RTVSPost2010PropOp41
 70
     1
102
RTVSPost2010Prop42
 90
       50
102
RTVSPost2010PropOp42
 70
     1
102
RTVSPost2010Prop43
 90
        3
102
RTVSPost2010PropOp43
 70
     1
102
RTVSPost2010Prop44ColorIndex
 90
        5
102
RTVSPost2010Prop44ColorRGB
 90
      255
102
RTVSPost2010PropOp44
 70
     1
102
RTVSPost2010Prop45
280
     0
102
RTVSPost2010PropOp45
 70
     1
102
RTVSPost2010Prop46
 90
       50
102
RTVSPost2010PropOp46
 70
     1
102
RTVSPost2010Prop47
 90
       50
102
RTVSPost2010PropOp47
 70
     1
102
RTVSPost2010Prop48
 90
       50
102
RTVSPost2010PropOp48
 70
     1
102
RTVSPost2010Prop49
280
     0
102
RTVSPost2010PropOp49
 70
     1
102
RTVSPost2010Prop50
 90
       50
102
RTVSPost2010PropOp50
 70
     1
102
RTVSPost2010Prop51ColorIndex
 90
      256
102
RTVSPost2010Prop51ColorRGB
 90
-16777216
102
RTVSPost2010PropOp51
 70
     0
102
RTVSPost2010Prop52
140
1.0
102
RTVSPost2010PropOp52
 70
     0
102
RTVSPost2010Prop53
 90
        2
102
RTVSPost2010PropOp53
 70
     1
102
RTVSPost2010Prop54
  1
strokes_ogs.tif
102
RTVSPost2010PropOp54
 70
     1
102
RTVSPost2010Prop55
280
     0
102
RTVSPost2010PropOp55
 70
     1
102
RTVSPost2010Prop56
140
1.0
102
RTVSPost2010PropOp56
 70
     1
102
RTVSPost2010Prop57
140
1.0
102
RTVSPost2010PropOp57
 70
     1
102
RTVSPropertyOp0
 70
     1
102
RTVSPropertyOp1
 70
     1
102
RTVSPropertyOp2
 70
     1
102
RTVSPropertyOp3
 70
     1
102
RTVSPropertyOp4
 70
     1
102
RTVSPropertyOp5
 70
     1
102
RTVSPropertyOp6
 70
     1
102
RTVSPropertyOp7
 70
     1
102
RTVSPropertyOp8
 70
     1
102
RTVSPropertyOp9
 70
     1
102
RTVSPropertyOp10
 70
     1
102
RTVSPropertyOp11
 70
     1
102
RTVSPropertyOp12
 70
     1
102
RTVSPropertyOp13
 70
     1
102
RTVSPropertyOp14
 70
     1
102
RTVSPropertyOp15
 70
     1
102
RTVSPropertyOp16
 70
     1
102
RTVSPropertyOp17
 70
     1
102
RTVSPropertyOp18
 70
     1
102
RTVSPropertyOp19
 70
     1
102
RTVSPropertyOp20
 70
     1
102
RTVSPropertyOp21
 70
     1
102
RTVSPropertyOp22
 70
     1
102
RTVSPropertyOp23
 70
     1
102
RTVSPropertyOp24
 70
     1
102
RTVSPropertyOp25
 70
     1
102
RTVSPropertyOp26
 70
     1
102
RTVSPropertyOp27
 70
     1
102
RTVSPropertyOp28
 70
     1
102
RTVSPropertyOp29
 70
     1
102
RTVSPropertyOp30
 70
     1
102
RTVSPropertyOp31
 70
     1
102
RTVSPropertyOp32
 70
     1
102
RTVSPropertyOp33
 70
     1
102
RTVSPropertyOp34
 70
     1
102
RTVSPropertyOp35
 70
     1
102
RTVSPropertyOp36
 70
     1
102
RTVSPropertyOp37
 70
     1
102
RTVSPropertyOp38
 70
     1
102
RTVSPropertyOp39
 70
     1
102
RTVSPropertyOp40
 70
     1
102
RTVSPropertyOp41
 70
     1
102
RTVSPropertyOp42
 70
     1
102
RTVSPropertyOp43
 70
     1
102
RTVSPropertyOp44
 70
     1
102
RTVSPropertyOp45
 70
     1
102
RTVSPropertyOp46
 70
     1
102
RTVSPropertyOp47
 70
     1
102
RTVSPropertyOp48
 70
     1
102
RTVSPropertyOp49
 70
     1
102
RTVSPropertyOp50
 70
     1
102
RTVSPropertyOp51
 70
     0
102
RTVSPropertyOp52
 70
     0
102
RTVSPropertyOp53
 70
     1
102
RTVSPropertyOp54
 70
     1
102
RTVSPropertyOp55
 70
     1
102
RTVSPropertyOp56
 70
     1
102
RTVSPropertyOp57
 70
     1
102
RTVSPropertyOp58
 70
     1
102
RTVSPropertyOp59
 70
     1
102
RTVSPropertyOp60
 70
     1
102
RTVSPropertyOp61
 70
     1
102
RTVSPropertyOp62
 70
     1
  0
XRECORD
  5
11B28
102
{ACAD_REACTORS
330
11B27
102
}
330
11B27
100
AcDbXrecord
280
     1
102
RTVSPost2010Prop28
280
     0
102
RTVSPost2010PropOp28
 70
     1
102
RTVSPost2010Prop29
280
     1
102
RTVSPost2010PropOp29
 70
     1
102
RTVSPost2010Prop30
280
     1
102
RTVSPost2010PropOp30
 70
     1
102
RTVSPost2010Prop31
280
     0
102
RTVSPost2010PropOp31
 70
     1
102
RTVSPost2010Prop32
280
     0
102
RTVSPost2010PropOp32
 70
     1
102
RTVSPost2010Prop33
280
     0
102
RTVSPost2010PropOp33
 70
     1
102
RTVSPost2010Prop34
280
     0
102
RTVSPost2010PropOp34
 70
     1
102
RTVSPost2010Prop35
280
     0
102
RTVSPost2010PropOp35
 70
     1
102
RTVSPost2010Prop36
280
     0
102
RTVSPost2010PropOp36
 70
     1
102
RTVSPost2010Prop37
 90
       50
102
RTVSPost2010PropOp37
 70
     1
102
RTVSPost2010Prop38
140
0.0
102
RTVSPost2010PropOp38
 70
     1
102
RTVSPost2010Prop39
140
1.0
102
RTVSPost2010PropOp39
 70
     1
102
RTVSPost2010Prop40
 90
        0
102
RTVSPost2010PropOp40
 70
     1
102
RTVSPost2010Prop41ColorIndex
 90
       18
102
RTVSPost2010Prop41ColorRGB
 90
        0
102
RTVSPost2010PropOp41
 70
     1
102
RTVSPost2010Prop42
 90
       50
102
RTVSPost2010PropOp42
 70
     1
102
RTVSPost2010Prop43
 90
        3
102
RTVSPost2010PropOp43
 70
     1
102
RTVSPost2010Prop44ColorIndex
 90
        5
102
RTVSPost2010Prop44ColorRGB
 90
      255
102
RTVSPost2010PropOp44
 70
     1
102
RTVSPost2010Prop45
280
     0
102
RTVSPost2010PropOp45
 70
     1
102
RTVSPost2010Prop46
 90
       50
102
RTVSPost2010PropOp46
 70
     1
102
RTVSPost2010Prop47
 90
       50
102
RTVSPost2010PropOp47
 70
     1
102
RTVSPost2010Prop48
 90
       50
102
RTVSPost2010PropOp48
 70
     1
102
RTVSPost2010Prop49
280
     0
102
RTVSPost2010PropOp49
 70
     1
102
RTVSPost2010Prop50
 90
       50
102
RTVSPost2010PropOp50
 70
     1
102
RTVSPost2010Prop51ColorIndex
 90
      256
102
RTVSPost2010Prop51ColorRGB
 90
-16777216
102
RTVSPost2010PropOp51
 70
     0
102
RTVSPost2010Prop52
140
1.0
102
RTVSPost2010PropOp52
 70
     0
102
RTVSPost2010Prop53
 90
        2
102
RTVSPost2010PropOp53
 70
     1
102
RTVSPost2010Prop54
  1
strokes_ogs.tif
102
RTVSPost2010PropOp54
 70
     1
102
RTVSPost2010Prop55
280
     0
102
RTVSPost2010PropOp55
 70
     1
102
RTVSPost2010Prop56
140
1.0
102
RTVSPost2010PropOp56
 70
     1
102
RTVSPost2010Prop57
140
1.0
102
RTVSPost2010PropOp57
 70
     1
102
RTVSPropertyOp0
 70
     1
102
RTVSPropertyOp1
 70
     1
102
RTVSPropertyOp2
 70
     1
102
RTVSPropertyOp3
 70
     1
102
RTVSPropertyOp4
 70
     1
102
RTVSPropertyOp5
 70
     1
102
RTVSPropertyOp6
 70
     1
102
RTVSPropertyOp7
 70
     1
102
RTVSPropertyOp8
 70
     1
102
RTVSPropertyOp9
 70
     1
102
RTVSPropertyOp10
 70
     1
102
RTVSPropertyOp11
 70
     1
102
RTVSPropertyOp12
 70
     1
102
RTVSPropertyOp13
 70
     1
102
RTVSPropertyOp14
 70
     1
102
RTVSPropertyOp15
 70
     1
102
RTVSPropertyOp16
 70
     1
102
RTVSPropertyOp17
 70
     1
102
RTVSPropertyOp18
 70
     1
102
RTVSPropertyOp19
 70
     1
102
RTVSPropertyOp20
 70
     1
102
RTVSPropertyOp21
 70
     1
102
RTVSPropertyOp22
 70
     1
102
RTVSPropertyOp23
 70
     1
102
RTVSPropertyOp24
 70
     1
102
RTVSPropertyOp25
 70
     1
102
RTVSPropertyOp26
 70
     1
102
RTVSPropertyOp27
 70
     1
102
RTVSPropertyOp28
 70
     1
102
RTVSPropertyOp29
 70
     1
102
RTVSPropertyOp30
 70
     1
102
RTVSPropertyOp31
 70
     1
102
RTVSPropertyOp32
 70
     1
102
RTVSPropertyOp33
 70
     1
102
RTVSPropertyOp34
 70
     1
102
RTVSPropertyOp35
 70
     1
102
RTVSPropertyOp36
 70
     1
102
RTVSPropertyOp37
 70
     1
102
RTVSPropertyOp38
 70
     1
102
RTVSPropertyOp39
 70
     1
102
RTVSPropertyOp40
 70
     1
102
RTVSPropertyOp41
 70
     1
102
RTVSPropertyOp42
 70
     1
102
RTVSPropertyOp43
 70
     1
102
RTVSPropertyOp44
 70
     1
102
RTVSPropertyOp45
 70
     1
102
RTVSPropertyOp46
 70
     1
102
RTVSPropertyOp47
 70
     1
102
RTVSPropertyOp48
 70
     1
102
RTVSPropertyOp49
 70
     1
102
RTVSPropertyOp50
 70
     1
102
RTVSPropertyOp51
 70
     0
102
RTVSPropertyOp52
 70
     0
102
RTVSPropertyOp53
 70
     1
102
RTVSPropertyOp54
 70
     1
102
RTVSPropertyOp55
 70
     1
102
RTVSPropertyOp56
 70
     1
102
RTVSPropertyOp57
 70
     1
102
RTVSPropertyOp58
 70
     1
102
RTVSPropertyOp59
 70
     1
102
RTVSPropertyOp60
 70
     1
102
RTVSPropertyOp61
 70
     1
102
RTVSPropertyOp62
 70
     1
  0
XRECORD
  5
11B2A
102
{ACAD_REACTORS
330
11B29
102
}
330
11B29
100
AcDbXrecord
280
     1
102
RTVSPost2010Prop28
280
     0
102
RTVSPost2010PropOp28
 70
     1
102
RTVSPost2010Prop29
280
     1
102
RTVSPost2010PropOp29
 70
     1
102
RTVSPost2010Prop30
280
     1
102
RTVSPost2010PropOp30
 70
     1
102
RTVSPost2010Prop31
280
     0
102
RTVSPost2010PropOp31
 70
     1
102
RTVSPost2010Prop32
280
     0
102
RTVSPost2010PropOp32
 70
     1
102
RTVSPost2010Prop33
280
     0
102
RTVSPost2010PropOp33
 70
     1
102
RTVSPost2010Prop34
280
     0
102
RTVSPost2010PropOp34
 70
     1
102
RTVSPost2010Prop35
280
     0
102
RTVSPost2010PropOp35
 70
     1
102
RTVSPost2010Prop36
280
     0
102
RTVSPost2010PropOp36
 70
     1
102
RTVSPost2010Prop37
 90
       50
102
RTVSPost2010PropOp37
 70
     1
102
RTVSPost2010Prop38
140
0.0
102
RTVSPost2010PropOp38
 70
     1
102
RTVSPost2010Prop39
140
1.0
102
RTVSPost2010PropOp39
 70
     1
102
RTVSPost2010Prop40
 90
        0
102
RTVSPost2010PropOp40
 70
     1
102
RTVSPost2010Prop41ColorIndex
 90
       18
102
RTVSPost2010Prop41ColorRGB
 90
        0
102
RTVSPost2010PropOp41
 70
     1
102
RTVSPost2010Prop42
 90
       50
102
RTVSPost2010PropOp42
 70
     1
102
RTVSPost2010Prop43
 90
        3
102
RTVSPost2010PropOp43
 70
     1
102
RTVSPost2010Prop44ColorIndex
 90
        5
102
RTVSPost2010Prop44ColorRGB
 90
      255
102
RTVSPost2010PropOp44
 70
     1
102
RTVSPost2010Prop45
280
     0
102
RTVSPost2010PropOp45
 70
     1
102
RTVSPost2010Prop46
 90
       50
102
RTVSPost2010PropOp46
 70
     1
102
RTVSPost2010Prop47
 90
       50
102
RTVSPost2010PropOp47
 70
     1
102
RTVSPost2010Prop48
 90
       50
102
RTVSPost2010PropOp48
 70
     1
102
RTVSPost2010Prop49
280
     0
102
RTVSPost2010PropOp49
 70
     1
102
RTVSPost2010Prop50
 90
       50
102
RTVSPost2010PropOp50
 70
     1
102
RTVSPost2010Prop51ColorIndex
 90
      256
102
RTVSPost2010Prop51ColorRGB
 90
-16777216
102
RTVSPost2010PropOp51
 70
     0
102
RTVSPost2010Prop52
140
1.0
102
RTVSPost2010PropOp52
 70
     0
102
RTVSPost2010Prop53
 90
        2
102
RTVSPost2010PropOp53
 70
     1
102
RTVSPost2010Prop54
  1
strokes_ogs.tif
102
RTVSPost2010PropOp54
 70
     1
102
RTVSPost2010Prop55
280
     0
102
RTVSPost2010PropOp55
 70
     1
102
RTVSPost2010Prop56
140
1.0
102
RTVSPost2010PropOp56
 70
     1
102
RTVSPost2010Prop57
140
1.0
102
RTVSPost2010PropOp57
 70
     1
102
RTVSPropertyOp0
 70
     1
102
RTVSPropertyOp1
 70
     1
102
RTVSPropertyOp2
 70
     1
102
RTVSPropertyOp3
 70
     1
102
RTVSPropertyOp4
 70
     1
102
RTVSPropertyOp5
 70
     1
102
RTVSPropertyOp6
 70
     1
102
RTVSPropertyOp7
 70
     1
102
RTVSPropertyOp8
 70
     1
102
RTVSPropertyOp9
 70
     1
102
RTVSPropertyOp10
 70
     1
102
RTVSPropertyOp11
 70
     1
102
RTVSPropertyOp12
 70
     1
102
RTVSPropertyOp13
 70
     1
102
RTVSPropertyOp14
 70
     1
102
RTVSPropertyOp15
 70
     1
102
RTVSPropertyOp16
 70
     1
102
RTVSPropertyOp17
 70
     1
102
RTVSPropertyOp18
 70
     1
102
RTVSPropertyOp19
 70
     1
102
RTVSPropertyOp20
 70
     1
102
RTVSPropertyOp21
 70
     1
102
RTVSPropertyOp22
 70
     1
102
RTVSPropertyOp23
 70
     1
102
RTVSPropertyOp24
 70
     1
102
RTVSPropertyOp25
 70
     1
102
RTVSPropertyOp26
 70
     1
102
RTVSPropertyOp27
 70
     1
102
RTVSPropertyOp28
 70
     1
102
RTVSPropertyOp29
 70
     1
102
RTVSPropertyOp30
 70
     1
102
RTVSPropertyOp31
 70
     1
102
RTVSPropertyOp32
 70
     1
102
RTVSPropertyOp33
 70
     1
102
RTVSPropertyOp34
 70
     1
102
RTVSPropertyOp35
 70
     1
102
RTVSPropertyOp36
 70
     1
102
RTVSPropertyOp37
 70
     1
102
RTVSPropertyOp38
 70
     1
102
RTVSPropertyOp39
 70
     1
102
RTVSPropertyOp40
 70
     1
102
RTVSPropertyOp41
 70
     1
102
RTVSPropertyOp42
 70
     1
102
RTVSPropertyOp43
 70
     1
102
RTVSPropertyOp44
 70
     1
102
RTVSPropertyOp45
 70
     1
102
RTVSPropertyOp46
 70
     1
102
RTVSPropertyOp47
 70
     1
102
RTVSPropertyOp48
 70
     1
102
RTVSPropertyOp49
 70
     1
102
RTVSPropertyOp50
 70
     1
102
RTVSPropertyOp51
 70
     0
102
RTVSPropertyOp52
 70
     0
102
RTVSPropertyOp53
 70
     1
102
RTVSPropertyOp54
 70
     1
102
RTVSPropertyOp55
 70
     1
102
RTVSPropertyOp56
 70
     1
102
RTVSPropertyOp57
 70
     1
102
RTVSPropertyOp58
 70
     1
102
RTVSPropertyOp59
 70
     1
102
RTVSPropertyOp60
 70
     1
102
RTVSPropertyOp61
 70
     1
102
RTVSPropertyOp62
 70
     1
  0
XRECORD
  5
11B2C
102
{ACAD_REACTORS
330
11B2B
102
}
330
11B2B
100
AcDbXrecord
280
     1
102
RTVSPost2010Prop28
280
     0
102
RTVSPost2010PropOp28
 70
     1
102
RTVSPost2010Prop29
280
     1
102
RTVSPost2010PropOp29
 70
     1
102
RTVSPost2010Prop30
280
     1
102
RTVSPost2010PropOp30
 70
     1
102
RTVSPost2010Prop31
280
     0
102
RTVSPost2010PropOp31
 70
     1
102
RTVSPost2010Prop32
280
     0
102
RTVSPost2010PropOp32
 70
     1
102
RTVSPost2010Prop33
280
     0
102
RTVSPost2010PropOp33
 70
     1
102
RTVSPost2010Prop34
280
     0
102
RTVSPost2010PropOp34
 70
     1
102
RTVSPost2010Prop35
280
     0
102
RTVSPost2010PropOp35
 70
     1
102
RTVSPost2010Prop36
280
     0
102
RTVSPost2010PropOp36
 70
     1
102
RTVSPost2010Prop37
 90
       50
102
RTVSPost2010PropOp37
 70
     1
102
RTVSPost2010Prop38
140
0.0
102
RTVSPost2010PropOp38
 70
     1
102
RTVSPost2010Prop39
140
1.0
102
RTVSPost2010PropOp39
 70
     1
102
RTVSPost2010Prop40
 90
        0
102
RTVSPost2010PropOp40
 70
     1
102
RTVSPost2010Prop41ColorIndex
 90
       18
102
RTVSPost2010Prop41ColorRGB
 90
        0
102
RTVSPost2010PropOp41
 70
     1
102
RTVSPost2010Prop42
 90
       50
102
RTVSPost2010PropOp42
 70
     1
102
RTVSPost2010Prop43
 90
        3
102
RTVSPost2010PropOp43
 70
     1
102
RTVSPost2010Prop44ColorIndex
 90
        5
102
RTVSPost2010Prop44ColorRGB
 90
      255
102
RTVSPost2010PropOp44
 70
     1
102
RTVSPost2010Prop45
280
     0
102
RTVSPost2010PropOp45
 70
     1
102
RTVSPost2010Prop46
 90
       50
102
RTVSPost2010PropOp46
 70
     1
102
RTVSPost2010Prop47
 90
       50
102
RTVSPost2010PropOp47
 70
     1
102
RTVSPost2010Prop48
 90
       50
102
RTVSPost2010PropOp48
 70
     1
102
RTVSPost2010Prop49
280
     0
102
RTVSPost2010PropOp49
 70
     1
102
RTVSPost2010Prop50
 90
       50
102
RTVSPost2010PropOp50
 70
     1
102
RTVSPost2010Prop51ColorIndex
 90
      256
102
RTVSPost2010Prop51ColorRGB
 90
-16777216
102
RTVSPost2010PropOp51
 70
     0
102
RTVSPost2010Prop52
140
1.0
102
RTVSPost2010PropOp52
 70
     0
102
RTVSPost2010Prop53
 90
        2
102
RTVSPost2010PropOp53
 70
     1
102
RTVSPost2010Prop54
  1
strokes_ogs.tif
102
RTVSPost2010PropOp54
 70
     1
102
RTVSPost2010Prop55
280
     0
102
RTVSPost2010PropOp55
 70
     1
102
RTVSPost2010Prop56
140
1.0
102
RTVSPost2010PropOp56
 70
     1
102
RTVSPost2010Prop57
140
1.0
102
RTVSPost2010PropOp57
 70
     1
102
RTVSPropertyOp0
 70
     1
102
RTVSPropertyOp1
 70
     1
102
RTVSPropertyOp2
 70
     1
102
RTVSPropertyOp3
 70
     1
102
RTVSPropertyOp4
 70
     1
102
RTVSPropertyOp5
 70
     1
102
RTVSPropertyOp6
 70
     1
102
RTVSPropertyOp7
 70
     1
102
RTVSPropertyOp8
 70
     1
102
RTVSPropertyOp9
 70
     1
102
RTVSPropertyOp10
 70
     1
102
RTVSPropertyOp11
 70
     1
102
RTVSPropertyOp12
 70
     1
102
RTVSPropertyOp13
 70
     1
102
RTVSPropertyOp14
 70
     1
102
RTVSPropertyOp15
 70
     1
102
RTVSPropertyOp16
 70
     1
102
RTVSPropertyOp17
 70
     1
102
RTVSPropertyOp18
 70
     1
102
RTVSPropertyOp19
 70
     1
102
RTVSPropertyOp20
 70
     1
102
RTVSPropertyOp21
 70
     1
102
RTVSPropertyOp22
 70
     1
102
RTVSPropertyOp23
 70
     1
102
RTVSPropertyOp24
 70
     1
102
RTVSPropertyOp25
 70
     1
102
RTVSPropertyOp26
 70
     1
102
RTVSPropertyOp27
 70
     1
102
RTVSPropertyOp28
 70
     1
102
RTVSPropertyOp29
 70
     1
102
RTVSPropertyOp30
 70
     1
102
RTVSPropertyOp31
 70
     1
102
RTVSPropertyOp32
 70
     1
102
RTVSPropertyOp33
 70
     1
102
RTVSPropertyOp34
 70
     1
102
RTVSPropertyOp35
 70
     1
102
RTVSPropertyOp36
 70
     1
102
RTVSPropertyOp37
 70
     1
102
RTVSPropertyOp38
 70
     1
102
RTVSPropertyOp39
 70
     1
102
RTVSPropertyOp40
 70
     1
102
RTVSPropertyOp41
 70
     1
102
RTVSPropertyOp42
 70
     1
102
RTVSPropertyOp43
 70
     1
102
RTVSPropertyOp44
 70
     1
102
RTVSPropertyOp45
 70
     1
102
RTVSPropertyOp46
 70
     1
102
RTVSPropertyOp47
 70
     1
102
RTVSPropertyOp48
 70
     1
102
RTVSPropertyOp49
 70
     1
102
RTVSPropertyOp50
 70
     1
102
RTVSPropertyOp51
 70
     0
102
RTVSPropertyOp52
 70
     0
102
RTVSPropertyOp53
 70
     1
102
RTVSPropertyOp54
 70
     1
102
RTVSPropertyOp55
 70
     1
102
RTVSPropertyOp56
 70
     1
102
RTVSPropertyOp57
 70
     1
102
RTVSPropertyOp58
 70
     1
102
RTVSPropertyOp59
 70
     1
102
RTVSPropertyOp60
 70
     1
102
RTVSPropertyOp61
 70
     1
102
RTVSPropertyOp62
 70
     1
  0
XRECORD
  5
11B34
102
{ACAD_REACTORS
330
11B33
102
}
330
11B33
100
AcDbXrecord
280
     1
102
RTVSPost2010Prop28
280
     0
102
RTVSPost2010PropOp28
 70
     1
102
RTVSPost2010Prop29
280
     1
102
RTVSPost2010PropOp29
 70
     1
102
RTVSPost2010Prop30
280
     1
102
RTVSPost2010PropOp30
 70
     1
102
RTVSPost2010Prop31
280
     0
102
RTVSPost2010PropOp31
 70
     1
102
RTVSPost2010Prop32
280
     0
102
RTVSPost2010PropOp32
 70
     1
102
RTVSPost2010Prop33
280
     0
102
RTVSPost2010PropOp33
 70
     1
102
RTVSPost2010Prop34
280
     0
102
RTVSPost2010PropOp34
 70
     1
102
RTVSPost2010Prop35
280
     0
102
RTVSPost2010PropOp35
 70
     1
102
RTVSPost2010Prop36
280
     0
102
RTVSPost2010PropOp36
 70
     1
102
RTVSPost2010Prop37
 90
       50
102
RTVSPost2010PropOp37
 70
     1
102
RTVSPost2010Prop38
140
0.0
102
RTVSPost2010PropOp38
 70
     1
102
RTVSPost2010Prop39
140
1.0
102
RTVSPost2010PropOp39
 70
     1
102
RTVSPost2010Prop40
 90
        0
102
RTVSPost2010PropOp40
 70
     1
102
RTVSPost2010Prop41ColorIndex
 90
       18
102
RTVSPost2010Prop41ColorRGB
 90
        0
102
RTVSPost2010PropOp41
 70
     1
102
RTVSPost2010Prop42
 90
       50
102
RTVSPost2010PropOp42
 70
     1
102
RTVSPost2010Prop43
 90
        3
102
RTVSPost2010PropOp43
 70
     1
102
RTVSPost2010Prop44ColorIndex
 90
        5
102
RTVSPost2010Prop44ColorRGB
 90
      255
102
RTVSPost2010PropOp44
 70
     1
102
RTVSPost2010Prop45
280
     0
102
RTVSPost2010PropOp45
 70
     1
102
RTVSPost2010Prop46
 90
       50
102
RTVSPost2010PropOp46
 70
     1
102
RTVSPost2010Prop47
 90
       50
102
RTVSPost2010PropOp47
 70
     1
102
RTVSPost2010Prop48
 90
       50
102
RTVSPost2010PropOp48
 70
     1
102
RTVSPost2010Prop49
280
     0
102
RTVSPost2010PropOp49
 70
     1
102
RTVSPost2010Prop50
 90
       50
102
RTVSPost2010PropOp50
 70
     1
102
RTVSPost2010Prop51ColorIndex
 90
      256
102
RTVSPost2010Prop51ColorRGB
 90
-16777216
102
RTVSPost2010PropOp51
 70
     0
102
RTVSPost2010Prop52
140
1.0
102
RTVSPost2010PropOp52
 70
     0
102
RTVSPost2010Prop53
 90
        2
102
RTVSPost2010PropOp53
 70
     1
102
RTVSPost2010Prop54
  1
strokes_ogs.tif
102
RTVSPost2010PropOp54
 70
     1
102
RTVSPost2010Prop55
280
     0
102
RTVSPost2010PropOp55
 70
     1
102
RTVSPost2010Prop56
140
1.0
102
RTVSPost2010PropOp56
 70
     1
102
RTVSPost2010Prop57
140
1.0
102
RTVSPost2010PropOp57
 70
     1
102
RTVSPropertyOp0
 70
     1
102
RTVSPropertyOp1
 70
     1
102
RTVSPropertyOp2
 70
     1
102
RTVSPropertyOp3
 70
     1
102
RTVSPropertyOp4
 70
     1
102
RTVSPropertyOp5
 70
     1
102
RTVSPropertyOp6
 70
     1
102
RTVSPropertyOp7
 70
     1
102
RTVSPropertyOp8
 70
     1
102
RTVSPropertyOp9
 70
     1
102
RTVSPropertyOp10
 70
     1
102
RTVSPropertyOp11
 70
     1
102
RTVSPropertyOp12
 70
     1
102
RTVSPropertyOp13
 70
     1
102
RTVSPropertyOp14
 70
     1
102
RTVSPropertyOp15
 70
     1
102
RTVSPropertyOp16
 70
     1
102
RTVSPropertyOp17
 70
     1
102
RTVSPropertyOp18
 70
     1
102
RTVSPropertyOp19
 70
     1
102
RTVSPropertyOp20
 70
     1
102
RTVSPropertyOp21
 70
     1
102
RTVSPropertyOp22
 70
     1
102
RTVSPropertyOp23
 70
     1
102
RTVSPropertyOp24
 70
     1
102
RTVSPropertyOp25
 70
     1
102
RTVSPropertyOp26
 70
     1
102
RTVSPropertyOp27
 70
     1
102
RTVSPropertyOp28
 70
     1
102
RTVSPropertyOp29
 70
     1
102
RTVSPropertyOp30
 70
     1
102
RTVSPropertyOp31
 70
     1
102
RTVSPropertyOp32
 70
     1
102
RTVSPropertyOp33
 70
     1
102
RTVSPropertyOp34
 70
     1
102
RTVSPropertyOp35
 70
     1
102
RTVSPropertyOp36
 70
     1
102
RTVSPropertyOp37
 70
     1
102
RTVSPropertyOp38
 70
     1
102
RTVSPropertyOp39
 70
     1
102
RTVSPropertyOp40
 70
     1
102
RTVSPropertyOp41
 70
     1
102
RTVSPropertyOp42
 70
     1
102
RTVSPropertyOp43
 70
     1
102
RTVSPropertyOp44
 70
     1
102
RTVSPropertyOp45
 70
     1
102
RTVSPropertyOp46
 70
     1
102
RTVSPropertyOp47
 70
     1
102
RTVSPropertyOp48
 70
     1
102
RTVSPropertyOp49
 70
     1
102
RTVSPropertyOp50
 70
     1
102
RTVSPropertyOp51
 70
     0
102
RTVSPropertyOp52
 70
     0
102
RTVSPropertyOp53
 70
     1
102
RTVSPropertyOp54
 70
     1
102
RTVSPropertyOp55
 70
     1
102
RTVSPropertyOp56
 70
     1
102
RTVSPropertyOp57
 70
     1
102
RTVSPropertyOp58
 70
     1
102
RTVSPropertyOp59
 70
     1
102
RTVSPropertyOp60
 70
     1
102
RTVSPropertyOp61
 70
     1
102
RTVSPropertyOp62
 70
     1
  0
XRECORD
  5
11B48
102
{ACAD_REACTORS
330
11B47
102
}
330
11B47
100
AcDbXrecord
280
     1
102
RTVSPost2010Prop28
280
     0
102
RTVSPost2010PropOp28
 70
     1
102
RTVSPost2010Prop29
280
     1
102
RTVSPost2010PropOp29
 70
     1
102
RTVSPost2010Prop30
280
     1
102
RTVSPost2010PropOp30
 70
     1
102
RTVSPost2010Prop31
280
     0
102
RTVSPost2010PropOp31
 70
     1
102
RTVSPost2010Prop32
280
     0
102
RTVSPost2010PropOp32
 70
     1
102
RTVSPost2010Prop33
280
     0
102
RTVSPost2010PropOp33
 70
     1
102
RTVSPost2010Prop34
280
     0
102
RTVSPost2010PropOp34
 70
     1
102
RTVSPost2010Prop35
280
     0
102
RTVSPost2010PropOp35
 70
     1
102
RTVSPost2010Prop36
280
     0
102
RTVSPost2010PropOp36
 70
     1
102
RTVSPost2010Prop37
 90
       50
102
RTVSPost2010PropOp37
 70
     1
102
RTVSPost2010Prop38
140
0.0
102
RTVSPost2010PropOp38
 70
     1
102
RTVSPost2010Prop39
140
1.0
102
RTVSPost2010PropOp39
 70
     1
102
RTVSPost2010Prop40
 90
        0
102
RTVSPost2010PropOp40
 70
     1
102
RTVSPost2010Prop41ColorIndex
 90
       18
102
RTVSPost2010Prop41ColorRGB
 90
        0
102
RTVSPost2010PropOp41
 70
     1
102
RTVSPost2010Prop42
 90
       50
102
RTVSPost2010PropOp42
 70
     1
102
RTVSPost2010Prop43
 90
        3
102
RTVSPost2010PropOp43
 70
     1
102
RTVSPost2010Prop44ColorIndex
 90
        5
102
RTVSPost2010Prop44ColorRGB
 90
      255
102
RTVSPost2010PropOp44
 70
     1
102
RTVSPost2010Prop45
280
     0
102
RTVSPost2010PropOp45
 70
     1
102
RTVSPost2010Prop46
 90
       50
102
RTVSPost2010PropOp46
 70
     1
102
RTVSPost2010Prop47
 90
       50
102
RTVSPost2010PropOp47
 70
     1
102
RTVSPost2010Prop48
 90
       50
102
RTVSPost2010PropOp48
 70
     1
102
RTVSPost2010Prop49
280
     0
102
RTVSPost2010PropOp49
 70
     1
102
RTVSPost2010Prop50
 90
       50
102
RTVSPost2010PropOp50
 70
     1
102
RTVSPost2010Prop51ColorIndex
 90
      256
102
RTVSPost2010Prop51ColorRGB
 90
-16777216
102
RTVSPost2010PropOp51
 70
     0
102
RTVSPost2010Prop52
140
1.0
102
RTVSPost2010PropOp52
 70
     0
102
RTVSPost2010Prop53
 90
        2
102
RTVSPost2010PropOp53
 70
     1
102
RTVSPost2010Prop54
  1
strokes_ogs.tif
102
RTVSPost2010PropOp54
 70
     1
102
RTVSPost2010Prop55
280
     0
102
RTVSPost2010PropOp55
 70
     1
102
RTVSPost2010Prop56
140
1.0
102
RTVSPost2010PropOp56
 70
     1
102
RTVSPost2010Prop57
140
1.0
102
RTVSPost2010PropOp57
 70
     1
102
RTVSPropertyOp0
 70
     0
102
RTVSPropertyOp1
 70
     0
102
RTVSPropertyOp2
 70
     0
102
RTVSPropertyOp3
 70
     0
102
RTVSPropertyOp4
 70
     0
102
RTVSPropertyOp5
 70
     0
102
RTVSPropertyOp6
 70
     0
102
RTVSPropertyOp7
 70
     0
102
RTVSPropertyOp8
 70
     0
102
RTVSPropertyOp9
 70
     0
102
RTVSPropertyOp10
 70
     0
102
RTVSPropertyOp11
 70
     0
102
RTVSPropertyOp12
 70
     0
102
RTVSPropertyOp13
 70
     0
102
RTVSPropertyOp14
 70
     2
102
RTVSPropertyOp15
 70
     0
102
RTVSPropertyOp16
 70
     0
102
RTVSPropertyOp17
 70
     0
102
RTVSPropertyOp18
 70
     0
102
RTVSPropertyOp19
 70
     0
102
RTVSPropertyOp20
 70
     0
102
RTVSPropertyOp21
 70
     0
102
RTVSPropertyOp22
 70
     0
102
RTVSPropertyOp23
 70
     0
102
RTVSPropertyOp24
 70
     0
102
RTVSPropertyOp25
 70
     0
102
RTVSPropertyOp26
 70
     0
102
RTVSPropertyOp27
 70
     0
102
RTVSPropertyOp28
 70
     1
102
RTVSPropertyOp29
 70
     1
102
RTVSPropertyOp30
 70
     1
102
RTVSPropertyOp31
 70
     1
102
RTVSPropertyOp32
 70
     1
102
RTVSPropertyOp33
 70
     1
102
RTVSPropertyOp34
 70
     1
102
RTVSPropertyOp35
 70
     1
102
RTVSPropertyOp36
 70
     1
102
RTVSPropertyOp37
 70
     1
102
RTVSPropertyOp38
 70
     1
102
RTVSPropertyOp39
 70
     1
102
RTVSPropertyOp40
 70
     1
102
RTVSPropertyOp41
 70
     1
102
RTVSPropertyOp42
 70
     1
102
RTVSPropertyOp43
 70
     1
102
RTVSPropertyOp44
 70
     1
102
RTVSPropertyOp45
 70
     1
102
RTVSPropertyOp46
 70
     1
102
RTVSPropertyOp47
 70
     1
102
RTVSPropertyOp48
 70
     1
102
RTVSPropertyOp49
 70
     1
102
RTVSPropertyOp50
 70
     1
102
RTVSPropertyOp51
 70
     0
102
RTVSPropertyOp52
 70
     0
102
RTVSPropertyOp53
 70
     1
102
RTVSPropertyOp54
 70
     1
102
RTVSPropertyOp55
 70
     1
102
RTVSPropertyOp56
 70
     1
102
RTVSPropertyOp57
 70
     1
102
RTVSPropertyOp58
 70
     1
102
RTVSPropertyOp59
 70
     1
102
RTVSPropertyOp60
 70
     1
102
RTVSPropertyOp61
 70
     1
102
RTVSPropertyOp62
 70
     1
  0
XRECORD
  5
11B40
102
{ACAD_REACTORS
330
11B3F
102
}
330
11B3F
100
AcDbXrecord
280
     1
102
RTVSPost2010Prop28
280
     0
102
RTVSPost2010PropOp28
 70
     1
102
RTVSPost2010Prop29
280
     1
102
RTVSPost2010PropOp29
 70
     1
102
RTVSPost2010Prop30
280
     1
102
RTVSPost2010PropOp30
 70
     1
102
RTVSPost2010Prop31
280
     0
102
RTVSPost2010PropOp31
 70
     1
102
RTVSPost2010Prop32
280
     0
102
RTVSPost2010PropOp32
 70
     1
102
RTVSPost2010Prop33
280
     0
102
RTVSPost2010PropOp33
 70
     1
102
RTVSPost2010Prop34
280
     0
102
RTVSPost2010PropOp34
 70
     1
102
RTVSPost2010Prop35
280
     0
102
RTVSPost2010PropOp35
 70
     1
102
RTVSPost2010Prop36
280
     0
102
RTVSPost2010PropOp36
 70
     1
102
RTVSPost2010Prop37
 90
       50
102
RTVSPost2010PropOp37
 70
     1
102
RTVSPost2010Prop38
140
0.0
102
RTVSPost2010PropOp38
 70
     1
102
RTVSPost2010Prop39
140
1.0
102
RTVSPost2010PropOp39
 70
     1
102
RTVSPost2010Prop40
 90
        0
102
RTVSPost2010PropOp40
 70
     1
102
RTVSPost2010Prop41ColorIndex
 90
       18
102
RTVSPost2010Prop41ColorRGB
 90
        0
102
RTVSPost2010PropOp41
 70
     1
102
RTVSPost2010Prop42
 90
       50
102
RTVSPost2010PropOp42
 70
     1
102
RTVSPost2010Prop43
 90
        3
102
RTVSPost2010PropOp43
 70
     1
102
RTVSPost2010Prop44ColorIndex
 90
        5
102
RTVSPost2010Prop44ColorRGB
 90
      255
102
RTVSPost2010PropOp44
 70
     1
102
RTVSPost2010Prop45
280
     0
102
RTVSPost2010PropOp45
 70
     1
102
RTVSPost2010Prop46
 90
       50
102
RTVSPost2010PropOp46
 70
     1
102
RTVSPost2010Prop47
 90
       50
102
RTVSPost2010PropOp47
 70
     1
102
RTVSPost2010Prop48
 90
       50
102
RTVSPost2010PropOp48
 70
     1
102
RTVSPost2010Prop49
280
     0
102
RTVSPost2010PropOp49
 70
     1
102
RTVSPost2010Prop50
 90
       50
102
RTVSPost2010PropOp50
 70
     1
102
RTVSPost2010Prop51ColorIndex
 90
      256
102
RTVSPost2010Prop51ColorRGB
 90
-16777216
102
RTVSPost2010PropOp51
 70
     0
102
RTVSPost2010Prop52
140
1.0
102
RTVSPost2010PropOp52
 70
     0
102
RTVSPost2010Prop53
 90
        2
102
RTVSPost2010PropOp53
 70
     1
102
RTVSPost2010Prop54
  1
strokes_ogs.tif
102
RTVSPost2010PropOp54
 70
     1
102
RTVSPost2010Prop55
280
     0
102
RTVSPost2010PropOp55
 70
     1
102
RTVSPost2010Prop56
140
1.0
102
RTVSPost2010PropOp56
 70
     1
102
RTVSPost2010Prop57
140
1.0
102
RTVSPost2010PropOp57
 70
     1
102
RTVSPropertyOp0
 70
     1
102
RTVSPropertyOp1
 70
     1
102
RTVSPropertyOp2
 70
     1
102
RTVSPropertyOp3
 70
     1
102
RTVSPropertyOp4
 70
     1
102
RTVSPropertyOp5
 70
     1
102
RTVSPropertyOp6
 70
     1
102
RTVSPropertyOp7
 70
     1
102
RTVSPropertyOp8
 70
     1
102
RTVSPropertyOp9
 70
     1
102
RTVSPropertyOp10
 70
     1
102
RTVSPropertyOp11
 70
     1
102
RTVSPropertyOp12
 70
     1
102
RTVSPropertyOp13
 70
     1
102
RTVSPropertyOp14
 70
     1
102
RTVSPropertyOp15
 70
     1
102
RTVSPropertyOp16
 70
     1
102
RTVSPropertyOp17
 70
     1
102
RTVSPropertyOp18
 70
     1
102
RTVSPropertyOp19
 70
     1
102
RTVSPropertyOp20
 70
     1
102
RTVSPropertyOp21
 70
     1
102
RTVSPropertyOp22
 70
     1
102
RTVSPropertyOp23
 70
     1
102
RTVSPropertyOp24
 70
     1
102
RTVSPropertyOp25
 70
     1
102
RTVSPropertyOp26
 70
     1
102
RTVSPropertyOp27
 70
     1
102
RTVSPropertyOp28
 70
     1
102
RTVSPropertyOp29
 70
     1
102
RTVSPropertyOp30
 70
     1
102
RTVSPropertyOp31
 70
     1
102
RTVSPropertyOp32
 70
     1
102
RTVSPropertyOp33
 70
     1
102
RTVSPropertyOp34
 70
     1
102
RTVSPropertyOp35
 70
     1
102
RTVSPropertyOp36
 70
     1
102
RTVSPropertyOp37
 70
     1
102
RTVSPropertyOp38
 70
     1
102
RTVSPropertyOp39
 70
     1
102
RTVSPropertyOp40
 70
     1
102
RTVSPropertyOp41
 70
     1
102
RTVSPropertyOp42
 70
     1
102
RTVSPropertyOp43
 70
     1
102
RTVSPropertyOp44
 70
     1
102
RTVSPropertyOp45
 70
     1
102
RTVSPropertyOp46
 70
     1
102
RTVSPropertyOp47
 70
     1
102
RTVSPropertyOp48
 70
     1
102
RTVSPropertyOp49
 70
     1
102
RTVSPropertyOp50
 70
     1
102
RTVSPropertyOp51
 70
     0
102
RTVSPropertyOp52
 70
     0
102
RTVSPropertyOp53
 70
     1
102
RTVSPropertyOp54
 70
     1
102
RTVSPropertyOp55
 70
     1
102
RTVSPropertyOp56
 70
     1
102
RTVSPropertyOp57
 70
     1
102
RTVSPropertyOp58
 70
     1
102
RTVSPropertyOp59
 70
     1
102
RTVSPropertyOp60
 70
     1
102
RTVSPropertyOp61
 70
     1
102
RTVSPropertyOp62
 70
     1
  0
XRECORD
  5
11B4A
102
{ACAD_REACTORS
330
11B49
102
}
330
11B49
100
AcDbXrecord
280
     1
102
RTVSPost2010Prop28
280
     0
102
RTVSPost2010PropOp28
 70
     1
102
RTVSPost2010Prop29
280
     1
102
RTVSPost2010PropOp29
 70
     1
102
RTVSPost2010Prop30
280
     1
102
RTVSPost2010PropOp30
 70
     1
102
RTVSPost2010Prop31
280
     0
102
RTVSPost2010PropOp31
 70
     1
102
RTVSPost2010Prop32
280
     0
102
RTVSPost2010PropOp32
 70
     1
102
RTVSPost2010Prop33
280
     0
102
RTVSPost2010PropOp33
 70
     1
102
RTVSPost2010Prop34
280
     0
102
RTVSPost2010PropOp34
 70
     1
102
RTVSPost2010Prop35
280
     0
102
RTVSPost2010PropOp35
 70
     1
102
RTVSPost2010Prop36
280
     0
102
RTVSPost2010PropOp36
 70
     1
102
RTVSPost2010Prop37
 90
       50
102
RTVSPost2010PropOp37
 70
     1
102
RTVSPost2010Prop38
140
0.0
102
RTVSPost2010PropOp38
 70
     1
102
RTVSPost2010Prop39
140
1.0
102
RTVSPost2010PropOp39
 70
     1
102
RTVSPost2010Prop40
 90
        0
102
RTVSPost2010PropOp40
 70
     1
102
RTVSPost2010Prop41ColorIndex
 90
       18
102
RTVSPost2010Prop41ColorRGB
 90
        0
102
RTVSPost2010PropOp41
 70
     1
102
RTVSPost2010Prop42
 90
       50
102
RTVSPost2010PropOp42
 70
     1
102
RTVSPost2010Prop43
 90
        3
102
RTVSPost2010PropOp43
 70
     1
102
RTVSPost2010Prop44ColorIndex
 90
        5
102
RTVSPost2010Prop44ColorRGB
 90
      255
102
RTVSPost2010PropOp44
 70
     1
102
RTVSPost2010Prop45
280
     0
102
RTVSPost2010PropOp45
 70
     1
102
RTVSPost2010Prop46
 90
       50
102
RTVSPost2010PropOp46
 70
     1
102
RTVSPost2010Prop47
 90
       50
102
RTVSPost2010PropOp47
 70
     1
102
RTVSPost2010Prop48
 90
       50
102
RTVSPost2010PropOp48
 70
     1
102
RTVSPost2010Prop49
280
     0
102
RTVSPost2010PropOp49
 70
     1
102
RTVSPost2010Prop50
 90
       50
102
RTVSPost2010PropOp50
 70
     1
102
RTVSPost2010Prop51ColorIndex
 90
      256
102
RTVSPost2010Prop51ColorRGB
 90
-16777216
102
RTVSPost2010PropOp51
 70
     0
102
RTVSPost2010Prop52
140
1.0
102
RTVSPost2010PropOp52
 70
     0
102
RTVSPost2010Prop53
 90
        2
102
RTVSPost2010PropOp53
 70
     1
102
RTVSPost2010Prop54
  1
strokes_ogs.tif
102
RTVSPost2010PropOp54
 70
     1
102
RTVSPost2010Prop55
280
     0
102
RTVSPost2010PropOp55
 70
     1
102
RTVSPost2010Prop56
140
1.0
102
RTVSPost2010PropOp56
 70
     1
102
RTVSPost2010Prop57
140
1.0
102
RTVSPost2010PropOp57
 70
     1
102
RTVSPropertyOp0
 70
     0
102
RTVSPropertyOp1
 70
     0
102
RTVSPropertyOp2
 70
     0
102
RTVSPropertyOp3
 70
     0
102
RTVSPropertyOp4
 70
     0
102
RTVSPropertyOp5
 70
     0
102
RTVSPropertyOp6
 70
     0
102
RTVSPropertyOp7
 70
     0
102
RTVSPropertyOp8
 70
     0
102
RTVSPropertyOp9
 70
     0
102
RTVSPropertyOp10
 70
     0
102
RTVSPropertyOp11
 70
     0
102
RTVSPropertyOp12
 70
     0
102
RTVSPropertyOp13
 70
     0
102
RTVSPropertyOp14
 70
     2
102
RTVSPropertyOp15
 70
     0
102
RTVSPropertyOp16
 70
     0
102
RTVSPropertyOp17
 70
     0
102
RTVSPropertyOp18
 70
     0
102
RTVSPropertyOp19
 70
     0
102
RTVSPropertyOp20
 70
     0
102
RTVSPropertyOp21
 70
     0
102
RTVSPropertyOp22
 70
     0
102
RTVSPropertyOp23
 70
     0
102
RTVSPropertyOp24
 70
     0
102
RTVSPropertyOp25
 70
     0
102
RTVSPropertyOp26
 70
     0
102
RTVSPropertyOp27
 70
     0
102
RTVSPropertyOp28
 70
     1
102
RTVSPropertyOp29
 70
     1
102
RTVSPropertyOp30
 70
     1
102
RTVSPropertyOp31
 70
     1
102
RTVSPropertyOp32
 70
     1
102
RTVSPropertyOp33
 70
     1
102
RTVSPropertyOp34
 70
     1
102
RTVSPropertyOp35
 70
     1
102
RTVSPropertyOp36
 70
     1
102
RTVSPropertyOp37
 70
     1
102
RTVSPropertyOp38
 70
     1
102
RTVSPropertyOp39
 70
     1
102
RTVSPropertyOp40
 70
     1
102
RTVSPropertyOp41
 70
     1
102
RTVSPropertyOp42
 70
     1
102
RTVSPropertyOp43
 70
     1
102
RTVSPropertyOp44
 70
     1
102
RTVSPropertyOp45
 70
     1
102
RTVSPropertyOp46
 70
     1
102
RTVSPropertyOp47
 70
     1
102
RTVSPropertyOp48
 70
     1
102
RTVSPropertyOp49
 70
     1
102
RTVSPropertyOp50
 70
     1
102
RTVSPropertyOp51
 70
     0
102
RTVSPropertyOp52
 70
     0
102
RTVSPropertyOp53
 70
     1
102
RTVSPropertyOp54
 70
     1
102
RTVSPropertyOp55
 70
     1
102
RTVSPropertyOp56
 70
     1
102
RTVSPropertyOp57
 70
     1
102
RTVSPropertyOp58
 70
     1
102
RTVSPropertyOp59
 70
     1
102
RTVSPropertyOp60
 70
     1
102
RTVSPropertyOp61
 70
     1
102
RTVSPropertyOp62
 70
     1
  0
XRECORD
  5
11B38
102
{ACAD_REACTORS
330
11B37
102
}
330
11B37
100
AcDbXrecord
280
     1
102
RTVSPost2010Prop28
280
     0
102
RTVSPost2010PropOp28
 70
     1
102
RTVSPost2010Prop29
280
     1
102
RTVSPost2010PropOp29
 70
     1
102
RTVSPost2010Prop30
280
     1
102
RTVSPost2010PropOp30
 70
     1
102
RTVSPost2010Prop31
280
     0
102
RTVSPost2010PropOp31
 70
     1
102
RTVSPost2010Prop32
280
     0
102
RTVSPost2010PropOp32
 70
     1
102
RTVSPost2010Prop33
280
     0
102
RTVSPost2010PropOp33
 70
     1
102
RTVSPost2010Prop34
280
     0
102
RTVSPost2010PropOp34
 70
     1
102
RTVSPost2010Prop35
280
     0
102
RTVSPost2010PropOp35
 70
     1
102
RTVSPost2010Prop36
280
     0
102
RTVSPost2010PropOp36
 70
     1
102
RTVSPost2010Prop37
 90
       50
102
RTVSPost2010PropOp37
 70
     1
102
RTVSPost2010Prop38
140
0.0
102
RTVSPost2010PropOp38
 70
     1
102
RTVSPost2010Prop39
140
1.0
102
RTVSPost2010PropOp39
 70
     1
102
RTVSPost2010Prop40
 90
        0
102
RTVSPost2010PropOp40
 70
     1
102
RTVSPost2010Prop41ColorIndex
 90
       18
102
RTVSPost2010Prop41ColorRGB
 90
        0
102
RTVSPost2010PropOp41
 70
     1
102
RTVSPost2010Prop42
 90
       50
102
RTVSPost2010PropOp42
 70
     1
102
RTVSPost2010Prop43
 90
        3
102
RTVSPost2010PropOp43
 70
     1
102
RTVSPost2010Prop44ColorIndex
 90
        5
102
RTVSPost2010Prop44ColorRGB
 90
      255
102
RTVSPost2010PropOp44
 70
     1
102
RTVSPost2010Prop45
280
     0
102
RTVSPost2010PropOp45
 70
     1
102
RTVSPost2010Prop46
 90
       50
102
RTVSPost2010PropOp46
 70
     1
102
RTVSPost2010Prop47
 90
       50
102
RTVSPost2010PropOp47
 70
     1
102
RTVSPost2010Prop48
 90
       50
102
RTVSPost2010PropOp48
 70
     1
102
RTVSPost2010Prop49
280
     0
102
RTVSPost2010PropOp49
 70
     1
102
RTVSPost2010Prop50
 90
       50
102
RTVSPost2010PropOp50
 70
     1
102
RTVSPost2010Prop51ColorIndex
 90
      256
102
RTVSPost2010Prop51ColorRGB
 90
-16777216
102
RTVSPost2010PropOp51
 70
     0
102
RTVSPost2010Prop52
140
1.0
102
RTVSPost2010PropOp52
 70
     0
102
RTVSPost2010Prop53
 90
        2
102
RTVSPost2010PropOp53
 70
     1
102
RTVSPost2010Prop54
  1
strokes_ogs.tif
102
RTVSPost2010PropOp54
 70
     1
102
RTVSPost2010Prop55
280
     0
102
RTVSPost2010PropOp55
 70
     1
102
RTVSPost2010Prop56
140
1.0
102
RTVSPost2010PropOp56
 70
     1
102
RTVSPost2010Prop57
140
1.0
102
RTVSPost2010PropOp57
 70
     1
102
RTVSPropertyOp0
 70
     1
102
RTVSPropertyOp1
 70
     1
102
RTVSPropertyOp2
 70
     1
102
RTVSPropertyOp3
 70
     1
102
RTVSPropertyOp4
 70
     1
102
RTVSPropertyOp5
 70
     1
102
RTVSPropertyOp6
 70
     1
102
RTVSPropertyOp7
 70
     1
102
RTVSPropertyOp8
 70
     1
102
RTVSPropertyOp9
 70
     1
102
RTVSPropertyOp10
 70
     1
102
RTVSPropertyOp11
 70
     1
102
RTVSPropertyOp12
 70
     1
102
RTVSPropertyOp13
 70
     1
102
RTVSPropertyOp14
 70
     1
102
RTVSPropertyOp15
 70
     1
102
RTVSPropertyOp16
 70
     1
102
RTVSPropertyOp17
 70
     1
102
RTVSPropertyOp18
 70
     1
102
RTVSPropertyOp19
 70
     1
102
RTVSPropertyOp20
 70
     1
102
RTVSPropertyOp21
 70
     1
102
RTVSPropertyOp22
 70
     1
102
RTVSPropertyOp23
 70
     1
102
RTVSPropertyOp24
 70
     1
102
RTVSPropertyOp25
 70
     1
102
RTVSPropertyOp26
 70
     1
102
RTVSPropertyOp27
 70
     1
102
RTVSPropertyOp28
 70
     1
102
RTVSPropertyOp29
 70
     1
102
RTVSPropertyOp30
 70
     1
102
RTVSPropertyOp31
 70
     1
102
RTVSPropertyOp32
 70
     1
102
RTVSPropertyOp33
 70
     1
102
RTVSPropertyOp34
 70
     1
102
RTVSPropertyOp35
 70
     1
102
RTVSPropertyOp36
 70
     1
102
RTVSPropertyOp37
 70
     1
102
RTVSPropertyOp38
 70
     1
102
RTVSPropertyOp39
 70
     1
102
RTVSPropertyOp40
 70
     1
102
RTVSPropertyOp41
 70
     1
102
RTVSPropertyOp42
 70
     1
102
RTVSPropertyOp43
 70
     1
102
RTVSPropertyOp44
 70
     1
102
RTVSPropertyOp45
 70
     1
102
RTVSPropertyOp46
 70
     1
102
RTVSPropertyOp47
 70
     1
102
RTVSPropertyOp48
 70
     1
102
RTVSPropertyOp49
 70
     1
102
RTVSPropertyOp50
 70
     1
102
RTVSPropertyOp51
 70
     0
102
RTVSPropertyOp52
 70
     0
102
RTVSPropertyOp53
 70
     1
102
RTVSPropertyOp54
 70
     1
102
RTVSPropertyOp55
 70
     1
102
RTVSPropertyOp56
 70
     1
102
RTVSPropertyOp57
 70
     1
102
RTVSPropertyOp58
 70
     1
102
RTVSPropertyOp59
 70
     1
102
RTVSPropertyOp60
 70
     1
102
RTVSPropertyOp61
 70
     1
102
RTVSPropertyOp62
 70
     1
  0
XRECORD
  5
11B56
102
{ACAD_REACTORS
330
11B55
102
}
330
11B55
100
AcDbXrecord
280
     1
102
RTVSPost2010Prop28
280
     0
102
RTVSPost2010PropOp28
 70
     1
102
RTVSPost2010Prop29
280
     1
102
RTVSPost2010PropOp29
 70
     1
102
RTVSPost2010Prop30
280
     1
102
RTVSPost2010PropOp30
 70
     1
102
RTVSPost2010Prop31
280
     0
102
RTVSPost2010PropOp31
 70
     1
102
RTVSPost2010Prop32
280
     0
102
RTVSPost2010PropOp32
 70
     1
102
RTVSPost2010Prop33
280
     0
102
RTVSPost2010PropOp33
 70
     1
102
RTVSPost2010Prop34
280
     0
102
RTVSPost2010PropOp34
 70
     1
102
RTVSPost2010Prop35
280
     0
102
RTVSPost2010PropOp35
 70
     1
102
RTVSPost2010Prop36
280
     0
102
RTVSPost2010PropOp36
 70
     1
102
RTVSPost2010Prop37
 90
       50
102
RTVSPost2010PropOp37
 70
     1
102
RTVSPost2010Prop38
140
0.0
102
RTVSPost2010PropOp38
 70
     1
102
RTVSPost2010Prop39
140
1.0
102
RTVSPost2010PropOp39
 70
     1
102
RTVSPost2010Prop40
 90
        0
102
RTVSPost2010PropOp40
 70
     1
102
RTVSPost2010Prop41ColorIndex
 90
       18
102
RTVSPost2010Prop41ColorRGB
 90
        0
102
RTVSPost2010PropOp41
 70
     1
102
RTVSPost2010Prop42
 90
       50
102
RTVSPost2010PropOp42
 70
     1
102
RTVSPost2010Prop43
 90
        3
102
RTVSPost2010PropOp43
 70
     1
102
RTVSPost2010Prop44ColorIndex
 90
        5
102
RTVSPost2010Prop44ColorRGB
 90
      255
102
RTVSPost2010PropOp44
 70
     1
102
RTVSPost2010Prop45
280
     0
102
RTVSPost2010PropOp45
 70
     1
102
RTVSPost2010Prop46
 90
       50
102
RTVSPost2010PropOp46
 70
     1
102
RTVSPost2010Prop47
 90
       50
102
RTVSPost2010PropOp47
 70
     1
102
RTVSPost2010Prop48
 90
       50
102
RTVSPost2010PropOp48
 70
     1
102
RTVSPost2010Prop49
280
     0
102
RTVSPost2010PropOp49
 70
     1
102
RTVSPost2010Prop50
 90
       50
102
RTVSPost2010PropOp50
 70
     1
102
RTVSPost2010Prop51ColorIndex
 90
      256
102
RTVSPost2010Prop51ColorRGB
 90
-16777216
102
RTVSPost2010PropOp51
 70
     0
102
RTVSPost2010Prop52
140
1.0
102
RTVSPost2010PropOp52
 70
     0
102
RTVSPost2010Prop53
 90
        2
102
RTVSPost2010PropOp53
 70
     1
102
RTVSPost2010Prop54
  1
strokes_ogs.tif
102
RTVSPost2010PropOp54
 70
     1
102
RTVSPost2010Prop55
280
     0
102
RTVSPost2010PropOp55
 70
     1
102
RTVSPost2010Prop56
140
1.0
102
RTVSPost2010PropOp56
 70
     1
102
RTVSPost2010Prop57
140
1.0
102
RTVSPost2010PropOp57
 70
     1
102
RTVSPropertyOp0
 70
     1
102
RTVSPropertyOp1
 70
     1
102
RTVSPropertyOp2
 70
     1
102
RTVSPropertyOp3
 70
     1
102
RTVSPropertyOp4
 70
     1
102
RTVSPropertyOp5
 70
     1
102
RTVSPropertyOp6
 70
     1
102
RTVSPropertyOp7
 70
     1
102
RTVSPropertyOp8
 70
     1
102
RTVSPropertyOp9
 70
     1
102
RTVSPropertyOp10
 70
     1
102
RTVSPropertyOp11
 70
     1
102
RTVSPropertyOp12
 70
     1
102
RTVSPropertyOp13
 70
     1
102
RTVSPropertyOp14
 70
     1
102
RTVSPropertyOp15
 70
     1
102
RTVSPropertyOp16
 70
     1
102
RTVSPropertyOp17
 70
     1
102
RTVSPropertyOp18
 70
     1
102
RTVSPropertyOp19
 70
     1
102
RTVSPropertyOp20
 70
     1
102
RTVSPropertyOp21
 70
     1
102
RTVSPropertyOp22
 70
     1
102
RTVSPropertyOp23
 70
     1
102
RTVSPropertyOp24
 70
     1
102
RTVSPropertyOp25
 70
     1
102
RTVSPropertyOp26
 70
     1
102
RTVSPropertyOp27
 70
     1
102
RTVSPropertyOp28
 70
     1
102
RTVSPropertyOp29
 70
     1
102
RTVSPropertyOp30
 70
     1
102
RTVSPropertyOp31
 70
     1
102
RTVSPropertyOp32
 70
     1
102
RTVSPropertyOp33
 70
     1
102
RTVSPropertyOp34
 70
     1
102
RTVSPropertyOp35
 70
     1
102
RTVSPropertyOp36
 70
     1
102
RTVSPropertyOp37
 70
     1
102
RTVSPropertyOp38
 70
     1
102
RTVSPropertyOp39
 70
     1
102
RTVSPropertyOp40
 70
     1
102
RTVSPropertyOp41
 70
     1
102
RTVSPropertyOp42
 70
     1
102
RTVSPropertyOp43
 70
     1
102
RTVSPropertyOp44
 70
     1
102
RTVSPropertyOp45
 70
     1
102
RTVSPropertyOp46
 70
     1
102
RTVSPropertyOp47
 70
     1
102
RTVSPropertyOp48
 70
     1
102
RTVSPropertyOp49
 70
     1
102
RTVSPropertyOp50
 70
     1
102
RTVSPropertyOp51
 70
     0
102
RTVSPropertyOp52
 70
     0
102
RTVSPropertyOp53
 70
     1
102
RTVSPropertyOp54
 70
     1
102
RTVSPropertyOp55
 70
     1
102
RTVSPropertyOp56
 70
     1
102
RTVSPropertyOp57
 70
     1
102
RTVSPropertyOp58
 70
     1
102
RTVSPropertyOp59
 70
     1
102
RTVSPropertyOp60
 70
     1
102
RTVSPropertyOp61
 70
     1
102
RTVSPropertyOp62
 70
     1
  0
XRECORD
  5
11B54
102
{ACAD_REACTORS
330
11B53
102
}
330
11B53
100
AcDbXrecord
280
     1
102
RTVSPost2010Prop28
280
     0
102
RTVSPost2010PropOp28
 70
     1
102
RTVSPost2010Prop29
280
     1
102
RTVSPost2010PropOp29
 70
     1
102
RTVSPost2010Prop30
280
     1
102
RTVSPost2010PropOp30
 70
     1
102
RTVSPost2010Prop31
280
     0
102
RTVSPost2010PropOp31
 70
     1
102
RTVSPost2010Prop32
280
     0
102
RTVSPost2010PropOp32
 70
     1
102
RTVSPost2010Prop33
280
     0
102
RTVSPost2010PropOp33
 70
     1
102
RTVSPost2010Prop34
280
     0
102
RTVSPost2010PropOp34
 70
     1
102
RTVSPost2010Prop35
280
     0
102
RTVSPost2010PropOp35
 70
     1
102
RTVSPost2010Prop36
280
     0
102
RTVSPost2010PropOp36
 70
     1
102
RTVSPost2010Prop37
 90
       50
102
RTVSPost2010PropOp37
 70
     1
102
RTVSPost2010Prop38
140
0.0
102
RTVSPost2010PropOp38
 70
     1
102
RTVSPost2010Prop39
140
1.0
102
RTVSPost2010PropOp39
 70
     1
102
RTVSPost2010Prop40
 90
        0
102
RTVSPost2010PropOp40
 70
     1
102
RTVSPost2010Prop41ColorIndex
 90
       18
102
RTVSPost2010Prop41ColorRGB
 90
        0
102
RTVSPost2010PropOp41
 70
     1
102
RTVSPost2010Prop42
 90
       50
102
RTVSPost2010PropOp42
 70
     1
102
RTVSPost2010Prop43
 90
        3
102
RTVSPost2010PropOp43
 70
     1
102
RTVSPost2010Prop44ColorIndex
 90
        5
102
RTVSPost2010Prop44ColorRGB
 90
      255
102
RTVSPost2010PropOp44
 70
     1
102
RTVSPost2010Prop45
280
     0
102
RTVSPost2010PropOp45
 70
     1
102
RTVSPost2010Prop46
 90
       50
102
RTVSPost2010PropOp46
 70
     1
102
RTVSPost2010Prop47
 90
       50
102
RTVSPost2010PropOp47
 70
     1
102
RTVSPost2010Prop48
 90
       50
102
RTVSPost2010PropOp48
 70
     1
102
RTVSPost2010Prop49
280
     0
102
RTVSPost2010PropOp49
 70
     1
102
RTVSPost2010Prop50
 90
       50
102
RTVSPost2010PropOp50
 70
     1
102
RTVSPost2010Prop51ColorIndex
 90
      256
102
RTVSPost2010Prop51ColorRGB
 90
-16777216
102
RTVSPost2010PropOp51
 70
     0
102
RTVSPost2010Prop52
140
1.0
102
RTVSPost2010PropOp52
 70
     0
102
RTVSPost2010Prop53
 90
        2
102
RTVSPost2010PropOp53
 70
     1
102
RTVSPost2010Prop54
  1
strokes_ogs.tif
102
RTVSPost2010PropOp54
 70
     1
102
RTVSPost2010Prop55
280
     0
102
RTVSPost2010PropOp55
 70
     1
102
RTVSPost2010Prop56
140
1.0
102
RTVSPost2010PropOp56
 70
     1
102
RTVSPost2010Prop57
140
1.0
102
RTVSPost2010PropOp57
 70
     1
102
RTVSPropertyOp0
 70
     1
102
RTVSPropertyOp1
 70
     1
102
RTVSPropertyOp2
 70
     1
102
RTVSPropertyOp3
 70
     1
102
RTVSPropertyOp4
 70
     1
102
RTVSPropertyOp5
 70
     1
102
RTVSPropertyOp6
 70
     1
102
RTVSPropertyOp7
 70
     1
102
RTVSPropertyOp8
 70
     1
102
RTVSPropertyOp9
 70
     1
102
RTVSPropertyOp10
 70
     1
102
RTVSPropertyOp11
 70
     1
102
RTVSPropertyOp12
 70
     1
102
RTVSPropertyOp13
 70
     1
102
RTVSPropertyOp14
 70
     1
102
RTVSPropertyOp15
 70
     1
102
RTVSPropertyOp16
 70
     1
102
RTVSPropertyOp17
 70
     1
102
RTVSPropertyOp18
 70
     1
102
RTVSPropertyOp19
 70
     1
102
RTVSPropertyOp20
 70
     1
102
RTVSPropertyOp21
 70
     1
102
RTVSPropertyOp22
 70
     1
102
RTVSPropertyOp23
 70
     1
102
RTVSPropertyOp24
 70
     1
102
RTVSPropertyOp25
 70
     1
102
RTVSPropertyOp26
 70
     1
102
RTVSPropertyOp27
 70
     1
102
RTVSPropertyOp28
 70
     1
102
RTVSPropertyOp29
 70
     1
102
RTVSPropertyOp30
 70
     1
102
RTVSPropertyOp31
 70
     1
102
RTVSPropertyOp32
 70
     1
102
RTVSPropertyOp33
 70
     1
102
RTVSPropertyOp34
 70
     1
102
RTVSPropertyOp35
 70
     1
102
RTVSPropertyOp36
 70
     1
102
RTVSPropertyOp37
 70
     1
102
RTVSPropertyOp38
 70
     1
102
RTVSPropertyOp39
 70
     1
102
RTVSPropertyOp40
 70
     1
102
RTVSPropertyOp41
 70
     1
102
RTVSPropertyOp42
 70
     1
102
RTVSPropertyOp43
 70
     1
102
RTVSPropertyOp44
 70
     1
102
RTVSPropertyOp45
 70
     1
102
RTVSPropertyOp46
 70
     1
102
RTVSPropertyOp47
 70
     1
102
RTVSPropertyOp48
 70
     1
102
RTVSPropertyOp49
 70
     1
102
RTVSPropertyOp50
 70
     1
102
RTVSPropertyOp51
 70
     0
102
RTVSPropertyOp52
 70
     0
102
RTVSPropertyOp53
 70
     1
102
RTVSPropertyOp54
 70
     1
102
RTVSPropertyOp55
 70
     1
102
RTVSPropertyOp56
 70
     1
102
RTVSPropertyOp57
 70
     1
102
RTVSPropertyOp58
 70
     1
102
RTVSPropertyOp59
 70
     1
102
RTVSPropertyOp60
 70
     1
102
RTVSPropertyOp61
 70
     1
102
RTVSPropertyOp62
 70
     1
  0
XRECORD
  5
11B4E
102
{ACAD_REACTORS
330
11B4D
102
}
330
11B4D
100
AcDbXrecord
280
     1
102
RTVSPost2010Prop28
280
     0
102
RTVSPost2010PropOp28
 70
     1
102
RTVSPost2010Prop29
280
     1
102
RTVSPost2010PropOp29
 70
     1
102
RTVSPost2010Prop30
280
     1
102
RTVSPost2010PropOp30
 70
     1
102
RTVSPost2010Prop31
280
     0
102
RTVSPost2010PropOp31
 70
     1
102
RTVSPost2010Prop32
280
     0
102
RTVSPost2010PropOp32
 70
     1
102
RTVSPost2010Prop33
280
     0
102
RTVSPost2010PropOp33
 70
     1
102
RTVSPost2010Prop34
280
     0
102
RTVSPost2010PropOp34
 70
     1
102
RTVSPost2010Prop35
280
     0
102
RTVSPost2010PropOp35
 70
     1
102
RTVSPost2010Prop36
280
     0
102
RTVSPost2010PropOp36
 70
     1
102
RTVSPost2010Prop37
 90
       50
102
RTVSPost2010PropOp37
 70
     1
102
RTVSPost2010Prop38
140
0.0
102
RTVSPost2010PropOp38
 70
     1
102
RTVSPost2010Prop39
140
1.0
102
RTVSPost2010PropOp39
 70
     1
102
RTVSPost2010Prop40
 90
        0
102
RTVSPost2010PropOp40
 70
     1
102
RTVSPost2010Prop41ColorIndex
 90
       18
102
RTVSPost2010Prop41ColorRGB
 90
        0
102
RTVSPost2010PropOp41
 70
     1
102
RTVSPost2010Prop42
 90
       50
102
RTVSPost2010PropOp42
 70
     1
102
RTVSPost2010Prop43
 90
        3
102
RTVSPost2010PropOp43
 70
     1
102
RTVSPost2010Prop44ColorIndex
 90
        5
102
RTVSPost2010Prop44ColorRGB
 90
      255
102
RTVSPost2010PropOp44
 70
     1
102
RTVSPost2010Prop45
280
     0
102
RTVSPost2010PropOp45
 70
     1
102
RTVSPost2010Prop46
 90
       50
102
RTVSPost2010PropOp46
 70
     1
102
RTVSPost2010Prop47
 90
       50
102
RTVSPost2010PropOp47
 70
     1
102
RTVSPost2010Prop48
 90
       50
102
RTVSPost2010PropOp48
 70
     1
102
RTVSPost2010Prop49
280
     0
102
RTVSPost2010PropOp49
 70
     1
102
RTVSPost2010Prop50
 90
       50
102
RTVSPost2010PropOp50
 70
     1
102
RTVSPost2010Prop51ColorIndex
 90
      256
102
RTVSPost2010Prop51ColorRGB
 90
-16777216
102
RTVSPost2010PropOp51
 70
     0
102
RTVSPost2010Prop52
140
1.0
102
RTVSPost2010PropOp52
 70
     0
102
RTVSPost2010Prop53
 90
        2
102
RTVSPost2010PropOp53
 70
     1
102
RTVSPost2010Prop54
  1
strokes_ogs.tif
102
RTVSPost2010PropOp54
 70
     1
102
RTVSPost2010Prop55
280
     0
102
RTVSPost2010PropOp55
 70
     1
102
RTVSPost2010Prop56
140
1.0
102
RTVSPost2010PropOp56
 70
     1
102
RTVSPost2010Prop57
140
1.0
102
RTVSPost2010PropOp57
 70
     1
102
RTVSPropertyOp0
 70
     1
102
RTVSPropertyOp1
 70
     1
102
RTVSPropertyOp2
 70
     1
102
RTVSPropertyOp3
 70
     1
102
RTVSPropertyOp4
 70
     1
102
RTVSPropertyOp5
 70
     1
102
RTVSPropertyOp6
 70
     1
102
RTVSPropertyOp7
 70
     1
102
RTVSPropertyOp8
 70
     1
102
RTVSPropertyOp9
 70
     1
102
RTVSPropertyOp10
 70
     1
102
RTVSPropertyOp11
 70
     1
102
RTVSPropertyOp12
 70
     1
102
RTVSPropertyOp13
 70
     1
102
RTVSPropertyOp14
 70
     1
102
RTVSPropertyOp15
 70
     1
102
RTVSPropertyOp16
 70
     1
102
RTVSPropertyOp17
 70
     1
102
RTVSPropertyOp18
 70
     1
102
RTVSPropertyOp19
 70
     1
102
RTVSPropertyOp20
 70
     1
102
RTVSPropertyOp21
 70
     1
102
RTVSPropertyOp22
 70
     1
102
RTVSPropertyOp23
 70
     1
102
RTVSPropertyOp24
 70
     1
102
RTVSPropertyOp25
 70
     1
102
RTVSPropertyOp26
 70
     1
102
RTVSPropertyOp27
 70
     1
102
RTVSPropertyOp28
 70
     1
102
RTVSPropertyOp29
 70
     1
102
RTVSPropertyOp30
 70
     1
102
RTVSPropertyOp31
 70
     1
102
RTVSPropertyOp32
 70
     1
102
RTVSPropertyOp33
 70
     1
102
RTVSPropertyOp34
 70
     1
102
RTVSPropertyOp35
 70
     1
102
RTVSPropertyOp36
 70
     1
102
RTVSPropertyOp37
 70
     1
102
RTVSPropertyOp38
 70
     1
102
RTVSPropertyOp39
 70
     1
102
RTVSPropertyOp40
 70
     1
102
RTVSPropertyOp41
 70
     1
102
RTVSPropertyOp42
 70
     1
102
RTVSPropertyOp43
 70
     1
102
RTVSPropertyOp44
 70
     1
102
RTVSPropertyOp45
 70
     1
102
RTVSPropertyOp46
 70
     1
102
RTVSPropertyOp47
 70
     1
102
RTVSPropertyOp48
 70
     1
102
RTVSPropertyOp49
 70
     1
102
RTVSPropertyOp50
 70
     1
102
RTVSPropertyOp51
 70
     0
102
RTVSPropertyOp52
 70
     0
102
RTVSPropertyOp53
 70
     1
102
RTVSPropertyOp54
 70
     1
102
RTVSPropertyOp55
 70
     1
102
RTVSPropertyOp56
 70
     1
102
RTVSPropertyOp57
 70
     1
102
RTVSPropertyOp58
 70
     1
102
RTVSPropertyOp59
 70
     1
102
RTVSPropertyOp60
 70
     1
102
RTVSPropertyOp61
 70
     1
102
RTVSPropertyOp62
 70
     1
  0
XRECORD
  5
11B50
102
{ACAD_REACTORS
330
11B4F
102
}
330
11B4F
100
AcDbXrecord
280
     1
102
RTVSPost2010Prop28
280
     0
102
RTVSPost2010PropOp28
 70
     1
102
RTVSPost2010Prop29
280
     1
102
RTVSPost2010PropOp29
 70
     1
102
RTVSPost2010Prop30
280
     1
102
RTVSPost2010PropOp30
 70
     1
102
RTVSPost2010Prop31
280
     0
102
RTVSPost2010PropOp31
 70
     1
102
RTVSPost2010Prop32
280
     0
102
RTVSPost2010PropOp32
 70
     1
102
RTVSPost2010Prop33
280
     0
102
RTVSPost2010PropOp33
 70
     1
102
RTVSPost2010Prop34
280
     0
102
RTVSPost2010PropOp34
 70
     1
102
RTVSPost2010Prop35
280
     0
102
RTVSPost2010PropOp35
 70
     1
102
RTVSPost2010Prop36
280
     0
102
RTVSPost2010PropOp36
 70
     1
102
RTVSPost2010Prop37
 90
       50
102
RTVSPost2010PropOp37
 70
     1
102
RTVSPost2010Prop38
140
0.0
102
RTVSPost2010PropOp38
 70
     1
102
RTVSPost2010Prop39
140
1.0
102
RTVSPost2010PropOp39
 70
     1
102
RTVSPost2010Prop40
 90
        0
102
RTVSPost2010PropOp40
 70
     1
102
RTVSPost2010Prop41ColorIndex
 90
       18
102
RTVSPost2010Prop41ColorRGB
 90
        0
102
RTVSPost2010PropOp41
 70
     1
102
RTVSPost2010Prop42
 90
       50
102
RTVSPost2010PropOp42
 70
     1
102
RTVSPost2010Prop43
 90
        3
102
RTVSPost2010PropOp43
 70
     1
102
RTVSPost2010Prop44ColorIndex
 90
        5
102
RTVSPost2010Prop44ColorRGB
 90
      255
102
RTVSPost2010PropOp44
 70
     1
102
RTVSPost2010Prop45
280
     0
102
RTVSPost2010PropOp45
 70
     1
102
RTVSPost2010Prop46
 90
       50
102
RTVSPost2010PropOp46
 70
     1
102
RTVSPost2010Prop47
 90
       50
102
RTVSPost2010PropOp47
 70
     1
102
RTVSPost2010Prop48
 90
       50
102
RTVSPost2010PropOp48
 70
     1
102
RTVSPost2010Prop49
280
     0
102
RTVSPost2010PropOp49
 70
     1
102
RTVSPost2010Prop50
 90
       50
102
RTVSPost2010PropOp50
 70
     1
102
RTVSPost2010Prop51ColorIndex
 90
      256
102
RTVSPost2010Prop51ColorRGB
 90
-16777216
102
RTVSPost2010PropOp51
 70
     0
102
RTVSPost2010Prop52
140
1.0
102
RTVSPost2010PropOp52
 70
     0
102
RTVSPost2010Prop53
 90
        2
102
RTVSPost2010PropOp53
 70
     1
102
RTVSPost2010Prop54
  1
strokes_ogs.tif
102
RTVSPost2010PropOp54
 70
     1
102
RTVSPost2010Prop55
280
     0
102
RTVSPost2010PropOp55
 70
     1
102
RTVSPost2010Prop56
140
1.0
102
RTVSPost2010PropOp56
 70
     1
102
RTVSPost2010Prop57
140
1.0
102
RTVSPost2010PropOp57
 70
     1
102
RTVSPropertyOp0
 70
     1
102
RTVSPropertyOp1
 70
     1
102
RTVSPropertyOp2
 70
     1
102
RTVSPropertyOp3
 70
     1
102
RTVSPropertyOp4
 70
     1
102
RTVSPropertyOp5
 70
     1
102
RTVSPropertyOp6
 70
     1
102
RTVSPropertyOp7
 70
     1
102
RTVSPropertyOp8
 70
     1
102
RTVSPropertyOp9
 70
     1
102
RTVSPropertyOp10
 70
     1
102
RTVSPropertyOp11
 70
     1
102
RTVSPropertyOp12
 70
     1
102
RTVSPropertyOp13
 70
     1
102
RTVSPropertyOp14
 70
     1
102
RTVSPropertyOp15
 70
     1
102
RTVSPropertyOp16
 70
     1
102
RTVSPropertyOp17
 70
     1
102
RTVSPropertyOp18
 70
     1
102
RTVSPropertyOp19
 70
     1
102
RTVSPropertyOp20
 70
     1
102
RTVSPropertyOp21
 70
     1
102
RTVSPropertyOp22
 70
     1
102
RTVSPropertyOp23
 70
     1
102
RTVSPropertyOp24
 70
     1
102
RTVSPropertyOp25
 70
     1
102
RTVSPropertyOp26
 70
     1
102
RTVSPropertyOp27
 70
     1
102
RTVSPropertyOp28
 70
     1
102
RTVSPropertyOp29
 70
     1
102
RTVSPropertyOp30
 70
     1
102
RTVSPropertyOp31
 70
     1
102
RTVSPropertyOp32
 70
     1
102
RTVSPropertyOp33
 70
     1
102
RTVSPropertyOp34
 70
     1
102
RTVSPropertyOp35
 70
     1
102
RTVSPropertyOp36
 70
     1
102
RTVSPropertyOp37
 70
     1
102
RTVSPropertyOp38
 70
     1
102
RTVSPropertyOp39
 70
     1
102
RTVSPropertyOp40
 70
     1
102
RTVSPropertyOp41
 70
     1
102
RTVSPropertyOp42
 70
     1
102
RTVSPropertyOp43
 70
     1
102
RTVSPropertyOp44
 70
     1
102
RTVSPropertyOp45
 70
     1
102
RTVSPropertyOp46
 70
     1
102
RTVSPropertyOp47
 70
     1
102
RTVSPropertyOp48
 70
     1
102
RTVSPropertyOp49
 70
     1
102
RTVSPropertyOp50
 70
     1
102
RTVSPropertyOp51
 70
     0
102
RTVSPropertyOp52
 70
     0
102
RTVSPropertyOp53
 70
     1
102
RTVSPropertyOp54
 70
     1
102
RTVSPropertyOp55
 70
     1
102
RTVSPropertyOp56
 70
     1
102
RTVSPropertyOp57
 70
     1
102
RTVSPropertyOp58
 70
     1
102
RTVSPropertyOp59
 70
     1
102
RTVSPropertyOp60
 70
     1
102
RTVSPropertyOp61
 70
     1
102
RTVSPropertyOp62
 70
     1
  0
XRECORD
  5
11B3E
102
{ACAD_REACTORS
330
11B3D
102
}
330
11B3D
100
AcDbXrecord
280
     1
102
RTVSPost2010Prop28
280
     0
102
RTVSPost2010PropOp28
 70
     1
102
RTVSPost2010Prop29
280
     1
102
RTVSPost2010PropOp29
 70
     1
102
RTVSPost2010Prop30
280
     1
102
RTVSPost2010PropOp30
 70
     1
102
RTVSPost2010Prop31
280
     0
102
RTVSPost2010PropOp31
 70
     1
102
RTVSPost2010Prop32
280
     0
102
RTVSPost2010PropOp32
 70
     1
102
RTVSPost2010Prop33
280
     0
102
RTVSPost2010PropOp33
 70
     1
102
RTVSPost2010Prop34
280
     0
102
RTVSPost2010PropOp34
 70
     1
102
RTVSPost2010Prop35
280
     0
102
RTVSPost2010PropOp35
 70
     1
102
RTVSPost2010Prop36
280
     0
102
RTVSPost2010PropOp36
 70
     1
102
RTVSPost2010Prop37
 90
       50
102
RTVSPost2010PropOp37
 70
     1
102
RTVSPost2010Prop38
140
0.0
102
RTVSPost2010PropOp38
 70
     1
102
RTVSPost2010Prop39
140
1.0
102
RTVSPost2010PropOp39
 70
     1
102
RTVSPost2010Prop40
 90
        0
102
RTVSPost2010PropOp40
 70
     1
102
RTVSPost2010Prop41ColorIndex
 90
       18
102
RTVSPost2010Prop41ColorRGB
 90
        0
102
RTVSPost2010PropOp41
 70
     1
102
RTVSPost2010Prop42
 90
       50
102
RTVSPost2010PropOp42
 70
     1
102
RTVSPost2010Prop43
 90
        3
102
RTVSPost2010PropOp43
 70
     1
102
RTVSPost2010Prop44ColorIndex
 90
        5
102
RTVSPost2010Prop44ColorRGB
 90
      255
102
RTVSPost2010PropOp44
 70
     1
102
RTVSPost2010Prop45
280
     0
102
RTVSPost2010PropOp45
 70
     1
102
RTVSPost2010Prop46
 90
       50
102
RTVSPost2010PropOp46
 70
     1
102
RTVSPost2010Prop47
 90
       50
102
RTVSPost2010PropOp47
 70
     1
102
RTVSPost2010Prop48
 90
       50
102
RTVSPost2010PropOp48
 70
     1
102
RTVSPost2010Prop49
280
     0
102
RTVSPost2010PropOp49
 70
     1
102
RTVSPost2010Prop50
 90
       50
102
RTVSPost2010PropOp50
 70
     1
102
RTVSPost2010Prop51ColorIndex
 90
      256
102
RTVSPost2010Prop51ColorRGB
 90
-16777216
102
RTVSPost2010PropOp51
 70
     0
102
RTVSPost2010Prop52
140
1.0
102
RTVSPost2010PropOp52
 70
     0
102
RTVSPost2010Prop53
 90
        2
102
RTVSPost2010PropOp53
 70
     1
102
RTVSPost2010Prop54
  1
strokes_ogs.tif
102
RTVSPost2010PropOp54
 70
     1
102
RTVSPost2010Prop55
280
     0
102
RTVSPost2010PropOp55
 70
     1
102
RTVSPost2010Prop56
140
1.0
102
RTVSPost2010PropOp56
 70
     1
102
RTVSPost2010Prop57
140
1.0
102
RTVSPost2010PropOp57
 70
     1
102
RTVSPropertyOp0
 70
     1
102
RTVSPropertyOp1
 70
     1
102
RTVSPropertyOp2
 70
     1
102
RTVSPropertyOp3
 70
     1
102
RTVSPropertyOp4
 70
     1
102
RTVSPropertyOp5
 70
     1
102
RTVSPropertyOp6
 70
     1
102
RTVSPropertyOp7
 70
     1
102
RTVSPropertyOp8
 70
     1
102
RTVSPropertyOp9
 70
     1
102
RTVSPropertyOp10
 70
     1
102
RTVSPropertyOp11
 70
     1
102
RTVSPropertyOp12
 70
     1
102
RTVSPropertyOp13
 70
     1
102
RTVSPropertyOp14
 70
     1
102
RTVSPropertyOp15
 70
     1
102
RTVSPropertyOp16
 70
     1
102
RTVSPropertyOp17
 70
     1
102
RTVSPropertyOp18
 70
     1
102
RTVSPropertyOp19
 70
     1
102
RTVSPropertyOp20
 70
     1
102
RTVSPropertyOp21
 70
     1
102
RTVSPropertyOp22
 70
     1
102
RTVSPropertyOp23
 70
     1
102
RTVSPropertyOp24
 70
     1
102
RTVSPropertyOp25
 70
     1
102
RTVSPropertyOp26
 70
     1
102
RTVSPropertyOp27
 70
     1
102
RTVSPropertyOp28
 70
     1
102
RTVSPropertyOp29
 70
     1
102
RTVSPropertyOp30
 70
     1
102
RTVSPropertyOp31
 70
     1
102
RTVSPropertyOp32
 70
     1
102
RTVSPropertyOp33
 70
     1
102
RTVSPropertyOp34
 70
     1
102
RTVSPropertyOp35
 70
     1
102
RTVSPropertyOp36
 70
     1
102
RTVSPropertyOp37
 70
     1
102
RTVSPropertyOp38
 70
     1
102
RTVSPropertyOp39
 70
     1
102
RTVSPropertyOp40
 70
     1
102
RTVSPropertyOp41
 70
     1
102
RTVSPropertyOp42
 70
     1
102
RTVSPropertyOp43
 70
     1
102
RTVSPropertyOp44
 70
     1
102
RTVSPropertyOp45
 70
     1
102
RTVSPropertyOp46
 70
     1
102
RTVSPropertyOp47
 70
     1
102
RTVSPropertyOp48
 70
     1
102
RTVSPropertyOp49
 70
     1
102
RTVSPropertyOp50
 70
     1
102
RTVSPropertyOp51
 70
     0
102
RTVSPropertyOp52
 70
     0
102
RTVSPropertyOp53
 70
     1
102
RTVSPropertyOp54
 70
     1
102
RTVSPropertyOp55
 70
     1
102
RTVSPropertyOp56
 70
     1
102
RTVSPropertyOp57
 70
     1
102
RTVSPropertyOp58
 70
     1
102
RTVSPropertyOp59
 70
     1
102
RTVSPropertyOp60
 70
     1
102
RTVSPropertyOp61
 70
     1
102
RTVSPropertyOp62
 70
     1
  0
XRECORD
  5
11B32
102
{ACAD_REACTORS
330
11B31
102
}
330
11B31
100
AcDbXrecord
280
     1
102
RTVSPost2010Prop28
280
     0
102
RTVSPost2010PropOp28
 70
     1
102
RTVSPost2010Prop29
280
     1
102
RTVSPost2010PropOp29
 70
     1
102
RTVSPost2010Prop30
280
     1
102
RTVSPost2010PropOp30
 70
     1
102
RTVSPost2010Prop31
280
     0
102
RTVSPost2010PropOp31
 70
     1
102
RTVSPost2010Prop32
280
     0
102
RTVSPost2010PropOp32
 70
     1
102
RTVSPost2010Prop33
280
     0
102
RTVSPost2010PropOp33
 70
     1
102
RTVSPost2010Prop34
280
     0
102
RTVSPost2010PropOp34
 70
     1
102
RTVSPost2010Prop35
280
     0
102
RTVSPost2010PropOp35
 70
     1
102
RTVSPost2010Prop36
280
     0
102
RTVSPost2010PropOp36
 70
     1
102
RTVSPost2010Prop37
 90
       50
102
RTVSPost2010PropOp37
 70
     1
102
RTVSPost2010Prop38
140
0.0
102
RTVSPost2010PropOp38
 70
     1
102
RTVSPost2010Prop39
140
1.0
102
RTVSPost2010PropOp39
 70
     1
102
RTVSPost2010Prop40
 90
        0
102
RTVSPost2010PropOp40
 70
     1
102
RTVSPost2010Prop41ColorIndex
 90
       18
102
RTVSPost2010Prop41ColorRGB
 90
        0
102
RTVSPost2010PropOp41
 70
     1
102
RTVSPost2010Prop42
 90
       50
102
RTVSPost2010PropOp42
 70
     1
102
RTVSPost2010Prop43
 90
        3
102
RTVSPost2010PropOp43
 70
     1
102
RTVSPost2010Prop44ColorIndex
 90
        5
102
RTVSPost2010Prop44ColorRGB
 90
      255
102
RTVSPost2010PropOp44
 70
     1
102
RTVSPost2010Prop45
280
     0
102
RTVSPost2010PropOp45
 70
     1
102
RTVSPost2010Prop46
 90
       50
102
RTVSPost2010PropOp46
 70
     1
102
RTVSPost2010Prop47
 90
       50
102
RTVSPost2010PropOp47
 70
     1
102
RTVSPost2010Prop48
 90
       50
102
RTVSPost2010PropOp48
 70
     1
102
RTVSPost2010Prop49
280
     0
102
RTVSPost2010PropOp49
 70
     1
102
RTVSPost2010Prop50
 90
       50
102
RTVSPost2010PropOp50
 70
     1
102
RTVSPost2010Prop51ColorIndex
 90
      256
102
RTVSPost2010Prop51ColorRGB
 90
-16777216
102
RTVSPost2010PropOp51
 70
     0
102
RTVSPost2010Prop52
140
1.0
102
RTVSPost2010PropOp52
 70
     0
102
RTVSPost2010Prop53
 90
        2
102
RTVSPost2010PropOp53
 70
     1
102
RTVSPost2010Prop54
  1
strokes_ogs.tif
102
RTVSPost2010PropOp54
 70
     1
102
RTVSPost2010Prop55
280
     0
102
RTVSPost2010PropOp55
 70
     1
102
RTVSPost2010Prop56
140
1.0
102
RTVSPost2010PropOp56
 70
     1
102
RTVSPost2010Prop57
140
1.0
102
RTVSPost2010PropOp57
 70
     1
102
RTVSPropertyOp0
 70
     1
102
RTVSPropertyOp1
 70
     1
102
RTVSPropertyOp2
 70
     1
102
RTVSPropertyOp3
 70
     1
102
RTVSPropertyOp4
 70
     1
102
RTVSPropertyOp5
 70
     1
102
RTVSPropertyOp6
 70
     1
102
RTVSPropertyOp7
 70
     1
102
RTVSPropertyOp8
 70
     1
102
RTVSPropertyOp9
 70
     1
102
RTVSPropertyOp10
 70
     1
102
RTVSPropertyOp11
 70
     1
102
RTVSPropertyOp12
 70
     1
102
RTVSPropertyOp13
 70
     1
102
RTVSPropertyOp14
 70
     1
102
RTVSPropertyOp15
 70
     1
102
RTVSPropertyOp16
 70
     1
102
RTVSPropertyOp17
 70
     1
102
RTVSPropertyOp18
 70
     1
102
RTVSPropertyOp19
 70
     1
102
RTVSPropertyOp20
 70
     1
102
RTVSPropertyOp21
 70
     1
102
RTVSPropertyOp22
 70
     1
102
RTVSPropertyOp23
 70
     1
102
RTVSPropertyOp24
 70
     1
102
RTVSPropertyOp25
 70
     1
102
RTVSPropertyOp26
 70
     1
102
RTVSPropertyOp27
 70
     1
102
RTVSPropertyOp28
 70
     1
102
RTVSPropertyOp29
 70
     1
102
RTVSPropertyOp30
 70
     1
102
RTVSPropertyOp31
 70
     1
102
RTVSPropertyOp32
 70
     1
102
RTVSPropertyOp33
 70
     1
102
RTVSPropertyOp34
 70
     1
102
RTVSPropertyOp35
 70
     1
102
RTVSPropertyOp36
 70
     1
102
RTVSPropertyOp37
 70
     1
102
RTVSPropertyOp38
 70
     1
102
RTVSPropertyOp39
 70
     1
102
RTVSPropertyOp40
 70
     1
102
RTVSPropertyOp41
 70
     1
102
RTVSPropertyOp42
 70
     1
102
RTVSPropertyOp43
 70
     1
102
RTVSPropertyOp44
 70
     1
102
RTVSPropertyOp45
 70
     1
102
RTVSPropertyOp46
 70
     1
102
RTVSPropertyOp47
 70
     1
102
RTVSPropertyOp48
 70
     1
102
RTVSPropertyOp49
 70
     1
102
RTVSPropertyOp50
 70
     1
102
RTVSPropertyOp51
 70
     0
102
RTVSPropertyOp52
 70
     0
102
RTVSPropertyOp53
 70
     1
102
RTVSPropertyOp54
 70
     1
102
RTVSPropertyOp55
 70
     1
102
RTVSPropertyOp56
 70
     1
102
RTVSPropertyOp57
 70
     1
102
RTVSPropertyOp58
 70
     1
102
RTVSPropertyOp59
 70
     1
102
RTVSPropertyOp60
 70
     1
102
RTVSPropertyOp61
 70
     1
102
RTVSPropertyOp62
 70
     1
  0
XRECORD
  5
11B52
102
{ACAD_REACTORS
330
11B51
102
}
330
11B51
100
AcDbXrecord
280
     1
102
RTVSPost2010Prop28
280
     0
102
RTVSPost2010PropOp28
 70
     1
102
RTVSPost2010Prop29
280
     1
102
RTVSPost2010PropOp29
 70
     1
102
RTVSPost2010Prop30
280
     1
102
RTVSPost2010PropOp30
 70
     1
102
RTVSPost2010Prop31
280
     0
102
RTVSPost2010PropOp31
 70
     1
102
RTVSPost2010Prop32
280
     0
102
RTVSPost2010PropOp32
 70
     1
102
RTVSPost2010Prop33
280
     0
102
RTVSPost2010PropOp33
 70
     1
102
RTVSPost2010Prop34
280
     0
102
RTVSPost2010PropOp34
 70
     1
102
RTVSPost2010Prop35
280
     0
102
RTVSPost2010PropOp35
 70
     1
102
RTVSPost2010Prop36
280
     0
102
RTVSPost2010PropOp36
 70
     1
102
RTVSPost2010Prop37
 90
       50
102
RTVSPost2010PropOp37
 70
     1
102
RTVSPost2010Prop38
140
0.0
102
RTVSPost2010PropOp38
 70
     1
102
RTVSPost2010Prop39
140
1.0
102
RTVSPost2010PropOp39
 70
     1
102
RTVSPost2010Prop40
 90
        0
102
RTVSPost2010PropOp40
 70
     1
102
RTVSPost2010Prop41ColorIndex
 90
       18
102
RTVSPost2010Prop41ColorRGB
 90
        0
102
RTVSPost2010PropOp41
 70
     1
102
RTVSPost2010Prop42
 90
       50
102
RTVSPost2010PropOp42
 70
     1
102
RTVSPost2010Prop43
 90
        3
102
RTVSPost2010PropOp43
 70
     1
102
RTVSPost2010Prop44ColorIndex
 90
        5
102
RTVSPost2010Prop44ColorRGB
 90
      255
102
RTVSPost2010PropOp44
 70
     1
102
RTVSPost2010Prop45
280
     0
102
RTVSPost2010PropOp45
 70
     1
102
RTVSPost2010Prop46
 90
       50
102
RTVSPost2010PropOp46
 70
     1
102
RTVSPost2010Prop47
 90
       50
102
RTVSPost2010PropOp47
 70
     1
102
RTVSPost2010Prop48
 90
       50
102
RTVSPost2010PropOp48
 70
     1
102
RTVSPost2010Prop49
280
     0
102
RTVSPost2010PropOp49
 70
     1
102
RTVSPost2010Prop50
 90
       50
102
RTVSPost2010PropOp50
 70
     1
102
RTVSPost2010Prop51ColorIndex
 90
      256
102
RTVSPost2010Prop51ColorRGB
 90
-16777216
102
RTVSPost2010PropOp51
 70
     0
102
RTVSPost2010Prop52
140
1.0
102
RTVSPost2010PropOp52
 70
     0
102
RTVSPost2010Prop53
 90
        2
102
RTVSPost2010PropOp53
 70
     1
102
RTVSPost2010Prop54
  1
strokes_ogs.tif
102
RTVSPost2010PropOp54
 70
     1
102
RTVSPost2010Prop55
280
     0
102
RTVSPost2010PropOp55
 70
     1
102
RTVSPost2010Prop56
140
1.0
102
RTVSPost2010PropOp56
 70
     1
102
RTVSPost2010Prop57
140
1.0
102
RTVSPost2010PropOp57
 70
     1
102
RTVSPropertyOp0
 70
     1
102
RTVSPropertyOp1
 70
     1
102
RTVSPropertyOp2
 70
     1
102
RTVSPropertyOp3
 70
     1
102
RTVSPropertyOp4
 70
     1
102
RTVSPropertyOp5
 70
     1
102
RTVSPropertyOp6
 70
     1
102
RTVSPropertyOp7
 70
     1
102
RTVSPropertyOp8
 70
     1
102
RTVSPropertyOp9
 70
     1
102
RTVSPropertyOp10
 70
     1
102
RTVSPropertyOp11
 70
     1
102
RTVSPropertyOp12
 70
     1
102
RTVSPropertyOp13
 70
     1
102
RTVSPropertyOp14
 70
     1
102
RTVSPropertyOp15
 70
     1
102
RTVSPropertyOp16
 70
     1
102
RTVSPropertyOp17
 70
     1
102
RTVSPropertyOp18
 70
     1
102
RTVSPropertyOp19
 70
     1
102
RTVSPropertyOp20
 70
     1
102
RTVSPropertyOp21
 70
     1
102
RTVSPropertyOp22
 70
     1
102
RTVSPropertyOp23
 70
     1
102
RTVSPropertyOp24
 70
     1
102
RTVSPropertyOp25
 70
     1
102
RTVSPropertyOp26
 70
     1
102
RTVSPropertyOp27
 70
     1
102
RTVSPropertyOp28
 70
     1
102
RTVSPropertyOp29
 70
     1
102
RTVSPropertyOp30
 70
     1
102
RTVSPropertyOp31
 70
     1
102
RTVSPropertyOp32
 70
     1
102
RTVSPropertyOp33
 70
     1
102
RTVSPropertyOp34
 70
     1
102
RTVSPropertyOp35
 70
     1
102
RTVSPropertyOp36
 70
     1
102
RTVSPropertyOp37
 70
     1
102
RTVSPropertyOp38
 70
     1
102
RTVSPropertyOp39
 70
     1
102
RTVSPropertyOp40
 70
     1
102
RTVSPropertyOp41
 70
     1
102
RTVSPropertyOp42
 70
     1
102
RTVSPropertyOp43
 70
     1
102
RTVSPropertyOp44
 70
     1
102
RTVSPropertyOp45
 70
     1
102
RTVSPropertyOp46
 70
     1
102
RTVSPropertyOp47
 70
     1
102
RTVSPropertyOp48
 70
     1
102
RTVSPropertyOp49
 70
     1
102
RTVSPropertyOp50
 70
     1
102
RTVSPropertyOp51
 70
     0
102
RTVSPropertyOp52
 70
     0
102
RTVSPropertyOp53
 70
     1
102
RTVSPropertyOp54
 70
     1
102
RTVSPropertyOp55
 70
     1
102
RTVSPropertyOp56
 70
     1
102
RTVSPropertyOp57
 70
     1
102
RTVSPropertyOp58
 70
     1
102
RTVSPropertyOp59
 70
     1
102
RTVSPropertyOp60
 70
     1
102
RTVSPropertyOp61
 70
     1
102
RTVSPropertyOp62
 70
     1
  0
ENDSEC
  0
EOF
