  0
SECTION
  2
HEADER
  9
$ACADVER
  1
AC1015
  9
$ACADMAINTVER
 70
    18
  9
$DWGCODEPAGE
  3
ANSI_1252
  9
$INSBASE
 10
0.0
 20
0.0
 30
0.0
  9
$EXTMIN
 10
-149.3673698014665
 20
-153.0953058832037
 30
-0.0015258207003583
  9
$EXTMAX
 10
191.382752176587
 20
171.3632360188794
 30
0.0000000349246037
  9
$LIMMIN
 10
0.0
 20
0.0
  9
$LIMMAX
 10
420.0
 20
297.0
  9
$ORTHOMODE
 70
     0
  9
$REGENMODE
 70
     1
  9
$FILLMODE
 70
     1
  9
$QTEXTMODE
 70
     0
  9
$MIRRTEXT
 70
     0
  9
$LTSCALE
 40
1.0
  9
$ATTMODE
 70
     1
  9
$TEXTSIZE
 40
2.5
  9
$TRACEWID
 40
1.0
  9
$TEXTSTYLE
  7
Standard
  9
$CLAYER
  8
0
  9
$CELTYPE
  6
ByLayer
  9
$CECOLOR
 62
   256
  9
$CELTSCALE
 40
1.0
  9
$DISPSILH
 70
     0
  9
$DIMSCALE
 40
1.0
  9
$DIMASZ
 40
2.5
  9
$DIMEXO
 40
0.625
  9
$DIMDLI
 40
3.75
  9
$DIMRND
 40
0.0
  9
$DIMDLE
 40
0.0
  9
$DIMEXE
 40
1.25
  9
$DIMTP
 40
0.0
  9
$DIMTM
 40
0.0
  9
$DIMTXT
 40
2.5
  9
$DIMCEN
 40
2.5
  9
$DIMTSZ
 40
0.0
  9
$DIMTOL
 70
     0
  9
$DIMLIM
 70
     0
  9
$DIMTIH
 70
     0
  9
$DIMTOH
 70
     0
  9
$DIMSE1
 70
     0
  9
$DIMSE2
 70
     0
  9
$DIMTAD
 70
     1
  9
$DIMZIN
 70
     8
  9
$DIMBLK
  1

  9
$DIMASO
 70
     1
  9
$DIMSHO
 70
     1
  9
$DIMPOST
  1

  9
$DIMAPOST
  1

  9
$DIMALT
 70
     0
  9
$DIMALTD
 70
     3
  9
$DIMALTF
 40
0.03937007874016
  9
$DIMLFAC
 40
1.0
  9
$DIMTOFL
 70
     1
  9
$DIMTVP
 40
0.0
  9
$DIMTIX
 70
     0
  9
$DIMSOXD
 70
     0
  9
$DIMSAH
 70
     0
  9
$DIMBLK1
  1

  9
$DIMBLK2
  1

  9
$DIMSTYLE
  2
ISO-25
  9
$DIMCLRD
 70
     0
  9
$DIMCLRE
 70
     0
  9
$DIMCLRT
 70
     0
  9
$DIMTFAC
 40
1.0
  9
$DIMGAP
 40
0.625
  9
$DIMJUST
 70
     0
  9
$DIMSD1
 70
     0
  9
$DIMSD2
 70
     0
  9
$DIMTOLJ
 70
     0
  9
$DIMTZIN
 70
     8
  9
$DIMALTZ
 70
     0
  9
$DIMALTTZ
 70
     0
  9
$DIMUPT
 70
     0
  9
$DIMDEC
 70
     2
  9
$DIMTDEC
 70
     2
  9
$DIMALTU
 70
     2
  9
$DIMALTTD
 70
     3
  9
$DIMTXSTY
  7
Standard
  9
$DIMAUNIT
 70
     0
  9
$DIMADEC
 70
     0
  9
$DIMALTRND
 40
0.0
  9
$DIMAZIN
 70
     0
  9
$DIMDSEP
 70
    44
  9
$DIMATFIT
 70
     3
  9
$DIMFRAC
 70
     0
  9
$DIMLDRBLK
  1

  9
$DIMLUNIT
 70
     2
  9
$DIMLWD
 70
    -2
  9
$DIMLWE
 70
    -2
  9
$DIMTMOVE
 70
     0
  9
$LUNITS
 70
     2
  9
$LUPREC
 70
     4
  9
$SKETCHINC
 40
1.0
  9
$FILLETRAD
 40
0.0
  9
$AUNITS
 70
     0
  9
$AUPREC
 70
     0
  9
$MENU
  1
.
  9
$ELEVATION
 40
0.0
  9
$PELEVATION
 40
0.0
  9
$THICKNESS
 40
0.0
  9
$LIMCHECK
 70
     0
  9
$CHAMFERA
 40
0.0
  9
$CHAMFERB
 40
0.0
  9
$CHAMFERC
 40
0.0
  9
$CHAMFERD
 40
0.0
  9
$SKPOLY
 70
     0
  9
$TDCREATE
 40
2460286.622500000
  9
$TDUCREATE
 40
2460286.330833334
  9
$TDUPDATE
 40
2460287.382326389
  9
$TDUUPDATE
 40
2460287.090659722
  9
$TDINDWG
 40
0.0050462963
  9
$TDUSRTIMER
 40
0.0050462963
  9
$USRTIMER
 70
     1
  9
$ANGBASE
 50
0.0
  9
$ANGDIR
 70
     0
  9
$PDMODE
 70
     0
  9
$PDSIZE
 40
0.0
  9
$PLINEWID
 40
0.0
  9
$SPLFRAME
 70
     0
  9
$SPLINETYPE
 70
     6
  9
$SPLINESEGS
 70
     8
  9
$HANDSEED
  5
125A2
  9
$SURFTAB1
 70
     6
  9
$SURFTAB2
 70
     6
  9
$SURFTYPE
 70
     6
  9
$SURFU
 70
     6
  9
$SURFV
 70
     6
  9
$UCSBASE
  2

  9
$UCSNAME
  2

  9
$UCSORG
 10
0.0
 20
0.0
 30
0.0
  9
$UCSXDIR
 10
1.0
 20
0.0
 30
0.0
  9
$UCSYDIR
 10
0.0
 20
1.0
 30
0.0
  9
$UCSORTHOREF
  2

  9
$UCSORTHOVIEW
 70
     0
  9
$UCSORGTOP
 10
0.0
 20
0.0
 30
0.0
  9
$UCSORGBOTTOM
 10
0.0
 20
0.0
 30
0.0
  9
$UCSORGLEFT
 10
0.0
 20
0.0
 30
0.0
  9
$UCSORGRIGHT
 10
0.0
 20
0.0
 30
0.0
  9
$UCSORGFRONT
 10
0.0
 20
0.0
 30
0.0
  9
$UCSORGBACK
 10
0.0
 20
0.0
 30
0.0
  9
$PUCSBASE
  2

  9
$PUCSNAME
  2

  9
$PUCSORG
 10
0.0
 20
0.0
 30
0.0
  9
$PUCSXDIR
 10
1.0
 20
0.0
 30
0.0
  9
$PUCSYDIR
 10
0.0
 20
1.0
 30
0.0
  9
$PUCSORTHOREF
  2

  9
$PUCSORTHOVIEW
 70
     0
  9
$PUCSORGTOP
 10
0.0
 20
0.0
 30
0.0
  9
$PUCSORGBOTTOM
 10
0.0
 20
0.0
 30
0.0
  9
$PUCSORGLEFT
 10
0.0
 20
0.0
 30
0.0
  9
$PUCSORGRIGHT
 10
0.0
 20
0.0
 30
0.0
  9
$PUCSORGFRONT
 10
0.0
 20
0.0
 30
0.0
  9
$PUCSORGBACK
 10
0.0
 20
0.0
 30
0.0
  9
$USERI1
 70
     0
  9
$USERI2
 70
     0
  9
$USERI3
 70
     0
  9
$USERI4
 70
     0
  9
$USERI5
 70
     0
  9
$USERR1
 40
0.0
  9
$USERR2
 40
0.0
  9
$USERR3
 40
0.0
  9
$USERR4
 40
0.0
  9
$USERR5
 40
0.0
  9
$WORLDVIEW
 70
     1
  9
$SHADEDGE
 70
     3
  9
$SHADEDIF
 70
    70
  9
$TILEMODE
 70
     1
  9
$MAXACTVP
 70
    48
  9
$PINSBASE
 10
0.0
 20
0.0
 30
0.0
  9
$PLIMCHECK
 70
     0
  9
$PEXTMIN
 10
0.0
 20
0.0
 30
0.0
  9
$PEXTMAX
 10
0.0
 20
0.0
 30
0.0
  9
$PLIMMIN
 10
0.0
 20
0.0
  9
$PLIMMAX
 10
12.0
 20
9.0
  9
$UNITMODE
 70
     0
  9
$VISRETAIN
 70
     1
  9
$PLINEGEN
 70
     0
  9
$PSLTSCALE
 70
     1
  9
$TREEDEPTH
 70
  3020
  9
$CMLSTYLE
  2
Standard
  9
$CMLJUST
 70
     0
  9
$CMLSCALE
 40
20.0
  9
$PROXYGRAPHICS
 70
     1
  9
$MEASUREMENT
 70
     1
  9
$CELWEIGHT
370
    -1
  9
$ENDCAPS
280
     0
  9
$JOINSTYLE
280
     0
  9
$LWDISPLAY
290
     0
  9
$INSUNITS
 70
     4
  9
$HYPERLINKBASE
  1

  9
$STYLESHEET
  1

  9
$XEDIT
290
     1
  9
$CEPSNTYPE
380
     0
  9
$PSTYLEMODE
290
     1
  9
$FINGERPRINTGUID
  2
{F076C30E-3F10-754B-AD36-B589FE558AAC}
  9
$VERSIONGUID
  2
{62D640FC-D360-444E-9B44-6D59CEF869F6}
  9
$EXTNAMES
290
     1
  9
$PSVPSCALE
 40
0.0
  9
$OLESTARTUP
290
     0
  0
ENDSEC
  0
SECTION
  2
CLASSES
  0
CLASS
  1
ACDBDICTIONARYWDFLT
  2
AcDbDictionaryWithDefault
  3
ObjectDBX Classes
 90
        0
280
     0
281
     0
  0
CLASS
  1
ACDBPLACEHOLDER
  2
AcDbPlaceHolder
  3
ObjectDBX Classes
 90
        0
280
     0
281
     0
  0
CLASS
  1
LAYOUT
  2
AcDbLayout
  3
ObjectDBX Classes
 90
        0
280
     0
281
     0
  0
CLASS
  1
DICTIONARYVAR
  2
AcDbDictionaryVar
  3
ObjectDBX Classes
 90
        0
280
     0
281
     0
  0
CLASS
  1
TABLESTYLE
  2
AcDbTableStyle
  3
ObjectDBX Classes
 90
     4095
280
     0
281
     0
  0
CLASS
  1
MATERIAL
  2
AcDbMaterial
  3
ObjectDBX Classes
 90
     1153
280
     0
281
     0
  0
CLASS
  1
VISUALSTYLE
  2
AcDbVisualStyle
  3
ObjectDBX Classes
 90
     4095
280
     0
281
     0
  0
CLASS
  1
SCALE
  2
AcDbScale
  3
ObjectDBX Classes
 90
     1153
280
     0
281
     0
  0
CLASS
  1
MLEADERSTYLE
  2
AcDbMLeaderStyle
  3
ACDB_MLEADERSTYLE_CLASS
 90
     4095
280
     0
281
     0
  0
CLASS
  1
CELLSTYLEMAP
  2
AcDbCellStyleMap
  3
ObjectDBX Classes
 90
     1152
280
     0
281
     0
  0
CLASS
  1
EXACXREFPANELOBJECT
  2
ExAcXREFPanelObject
  3
EXAC_ESW
 90
    33793
280
     0
281
     0
  0
CLASS
  1
NPOCOLLECTION
  2
AcDbImpNonPersistentObjectsCollection
  3
ObjectDBX Classes
 90
    33921
280
     0
281
     0
  0
CLASS
  1
LAYER_INDEX
  2
AcDbLayerIndex
  3
ObjectDBX Classes
 90
    32768
280
     0
281
     0
  0
CLASS
  1
SPATIAL_INDEX
  2
AcDbSpatialIndex
  3
ObjectDBX Classes
 90
    32768
280
     0
281
     0
  0
CLASS
  1
IDBUFFER
  2
AcDbIdBuffer
  3
ObjectDBX Classes
 90
    32768
280
     0
281
     0
  0
CLASS
  1
ACDBSECTIONVIEWSTYLE
  2
AcDbSectionViewStyle
  3
ObjectDBX Classes
 90
     1025
280
     0
281
     0
  0
CLASS
  1
ACDBDETAILVIEWSTYLE
  2
AcDbDetailViewStyle
  3
ObjectDBX Classes
 90
     1025
280
     0
281
     0
  0
CLASS
  1
XRECORD
  2
AcDbXrecord
  3
ObjectDBX Classes
 90
        0
280
     0
281
     0
  0
ENDSEC
  0
SECTION
  2
TABLES
  0
TABLE
  2
VPORT
  5
8
102
{ACAD_XDICTIONARY
360
124B0
102
}
330
0
100
AcDbSymbolTable
 70
     1
  0
VPORT
  5
EA
330
8
100
AcDbSymbolTableRecord
100
AcDbViewportTableRecord
  2
*Active
 70
     0
 10
0.0
 20
0.0
 11
1.0
 21
1.0
 12
21.00769118756023
 22
9.133965067837834
 13
0.0
 23
0.0
 14
10.0
 24
10.0
 15
10.0
 25
10.0
 16
0.0
 26
0.0
 36
1.0
 17
0.0
 27
0.0
 37
0.0
 40
368.0769809752589
 41
0.9846153846153846
 42
50.0
 43
0.0
 44
0.0
 50
0.0
 51
0.0
 71
     0
 72
  1000
 73
     1
 74
     3
 75
     0
 76
     1
 77
     0
 78
     0
281
     0
 65
     1
110
0.0
120
0.0
130
0.0
111
1.0
121
0.0
131
0.0
112
0.0
122
1.0
132
0.0
 79
     0
146
0.0
1001
ACAD_NAV_VCDISPLAY
1070
     3
  0
ENDTAB
  0
TABLE
  2
LTYPE
  5
5
330
0
100
AcDbSymbolTable
 70
     1
  0
LTYPE
  5
14
330
5
100
AcDbSymbolTableRecord
100
AcDbLinetypeTableRecord
  2
ByBlock
 70
     0
  3

 72
    65
 73
     0
 40
0.0
  0
LTYPE
  5
15
330
5
100
AcDbSymbolTableRecord
100
AcDbLinetypeTableRecord
  2
ByLayer
 70
     0
  3

 72
    65
 73
     0
 40
0.0
  0
LTYPE
  5
16
330
5
100
AcDbSymbolTableRecord
100
AcDbLinetypeTableRecord
  2
Continuous
 70
     0
  3
Solid line
 72
    65
 73
     0
 40
0.0
  0
ENDTAB
  0
TABLE
  2
LAYER
  5
2
102
{ACAD_XDICTIONARY
360
1FF
102
}
330
0
100
AcDbSymbolTable
 70
     1
  0
LAYER
  5
10
102
{ACAD_XDICTIONARY
360
13C
102
}
330
2
100
AcDbSymbolTableRecord
100
AcDbLayerTableRecord
  2
0
 70
     0
 62
     7
  6
Continuous
370
    -3
390
F
  0
ENDTAB
  0
TABLE
  2
STYLE
  5
3
330
0
100
AcDbSymbolTable
 70
     1
  0
STYLE
  5
11
330
3
100
AcDbSymbolTableRecord
100
AcDbTextStyleTableRecord
  2
Standard
 70
     0
 40
0.0
 41
1.0
 50
0.0
 71
     0
 42
2.5
  3
arial.ttf
  4

1001
ACAD
1000
Arial
1071
       34
  0
ENDTAB
  0
TABLE
  2
VIEW
  5
6
330
0
100
AcDbSymbolTable
 70
     0
  0
ENDTAB
  0
TABLE
  2
UCS
  5
7
330
0
100
AcDbSymbolTable
 70
     0
  0
ENDTAB
  0
TABLE
  2
APPID
  5
9
330
0
100
AcDbSymbolTable
 70
     8
  0
APPID
  5
12
330
9
100
AcDbSymbolTableRecord
100
AcDbRegAppTableRecord
  2
ACAD
 70
     0
  0
APPID
  5
9E
330
9
100
AcDbSymbolTableRecord
100
AcDbRegAppTableRecord
  2
ACAD_PSEXT
 70
     0
  0
APPID
  5
133
330
9
100
AcDbSymbolTableRecord
100
AcDbRegAppTableRecord
  2
AcadAnnoPO
 70
     0
  0
APPID
  5
134
330
9
100
AcDbSymbolTableRecord
100
AcDbRegAppTableRecord
  2
AcadAnnotative
 70
     0
  0
APPID
  5
135
330
9
100
AcDbSymbolTableRecord
100
AcDbRegAppTableRecord
  2
ACAD_DSTYLE_DIMJAG
 70
     0
  0
APPID
  5
136
330
9
100
AcDbSymbolTableRecord
100
AcDbRegAppTableRecord
  2
ACAD_DSTYLE_DIMTALN
 70
     0
  0
APPID
  5
165
330
9
100
AcDbSymbolTableRecord
100
AcDbRegAppTableRecord
  2
ACAD_MLEADERVER
 70
     0
  0
APPID
  5
217
330
9
100
AcDbSymbolTableRecord
100
AcDbRegAppTableRecord
  2
ACAD_NAV_VCDISPLAY
 70
     0
  0
ENDTAB
  0
TABLE
  2
DIMSTYLE
  5
A
330
0
100
AcDbSymbolTable
 70
     1
100
AcDbDimStyleTable
 71
     0
  0
DIMSTYLE
105
27
330
A
100
AcDbSymbolTableRecord
100
AcDbDimStyleTableRecord
  2
ISO-25
 70
     0
 41
2.5
 42
0.625
 43
3.75
 44
1.25
 73
     0
 74
     0
 77
     1
 78
     8
140
2.5
141
2.5
143
0.03937007874016
147
0.625
171
     3
172
     1
271
     2
272
     2
274
     3
278
    44
283
     0
284
     8
340
11
  0
ENDTAB
  0
TABLE
  2
BLOCK_RECORD
  5
1
330
0
100
AcDbSymbolTable
 70
     7
  0
BLOCK_RECORD
  5
1F
102
{ACAD_XDICTIONARY
360
1CE
102
}
330
1
100
AcDbSymbolTableRecord
100
AcDbBlockTableRecord
  2
*Model_Space
340
22
  0
BLOCK_RECORD
  5
D2
102
{ACAD_XDICTIONARY
360
12463
102
}
330
1
100
AcDbSymbolTableRecord
100
AcDbBlockTableRecord
  2
*Paper_Space
340
D3
  0
BLOCK_RECORD
  5
D6
102
{ACAD_XDICTIONARY
360
12465
102
}
330
1
100
AcDbSymbolTableRecord
100
AcDbBlockTableRecord
  2
*Paper_Space0
340
D7
  0
BLOCK_RECORD
  5
121F2
330
1
100
AcDbSymbolTableRecord
100
AcDbBlockTableRecord
  2
SBE64_83-F-Front
340
0
102
{BLKREFS
331
12459
102
}
  0
BLOCK_RECORD
  5
1225E
330
1
100
AcDbSymbolTableRecord
100
AcDbBlockTableRecord
  2
SBE64_83-F-Left
340
0
102
{BLKREFS
331
1245A
102
}
  0
BLOCK_RECORD
  5
12293
330
1
100
AcDbSymbolTableRecord
100
AcDbBlockTableRecord
  2
SBE64_83-F-Right
340
0
102
{BLKREFS
331
1245B
102
}
  0
BLOCK_RECORD
  5
122C8
330
1
100
AcDbSymbolTableRecord
100
AcDbBlockTableRecord
  2
SBE64_83-F-Top
340
0
102
{BLKREFS
331
1245C
102
}
  0
BLOCK_RECORD
  5
12328
330
1
100
AcDbSymbolTableRecord
100
AcDbBlockTableRecord
  2
SBE64_83-F-Bottom
340
0
102
{BLKREFS
331
1245D
102
}
  0
BLOCK_RECORD
  5
1235D
330
1
100
AcDbSymbolTableRecord
100
AcDbBlockTableRecord
  2
SBE64_83-F-ISO
340
0
102
{BLKREFS
331
1245E
102
}
  0
ENDTAB
  0
ENDSEC
  0
SECTION
  2
BLOCKS
  0
BLOCK
  5
20
330
1F
100
AcDbEntity
  8
0
100
AcDbBlockBegin
  2
*Model_Space
 70
     0
 10
0.0
 20
0.0
 30
0.0
  3
*Model_Space
  1

  0
ENDBLK
  5
21
330
1F
100
AcDbEntity
  8
0
100
AcDbBlockEnd
  0
BLOCK
  5
D4
330
D2
100
AcDbEntity
 67
     1
  8
0
100
AcDbBlockBegin
  2
*Paper_Space
 70
     0
 10
0.0
 20
0.0
 30
0.0
  3
*Paper_Space
  1

  0
ENDBLK
  5
D5
330
D2
100
AcDbEntity
 67
     1
  8
0
100
AcDbBlockEnd
  0
BLOCK
  5
D8
330
D6
100
AcDbEntity
 67
     1
  8
0
100
AcDbBlockBegin
  2
*Paper_Space0
 70
     0
 10
0.0
 20
0.0
 30
0.0
  3
*Paper_Space0
  1

  0
ENDBLK
  5
D9
330
D6
100
AcDbEntity
 67
     1
  8
0
100
AcDbBlockEnd
  0
BLOCK
  5
121F3
330
121F2
100
AcDbEntity
  8
0
100
AcDbBlockBegin
  2
SBE64_83-F-Front
 70
     0
 10
0.0
 20
0.0
 30
0.0
  3
SBE64_83-F-Front
  1

  0
LINE
  5
121F5
330
121F2
100
AcDbEntity
  8
0
100
AcDbLine
 10
-33.50000000000001
 20
83.0
 30
0.0
 11
-35.00000000000002
 21
83.0
 31
0.0
  0
LINE
  5
121F6
330
121F2
100
AcDbEntity
  8
0
100
AcDbLine
 10
33.50000000000043
 20
83.0
 30
0.0
 11
35.00000000000042
 21
83.0
 31
0.0
  0
LINE
  5
121F7
330
121F2
100
AcDbEntity
  8
0
100
AcDbLine
 10
-33.5
 20
13.00610095525753
 30
0.0
 11
-33.5
 21
1.499999999999985
 31
0.0
  0
LINE
  5
121F8
330
121F2
100
AcDbEntity
  8
0
100
AcDbLine
 10
-32.0
 20
13.00610095525751
 30
0.0
 11
-32.0
 21
1.499999999999985
 31
0.0
  0
LINE
  5
121F9
330
121F2
100
AcDbEntity
  8
0
100
AcDbLine
 10
32.0
 20
1.499999999999976
 30
0.0
 11
32.00000000000006
 21
13.00610095525753
 31
0.0
  0
LINE
  5
121FA
330
121F2
100
AcDbEntity
  8
0
100
AcDbLine
 10
33.50000000000001
 20
1.499999999999976
 30
0.0
 11
33.50000000000007
 21
13.00610095525753
 31
0.0
  0
LINE
  5
121FB
330
121F2
100
AcDbEntity
  8
0
100
AcDbLine
 10
-30.49999999999999
 20
-1.500000000000021
 30
0.0
 11
30.50000000000001
 21
-1.500000000000003
 31
0.0
  0
LINE
  5
121FC
330
121F2
100
AcDbEntity
  8
0
100
AcDbLine
 10
-30.49999999999999
 20
0.0
 30
0.0
 11
30.50000000000001
 21
0.0
 31
0.0
  0
LINE
  5
121FD
330
121F2
100
AcDbEntity
  8
0
100
AcDbLine
 10
-33.5
 20
13.00610095525753
 30
0.0
 11
-33.50000000000001
 21
21.24206230927726
 31
0.0
  0
LINE
  5
121FE
330
121F2
100
AcDbEntity
  8
0
100
AcDbLine
 10
-33.50000000000001
 20
31.19051317993776
 30
0.0
 11
-33.50000000000002
 21
77.0
 31
0.0
  0
LINE
  5
121FF
330
121F2
100
AcDbEntity
  8
0
100
AcDbLine
 10
-32.00000000000002
 20
77.0
 30
0.0
 11
-32.00000000000001
 21
31.19051317993777
 31
0.0
  0
LINE
  5
12200
330
121F2
100
AcDbEntity
  8
0
100
AcDbLine
 10
-32.00000000000001
 20
21.24206230927726
 30
0.0
 11
-32.0
 21
13.00610095525751
 31
0.0
  0
LINE
  5
12201
330
121F2
100
AcDbEntity
  8
0
100
AcDbLine
 10
32.00000000000006
 20
13.00610095525753
 30
0.0
 11
32.00000000000011
 21
21.24206230927725
 31
0.0
  0
LINE
  5
12202
330
121F2
100
AcDbEntity
  8
0
100
AcDbLine
 10
32.00000000000016
 20
31.19051317993776
 30
0.0
 11
32.00000000000039
 21
77.0
 31
0.0
  0
LINE
  5
12203
330
121F2
100
AcDbEntity
  8
0
100
AcDbLine
 10
33.50000000000039
 20
77.00000000000001
 30
0.0
 11
33.50000000000016
 21
31.19051317993776
 31
0.0
  0
LINE
  5
12204
330
121F2
100
AcDbEntity
  8
0
100
AcDbLine
 10
33.50000000000011
 20
21.24206230927726
 30
0.0
 11
33.50000000000007
 21
13.00610095525753
 31
0.0
  0
LINE
  5
12205
330
121F2
100
AcDbEntity
  8
0
100
AcDbLine
 10
33.50000000000007
 20
13.00610095525753
 30
0.0
 11
32.00000000000006
 21
13.00610095525753
 31
0.0
  0
LINE
  5
12206
330
121F2
100
AcDbEntity
  8
0
100
AcDbLine
 10
-32.0
 20
13.00610095525751
 30
0.0
 11
-33.5
 21
13.00610095525753
 31
0.0
  0
LINE
  5
12207
330
121F2
100
AcDbEntity
  8
0
100
AcDbLine
 10
-33.49999999999999
 20
31.19051317993776
 30
0.0
 11
-33.49999999999999
 21
21.24206230927726
 31
0.0
  0
LINE
  5
12208
330
121F2
100
AcDbEntity
  8
0
100
AcDbLine
 10
-31.99999999999999
 20
21.24206230927726
 30
0.0
 11
-31.99999999999999
 21
31.19051317993777
 31
0.0
  0
LINE
  5
12209
330
121F2
100
AcDbEntity
  8
0
100
AcDbLine
 10
31.99999999999986
 20
31.19051317993776
 30
0.0
 11
31.9999999999998
 21
21.24206230927726
 31
0.0
  0
LINE
  5
1220A
330
121F2
100
AcDbEntity
  8
0
100
AcDbLine
 10
33.49999999999981
 20
21.24206230927726
 30
0.0
 11
33.49999999999984
 21
31.19051317993777
 31
0.0
  0
ARC
  5
1220B
330
121F2
100
AcDbEntity
  8
0
100
AcDbCircle
 10
-49.0
 20
31.19051317993755
 30
0.0
 40
12.00000000000001
100
AcDbArc
 50
180.0
 51
236.0000000000003
  0
ARC
  5
1220C
330
121F2
100
AcDbEntity
  8
0
100
AcDbCircle
 10
49.00000000000016
 20
31.19051317993764
 30
0.0
 40
12.0
100
AcDbArc
 50
303.9999999999997
 51
0.0
  0
LINE
  5
1220D
330
121F2
100
AcDbEntity
  8
0
100
AcDbLine
 10
-33.50000000000002
 20
83.0
 30
0.0
 11
-33.50000000000002
 21
77.0
 31
0.0
  0
LINE
  5
1220E
330
121F2
100
AcDbEntity
  8
0
100
AcDbLine
 10
-32.00000000000002
 20
77.0
 30
0.0
 11
-32.00000000000002
 21
83.0
 31
0.0
  0
LINE
  5
1220F
330
121F2
100
AcDbEntity
  8
0
100
AcDbLine
 10
32.00000000000043
 20
83.0
 30
0.0
 11
32.00000000000039
 21
77.0
 31
0.0
  0
LINE
  5
12210
330
121F2
100
AcDbEntity
  8
0
100
AcDbLine
 10
33.50000000000039
 20
77.00000000000001
 30
0.0
 11
33.50000000000043
 21
83.0
 31
0.0
  0
LINE
  5
12211
330
121F2
100
AcDbEntity
  8
0
100
AcDbLine
 10
-61.00000000000003
 20
77.00000000000001
 30
0.0
 11
-55.00000000000003
 21
83.00000000000027
 31
0.0
  0
LINE
  5
12212
330
121F2
100
AcDbEntity
  8
0
100
AcDbLine
 10
-32.00000000000002
 20
83.0
 30
0.0
 11
-33.50000000000002
 21
83.0
 31
0.0
  0
LINE
  5
12213
330
121F2
100
AcDbEntity
  8
0
100
AcDbLine
 10
-33.50000000000002
 20
77.0
 30
0.0
 11
-32.00000000000002
 21
77.0
 31
0.0
  0
LINE
  5
12214
330
121F2
100
AcDbEntity
  8
0
100
AcDbLine
 10
33.50000000000043
 20
83.0
 30
0.0
 11
32.00000000000043
 21
83.0
 31
0.0
  0
LINE
  5
12215
330
121F2
100
AcDbEntity
  8
0
100
AcDbLine
 10
32.00000000000039
 20
77.0
 30
0.0
 11
33.50000000000039
 21
77.00000000000001
 31
0.0
  0
LINE
  5
12216
330
121F2
100
AcDbEntity
  8
0
100
AcDbLine
 10
55.00000000000042
 20
83.00000000000018
 30
0.0
 11
61.0000000000004
 21
76.99999999999987
 31
0.0
  0
SPLINE
  5
12217
330
121F2
100
AcDbEntity
  8
0
100
AcDbSpline
210
0.0
220
0.0
230
1.0
 70
     8
 71
     3
 72
    11
 73
     7
 74
     0
 42
0.000000001
 43
0.0000000001
 40
-1.0
 40
-1.0
 40
-1.0
 40
-1.0
 40
-0.8649350770680202
 40
-0.8649350770680202
 40
-0.8649350770680202
 40
0.0
 40
0.0
 40
0.0
 40
0.0
 10
33.50000000000024
 20
47.5000000000001
 30
0.0
 10
33.50000000000024
 20
47.58691438702548
 30
0.0
 10
33.50838271405328
 20
47.66373009290124
 30
0.0
 10
33.52783688767287
 20
47.72929168059572
 30
0.0
 10
33.65241843552173
 20
48.14913804539752
 30
0.0
 10
34.41714410067452
 20
48.05658642087337
 30
0.0
 10
35.00000000000024
 20
47.49999999999999
 30
0.0
  0
ARC
  5
12218
330
121F2
100
AcDbEntity
  8
0
100
AcDbCircle
 10
33.50000000000015
 20
45.50000000000005
 30
0.0
 40
2.5
100
AcDbArc
 50
306.869897645846
 51
53.13010235415341
  0
LINE
  5
12219
330
121F2
100
AcDbEntity
  8
0
100
AcDbLine
 10
46.49492000000015
 20
36.99999999999996
 30
0.0
 11
46.49000000000009
 21
36.99999999999996
 31
0.0
  0
LINE
  5
1221A
330
121F2
100
AcDbEntity
  8
0
100
AcDbLine
 10
46.49000000000009
 20
36.99999999999996
 30
0.0
 11
46.49000000000014
 21
40.38043947198587
 31
0.0
  0
ARC
  5
1221B
330
121F2
100
AcDbEntity
  8
0
100
AcDbCircle
 10
48.50000000000015
 20
45.49999999999996
 30
0.0
 40
5.5
100
AcDbArc
 50
291.435558879796
 51
248.5644411202034
  0
LINE
  5
1221C
330
121F2
100
AcDbEntity
  8
0
100
AcDbLine
 10
50.51000000000012
 20
40.38043947198583
 30
0.0
 11
50.51000000000009
 21
36.99999999999993
 31
0.0
  0
LINE
  5
1221D
330
121F2
100
AcDbEntity
  8
0
100
AcDbLine
 10
50.51000000000009
 20
36.99999999999993
 30
0.0
 11
50.50508000000013
 21
36.99999999999993
 31
0.0
  0
SPLINE
  5
1221E
330
121F2
100
AcDbEntity
  8
0
100
AcDbSpline
210
0.0
220
0.0
230
1.0
 70
     8
 71
     3
 72
    11
 73
     7
 74
     0
 42
0.000000001
 43
0.0000000001
 40
0.6929633215164312
 40
0.6929633215164312
 40
0.6929633215164312
 40
0.6929633215164312
 40
0.8649350770678012
 40
0.8649350770678012
 40
0.8649350770678012
 40
1.0
 40
1.0
 40
1.0
 40
1.0
 10
33.68702953183016
 20
43.08066694697036
 30
0.0
 10
33.92259161675055
 20
43.12401144857917
 30
0.0
 10
34.17117172657076
 20
43.18723186165478
 30
0.0
 10
34.42472347274455
 20
43.27070831940414
 30
0.0
 10
34.62386051676954
 20
43.33626990709871
 30
0.0
 10
34.81796694524221
 20
43.41308561297458
 30
0.0
 10
35.00000000000022
 20
43.50000000000011
 30
0.0
  0
SPLINE
  5
1221F
330
121F2
100
AcDbEntity
  8
0
100
AcDbSpline
210
0.0
220
0.0
230
1.0
 70
     8
 71
     3
 72
     8
 73
     4
 74
     0
 42
0.000000001
 43
0.0000000001
 40
0.0
 40
0.0
 40
0.0
 40
0.0
 40
0.3070366784835924
 40
0.3070366784835924
 40
0.3070366784835924
 40
0.3070366784835924
 10
35.00000000000023
 20
47.49999999999999
 30
0.0
 10
34.58619289676614
 20
47.69757835065878
 30
0.0
 10
34.12655007946428
 20
47.83668253397524
 30
0.0
 10
33.69461252515085
 20
47.91514915798116
 30
0.0
  0
SPLINE
  5
12220
330
121F2
100
AcDbEntity
  8
0
100
AcDbSpline
210
0.0
220
0.0
230
1.0
 70
     8
 71
     3
 72
    11
 73
     7
 74
     0
 42
0.000000001
 43
0.0000000001
 40
-1.0
 40
-1.0
 40
-1.0
 40
-1.0
 40
-0.8649350770678012
 40
-0.8649350770678012
 40
-0.8649350770678012
 40
0.0
 40
0.0
 40
0.0
 40
0.0
 10
35.00000000000022
 20
43.50000000000011
 30
0.0
 10
34.90898347262122
 20
43.41308561297458
 30
0.0
 10
34.81193025838488
 20
43.33626990709871
 30
0.0
 10
34.71236173637239
 20
43.27070831940414
 30
0.0
 10
34.07474017341754
 20
42.85086195460253
 30
0.0
 10
33.50000000000022
 20
42.94341357912784
 30
0.0
 10
33.50000000000023
 20
43.49999999999997
 30
0.0
  0
LINE
  5
12221
330
121F2
100
AcDbEntity
  8
0
100
AcDbLine
 10
-35.00000000000002
 20
83.00000000000004
 30
0.0
 11
-55.00000000000003
 21
83.00000000000027
 31
0.0
  0
LINE
  5
12222
330
121F2
100
AcDbEntity
  8
0
100
AcDbLine
 10
-61.00000000000003
 20
77.00000000000001
 30
0.0
 11
-61.00000000000001
 21
31.19051317993754
 31
0.0
  0
LINE
  5
12223
330
121F2
100
AcDbEntity
  8
0
100
AcDbLine
 10
35.00000000000042
 20
83.00000000000004
 30
0.0
 11
55.00000000000042
 21
83.00000000000018
 31
0.0
  0
LINE
  5
12224
330
121F2
100
AcDbEntity
  8
0
100
AcDbLine
 10
61.00000000000015
 20
31.19051317993757
 30
0.0
 11
61.0000000000004
 21
76.99999999999987
 31
0.0
  0
LINE
  5
12225
330
121F2
100
AcDbEntity
  8
0
100
AcDbLine
 10
-55.71031484164892
 20
21.24206230927701
 30
0.0
 11
-35.00000000000002
 21
7.272778562096851
 31
0.0
  0
ARC
  5
12226
330
121F2
100
AcDbEntity
  8
0
100
AcDbCircle
 10
-33.50000000000014
 20
45.50000000000005
 30
0.0
 40
2.5
100
AcDbArc
 50
126.8698976458465
 51
233.130102354154
  0
CIRCLE
  5
12227
330
121F2
100
AcDbEntity
  8
0
100
AcDbCircle
 10
-52.00000000000004
 20
28.49999999999992
 30
0.0
 40
2.5
  0
CIRCLE
  5
12228
330
121F2
100
AcDbEntity
  8
0
100
AcDbCircle
 10
-42.00000000000023
 20
55.49999999999998
 30
0.0
 40
2.5
  0
CIRCLE
  5
12229
330
121F2
100
AcDbEntity
  8
0
100
AcDbCircle
 10
-42.00000000000037
 20
75.5
 30
0.0
 40
2.5
  0
CIRCLE
  5
1222A
330
121F2
100
AcDbEntity
  8
0
100
AcDbCircle
 10
-52.0000000000003
 20
65.49999999999993
 30
0.0
 40
2.5
  0
CIRCLE
  5
1222B
330
121F2
100
AcDbEntity
  8
0
100
AcDbCircle
 10
-42.00000000000009
 20
35.5
 30
0.0
 40
2.5
  0
CIRCLE
  5
1222C
330
121F2
100
AcDbEntity
  8
0
100
AcDbCircle
 10
-41.99999999999999
 20
21.49999999999999
 30
0.0
 40
2.5
  0
LINE
  5
1222D
330
121F2
100
AcDbEntity
  8
0
100
AcDbLine
 10
-46.50000000000012
 20
36.99491999999996
 30
0.0
 11
-46.50000000000012
 21
36.99999999999996
 31
0.0
  0
LINE
  5
1222E
330
121F2
100
AcDbEntity
  8
0
100
AcDbLine
 10
-50.50000000000013
 20
36.99999999999993
 30
0.0
 11
-50.50000000000013
 21
36.99491999999993
 31
0.0
  0
LINE
  5
1222F
330
121F2
100
AcDbEntity
  8
0
100
AcDbLine
 10
-50.50000000000013
 20
36.99491999999993
 30
0.0
 11
-50.50508000000013
 21
36.99491999999993
 31
0.0
  0
LINE
  5
12230
330
121F2
100
AcDbEntity
  8
0
100
AcDbLine
 10
-50.50508000000013
 20
36.99491999999993
 30
0.0
 11
-50.50508000000013
 21
36.99999999999993
 31
0.0
  0
LINE
  5
12231
330
121F2
100
AcDbEntity
  8
0
100
AcDbLine
 10
-50.50508000000013
 20
36.99999999999993
 30
0.0
 11
-50.51000000000009
 21
36.99999999999993
 31
0.0
  0
LINE
  5
12232
330
121F2
100
AcDbEntity
  8
0
100
AcDbLine
 10
-50.51000000000009
 20
36.99999999999993
 30
0.0
 11
-50.51000000000012
 21
40.38043947198583
 31
0.0
  0
ARC
  5
12233
330
121F2
100
AcDbEntity
  8
0
100
AcDbCircle
 10
-48.50000000000015
 20
45.49999999999996
 30
0.0
 40
5.5
100
AcDbArc
 50
291.4355588797966
 51
248.5644411202041
  0
LINE
  5
12234
330
121F2
100
AcDbEntity
  8
0
100
AcDbLine
 10
-46.49000000000011
 20
40.38043947198587
 30
0.0
 11
-46.49000000000009
 21
36.99999999999996
 31
0.0
  0
LINE
  5
12235
330
121F2
100
AcDbEntity
  8
0
100
AcDbLine
 10
-46.49000000000009
 20
36.99999999999996
 30
0.0
 11
-46.49492000000012
 21
36.99999999999996
 31
0.0
  0
LINE
  5
12236
330
121F2
100
AcDbEntity
  8
0
100
AcDbLine
 10
-46.49492000000012
 20
36.99999999999996
 30
0.0
 11
-46.49492000000012
 21
36.99491999999996
 31
0.0
  0
LINE
  5
12237
330
121F2
100
AcDbEntity
  8
0
100
AcDbLine
 10
-46.49492000000012
 20
36.99491999999996
 30
0.0
 11
-46.50000000000012
 21
36.99491999999996
 31
0.0
  0
LINE
  5
12238
330
121F2
100
AcDbEntity
  8
0
100
AcDbLine
 10
-50.50000000000007
 20
36.99999999999993
 30
0.0
 11
-50.50000000000017
 21
39.99999999999993
 31
0.0
  0
LINE
  5
12239
330
121F2
100
AcDbEntity
  8
0
100
AcDbLine
 10
-46.5000000000001
 20
39.99999999999996
 30
0.0
 11
-46.50000000000009
 21
36.99999999999997
 31
0.0
  0
LINE
  5
1223A
330
121F2
100
AcDbEntity
  8
0
100
AcDbLine
 10
-50.5000000000001
 20
39.99999999999992
 30
0.0
 11
-46.50000000000009
 21
39.99999999999995
 31
0.0
  0
SPLINE
  5
1223B
330
121F2
100
AcDbEntity
  8
0
100
AcDbSpline
210
0.0
220
0.0
230
1.0
 70
     8
 71
     3
 72
     8
 73
     4
 74
     0
 42
0.000000001
 43
0.0000000001
 40
-0.3070366784835681
 40
-0.3070366784835681
 40
-0.3070366784835681
 40
-0.3070366784835681
 40
0.0
 40
0.0
 40
0.0
 40
0.0
 10
-33.69461252515094
 20
47.91514915798114
 30
0.0
 10
-34.12655007946435
 20
47.83668253397522
 30
0.0
 10
-34.58619289676617
 20
47.69757835065876
 30
0.0
 10
-35.00000000000023
 20
47.49999999999999
 30
0.0
  0
SPLINE
  5
1223C
330
121F2
100
AcDbEntity
  8
0
100
AcDbSpline
210
0.0
220
0.0
230
1.0
 70
     8
 71
     3
 72
    11
 73
     7
 74
     0
 42
0.000000001
 43
0.0000000001
 40
0.0
 40
0.0
 40
0.0
 40
0.0
 40
0.8649350770680202
 40
0.8649350770680202
 40
0.8649350770680202
 40
1.0
 40
1.0
 40
1.0
 40
1.0
 10
-35.00000000000023
 20
47.49999999999999
 30
0.0
 10
-34.41714410067451
 20
48.05658642087337
 30
0.0
 10
-33.65241843552173
 20
48.14913804539752
 30
0.0
 10
-33.52783688767286
 20
47.72929168059572
 30
0.0
 10
-33.50838271405327
 20
47.66373009290124
 30
0.0
 10
-33.50000000000024
 20
47.58691438702548
 30
0.0
 10
-33.50000000000024
 20
47.5000000000001
 30
0.0
  0
SPLINE
  5
1223D
330
121F2
100
AcDbEntity
  8
0
100
AcDbSpline
210
0.0
220
0.0
230
1.0
 70
     8
 71
     3
 72
    11
 73
     7
 74
     0
 42
0.000000001
 43
0.0000000001
 40
-1.0
 40
-1.0
 40
-1.0
 40
-1.0
 40
-0.8649350770678012
 40
-0.8649350770678012
 40
-0.8649350770678012
 40
-0.6929633215164072
 40
-0.6929633215164072
 40
-0.6929633215164072
 40
-0.6929633215164072
 10
-35.00000000000021
 20
43.50000000000011
 30
0.0
 10
-34.8179669452422
 20
43.41308561297458
 30
0.0
 10
-34.62386051676953
 20
43.33626990709871
 30
0.0
 10
-34.42472347274455
 20
43.27070831940414
 30
0.0
 10
-34.17117172657071
 20
43.18723186165477
 30
0.0
 10
-33.92259161675047
 20
43.12401144857916
 30
0.0
 10
-33.68702953183005
 20
43.08066694697036
 30
0.0
  0
SPLINE
  5
1223E
330
121F2
100
AcDbEntity
  8
0
100
AcDbSpline
210
0.0
220
0.0
230
1.0
 70
     8
 71
     3
 72
    11
 73
     7
 74
     0
 42
0.000000001
 43
0.0000000001
 40
0.0
 40
0.0
 40
0.0
 40
0.0
 40
0.8649350770678012
 40
0.8649350770678012
 40
0.8649350770678012
 40
1.0
 40
1.0
 40
1.0
 40
1.0
 10
-33.50000000000022
 20
43.49999999999997
 30
0.0
 10
-33.50000000000021
 20
42.94341357912784
 30
0.0
 10
-34.07474017341753
 20
42.85086195460253
 30
0.0
 10
-34.71236173637238
 20
43.27070831940414
 30
0.0
 10
-34.81193025838488
 20
43.33626990709871
 30
0.0
 10
-34.90898347262121
 20
43.41308561297458
 30
0.0
 10
-35.00000000000021
 20
43.50000000000011
 30
0.0
  0
SPLINE
  5
1223F
330
121F2
100
AcDbEntity
  8
0
100
AcDbSpline
210
0.0
220
0.0
230
1.0
 70
     8
 71
     3
 72
     8
 73
     4
 74
     0
 42
0.000000001
 43
0.0000000001
 40
0.0
 40
0.0
 40
0.0
 40
0.0
 40
1.0
 40
1.0
 40
1.0
 40
1.0
 10
-35.00000000000002
 20
7.272778562096839
 30
0.0
 10
-34.21460183660261
 20
6.598270045254492
 30
0.0
 10
-33.50000000000001
 20
5.923761528411772
 30
0.0
 10
-33.50000000000001
 20
5.249253011569581
 30
0.0
  0
LINE
  5
12240
330
121F2
100
AcDbEntity
  8
0
100
AcDbLine
 10
35.00000000000003
 20
7.272778562096851
 30
0.0
 11
55.71031484164906
 21
21.24206230927711
 31
0.0
  0
SPLINE
  5
12241
330
121F2
100
AcDbEntity
  8
0
100
AcDbSpline
210
0.0
220
0.0
230
1.0
 70
     8
 71
     3
 72
     8
 73
     4
 74
     0
 42
0.000000001
 43
0.0000000001
 40
-1.0
 40
-1.0
 40
-1.0
 40
-1.0
 40
0.0
 40
0.0
 40
0.0
 40
0.0
 10
33.50000000000002
 20
5.249253011569581
 30
0.0
 10
33.50000000000002
 20
5.923761528411772
 30
0.0
 10
34.21460183660262
 20
6.598270045254492
 30
0.0
 10
35.00000000000003
 20
7.272778562096839
 30
0.0
  0
CIRCLE
  5
12242
330
121F2
100
AcDbEntity
  8
0
100
AcDbCircle
 10
42.00000000000001
 20
21.49999999999999
 30
0.0
 40
2.5
  0
CIRCLE
  5
12243
330
121F2
100
AcDbEntity
  8
0
100
AcDbCircle
 10
52.00000000000004
 20
28.49999999999992
 30
0.0
 40
2.5
  0
CIRCLE
  5
12244
330
121F2
100
AcDbEntity
  8
0
100
AcDbCircle
 10
42.00000000000009
 20
35.5
 30
0.0
 40
2.5
  0
CIRCLE
  5
12245
330
121F2
100
AcDbEntity
  8
0
100
AcDbCircle
 10
52.00000000000031
 20
65.49999999999993
 30
0.0
 40
2.5
  0
CIRCLE
  5
12246
330
121F2
100
AcDbEntity
  8
0
100
AcDbCircle
 10
42.00000000000037
 20
75.5
 30
0.0
 40
2.5
  0
CIRCLE
  5
12247
330
121F2
100
AcDbEntity
  8
0
100
AcDbCircle
 10
42.00000000000024
 20
55.49999999999998
 30
0.0
 40
2.5
  0
LINE
  5
12248
330
121F2
100
AcDbEntity
  8
0
100
AcDbLine
 10
46.49492000000015
 20
36.99491999999996
 30
0.0
 11
46.49492000000015
 21
36.99999999999996
 31
0.0
  0
LINE
  5
12249
330
121F2
100
AcDbEntity
  8
0
100
AcDbLine
 10
50.50508000000013
 20
36.99999999999993
 30
0.0
 11
50.50508000000013
 21
36.99491999999993
 31
0.0
  0
LINE
  5
1224A
330
121F2
100
AcDbEntity
  8
0
100
AcDbLine
 10
50.50508000000013
 20
36.99491999999993
 30
0.0
 11
50.50000000000013
 21
36.99491999999993
 31
0.0
  0
LINE
  5
1224B
330
121F2
100
AcDbEntity
  8
0
100
AcDbLine
 10
50.50000000000013
 20
36.99491999999993
 30
0.0
 11
50.50000000000013
 21
36.99999999999993
 31
0.0
  0
LINE
  5
1224C
330
121F2
100
AcDbEntity
  8
0
100
AcDbLine
 10
46.50000000000014
 20
36.99999999999996
 30
0.0
 11
46.50000000000014
 21
36.99491999999996
 31
0.0
  0
LINE
  5
1224D
330
121F2
100
AcDbEntity
  8
0
100
AcDbLine
 10
46.50000000000014
 20
36.99491999999996
 30
0.0
 11
46.49492000000015
 21
36.99491999999996
 31
0.0
  0
LINE
  5
1224E
330
121F2
100
AcDbEntity
  8
0
100
AcDbLine
 10
46.50000000000009
 20
36.99999999999995
 30
0.0
 11
46.50000000000024
 21
39.99999999999996
 31
0.0
  0
LINE
  5
1224F
330
121F2
100
AcDbEntity
  8
0
100
AcDbLine
 10
50.50000000000012
 20
39.99999999999993
 30
0.0
 11
50.50000000000011
 21
36.99999999999994
 31
0.0
  0
LINE
  5
12250
330
121F2
100
AcDbEntity
  8
0
100
AcDbLine
 10
46.50000000000011
 20
39.99999999999996
 30
0.0
 11
50.50000000000013
 21
39.99999999999993
 31
0.0
  0
SPLINE
  5
12251
330
121F2
100
AcDbEntity
  8
0
100
AcDbSpline
210
0.0
220
0.0
230
1.0
 70
     8
 71
     3
 72
     8
 73
     4
 74
     0
 42
0.000000001
 43
0.0000000001
 40
-1.0
 40
-1.0
 40
-1.0
 40
-1.0
 40
0.0
 40
0.0
 40
0.0
 40
0.0
 10
-27.5
 20
1.499999999999988
 30
0.0
 10
-28.49999999999985
 20
0.7146018366025233
 30
0.0
 10
-29.49999999999972
 20
-0.0000000000000176
 30
0.0
 10
-30.50000000000001
 20
-0.0000000000000182
 30
0.0
  0
LINE
  5
12252
330
121F2
100
AcDbEntity
  8
0
100
AcDbLine
 10
-24.19999999999999
 20
4.79999999999999
 30
0.0
 11
-27.49999999999998
 21
1.499999999999989
 31
0.0
  0
LINE
  5
12253
330
121F2
100
AcDbEntity
  8
0
100
AcDbLine
 10
-14.94999999999998
 20
4.799999999999993
 30
0.0
 11
-24.19999999999999
 21
4.79999999999999
 31
0.0
  0
LINE
  5
12254
330
121F2
100
AcDbEntity
  8
0
100
AcDbLine
 10
-11.24999999999998
 20
8.499999999999994
 30
0.0
 11
-14.94999999999998
 21
4.799999999999993
 31
0.0
  0
SPLINE
  5
12255
330
121F2
100
AcDbEntity
  8
0
100
AcDbSpline
210
0.0
220
0.0
230
1.0
 70
     8
 71
     3
 72
     8
 73
     4
 74
     0
 42
0.000000001
 43
0.0000000001
 40
-1.0
 40
-1.0
 40
-1.0
 40
-1.0
 40
0.0
 40
0.0
 40
0.0
 40
0.0
 10
30.50000000000001
 20
-0.0000000000000034
 30
0.0
 10
29.50000000000035
 20
-0.0000000000000023
 30
0.0
 10
28.49999999999999
 20
0.7146018366025498
 30
0.0
 10
27.50000000000005
 20
1.500000000000002
 30
0.0
  0
LINE
  5
12256
330
121F2
100
AcDbEntity
  8
0
100
AcDbLine
 10
14.95000000000001
 20
4.800000000000001
 30
0.0
 11
11.25000000000001
 21
8.5
 31
0.0
  0
LINE
  5
12257
330
121F2
100
AcDbEntity
  8
0
100
AcDbLine
 10
24.20000000000002
 20
4.800000000000004
 30
0.0
 11
14.95000000000001
 21
4.800000000000001
 31
0.0
  0
LINE
  5
12258
330
121F2
100
AcDbEntity
  8
0
100
AcDbLine
 10
27.50000000000002
 20
1.500000000000001
 30
0.0
 11
24.20000000000002
 21
4.800000000000004
 31
0.0
  0
LINE
  5
12259
330
121F2
100
AcDbEntity
  8
0
100
AcDbLine
 10
11.25000000000001
 20
8.5
 30
0.0
 11
-11.24999999999998
 21
8.499999999999994
 31
0.0
  0
ARC
  5
1225A
330
121F2
100
AcDbEntity
  8
0
100
AcDbCircle
 10
-30.49999999999999
 20
1.499999999999986
 30
0.0
 40
1.500000000000003
100
AcDbArc
 50
180.0
 51
270.0000000000003
  0
ARC
  5
1225B
330
121F2
100
AcDbEntity
  8
0
100
AcDbCircle
 10
30.50000000000001
 20
1.499999999999999
 30
0.0
 40
2.999999999999998
100
AcDbArc
 50
270.0
 51
0.0
  0
ARC
  5
1225C
330
121F2
100
AcDbEntity
  8
0
100
AcDbCircle
 10
30.50000000000001
 20
1.499999999999999
 30
0.0
 40
1.499999999999994
100
AcDbArc
 50
270.0
 51
0.0
  0
ARC
  5
1225D
330
121F2
100
AcDbEntity
  8
0
100
AcDbCircle
 10
-30.49999999999999
 20
1.499999999999986
 30
0.0
 40
3.000000000000007
100
AcDbArc
 50
180.0
 51
270.0
  0
ENDBLK
  5
121F4
330
121F2
100
AcDbEntity
  8
0
100
AcDbBlockEnd
  0
BLOCK
  5
1225F
330
1225E
100
AcDbEntity
  8
0
100
AcDbBlockBegin
  2
SBE64_83-F-Left
 70
     0
 10
0.0
 20
0.0
 30
0.0
  3
SBE64_83-F-Left
  1

  0
LINE
  5
12261
330
1225E
100
AcDbEntity
  8
0
100
AcDbLine
 10
2.999999999999998
 20
83.0
 30
0.0
 11
1.499999999999989
 21
83.0
 31
0.0
  0
LINE
  5
12262
330
1225E
100
AcDbEntity
  8
0
100
AcDbLine
 10
3.000000000000003
 20
5.249253011569576
 30
0.0
 11
2.999999999999998
 21
1.499999999999985
 31
0.0
  0
LINE
  5
12263
330
1225E
100
AcDbEntity
  8
0
100
AcDbLine
 10
2.999999999999998
 20
-1.500000000000013
 30
0.0
 11
2.999999999999998
 21
1.499999999999985
 31
0.0
  0
CIRCLE
  5
12264
330
1225E
100
AcDbEntity
  8
0
100
AcDbCircle
 10
28.99999999999998
 20
35.50000000000001
 30
0.0
 40
2.5
  0
CIRCLE
  5
12265
330
1225E
100
AcDbEntity
  8
0
100
AcDbCircle
 10
28.99999999999998
 20
75.5
 30
0.0
 40
2.5
  0
CIRCLE
  5
12266
330
1225E
100
AcDbEntity
  8
0
100
AcDbCircle
 10
28.99999999999998
 20
55.5
 30
0.0
 40
2.5
  0
ARC
  5
12267
330
1225E
100
AcDbEntity
  8
0
100
AcDbCircle
 10
1.500000000000079
 20
45.50000000000005
 30
0.0
 40
2.5
100
AcDbArc
 50
306.8698976458418
 51
53.13010235415847
  0
LINE
  5
12268
330
1225E
100
AcDbEntity
  8
0
100
AcDbLine
 10
1.499999999999995
 20
21.24206230927701
 30
0.0
 11
1.499999999999998
 21
7.272778562096851
 31
0.0
  0
ARC
  5
12269
330
1225E
100
AcDbEntity
  8
0
100
AcDbCircle
 10
-1.500000000000001
 20
36.99999999999993
 30
0.0
 40
3.0
100
AcDbArc
 50
60.00000000000036
 51
89.99999999999994
  0
ARC
  5
1226A
330
1225E
100
AcDbEntity
  8
0
100
AcDbCircle
 10
-1.500000000000001
 20
36.99999999999993
 30
0.0
 40
1.5
100
AcDbArc
 50
0.0
 51
89.99999999999994
  0
LINE
  5
1226B
330
1225E
100
AcDbEntity
  8
0
100
AcDbLine
 10
0.0
 20
7.272778562096851
 30
0.0
 11
0.0
 21
21.24206230927701
 31
0.0
  0
SPLINE
  5
1226C
330
1225E
100
AcDbEntity
  8
0
100
AcDbSpline
210
0.0
220
0.0
230
1.0
 70
     8
 71
     3
 72
    11
 73
     7
 74
     0
 42
0.000000001
 43
0.0000000001
 40
-1.0
 40
-1.0
 40
-1.0
 40
-1.0
 40
-0.8649350770680202
 40
-0.8649350770680202
 40
-0.8649350770680202
 40
-0.6929633215164427
 40
-0.6929633215164427
 40
-0.6929633215164427
 40
-0.6929633215164427
 10
3.000000000000006
 20
47.50000000000011
 30
0.0
 10
2.817966945242287
 20
47.58691438702549
 30
0.0
 10
2.623860516769949
 20
47.66373009290126
 30
0.0
 10
2.424723472745283
 20
47.72929168059573
 30
0.0
 10
2.171171726571185
 20
47.81276813834522
 30
0.0
 10
1.922591616750666
 20
47.87598855142093
 30
0.0
 10
1.687029531829998
 20
47.91933305302982
 30
0.0
  0
SPLINE
  5
1226D
330
1225E
100
AcDbEntity
  8
0
100
AcDbSpline
210
0.0
220
0.0
230
1.0
 70
     8
 71
     3
 72
    11
 73
     7
 74
     0
 42
0.000000001
 43
0.0000000001
 40
0.0
 40
0.0
 40
0.0
 40
0.0
 40
0.8649350770680202
 40
0.8649350770680202
 40
0.8649350770680202
 40
1.0
 40
1.0
 40
1.0
 40
1.0
 10
1.499999999999998
 20
47.49999999999999
 30
0.0
 10
1.5
 20
48.05658642087337
 30
0.0
 10
2.074740173417638
 20
48.14913804539752
 30
0.0
 10
2.712361736372641
 20
47.72929168059572
 30
0.0
 10
2.811930258384973
 20
47.66373009290124
 30
0.0
 10
2.908983472621142
 20
47.58691438702548
 30
0.0
 10
3.000000000000002
 20
47.5000000000001
 30
0.0
  0
SPLINE
  5
1226E
330
1225E
100
AcDbEntity
  8
0
100
AcDbSpline
210
0.0
220
0.0
230
1.0
 70
     8
 71
     3
 72
     8
 73
     4
 74
     0
 42
0.000000001
 43
0.0000000001
 40
-0.3070366784835354
 40
-0.3070366784835354
 40
-0.3070366784835354
 40
-0.3070366784835354
 40
0.0
 40
0.0
 40
0.0
 40
0.0
 10
1.694612525150729
 20
43.08485084201936
 30
0.0
 10
2.126550079464122
 20
43.16331746602529
 30
0.0
 10
2.586192896765941
 20
43.30242164934162
 30
0.0
 10
3.0
 20
43.49999999999998
 30
0.0
  0
SPLINE
  5
1226F
330
1225E
100
AcDbEntity
  8
0
100
AcDbSpline
210
0.0
220
0.0
230
1.0
 70
     8
 71
     3
 72
    11
 73
     7
 74
     0
 42
0.000000001
 43
0.0000000001
 40
0.0
 40
0.0
 40
0.0
 40
0.0
 40
0.8649350770678012
 40
0.8649350770678012
 40
0.8649350770678012
 40
1.0
 40
1.0
 40
1.0
 40
1.0
 10
2.999999999999999
 20
43.49999999999997
 30
0.0
 10
2.417144100674362
 20
42.94341357912784
 30
0.0
 10
1.652418435521753
 20
42.85086195460253
 30
0.0
 10
1.527836887672711
 20
43.27070831940414
 30
0.0
 10
1.508382714053058
 20
43.33626990709871
 30
0.0
 10
1.499999999999998
 20
43.41308561297458
 30
0.0
 10
1.499999999999998
 20
43.50000000000011
 30
0.0
  0
SPLINE
  5
12270
330
1225E
100
AcDbEntity
  8
0
100
AcDbSpline
210
0.0
220
0.0
230
1.0
 70
     8
 71
     3
 72
     8
 73
     4
 74
     0
 42
0.000000001
 43
0.0000000001
 40
-1.0
 40
-1.0
 40
-1.0
 40
-1.0
 40
0.0
 40
0.0
 40
0.0
 40
0.0
 10
3.000000000000009
 20
5.249253011569589
 30
0.0
 10
1.429203673205126
 20
5.92376152841178
 30
0.0
 10
-0.0000000000000001
 20
6.598270045254497
 30
0.0
 10
-0.0000000000000061
 20
7.272778562096839
 30
0.0
  0
SPLINE
  5
12271
330
1225E
100
AcDbEntity
  8
0
100
AcDbSpline
210
0.0
220
0.0
230
1.0
 70
     8
 71
     3
 72
     8
 73
     4
 74
     0
 42
0.000000001
 43
0.0000000001
 40
0.0
 40
0.0
 40
0.0
 40
0.0
 40
1.0
 40
1.0
 40
1.0
 40
1.0
 10
1.499999999999994
 20
7.272778562096839
 30
0.0
 10
1.499999999999996
 20
6.598270045254492
 30
0.0
 10
2.214601836602561
 20
5.923761528411772
 30
0.0
 10
3.000000000000003
 20
5.249253011569581
 30
0.0
  0
LINE
  5
12272
330
1225E
100
AcDbEntity
  8
0
100
AcDbLine
 10
1.499999999999998
 20
7.272778562096851
 30
0.0
 11
1.090140682897372
 21
7.272778562096851
 31
0.0
  0
LINE
  5
12273
330
1225E
100
AcDbEntity
  8
0
100
AcDbLine
 10
1.090140682897372
 20
7.272778562096851
 30
0.0
 11
0.0
 21
7.272778562096851
 31
0.0
  0
LINE
  5
12274
330
1225E
100
AcDbEntity
  8
0
100
AcDbLine
 10
-8.999999999999994
 20
39.99999999999994
 30
0.0
 11
-7.000000000000001
 21
39.99999999999992
 31
0.0
  0
LINE
  5
12275
330
1225E
100
AcDbEntity
  8
0
100
AcDbLine
 10
-7.000000000000001
 20
39.99999999999992
 30
0.0
 11
-1.499999999999994
 21
39.99999999999992
 31
0.0
  0
LINE
  5
12276
330
1225E
100
AcDbEntity
  8
0
100
AcDbLine
 10
-8.999999999999994
 20
39.99999999999994
 30
0.0
 11
-8.999999999999994
 21
38.49999999999994
 31
0.0
  0
LINE
  5
12277
330
1225E
100
AcDbEntity
  8
0
100
AcDbLine
 10
-7.000000000000001
 20
39.99999999999992
 30
0.0
 11
-7.000000000000001
 21
38.49999999999992
 31
0.0
  0
LINE
  5
12278
330
1225E
100
AcDbEntity
  8
0
100
AcDbLine
 10
-1.499999999999994
 20
38.49999999999992
 30
0.0
 11
-7.000000000000001
 21
38.49999999999992
 31
0.0
  0
LINE
  5
12279
330
1225E
100
AcDbEntity
  8
0
100
AcDbLine
 10
-7.000000000000001
 20
38.49999999999992
 30
0.0
 11
-8.999999999999994
 21
38.49999999999994
 31
0.0
  0
LINE
  5
1227A
330
1225E
100
AcDbEntity
  8
0
100
AcDbLine
 10
53.99999999999999
 20
13.00610095525753
 30
0.0
 11
54.0
 21
1.499999999999985
 31
0.0
  0
LINE
  5
1227B
330
1225E
100
AcDbEntity
  8
0
100
AcDbLine
 10
2.999999999999998
 20
83.0
 30
0.0
 11
30.49999999999999
 21
83.0
 31
0.0
  0
LINE
  5
1227C
330
1225E
100
AcDbEntity
  8
0
100
AcDbLine
 10
53.99999999999999
 20
13.00610095525753
 30
0.0
 11
41.78968515835101
 21
21.24206230927726
 31
0.0
  0
LINE
  5
1227D
330
1225E
100
AcDbEntity
  8
0
100
AcDbLine
 10
36.49999999999998
 20
31.19051317993776
 30
0.0
 11
36.49999999999998
 21
77.0
 31
0.0
  0
ARC
  5
1227E
330
1225E
100
AcDbEntity
  8
0
100
AcDbCircle
 10
48.49999999999997
 20
31.19051317993776
 30
0.0
 40
12.0
100
AcDbArc
 50
180.0
 51
236.0
  0
LINE
  5
1227F
330
1225E
100
AcDbEntity
  8
0
100
AcDbLine
 10
1.499999999999992
 20
31.19051317993754
 30
0.0
 11
1.499999999999996
 21
21.24206230927701
 31
0.0
  0
LINE
  5
12280
330
1225E
100
AcDbEntity
  8
0
100
AcDbLine
 10
0.0
 20
21.24206230927701
 30
0.0
 11
0.0
 21
31.19051317993754
 31
0.0
  0
LINE
  5
12281
330
1225E
100
AcDbEntity
  8
0
100
AcDbLine
 10
30.49999999999999
 20
83.0
 30
0.0
 11
36.49999999999998
 21
77.0
 31
0.0
  0
LINE
  5
12282
330
1225E
100
AcDbEntity
  8
0
100
AcDbLine
 10
0.0
 20
83.0
 30
0.0
 11
0.0
 21
77.00000000000001
 31
0.0
  0
LINE
  5
12283
330
1225E
100
AcDbEntity
  8
0
100
AcDbLine
 10
0.0
 20
77.00000000000001
 30
0.0
 11
1.499999999999973
 21
77.00000000000001
 31
0.0
  0
LINE
  5
12284
330
1225E
100
AcDbEntity
  8
0
100
AcDbLine
 10
1.499999999999973
 20
77.00000000000001
 30
0.0
 11
1.499999999999949
 21
83.00000000000027
 31
0.0
  0
LINE
  5
12285
330
1225E
100
AcDbEntity
  8
0
100
AcDbLine
 10
1.499999999999949
 20
83.00000000000027
 30
0.0
 11
0.0
 21
83.0
 31
0.0
  0
LINE
  5
12286
330
1225E
100
AcDbEntity
  8
0
100
AcDbLine
 10
1.499999999999973
 20
77.00000000000001
 30
0.0
 11
1.499999999999985
 21
31.19051317993754
 31
0.0
  0
LINE
  5
12287
330
1225E
100
AcDbEntity
  8
0
100
AcDbLine
 10
0.0
 20
77.00000000000001
 30
0.0
 11
0.0
 21
31.19051317993754
 31
0.0
  0
SPLINE
  5
12288
330
1225E
100
AcDbEntity
  8
0
100
AcDbSpline
210
0.0
220
0.0
230
1.0
 70
     8
 71
     3
 72
     8
 73
     4
 74
     0
 42
0.000000001
 43
0.0000000001
 40
-1.0
 40
-1.0
 40
-1.0
 40
-1.0
 40
0.0
 40
0.0
 40
0.0
 40
0.0
 10
1.499999999999992
 20
1.499999999999988
 30
0.0
 10
1.499999999999992
 20
0.7146018366025233
 30
0.0
 10
2.214601836602512
 20
-0.0000000000000176
 30
0.0
 10
2.999999999999998
 20
-0.0000000000000182
 30
0.0
  0
LINE
  5
12289
330
1225E
100
AcDbEntity
  8
0
100
AcDbLine
 10
1.499999999999992
 20
1.499999999999989
 30
0.0
 11
1.090140682897564
 21
1.499999999999989
 31
0.0
  0
LINE
  5
1228A
330
1225E
100
AcDbEntity
  8
0
100
AcDbLine
 10
1.090140682897564
 20
1.499999999999989
 30
0.0
 11
0.0
 21
1.499999999999989
 31
0.0
  0
SPLINE
  5
1228B
330
1225E
100
AcDbEntity
  8
0
100
AcDbSpline
210
0.0
220
0.0
230
1.0
 70
     8
 71
     3
 72
     8
 73
     4
 74
     0
 42
0.000000001
 43
0.0000000001
 40
0.0
 40
0.0
 40
0.0
 40
0.0
 40
1.0
 40
1.0
 40
1.0
 40
1.0
 10
2.999999999999997
 20
-1.500000000000018
 30
0.0
 10
1.42920367320503
 20
-1.500000000000017
 30
0.0
 10
-0.0000000000000078
 20
-0.0707963267949388
 30
0.0
 10
-0.0000000000000078
 20
1.499999999999988
 30
0.0
  0
LINE
  5
1228C
330
1225E
100
AcDbEntity
  8
0
100
AcDbLine
 10
0.0
 20
1.499999999999989
 30
0.0
 11
0.0
 21
4.79999999999999
 31
0.0
  0
LINE
  5
1228D
330
1225E
100
AcDbEntity
  8
0
100
AcDbLine
 10
1.499999999999992
 20
4.79999999999999
 30
0.0
 11
1.499999999999992
 21
1.499999999999989
 31
0.0
  0
LINE
  5
1228E
330
1225E
100
AcDbEntity
  8
0
100
AcDbLine
 10
1.499999999999992
 20
4.79999999999999
 30
0.0
 11
0.0
 21
4.799999999999991
 31
0.0
  0
LINE
  5
1228F
330
1225E
100
AcDbEntity
  8
0
100
AcDbLine
 10
0.0
 20
4.799999999999994
 30
0.0
 11
0.0
 21
7.272778562096849
 31
0.0
  0
LINE
  5
12290
330
1225E
100
AcDbEntity
  8
0
100
AcDbLine
 10
1.499999999999993
 20
5.923761528412036
 30
0.0
 11
1.499999999999992
 21
4.799999999999993
 31
0.0
  0
LINE
  5
12291
330
1225E
100
AcDbEntity
  8
0
100
AcDbLine
 10
54.0
 20
-1.500000000000021
 30
0.0
 11
2.999999999999998
 21
-1.500000000000016
 31
0.0
  0
LINE
  5
12292
330
1225E
100
AcDbEntity
  8
0
100
AcDbLine
 10
54.0
 20
-1.50000000000002
 30
0.0
 11
54.0
 21
1.499999999999985
 31
0.0
  0
ENDBLK
  5
12260
330
1225E
100
AcDbEntity
  8
0
100
AcDbBlockEnd
  0
BLOCK
  5
12294
330
12293
100
AcDbEntity
  8
0
100
AcDbBlockBegin
  2
SBE64_83-F-Right
 70
     0
 10
0.0
 20
0.0
 30
0.0
  3
SBE64_83-F-Right
  1

  0
SPLINE
  5
12296
330
12293
100
AcDbEntity
  8
0
100
AcDbSpline
210
0.0
220
0.0
230
1.0
 70
     8
 71
     3
 72
    11
 73
     7
 74
     0
 42
0.000000001
 43
0.0000000001
 40
-1.0
 40
-1.0
 40
-1.0
 40
-1.0
 40
-0.8649350770680202
 40
-0.8649350770680202
 40
-0.8649350770680202
 40
0.0
 40
0.0
 40
0.0
 40
0.0
 10
-3.000000000000002
 20
47.5000000000001
 30
0.0
 10
-2.908983472621142
 20
47.58691438702548
 30
0.0
 10
-2.811930258384973
 20
47.66373009290124
 30
0.0
 10
-2.712361736372641
 20
47.72929168059572
 30
0.0
 10
-2.074740173417638
 20
48.14913804539752
 30
0.0
 10
-1.5
 20
48.05658642087337
 30
0.0
 10
-1.499999999999998
 20
47.49999999999999
 30
0.0
  0
ARC
  5
12297
330
12293
100
AcDbEntity
  8
0
100
AcDbCircle
 10
-1.500000000000079
 20
45.50000000000005
 30
0.0
 40
2.5
100
AcDbArc
 50
126.8698976458417
 51
233.1301023541583
  0
SPLINE
  5
12298
330
12293
100
AcDbEntity
  8
0
100
AcDbSpline
210
0.0
220
0.0
230
1.0
 70
     8
 71
     3
 72
     8
 73
     4
 74
     0
 42
0.000000001
 43
0.0000000001
 40
0.0
 40
0.0
 40
0.0
 40
0.0
 40
0.3070366784835592
 40
0.3070366784835592
 40
0.3070366784835592
 40
0.3070366784835592
 10
-3.0
 20
43.49999999999998
 30
0.0
 10
-2.586192896765909
 20
43.30242164934161
 30
0.0
 10
-2.12655007946405
 20
43.16331746602528
 30
0.0
 10
-1.694612525150628
 20
43.08485084201934
 30
0.0
  0
SPLINE
  5
12299
330
12293
100
AcDbEntity
  8
0
100
AcDbSpline
210
0.0
220
0.0
230
1.0
 70
     8
 71
     3
 72
    11
 73
     7
 74
     0
 42
0.000000001
 43
0.0000000001
 40
0.6929633215164676
 40
0.6929633215164676
 40
0.6929633215164676
 40
0.6929633215164676
 40
0.8649350770680202
 40
0.8649350770680202
 40
0.8649350770680202
 40
1.0
 40
1.0
 40
1.0
 40
1.0
 10
-1.6870295318301
 20
47.91933305302982
 30
0.0
 10
-1.922591616750738
 20
47.87598855142092
 30
0.0
 10
-2.171171726571222
 20
47.8127681383452
 30
0.0
 10
-2.424723472745283
 20
47.72929168059573
 30
0.0
 10
-2.623860516769949
 20
47.66373009290126
 30
0.0
 10
-2.817966945242287
 20
47.58691438702549
 30
0.0
 10
-3.000000000000006
 20
47.50000000000011
 30
0.0
  0
SPLINE
  5
1229A
330
12293
100
AcDbEntity
  8
0
100
AcDbSpline
210
0.0
220
0.0
230
1.0
 70
     8
 71
     3
 72
    11
 73
     7
 74
     0
 42
0.000000001
 43
0.0000000001
 40
-1.0
 40
-1.0
 40
-1.0
 40
-1.0
 40
-0.8649350770678012
 40
-0.8649350770678012
 40
-0.8649350770678012
 40
0.0
 40
0.0
 40
0.0
 40
0.0
 10
-1.499999999999998
 20
43.50000000000011
 30
0.0
 10
-1.499999999999998
 20
43.41308561297458
 30
0.0
 10
-1.508382714053058
 20
43.33626990709871
 30
0.0
 10
-1.527836887672711
 20
43.27070831940414
 30
0.0
 10
-1.652418435521753
 20
42.85086195460253
 30
0.0
 10
-2.417144100674362
 20
42.94341357912784
 30
0.0
 10
-2.999999999999999
 20
43.49999999999997
 30
0.0
  0
LINE
  5
1229B
330
12293
100
AcDbEntity
  8
0
100
AcDbLine
 10
1.499999999999994
 20
39.99999999999993
 30
0.0
 11
7.000000000000001
 21
39.99999999999992
 31
0.0
  0
LINE
  5
1229C
330
12293
100
AcDbEntity
  8
0
100
AcDbLine
 10
7.000000000000001
 20
39.99999999999992
 30
0.0
 11
8.999999999999994
 21
39.99999999999994
 31
0.0
  0
LINE
  5
1229D
330
12293
100
AcDbEntity
  8
0
100
AcDbLine
 10
8.999999999999994
 20
39.99999999999994
 30
0.0
 11
8.999999999999994
 21
38.49999999999994
 31
0.0
  0
LINE
  5
1229E
330
12293
100
AcDbEntity
  8
0
100
AcDbLine
 10
8.999999999999994
 20
38.49999999999994
 30
0.0
 11
6.999999999999992
 21
38.49999999999993
 31
0.0
  0
LINE
  5
1229F
330
12293
100
AcDbEntity
  8
0
100
AcDbLine
 10
7.000000000000001
 20
39.99999999999992
 30
0.0
 11
6.999999999999992
 21
38.49999999999993
 31
0.0
  0
LINE
  5
122A0
330
12293
100
AcDbEntity
  8
0
100
AcDbLine
 10
6.999999999999992
 20
38.49999999999993
 30
0.0
 11
1.499999999999985
 21
38.49999999999993
 31
0.0
  0
CIRCLE
  5
122A1
330
12293
100
AcDbEntity
  8
0
100
AcDbCircle
 10
-28.99999999999999
 20
25.50000000000002
 30
0.0
 40
2.5
  0
CIRCLE
  5
122A2
330
12293
100
AcDbEntity
  8
0
100
AcDbCircle
 10
-28.99999999999998
 20
65.50000000000001
 30
0.0
 40
2.5
  0
CIRCLE
  5
122A3
330
12293
100
AcDbEntity
  8
0
100
AcDbCircle
 10
-28.99999999999998
 20
45.50000000000001
 30
0.0
 40
2.5
  0
LINE
  5
122A4
330
12293
100
AcDbEntity
  8
0
100
AcDbLine
 10
-30.49999999999999
 20
83.0
 30
0.0
 11
-2.999999999999998
 21
83.0
 31
0.0
  0
LINE
  5
122A5
330
12293
100
AcDbEntity
  8
0
100
AcDbLine
 10
-54.0
 20
1.499999999999976
 30
0.0
 11
-53.99999999999999
 21
13.00610095525753
 31
0.0
  0
LINE
  5
122A6
330
12293
100
AcDbEntity
  8
0
100
AcDbLine
 10
-36.49999999999998
 20
77.00000000000001
 30
0.0
 11
-30.49999999999999
 21
83.0
 31
0.0
  0
LINE
  5
122A7
330
12293
100
AcDbEntity
  8
0
100
AcDbLine
 10
0.0
 20
76.99999999999987
 30
0.0
 11
0.0
 21
83.00000000000016
 31
0.0
  0
LINE
  5
122A8
330
12293
100
AcDbEntity
  8
0
100
AcDbLine
 10
0.0
 20
83.00000000000016
 30
0.0
 11
-1.499999999999992
 21
83.00000000000018
 31
0.0
  0
LINE
  5
122A9
330
12293
100
AcDbEntity
  8
0
100
AcDbLine
 10
-1.499999999999992
 20
83.00000000000018
 30
0.0
 11
-1.499999999999988
 21
76.99999999999987
 31
0.0
  0
LINE
  5
122AA
330
12293
100
AcDbEntity
  8
0
100
AcDbLine
 10
-1.499999999999988
 20
76.99999999999987
 30
0.0
 11
0.0
 21
76.99999999999987
 31
0.0
  0
LINE
  5
122AB
330
12293
100
AcDbEntity
  8
0
100
AcDbLine
 10
-36.49999999999998
 20
77.00000000000001
 30
0.0
 11
-36.49999999999998
 21
31.19051317993776
 31
0.0
  0
LINE
  5
122AC
330
12293
100
AcDbEntity
  8
0
100
AcDbLine
 10
-41.78968515835101
 20
21.24206230927726
 30
0.0
 11
-53.99999999999999
 21
13.00610095525753
 31
0.0
  0
ARC
  5
122AD
330
12293
100
AcDbEntity
  8
0
100
AcDbCircle
 10
-48.49999999999997
 20
31.19051317993776
 30
0.0
 40
12.0
100
AcDbArc
 50
304.0
 51
0.0
  0
LINE
  5
122AE
330
12293
100
AcDbEntity
  8
0
100
AcDbLine
 10
0.0
 20
31.19051317993756
 30
0.0
 11
0.0
 21
21.24206230927709
 31
0.0
  0
LINE
  5
122AF
330
12293
100
AcDbEntity
  8
0
100
AcDbLine
 10
-1.499999999999994
 20
21.2420623092771
 30
0.0
 11
-1.499999999999993
 21
31.19051317993757
 31
0.0
  0
LINE
  5
122B0
330
12293
100
AcDbEntity
  8
0
100
AcDbLine
 10
-2.999999999999998
 20
1.499999999999976
 30
0.0
 11
-3.000000000000003
 21
5.249253011569576
 31
0.0
  0
LINE
  5
122B1
330
12293
100
AcDbEntity
  8
0
100
AcDbLine
 10
-2.999999999999998
 20
83.0
 30
0.0
 11
-1.499999999999998
 21
83.0
 31
0.0
  0
LINE
  5
122B2
330
12293
100
AcDbEntity
  8
0
100
AcDbLine
 10
-2.999999999999998
 20
1.499999999999976
 30
0.0
 11
-2.999999999999998
 21
-1.499999999999996
 31
0.0
  0
LINE
  5
122B3
330
12293
100
AcDbEntity
  8
0
100
AcDbLine
 10
0.0
 20
31.19051317993757
 30
0.0
 11
0.0
 21
76.99999999999987
 31
0.0
  0
LINE
  5
122B4
330
12293
100
AcDbEntity
  8
0
100
AcDbLine
 10
-1.499999999999989
 20
31.19051317993757
 30
0.0
 11
-1.499999999999988
 21
76.99999999999987
 31
0.0
  0
LINE
  5
122B5
330
12293
100
AcDbEntity
  8
0
100
AcDbLine
 10
0.0
 20
21.2420623092771
 30
0.0
 11
0.0
 21
7.272778562096851
 31
0.0
  0
LINE
  5
122B6
330
12293
100
AcDbEntity
  8
0
100
AcDbLine
 10
-1.499999999999998
 20
7.272778562096851
 30
0.0
 11
-1.499999999999992
 21
21.24206230927711
 31
0.0
  0
LINE
  5
122B7
330
12293
100
AcDbEntity
  8
0
100
AcDbLine
 10
-1.499999999999998
 20
7.272778562096851
 30
0.0
 11
-1.090140682897372
 21
7.272778562096851
 31
0.0
  0
LINE
  5
122B8
330
12293
100
AcDbEntity
  8
0
100
AcDbLine
 10
-1.090140682897372
 20
7.272778562096851
 30
0.0
 11
0.0
 21
7.272778562096851
 31
0.0
  0
SPLINE
  5
122B9
330
12293
100
AcDbEntity
  8
0
100
AcDbSpline
210
0.0
220
0.0
230
1.0
 70
     8
 71
     3
 72
     8
 73
     4
 74
     0
 42
0.000000001
 43
0.0000000001
 40
0.0
 40
0.0
 40
0.0
 40
0.0
 40
1.0
 40
1.0
 40
1.0
 40
1.0
 10
0.0000000000000061
 20
7.272778562096839
 30
0.0
 10
0.0000000000000001
 20
6.598270045254497
 30
0.0
 10
-1.429203673205126
 20
5.92376152841178
 30
0.0
 10
-3.000000000000009
 20
5.249253011569589
 30
0.0
  0
SPLINE
  5
122BA
330
12293
100
AcDbEntity
  8
0
100
AcDbSpline
210
0.0
220
0.0
230
1.0
 70
     8
 71
     3
 72
     8
 73
     4
 74
     0
 42
0.000000001
 43
0.0000000001
 40
-1.0
 40
-1.0
 40
-1.0
 40
-1.0
 40
0.0
 40
0.0
 40
0.0
 40
0.0
 10
-3.000000000000003
 20
5.249253011569581
 30
0.0
 10
-2.214601836602561
 20
5.923761528411772
 30
0.0
 10
-1.499999999999996
 20
6.598270045254492
 30
0.0
 10
-1.499999999999994
 20
7.272778562096839
 30
0.0
  0
LINE
  5
122BB
330
12293
100
AcDbEntity
  8
0
100
AcDbLine
 10
-1.499999999999992
 20
1.500000000000001
 30
0.0
 11
-1.090140682897382
 21
1.500000000000001
 31
0.0
  0
SPLINE
  5
122BC
330
12293
100
AcDbEntity
  8
0
100
AcDbSpline
210
0.0
220
0.0
230
1.0
 70
     8
 71
     3
 72
     8
 73
     4
 74
     0
 42
0.000000001
 43
0.0000000001
 40
-1.0
 40
-1.0
 40
-1.0
 40
-1.0
 40
0.0
 40
0.0
 40
0.0
 40
0.0
 10
-2.999999999999996
 20
-0.0000000000000034
 30
0.0
 10
-2.214601836602519
 20
-0.0000000000000023
 30
0.0
 10
-1.499999999999992
 20
0.7146018366025498
 30
0.0
 10
-1.499999999999992
 20
1.500000000000002
 30
0.0
  0
SPLINE
  5
122BD
330
12293
100
AcDbEntity
  8
0
100
AcDbSpline
210
0.0
220
0.0
230
1.0
 70
     8
 71
     3
 72
     8
 73
     4
 74
     0
 42
0.000000001
 43
0.0000000001
 40
0.0
 40
0.0
 40
0.0
 40
0.0
 40
1.0
 40
1.0
 40
1.0
 40
1.0
 10
0.0000000000000078
 20
1.500000000000002
 30
0.0
 10
0.0000000000000078
 20
-0.0707963267949
 30
0.0
 10
-1.429203673205044
 20
-1.500000000000001
 30
0.0
 10
-2.999999999999993
 20
-1.500000000000003
 30
0.0
  0
LINE
  5
122BE
330
12293
100
AcDbEntity
  8
0
100
AcDbLine
 10
-1.090140682897382
 20
1.500000000000001
 30
0.0
 11
0.0
 21
1.500000000000002
 31
0.0
  0
LINE
  5
122BF
330
12293
100
AcDbEntity
  8
0
100
AcDbLine
 10
0.0
 20
7.272778562096849
 30
0.0
 11
0.0
 21
4.800000000000002
 31
0.0
  0
LINE
  5
122C0
330
12293
100
AcDbEntity
  8
0
100
AcDbLine
 10
-1.499999999999993
 20
4.800000000000001
 30
0.0
 11
-1.499999999999993
 21
5.923761528412035
 31
0.0
  0
LINE
  5
122C1
330
12293
100
AcDbEntity
  8
0
100
AcDbLine
 10
-1.499999999999993
 20
4.800000000000004
 30
0.0
 11
0.0
 21
4.800000000000004
 31
0.0
  0
LINE
  5
122C2
330
12293
100
AcDbEntity
  8
0
100
AcDbLine
 10
0.0
 20
4.800000000000004
 30
0.0
 11
0.0
 21
1.500000000000002
 31
0.0
  0
LINE
  5
122C3
330
12293
100
AcDbEntity
  8
0
100
AcDbLine
 10
-1.499999999999992
 20
1.500000000000001
 30
0.0
 11
-1.499999999999993
 21
4.800000000000004
 31
0.0
  0
LINE
  5
122C4
330
12293
100
AcDbEntity
  8
0
100
AcDbLine
 10
-54.0
 20
-1.500000000000003
 30
0.0
 11
-2.999999999999998
 21
-1.500000000000003
 31
0.0
  0
LINE
  5
122C5
330
12293
100
AcDbEntity
  8
0
100
AcDbLine
 10
-54.0
 20
1.499999999999976
 30
0.0
 11
-54.0
 21
-1.499999999999999
 31
0.0
  0
ARC
  5
122C6
330
12293
100
AcDbEntity
  8
0
100
AcDbCircle
 10
1.500000000000001
 20
36.99999999999993
 30
0.0
 40
3.0
100
AcDbArc
 50
90.00000000000017
 51
119.9999999999998
  0
ARC
  5
122C7
330
12293
100
AcDbEntity
  8
0
100
AcDbCircle
 10
1.500000000000001
 20
36.99999999999993
 30
0.0
 40
1.5
100
AcDbArc
 50
90.00000000000019
 51
180.0
  0
ENDBLK
  5
12295
330
12293
100
AcDbEntity
  8
0
100
AcDbBlockEnd
  0
BLOCK
  5
122C9
330
122C8
100
AcDbEntity
  8
0
100
AcDbBlockBegin
  2
SBE64_83-F-Top
 70
     0
 10
0.0
 20
0.0
 30
0.0
  3
SBE64_83-F-Top
  1

  0
ARC
  5
122CB
330
122C8
100
AcDbEntity
  8
0
100
AcDbCircle
 10
-35.00000000000002
 20
-2.999999999999997
 30
0.0
 40
1.500000000000007
100
AcDbArc
 50
0.0
 51
90.0
  0
ARC
  5
122CC
330
122C8
100
AcDbEntity
  8
0
100
AcDbCircle
 10
-35.00000000000002
 20
-2.999999999999997
 30
0.0
 40
3.000000000000015
100
AcDbArc
 50
0.0
 51
90.0
  0
ARC
  5
122CD
330
122C8
100
AcDbEntity
  8
0
100
AcDbCircle
 10
35.00000000000042
 20
-2.999999999999997
 30
0.0
 40
2.999999999999998
100
AcDbArc
 50
90.0
 51
180.0
  0
LINE
  5
122CE
330
122C8
100
AcDbEntity
  8
0
100
AcDbLine
 10
-30.49999999999999
 20
-2.999999999999998
 30
0.0
 11
-31.99999999999999
 21
-2.999999999999998
 31
0.0
  0
ARC
  5
122CF
330
122C8
100
AcDbEntity
  8
0
100
AcDbCircle
 10
35.00000000000042
 20
-2.999999999999997
 30
0.0
 40
1.499999999999999
100
AcDbArc
 50
90.0
 51
180.0
  0
LINE
  5
122D0
330
122C8
100
AcDbEntity
  8
0
100
AcDbLine
 10
32.00000000000001
 20
-2.999999999999998
 30
0.0
 11
30.50000000000001
 21
-2.999999999999998
 31
0.0
  0
LINE
  5
122D1
330
122C8
100
AcDbEntity
  8
0
100
AcDbLine
 10
-33.5
 20
-53.99999999999999
 30
0.0
 11
-33.50000000000001
 21
-41.78968515835101
 31
0.0
  0
LINE
  5
122D2
330
122C8
100
AcDbEntity
  8
0
100
AcDbLine
 10
-32.00000000000001
 20
-41.78968515835101
 30
0.0
 11
-32.0
 21
-54.0
 31
0.0
  0
LINE
  5
122D3
330
122C8
100
AcDbEntity
  8
0
100
AcDbLine
 10
32.00000000000006
 20
-53.99999999999999
 30
0.0
 11
32.00000000000011
 21
-41.78968515835101
 31
0.0
  0
LINE
  5
122D4
330
122C8
100
AcDbEntity
  8
0
100
AcDbLine
 10
33.50000000000011
 20
-41.78968515835101
 30
0.0
 11
33.50000000000007
 21
-53.99999999999999
 31
0.0
  0
LINE
  5
122D5
330
122C8
100
AcDbEntity
  8
0
100
AcDbLine
 10
33.50000000000007
 20
-53.99999999999999
 30
0.0
 11
32.00000000000006
 21
-53.99999999999999
 31
0.0
  0
LINE
  5
122D6
330
122C8
100
AcDbEntity
  8
0
100
AcDbLine
 10
-32.0
 20
-54.0
 30
0.0
 11
-33.5
 21
-53.99999999999999
 31
0.0
  0
LINE
  5
122D7
330
122C8
100
AcDbEntity
  8
0
100
AcDbLine
 10
-33.49999999999999
 20
-36.49999999999998
 30
0.0
 11
-33.49999999999999
 21
-41.78968515835101
 31
0.0
  0
LINE
  5
122D8
330
122C8
100
AcDbEntity
  8
0
100
AcDbLine
 10
-31.99999999999999
 20
-41.78968515835101
 30
0.0
 11
-31.99999999999999
 21
-36.49999999999998
 31
0.0
  0
LINE
  5
122D9
330
122C8
100
AcDbEntity
  8
0
100
AcDbLine
 10
31.99999999999986
 20
-36.49999999999998
 30
0.0
 11
31.9999999999998
 21
-41.78968515835101
 31
0.0
  0
LINE
  5
122DA
330
122C8
100
AcDbEntity
  8
0
100
AcDbLine
 10
33.49999999999981
 20
-41.78968515835101
 30
0.0
 11
33.49999999999984
 21
-36.49999999999998
 31
0.0
  0
LINE
  5
122DB
330
122C8
100
AcDbEntity
  8
0
100
AcDbLine
 10
-33.50000000000002
 20
-30.49999999999999
 30
0.0
 11
-33.50000000000002
 21
-36.49999999999998
 31
0.0
  0
LINE
  5
122DC
330
122C8
100
AcDbEntity
  8
0
100
AcDbLine
 10
-32.00000000000002
 20
-36.49999999999998
 30
0.0
 11
-32.00000000000002
 21
-30.49999999999999
 31
0.0
  0
LINE
  5
122DD
330
122C8
100
AcDbEntity
  8
0
100
AcDbLine
 10
32.00000000000043
 20
-30.49999999999999
 30
0.0
 11
32.00000000000039
 21
-36.49999999999998
 31
0.0
  0
LINE
  5
122DE
330
122C8
100
AcDbEntity
  8
0
100
AcDbLine
 10
33.50000000000039
 20
-36.49999999999998
 30
0.0
 11
33.50000000000043
 21
-30.49999999999999
 31
0.0
  0
LINE
  5
122DF
330
122C8
100
AcDbEntity
  8
0
100
AcDbLine
 10
-55.00000000000003
 20
0.0
 30
0.0
 11
-61.00000000000003
 21
0.0
 31
0.0
  0
LINE
  5
122E0
330
122C8
100
AcDbEntity
  8
0
100
AcDbLine
 10
-61.00000000000003
 20
0.0
 30
0.0
 11
-61.00000000000003
 21
-1.499999999999973
 31
0.0
  0
LINE
  5
122E1
330
122C8
100
AcDbEntity
  8
0
100
AcDbLine
 10
-61.00000000000003
 20
-1.499999999999973
 30
0.0
 11
-55.00000000000003
 21
-1.499999999999949
 31
0.0
  0
LINE
  5
122E2
330
122C8
100
AcDbEntity
  8
0
100
AcDbLine
 10
-55.00000000000003
 20
-1.499999999999949
 30
0.0
 11
-55.00000000000003
 21
0.0
 31
0.0
  0
LINE
  5
122E3
330
122C8
100
AcDbEntity
  8
0
100
AcDbLine
 10
-32.00000000000002
 20
-30.49999999999999
 30
0.0
 11
-33.50000000000002
 21
-30.49999999999999
 31
0.0
  0
LINE
  5
122E4
330
122C8
100
AcDbEntity
  8
0
100
AcDbLine
 10
-33.50000000000002
 20
-36.49999999999998
 30
0.0
 11
-32.00000000000002
 21
-36.49999999999998
 31
0.0
  0
LINE
  5
122E5
330
122C8
100
AcDbEntity
  8
0
100
AcDbLine
 10
33.50000000000043
 20
-30.49999999999999
 30
0.0
 11
32.00000000000043
 21
-30.49999999999999
 31
0.0
  0
LINE
  5
122E6
330
122C8
100
AcDbEntity
  8
0
100
AcDbLine
 10
32.00000000000039
 20
-36.49999999999998
 30
0.0
 11
33.50000000000039
 21
-36.49999999999998
 31
0.0
  0
LINE
  5
122E7
330
122C8
100
AcDbEntity
  8
0
100
AcDbLine
 10
61.0000000000004
 20
0.0
 30
0.0
 11
55.00000000000042
 21
0.0
 31
0.0
  0
LINE
  5
122E8
330
122C8
100
AcDbEntity
  8
0
100
AcDbLine
 10
55.00000000000042
 20
0.0
 30
0.0
 11
55.00000000000042
 21
-1.499999999999992
 31
0.0
  0
LINE
  5
122E9
330
122C8
100
AcDbEntity
  8
0
100
AcDbLine
 10
55.00000000000042
 20
-1.499999999999992
 30
0.0
 11
61.0000000000004
 21
-1.499999999999988
 31
0.0
  0
LINE
  5
122EA
330
122C8
100
AcDbEntity
  8
0
100
AcDbLine
 10
61.0000000000004
 20
-1.499999999999988
 30
0.0
 11
61.0000000000004
 21
0.0
 31
0.0
  0
LINE
  5
122EB
330
122C8
100
AcDbEntity
  8
0
100
AcDbLine
 10
-33.50000000000002
 20
-2.999999999999998
 30
0.0
 11
-33.50000000000002
 21
-30.49999999999999
 31
0.0
  0
LINE
  5
122EC
330
122C8
100
AcDbEntity
  8
0
100
AcDbLine
 10
-32.00000000000002
 20
-2.999999999999998
 30
0.0
 11
-32.00000000000002
 21
-30.49999999999999
 31
0.0
  0
LINE
  5
122ED
330
122C8
100
AcDbEntity
  8
0
100
AcDbLine
 10
32.00000000000043
 20
-2.999999999999998
 30
0.0
 11
32.00000000000043
 21
-30.49999999999999
 31
0.0
  0
LINE
  5
122EE
330
122C8
100
AcDbEntity
  8
0
100
AcDbLine
 10
33.50000000000043
 20
-30.49999999999999
 30
0.0
 11
33.50000000000043
 21
-2.999999999999998
 31
0.0
  0
LINE
  5
122EF
330
122C8
100
AcDbEntity
  8
0
100
AcDbLine
 10
-30.49999999999999
 20
-54.0
 30
0.0
 11
30.50000000000001
 21
-54.0
 31
0.0
  0
LINE
  5
122F0
330
122C8
100
AcDbEntity
  8
0
100
AcDbLine
 10
-35.00000000000002
 20
-1.499999999999985
 30
0.0
 11
-55.00000000000003
 21
-1.499999999999949
 31
0.0
  0
LINE
  5
122F1
330
122C8
100
AcDbEntity
  8
0
100
AcDbLine
 10
55.00000000000042
 20
0.0
 30
0.0
 11
35.00000000000042
 21
0.0
 31
0.0
  0
LINE
  5
122F2
330
122C8
100
AcDbEntity
  8
0
100
AcDbLine
 10
35.00000000000042
 20
-1.499999999999999
 30
0.0
 11
55.00000000000042
 21
-1.499999999999992
 31
0.0
  0
LINE
  5
122F3
330
122C8
100
AcDbEntity
  8
0
100
AcDbLine
 10
-35.00000000000002
 20
0.0
 30
0.0
 11
-55.00000000000003
 21
0.0
 31
0.0
  0
LINE
  5
122F4
330
122C8
100
AcDbEntity
  8
0
100
AcDbLine
 10
-50.50000000000015
 20
0.0
 30
0.0
 11
-50.50000000000017
 21
1.499999999999997
 31
0.0
  0
LINE
  5
122F5
330
122C8
100
AcDbEntity
  8
0
100
AcDbLine
 10
-46.50000000000006
 20
1.499999999999999
 30
0.0
 11
-46.5000000000001
 21
0.0
 31
0.0
  0
LINE
  5
122F6
330
122C8
100
AcDbEntity
  8
0
100
AcDbLine
 10
-46.50000000000009
 20
1.499999999999994
 30
0.0
 11
-46.50000000000011
 21
7.00000000000001
 31
0.0
  0
LINE
  5
122F7
330
122C8
100
AcDbEntity
  8
0
100
AcDbLine
 10
-46.50000000000011
 20
7.00000000000001
 30
0.0
 11
-48.50000000000012
 21
8.999999999999994
 31
0.0
  0
LINE
  5
122F8
330
122C8
100
AcDbEntity
  8
0
100
AcDbLine
 10
-48.50000000000012
 20
8.999999999999994
 30
0.0
 11
-50.50000000000011
 21
7.000000000000001
 31
0.0
  0
LINE
  5
122F9
330
122C8
100
AcDbEntity
  8
0
100
AcDbLine
 10
-50.50000000000011
 20
7.000000000000001
 30
0.0
 11
-50.5000000000001
 21
1.499999999999994
 31
0.0
  0
ARC
  5
122FA
330
122C8
100
AcDbEntity
  8
0
100
AcDbCircle
 10
-41.32677949145509
 20
-7.495925238298273
 30
0.0
 40
5.000000000000007
100
AcDbArc
 50
9.000000000000145
 51
72.00000000000007
  0
LINE
  5
122FB
330
122C8
100
AcDbEntity
  8
0
100
AcDbLine
 10
-36.38833778847939
 20
-6.713752913097108
 30
0.0
 11
-33.51846748910731
 21
-24.83340086267852
 31
0.0
  0
LINE
  5
122FC
330
122C8
100
AcDbEntity
  8
0
100
AcDbLine
 10
-43.37405116892472
 20
-1.573415225557258
 30
0.0
 11
-39.78169451958035
 21
-2.740642656822493
 31
0.0
  0
SPLINE
  5
122FD
330
122C8
100
AcDbEntity
  8
0
100
AcDbSpline
210
0.0
220
0.0
230
1.0
 70
     8
 71
     3
 72
     8
 73
     4
 74
     0
 42
0.000000001
 43
0.0000000001
 40
-1.0
 40
-1.0
 40
-1.0
 40
-1.0
 40
0.0
 40
0.0
 40
0.0
 40
0.0
 10
-27.5
 20
-1.499999999999992
 30
0.0
 10
-28.49999999999985
 20
-1.499999999999992
 30
0.0
 10
-29.49999999999972
 20
-2.214601836602512
 30
0.0
 10
-30.50000000000001
 20
-2.999999999999998
 30
0.0
  0
LINE
  5
122FE
330
122C8
100
AcDbEntity
  8
0
100
AcDbLine
 10
-27.49999999999998
 20
-1.499999999999992
 30
0.0
 11
-27.49999999999998
 21
-1.090140682897564
 31
0.0
  0
LINE
  5
122FF
330
122C8
100
AcDbEntity
  8
0
100
AcDbLine
 10
-27.49999999999998
 20
-1.090140682897564
 30
0.0
 11
-27.49999999999998
 21
0.0
 31
0.0
  0
SPLINE
  5
12300
330
122C8
100
AcDbEntity
  8
0
100
AcDbSpline
210
0.0
220
0.0
230
1.0
 70
     8
 71
     3
 72
     8
 73
     4
 74
     0
 42
0.000000001
 43
0.0000000001
 40
0.0
 40
0.0
 40
0.0
 40
0.0
 40
1.0
 40
1.0
 40
1.0
 40
1.0
 10
-30.50000000000001
 20
-2.999999999999997
 30
0.0
 10
-29.49999999999972
 20
-1.42920367320503
 30
0.0
 10
-28.49999999999985
 20
0.0000000000000078
 30
0.0
 10
-27.5
 20
0.0000000000000078
 30
0.0
  0
LINE
  5
12301
330
122C8
100
AcDbEntity
  8
0
100
AcDbLine
 10
-27.49999999999998
 20
0.0
 30
0.0
 11
-24.19999999999999
 21
0.0
 31
0.0
  0
LINE
  5
12302
330
122C8
100
AcDbEntity
  8
0
100
AcDbLine
 10
-24.19999999999999
 20
-1.499999999999992
 30
0.0
 11
-27.49999999999998
 21
-1.499999999999992
 31
0.0
  0
LINE
  5
12303
330
122C8
100
AcDbEntity
  8
0
100
AcDbLine
 10
-24.19999999999999
 20
-1.499999999999992
 30
0.0
 11
-24.19999999999999
 21
0.0
 31
0.0
  0
LINE
  5
12304
330
122C8
100
AcDbEntity
  8
0
100
AcDbLine
 10
-24.19999999999999
 20
0.0
 30
0.0
 11
-14.94999999999998
 21
0.0
 31
0.0
  0
LINE
  5
12305
330
122C8
100
AcDbEntity
  8
0
100
AcDbLine
 10
-14.94999999999998
 20
-1.499999999999992
 30
0.0
 11
-24.19999999999999
 21
-1.499999999999992
 31
0.0
  0
LINE
  5
12306
330
122C8
100
AcDbEntity
  8
0
100
AcDbLine
 10
-14.94999999999998
 20
-1.499999999999992
 30
0.0
 11
-14.94999999999998
 21
0.0
 31
0.0
  0
LINE
  5
12307
330
122C8
100
AcDbEntity
  8
0
100
AcDbLine
 10
-14.94999999999998
 20
0.0
 30
0.0
 11
-11.24999999999998
 21
0.0
 31
0.0
  0
LINE
  5
12308
330
122C8
100
AcDbEntity
  8
0
100
AcDbLine
 10
-11.24999999999998
 20
-1.499999999999993
 30
0.0
 11
-14.94999999999998
 21
-1.499999999999992
 31
0.0
  0
LINE
  5
12309
330
122C8
100
AcDbEntity
  8
0
100
AcDbLine
 10
-11.24999999999998
 20
0.0
 30
0.0
 11
-11.24999999999998
 21
-1.499999999999993
 31
0.0
  0
LINE
  5
1230A
330
122C8
100
AcDbEntity
  8
0
100
AcDbLine
 10
27.50000000000002
 20
-1.499999999999992
 30
0.0
 11
27.50000000000002
 21
-1.090140682897382
 31
0.0
  0
SPLINE
  5
1230B
330
122C8
100
AcDbEntity
  8
0
100
AcDbSpline
210
0.0
220
0.0
230
1.0
 70
     8
 71
     3
 72
     8
 73
     4
 74
     0
 42
0.000000001
 43
0.0000000001
 40
-1.0
 40
-1.0
 40
-1.0
 40
-1.0
 40
0.0
 40
0.0
 40
0.0
 40
0.0
 10
30.50000000000001
 20
-2.999999999999996
 30
0.0
 10
29.50000000000035
 20
-2.214601836602519
 30
0.0
 10
28.49999999999999
 20
-1.499999999999992
 30
0.0
 10
27.50000000000005
 20
-1.499999999999992
 30
0.0
  0
SPLINE
  5
1230C
330
122C8
100
AcDbEntity
  8
0
100
AcDbSpline
210
0.0
220
0.0
230
1.0
 70
     8
 71
     3
 72
     8
 73
     4
 74
     0
 42
0.000000001
 43
0.0000000001
 40
0.0
 40
0.0
 40
0.0
 40
0.0
 40
1.0
 40
1.0
 40
1.0
 40
1.0
 10
27.50000000000005
 20
0.0000000000000078
 30
0.0
 10
28.49999999999999
 20
0.0000000000000078
 30
0.0
 10
29.50000000000035
 20
-1.429203673205044
 30
0.0
 10
30.50000000000001
 20
-2.999999999999993
 30
0.0
  0
LINE
  5
1230D
330
122C8
100
AcDbEntity
  8
0
100
AcDbLine
 10
27.50000000000002
 20
-1.090140682897382
 30
0.0
 11
27.50000000000002
 21
0.0
 31
0.0
  0
LINE
  5
1230E
330
122C8
100
AcDbEntity
  8
0
100
AcDbLine
 10
11.25000000000001
 20
0.0
 30
0.0
 11
14.95000000000001
 21
0.0
 31
0.0
  0
LINE
  5
1230F
330
122C8
100
AcDbEntity
  8
0
100
AcDbLine
 10
11.25000000000001
 20
-1.499999999999993
 30
0.0
 11
11.25000000000001
 21
0.0
 31
0.0
  0
LINE
  5
12310
330
122C8
100
AcDbEntity
  8
0
100
AcDbLine
 10
14.95000000000001
 20
-1.499999999999993
 30
0.0
 11
11.25000000000001
 21
-1.499999999999993
 31
0.0
  0
LINE
  5
12311
330
122C8
100
AcDbEntity
  8
0
100
AcDbLine
 10
14.95000000000001
 20
-1.499999999999993
 30
0.0
 11
14.95000000000001
 21
0.0
 31
0.0
  0
LINE
  5
12312
330
122C8
100
AcDbEntity
  8
0
100
AcDbLine
 10
14.95000000000001
 20
0.0
 30
0.0
 11
24.20000000000002
 21
0.0
 31
0.0
  0
LINE
  5
12313
330
122C8
100
AcDbEntity
  8
0
100
AcDbLine
 10
24.20000000000002
 20
-1.499999999999993
 30
0.0
 11
14.95000000000001
 21
-1.499999999999993
 31
0.0
  0
LINE
  5
12314
330
122C8
100
AcDbEntity
  8
0
100
AcDbLine
 10
24.20000000000002
 20
-1.499999999999993
 30
0.0
 11
24.20000000000002
 21
0.0
 31
0.0
  0
LINE
  5
12315
330
122C8
100
AcDbEntity
  8
0
100
AcDbLine
 10
24.20000000000002
 20
0.0
 30
0.0
 11
27.50000000000002
 21
0.0
 31
0.0
  0
LINE
  5
12316
330
122C8
100
AcDbEntity
  8
0
100
AcDbLine
 10
27.50000000000002
 20
-1.499999999999992
 30
0.0
 11
24.20000000000002
 21
-1.499999999999993
 31
0.0
  0
LINE
  5
12317
330
122C8
100
AcDbEntity
  8
0
100
AcDbLine
 10
11.25000000000001
 20
-1.499999999999993
 30
0.0
 11
-11.24999999999998
 21
-1.499999999999993
 31
0.0
  0
LINE
  5
12318
330
122C8
100
AcDbEntity
  8
0
100
AcDbLine
 10
11.25000000000001
 20
0.0
 30
0.0
 11
-11.24999999999998
 21
0.0
 31
0.0
  0
LINE
  5
12319
330
122C8
100
AcDbEntity
  8
0
100
AcDbLine
 10
46.50000000000022
 20
0.0
 30
0.0
 11
46.50000000000024
 21
1.499999999999998
 31
0.0
  0
LINE
  5
1231A
330
122C8
100
AcDbEntity
  8
0
100
AcDbLine
 10
50.50000000000013
 20
1.499999999999995
 30
0.0
 11
50.50000000000012
 21
0.0
 31
0.0
  0
LINE
  5
1231B
330
122C8
100
AcDbEntity
  8
0
100
AcDbLine
 10
-32.0
 20
-54.0
 30
0.0
 11
-30.49999999999999
 21
-54.0
 31
0.0
  0
LINE
  5
1231C
330
122C8
100
AcDbEntity
  8
0
100
AcDbLine
 10
30.50000000000001
 20
-54.0
 30
0.0
 11
32.00000000000001
 21
-54.0
 31
0.0
  0
LINE
  5
1231D
330
122C8
100
AcDbEntity
  8
0
100
AcDbLine
 10
50.50000000000013
 20
1.499999999999994
 30
0.0
 11
50.50000000000011
 21
7.000000000000001
 31
0.0
  0
LINE
  5
1231E
330
122C8
100
AcDbEntity
  8
0
100
AcDbLine
 10
50.50000000000011
 20
7.000000000000001
 30
0.0
 11
48.50000000000012
 21
8.999999999999994
 31
0.0
  0
LINE
  5
1231F
330
122C8
100
AcDbEntity
  8
0
100
AcDbLine
 10
48.50000000000012
 20
8.999999999999994
 30
0.0
 11
46.50000000000011
 21
7.000000000000001
 31
0.0
  0
LINE
  5
12320
330
122C8
100
AcDbEntity
  8
0
100
AcDbLine
 10
46.50000000000011
 20
7.000000000000001
 30
0.0
 11
46.50000000000011
 21
1.499999999999985
 31
0.0
  0
ARC
  5
12321
330
122C8
100
AcDbEntity
  8
0
100
AcDbCircle
 10
-43.83757666048714
 20
-2.999999999999991
 30
0.0
 40
1.5
100
AcDbArc
 50
72.00000000000042
 51
90.0
  0
ARC
  5
12322
330
122C8
100
AcDbEntity
  8
0
100
AcDbCircle
 10
-35.00000000000002
 20
-25.06805256023887
 30
0.0
 40
1.5
100
AcDbArc
 50
0.0
 51
9.000000000000065
  0
ARC
  5
12323
330
122C8
100
AcDbEntity
  8
0
100
AcDbCircle
 10
35.00000000000034
 20
-25.06805256023692
 30
0.0
 40
1.5
100
AcDbArc
 50
170.9999999999999
 51
180.0
  0
ARC
  5
12324
330
122C8
100
AcDbEntity
  8
0
100
AcDbCircle
 10
43.83757666048712
 20
-2.999999999999994
 30
0.0
 40
1.5
100
AcDbArc
 50
90.0
 51
107.9999999999996
  0
LINE
  5
12325
330
122C8
100
AcDbEntity
  8
0
100
AcDbLine
 10
39.78169451958036
 20
-2.740642656822493
 30
0.0
 11
43.37405116892471
 21
-1.573415225557264
 31
0.0
  0
LINE
  5
12326
330
122C8
100
AcDbEntity
  8
0
100
AcDbLine
 10
33.51846748910763
 20
-24.83340086267657
 30
0.0
 11
36.3883377884794
 21
-6.713752913097108
 31
0.0
  0
ARC
  5
12327
330
122C8
100
AcDbEntity
  8
0
100
AcDbCircle
 10
41.32677949145509
 20
-7.495925238298273
 30
0.0
 40
5.000000000000005
100
AcDbArc
 50
108.0
 51
170.9999999999998
  0
ENDBLK
  5
122CA
330
122C8
100
AcDbEntity
  8
0
100
AcDbBlockEnd
  0
BLOCK
  5
12329
330
12328
100
AcDbEntity
  8
0
100
AcDbBlockBegin
  2
SBE64_83-F-Bottom
 70
     0
 10
0.0
 20
0.0
 30
0.0
  3
SBE64_83-F-Bottom
  1

  0
LINE
  5
1232B
330
12328
100
AcDbEntity
  8
0
100
AcDbLine
 10
-33.5
 20
54.0
 30
0.0
 11
-33.5
 21
2.999999999999998
 31
0.0
  0
LINE
  5
1232C
330
12328
100
AcDbEntity
  8
0
100
AcDbLine
 10
33.50000000000001
 20
54.0
 30
0.0
 11
33.5
 21
2.999999999999998
 31
0.0
  0
LINE
  5
1232D
330
12328
100
AcDbEntity
  8
0
100
AcDbLine
 10
33.50000000000001
 20
54.0
 30
0.0
 11
30.50000000000001
 21
54.0
 31
0.0
  0
LINE
  5
1232E
330
12328
100
AcDbEntity
  8
0
100
AcDbLine
 10
-30.49999999999999
 20
54.0
 30
0.0
 11
-33.5
 21
54.0
 31
0.0
  0
LINE
  5
1232F
330
12328
100
AcDbEntity
  8
0
100
AcDbLine
 10
-61.00000000000001
 20
1.499999999999992
 30
0.0
 11
-55.71031484164891
 21
1.499999999999996
 31
0.0
  0
LINE
  5
12330
330
12328
100
AcDbEntity
  8
0
100
AcDbLine
 10
-61.00000000000001
 20
1.499999999999985
 30
0.0
 11
-61.00000000000001
 21
0.0
 31
0.0
  0
LINE
  5
12331
330
12328
100
AcDbEntity
  8
0
100
AcDbLine
 10
61.00000000000017
 20
0.0
 30
0.0
 11
55.71031484164908
 21
0.0
 31
0.0
  0
LINE
  5
12332
330
12328
100
AcDbEntity
  8
0
100
AcDbLine
 10
-55.71031484164892
 20
0.0
 30
0.0
 11
-61.00000000000001
 21
0.0
 31
0.0
  0
LINE
  5
12333
330
12328
100
AcDbEntity
  8
0
100
AcDbLine
 10
61.00000000000015
 20
0.0
 30
0.0
 11
61.00000000000015
 21
1.499999999999989
 31
0.0
  0
LINE
  5
12334
330
12328
100
AcDbEntity
  8
0
100
AcDbLine
 10
55.71031484164908
 20
1.499999999999994
 30
0.0
 11
61.00000000000016
 21
1.499999999999993
 31
0.0
  0
LINE
  5
12335
330
12328
100
AcDbEntity
  8
0
100
AcDbLine
 10
-55.71031484164892
 20
1.499999999999995
 30
0.0
 11
-35.00000000000002
 21
1.499999999999998
 31
0.0
  0
LINE
  5
12336
330
12328
100
AcDbEntity
  8
0
100
AcDbLine
 10
-50.50000000000007
 20
0.0
 30
0.0
 11
-50.50000000000012
 21
-1.5
 31
0.0
  0
LINE
  5
12337
330
12328
100
AcDbEntity
  8
0
100
AcDbLine
 10
-46.5000000000001
 20
-1.500000000000001
 30
0.0
 11
-46.50000000000013
 21
0.0
 31
0.0
  0
LINE
  5
12338
330
12328
100
AcDbEntity
  8
0
100
AcDbLine
 10
-35.00000000000002
 20
0.0
 30
0.0
 11
-55.71031484164892
 21
0.0
 31
0.0
  0
SPLINE
  5
12339
330
12328
100
AcDbEntity
  8
0
100
AcDbSpline
210
0.0
220
0.0
230
1.0
 70
     8
 71
     3
 72
     8
 73
     4
 74
     0
 42
0.000000001
 43
0.0000000001
 40
-1.0
 40
-1.0
 40
-1.0
 40
-1.0
 40
0.0
 40
0.0
 40
0.0
 40
0.0
 10
-32.00000000000001
 20
3.000000000000009
 30
0.0
 10
-32.00000000000001
 20
1.429203673205126
 30
0.0
 10
-33.4292036732052
 20
-0.0000000000000001
 30
0.0
 10
-35.00000000000002
 20
-0.0000000000000061
 30
0.0
  0
SPLINE
  5
1233A
330
12328
100
AcDbEntity
  8
0
100
AcDbSpline
210
0.0
220
0.0
230
1.0
 70
     8
 71
     3
 72
     8
 73
     4
 74
     0
 42
0.000000001
 43
0.0000000001
 40
0.0
 40
0.0
 40
0.0
 40
0.0
 40
1.0
 40
1.0
 40
1.0
 40
1.0
 10
-35.00000000000002
 20
1.499999999999994
 30
0.0
 10
-34.21460183660261
 20
1.499999999999996
 30
0.0
 10
-33.50000000000001
 20
2.214601836602561
 30
0.0
 10
-33.50000000000001
 20
3.000000000000003
 30
0.0
  0
LINE
  5
1233B
330
12328
100
AcDbEntity
  8
0
100
AcDbLine
 10
-35.00000000000002
 20
1.499999999999998
 30
0.0
 11
-35.00000000000002
 21
1.090140682897372
 31
0.0
  0
LINE
  5
1233C
330
12328
100
AcDbEntity
  8
0
100
AcDbLine
 10
-35.00000000000002
 20
1.090140682897372
 30
0.0
 11
-35.00000000000002
 21
0.0
 31
0.0
  0
LINE
  5
1233D
330
12328
100
AcDbEntity
  8
0
100
AcDbLine
 10
-48.5000000000001
 20
-8.999999999999994
 30
0.0
 11
-46.50000000000009
 21
-7.00000000000001
 31
0.0
  0
LINE
  5
1233E
330
12328
100
AcDbEntity
  8
0
100
AcDbLine
 10
-46.50000000000009
 20
-7.00000000000001
 30
0.0
 11
-46.50000000000009
 21
-1.499999999999994
 31
0.0
  0
LINE
  5
1233F
330
12328
100
AcDbEntity
  8
0
100
AcDbLine
 10
-50.5000000000001
 20
-1.499999999999994
 30
0.0
 11
-50.5000000000001
 21
-7.000000000000001
 31
0.0
  0
LINE
  5
12340
330
12328
100
AcDbEntity
  8
0
100
AcDbLine
 10
-50.5000000000001
 20
-7.000000000000001
 30
0.0
 11
-48.5000000000001
 21
-8.999999999999994
 31
0.0
  0
ARC
  5
12341
330
12328
100
AcDbEntity
  8
0
100
AcDbCircle
 10
-41.32677949145509
 20
7.495925238298273
 30
0.0
 40
5.000000000000005
100
AcDbArc
 50
287.9999999999999
 51
350.9999999999998
  0
LINE
  5
12342
330
12328
100
AcDbEntity
  8
0
100
AcDbLine
 10
-36.38833778847939
 20
6.713752913097108
 30
0.0
 11
-33.51846748910731
 21
24.83340086267852
 31
0.0
  0
LINE
  5
12343
330
12328
100
AcDbEntity
  8
0
100
AcDbLine
 10
-43.37405116892472
 20
1.573415225557258
 30
0.0
 11
-39.78169451958035
 21
2.740642656822493
 31
0.0
  0
LINE
  5
12344
330
12328
100
AcDbEntity
  8
0
100
AcDbLine
 10
55.71031484164906
 20
0.0
 30
0.0
 11
35.00000000000003
 21
0.0
 31
0.0
  0
LINE
  5
12345
330
12328
100
AcDbEntity
  8
0
100
AcDbLine
 10
35.00000000000003
 20
1.499999999999998
 30
0.0
 11
55.71031484164906
 21
1.499999999999992
 31
0.0
  0
LINE
  5
12346
330
12328
100
AcDbEntity
  8
0
100
AcDbLine
 10
35.00000000000003
 20
1.499999999999998
 30
0.0
 11
35.00000000000003
 21
1.090140682897372
 31
0.0
  0
LINE
  5
12347
330
12328
100
AcDbEntity
  8
0
100
AcDbLine
 10
35.00000000000003
 20
1.090140682897372
 30
0.0
 11
35.00000000000003
 21
0.0
 31
0.0
  0
SPLINE
  5
12348
330
12328
100
AcDbEntity
  8
0
100
AcDbSpline
210
0.0
220
0.0
230
1.0
 70
     8
 71
     3
 72
     8
 73
     4
 74
     0
 42
0.000000001
 43
0.0000000001
 40
0.0
 40
0.0
 40
0.0
 40
0.0
 40
1.0
 40
1.0
 40
1.0
 40
1.0
 10
35.00000000000003
 20
-0.0000000000000061
 30
0.0
 10
33.42920367320521
 20
-0.0000000000000001
 30
0.0
 10
32.00000000000002
 20
1.429203673205126
 30
0.0
 10
32.00000000000002
 20
3.000000000000009
 30
0.0
  0
SPLINE
  5
12349
330
12328
100
AcDbEntity
  8
0
100
AcDbSpline
210
0.0
220
0.0
230
1.0
 70
     8
 71
     3
 72
     8
 73
     4
 74
     0
 42
0.000000001
 43
0.0000000001
 40
-1.0
 40
-1.0
 40
-1.0
 40
-1.0
 40
0.0
 40
0.0
 40
0.0
 40
0.0
 10
33.50000000000002
 20
3.000000000000003
 30
0.0
 10
33.50000000000002
 20
2.214601836602561
 30
0.0
 10
34.21460183660262
 20
1.499999999999996
 30
0.0
 10
35.00000000000003
 20
1.499999999999994
 30
0.0
  0
SPLINE
  5
1234A
330
12328
100
AcDbEntity
  8
0
100
AcDbSpline
210
0.0
220
0.0
230
1.0
 70
     8
 71
     3
 72
     8
 73
     4
 74
     0
 42
0.000000001
 43
0.0000000001
 40
0.0
 40
0.0
 40
0.0
 40
0.0
 40
1.0
 40
1.0
 40
1.0
 40
1.0
 10
-30.50000000000001
 20
2.999999999999997
 30
0.0
 10
-29.49999999999972
 20
1.42920367320503
 30
0.0
 10
-28.49999999999985
 20
-0.0000000000000078
 30
0.0
 10
-27.5
 20
-0.0000000000000078
 30
0.0
  0
SPLINE
  5
1234B
330
12328
100
AcDbEntity
  8
0
100
AcDbSpline
210
0.0
220
0.0
230
1.0
 70
     8
 71
     3
 72
     8
 73
     4
 74
     0
 42
0.000000001
 43
0.0000000001
 40
0.0
 40
0.0
 40
0.0
 40
0.0
 40
1.0
 40
1.0
 40
1.0
 40
1.0
 10
27.50000000000005
 20
-0.0000000000000078
 30
0.0
 10
28.49999999999999
 20
-0.0000000000000078
 30
0.0
 10
29.50000000000035
 20
1.429203673205044
 30
0.0
 10
30.50000000000001
 20
2.999999999999993
 30
0.0
  0
LINE
  5
1234C
330
12328
100
AcDbEntity
  8
0
100
AcDbLine
 10
27.50000000000002
 20
0.0
 30
0.0
 11
-27.49999999999999
 21
0.0
 31
0.0
  0
LINE
  5
1234D
330
12328
100
AcDbEntity
  8
0
100
AcDbLine
 10
-30.49999999999999
 20
2.999999999999998
 30
0.0
 11
-33.5
 21
2.999999999999998
 31
0.0
  0
LINE
  5
1234E
330
12328
100
AcDbEntity
  8
0
100
AcDbLine
 10
33.50000000000001
 20
2.999999999999998
 30
0.0
 11
30.50000000000001
 21
2.999999999999998
 31
0.0
  0
LINE
  5
1234F
330
12328
100
AcDbEntity
  8
0
100
AcDbLine
 10
-30.49999999999999
 20
54.0
 30
0.0
 11
30.50000000000001
 21
54.0
 31
0.0
  0
LINE
  5
12350
330
12328
100
AcDbEntity
  8
0
100
AcDbLine
 10
46.50000000000009
 20
0.0
 30
0.0
 11
46.50000000000017
 21
-1.5
 31
0.0
  0
LINE
  5
12351
330
12328
100
AcDbEntity
  8
0
100
AcDbLine
 10
50.50000000000012
 20
-1.499999999999996
 30
0.0
 11
50.50000000000011
 21
0.0
 31
0.0
  0
LINE
  5
12352
330
12328
100
AcDbEntity
  8
0
100
AcDbLine
 10
46.50000000000011
 20
-7.000000000000001
 30
0.0
 11
48.50000000000012
 21
-8.999999999999994
 31
0.0
  0
LINE
  5
12353
330
12328
100
AcDbEntity
  8
0
100
AcDbLine
 10
48.50000000000012
 20
-8.999999999999994
 30
0.0
 11
50.50000000000011
 21
-6.999999999999992
 31
0.0
  0
LINE
  5
12354
330
12328
100
AcDbEntity
  8
0
100
AcDbLine
 10
46.50000000000011
 20
-1.499999999999985
 30
0.0
 11
46.50000000000011
 21
-7.000000000000001
 31
0.0
  0
LINE
  5
12355
330
12328
100
AcDbEntity
  8
0
100
AcDbLine
 10
50.50000000000011
 20
-6.999999999999992
 30
0.0
 11
50.50000000000011
 21
-1.499999999999985
 31
0.0
  0
ARC
  5
12356
330
12328
100
AcDbEntity
  8
0
100
AcDbCircle
 10
-43.83757666048714
 20
2.999999999999991
 30
0.0
 40
1.5
100
AcDbArc
 50
270.0
 51
287.9999999999996
  0
ARC
  5
12357
330
12328
100
AcDbEntity
  8
0
100
AcDbCircle
 10
-35.00000000000002
 20
25.06805256023887
 30
0.0
 40
1.5
100
AcDbArc
 50
350.9999999999999
 51
0.0
  0
ARC
  5
12358
330
12328
100
AcDbEntity
  8
0
100
AcDbCircle
 10
35.00000000000034
 20
25.06805256023692
 30
0.0
 40
1.5
100
AcDbArc
 50
180.0
 51
189.0
  0
ARC
  5
12359
330
12328
100
AcDbEntity
  8
0
100
AcDbCircle
 10
43.83757666048712
 20
2.999999999999994
 30
0.0
 40
1.5
100
AcDbArc
 50
252.0000000000004
 51
270.0
  0
LINE
  5
1235A
330
12328
100
AcDbEntity
  8
0
100
AcDbLine
 10
39.78169451958036
 20
2.740642656822493
 30
0.0
 11
43.37405116892471
 21
1.573415225557264
 31
0.0
  0
LINE
  5
1235B
330
12328
100
AcDbEntity
  8
0
100
AcDbLine
 10
33.51846748910763
 20
24.83340086267657
 30
0.0
 11
36.3883377884794
 21
6.713752913097108
 31
0.0
  0
ARC
  5
1235C
330
12328
100
AcDbEntity
  8
0
100
AcDbCircle
 10
41.32677949145509
 20
7.495925238298273
 30
0.0
 40
5.000000000000007
100
AcDbArc
 50
189.0000000000001
 51
252.0
  0
ENDBLK
  5
1232A
330
12328
100
AcDbEntity
  8
0
100
AcDbBlockEnd
  0
BLOCK
  5
1235E
330
1235D
100
AcDbEntity
  8
0
100
AcDbBlockBegin
  2
SBE64_83-F-ISO
 70
     0
 10
0.0
 20
0.0
 30
0.0
  3
SBE64_83-F-ISO
  1

  0
ELLIPSE
  5
12360
330
1235D
100
AcDbEntity
  8
0
100
AcDbEllipse
 10
-10.96015510839165
 20
56.76514446129013
 30
0.0
 11
1.500000000000007
 21
0.0000000000000001
 31
0.0
210
0.0
220
0.0
230
1.0
 40
0.5773502691896257
 41
5.497787143782137
 42
7.068583470577034
  0
LINE
  5
12361
330
1235D
100
AcDbEntity
  8
0
100
AcDbLine
 10
-9.899494936611823
 20
56.15277202559433
 30
0.0
 11
-9.899494936611819
 21
57.37751689698597
 31
0.0
  0
LINE
  5
12362
330
1235D
100
AcDbEntity
  8
0
100
AcDbLine
 10
-8.83883476481396
 20
44.90475288437426
 30
0.0
 11
-8.838834764832004
 21
55.54039958989854
 31
0.0
  0
LINE
  5
12363
330
1235D
100
AcDbEntity
  8
0
100
AcDbLine
 10
-8.838834764831986
 20
-11.00407175571114
 30
0.0
 11
-8.838834764832013
 21
-7.94281949073158
 31
0.0
  0
LINE
  5
12364
330
1235D
100
AcDbEntity
  8
0
100
AcDbLine
 10
-8.838834764832013
 20
-7.94281949073158
 30
0.0
 11
-8.838834764832146
 21
23.28878464325344
 31
0.0
  0
LINE
  5
12365
330
1235D
100
AcDbEntity
  8
0
100
AcDbLine
 10
-8.838834764832164
 20
26.55477096696446
 30
0.0
 11
-8.838834764821076
 21
37.59866596292736
 31
0.0
  0
ELLIPSE
  5
12366
330
1235D
100
AcDbEntity
  8
0
100
AcDbEllipse
 10
-10.96015510839165
 20
56.76514446129013
 30
0.0
 11
3.000000000000015
 21
-0.0000000000000003
 31
0.0
210
0.0
220
0.0
230
1.0
 40
0.5773502691896257
 41
5.497787143782137
 42
7.068583470577035
  0
ELLIPSE
  5
12367
330
1235D
100
AcDbEntity
  8
0
100
AcDbEllipse
 10
38.53731957466699
 20
28.18776412881956
 30
0.0
 11
-2.999999999999998
 21
-0.0000000000001664
 31
0.0
210
0.0
220
0.0
230
1.0
 40
0.5773502691896288
 41
3.926990816987
 42
5.497787143781899
  0
LINE
  5
12368
330
1235D
100
AcDbEntity
  8
0
100
AcDbLine
 10
37.47665940288705
 20
-0.1854920584187658
 30
0.0
 11
37.4766594028871
 21
9.960453388345754
 31
0.0
  0
LINE
  5
12369
330
1235D
100
AcDbEntity
  8
0
100
AcDbLine
 10
39.59797974644673
 20
9.960453388345754
 30
0.0
 11
39.59797974644669
 21
-0.1854920584188724
 31
0.0
  0
LINE
  5
1236A
330
1235D
100
AcDbEntity
  8
0
100
AcDbLine
 10
37.47665940288714
 20
19.06243940821449
 30
0.0
 11
37.47665940288718
 21
28.80013656451535
 31
0.0
  0
LINE
  5
1236B
330
1235D
100
AcDbEntity
  8
0
100
AcDbLine
 10
37.47665940288687
 20
-37.74433478109417
 30
0.0
 11
37.47665940288689
 21
-34.68308251611463
 31
0.0
  0
LINE
  5
1236C
330
1235D
100
AcDbEntity
  8
0
100
AcDbLine
 10
37.47665940288689
 20
-34.68308251611463
 30
0.0
 11
37.47665940288704
 21
-3.451478382129766
 31
0.0
  0
LINE
  5
1236D
330
1235D
100
AcDbEntity
  8
0
100
AcDbLine
 10
37.47665940288718
 20
28.80013656451535
 30
0.0
 11
36.41599923110735
 21
29.41250900021114
 31
0.0
  0
LINE
  5
1236E
330
1235D
100
AcDbEntity
  8
0
100
AcDbLine
 10
40.65863991822663
 20
29.41250900021116
 30
0.0
 11
39.59797974644682
 21
28.80013656451537
 31
0.0
  0
LINE
  5
1236F
330
1235D
100
AcDbEntity
  8
0
100
AcDbLine
 10
39.59797974644668
 20
-3.451478382129669
 30
0.0
 11
39.59797974644654
 21
-33.03088082268921
 31
0.0
  0
LINE
  5
12370
330
1235D
100
AcDbEntity
  8
0
100
AcDbLine
 10
39.59797974644682
 20
28.80013656451537
 30
0.0
 11
39.59797974644678
 21
19.06243940821449
 31
0.0
  0
ELLIPSE
  5
12371
330
1235D
100
AcDbEntity
  8
0
100
AcDbEllipse
 10
-7.778174593052167
 20
-11.61644419140693
 30
0.0
 11
-0.7499999999999236
 21
1.299038105676703
 31
0.0
210
0.0
220
0.0
230
0.9999999999999998
 40
0.5773502691896258
 41
0.7853981633976881
 42
2.356194490192585
  0
ELLIPSE
  5
12372
330
1235D
100
AcDbEntity
  8
0
100
AcDbEllipse
 10
38.53731957466699
 20
28.18776412881955
 30
0.0
 11
1.499999999999999
 21
-0.0000000000000897
 31
0.0
210
0.0
220
0.0
230
1.0
 40
0.5773502691896258
 41
0.7853981633976908
 42
2.356194490192589
  0
LINE
  5
12373
330
1235D
100
AcDbEntity
  8
0
100
AcDbLine
 10
-9.899494936611819
 20
57.37751689698597
 30
0.0
 11
-8.838834764831995
 21
57.98988933268173
 31
0.0
  0
LINE
  5
12374
330
1235D
100
AcDbEntity
  8
0
100
AcDbLine
 10
-8.838834764832004
 20
55.54039958989854
 30
0.0
 11
-9.899494936611827
 21
56.15277202559433
 31
0.0
  0
ELLIPSE
  5
12375
330
1235D
100
AcDbEntity
  8
0
100
AcDbEllipse
 10
35.35533905932724
 20
-36.51958990970257
 30
0.0
 11
1.499999999999997
 21
-2.598076211353312
 31
0.0
210
0.0
220
0.0
230
0.9999999999999998
 40
0.577350269189626
 41
0.0000000000000062
 42
0.7853981633974433
  0
LINE
  5
12376
330
1235D
100
AcDbEntity
  8
0
100
AcDbLine
 10
-7.960155108391639
 20
46.20313748394702
 30
0.0
 11
-7.960155108391644
 21
56.76514446129013
 31
0.0
  0
LINE
  5
12377
330
1235D
100
AcDbEntity
  8
0
100
AcDbLine
 10
-7.960155108391635
 20
28.1877641288147
 30
0.0
 11
-7.960155108391635
 21
38.74977110611992
 31
0.0
  0
LINE
  5
12378
330
1235D
100
AcDbEntity
  8
0
100
AcDbLine
 10
-7.960155108391626
 20
-5.89197377262729
 30
0.0
 11
-7.960155108391635
 21
24.10528122418623
 31
0.0
  0
ELLIPSE
  5
12379
330
1235D
100
AcDbEntity
  8
0
100
AcDbEllipse
 10
-28.28427124746204
 20
6.754728879466922
 30
0.0
 11
1.249999999999871
 21
2.16506350946117
 31
0.0
210
0.0
220
0.0
230
1.0
 40
0.5773502691896261
 41
3.579741684173544
 42
5.845036276595
  0
ELLIPSE
  5
1237A
330
1235D
100
AcDbEntity
  8
0
100
AcDbEllipse
 10
-28.28427124746206
 20
39.41459211657596
 30
0.0
 11
1.24999999999987
 21
2.16506350946117
 31
0.0
210
0.0
220
0.0
230
1.0
 40
0.577350269189626
 41
3.579741684173541
 42
5.845036276594999
  0
ELLIPSE
  5
1237B
330
1235D
100
AcDbEntity
  8
0
100
AcDbEllipse
 10
-28.28427124746204
 20
23.08466049802144
 30
0.0
 11
1.24999999999987
 21
2.16506350946117
 31
0.0
210
0.0
220
0.0
230
1.0
 40
0.577350269189626
 41
3.579741684173541
 42
5.845036276594997
  0
ELLIPSE
  5
1237C
330
1235D
100
AcDbEntity
  8
0
100
AcDbEllipse
 10
-27.22361107568223
 20
22.47228806232565
 30
0.0
 11
1.249999999999999
 21
2.165063509461096
 31
0.0
210
0.0
220
0.0
230
1.0
 40
0.5773502691896261
 41
0.0
 42
6.283185307179586
  0
ELLIPSE
  5
1237D
330
1235D
100
AcDbEntity
  8
0
100
AcDbEllipse
 10
-27.22361107568223
 20
38.80221968088017
 30
0.0
 11
1.249999999999999
 21
2.165063509461096
 31
0.0
210
0.0
220
0.0
230
1.0
 40
0.5773502691896261
 41
0.0
 42
6.283185307179586
  0
ELLIPSE
  5
1237E
330
1235D
100
AcDbEntity
  8
0
100
AcDbEllipse
 10
-27.22361107568223
 20
6.142356443771128
 30
0.0
 11
1.249999999999999
 21
2.165063509461096
 31
0.0
210
0.0
220
0.0
230
1.0
 40
0.5773502691896261
 41
0.0
 42
6.283185307179586
  0
LINE
  5
1237F
330
1235D
100
AcDbEntity
  8
0
100
AcDbLine
 10
-45.96194077712573
 20
-21.81767004389533
 30
0.0
 11
-45.96194077712574
 21
-31.21236213367236
 31
0.0
  0
LINE
  5
12380
330
1235D
100
AcDbEntity
  8
0
100
AcDbLine
 10
-9.899494936611827
 20
56.15277202559433
 30
0.0
 11
-29.34493141924188
 21
44.92594403783812
 31
0.0
  0
LINE
  5
12381
330
1235D
100
AcDbEntity
  8
0
100
AcDbLine
 10
-8.838834764832004
 20
55.54039958989854
 30
0.0
 11
-28.28427124746206
 21
44.31357160214232
 31
0.0
  0
LINE
  5
12382
330
1235D
100
AcDbEntity
  8
0
100
AcDbLine
 10
-44.90128060534591
 20
-22.43004247959114
 30
0.0
 11
-44.90128060534591
 21
-31.82473456936816
 31
0.0
  0
LINE
  5
12383
330
1235D
100
AcDbEntity
  8
0
100
AcDbLine
 10
0.3535533905931265
 20
-57.9526251590554
 30
0.0
 11
0.3535533905931754
 21
-48.55793306927838
 31
0.0
  0
LINE
  5
12384
330
1235D
100
AcDbEntity
  8
0
100
AcDbLine
 10
36.41599923110735
 20
29.41250900021114
 30
0.0
 11
16.9705627484773
 21
18.18568101245491
 31
0.0
  0
LINE
  5
12385
330
1235D
100
AcDbEntity
  8
0
100
AcDbLine
 10
18.03122292025712
 20
17.57330857675912
 30
0.0
 11
37.47665940288718
 21
28.80013656451535
 31
0.0
  0
LINE
  5
12386
330
1235D
100
AcDbEntity
  8
0
100
AcDbLine
 10
1.41421356237295
 20
-58.56499759475119
 30
0.0
 11
1.414213562372994
 21
-49.17030550497416
 31
0.0
  0
LINE
  5
12387
330
1235D
100
AcDbEntity
  8
0
100
AcDbLine
 10
-43.84062043356609
 20
-34.88659674784714
 30
0.0
 11
-0.7071067811866883
 21
-59.78974246614277
 31
0.0
  0
LINE
  5
12388
330
1235D
100
AcDbEntity
  8
0
100
AcDbLine
 10
-43.84062043356609
 20
-33.66185187645555
 30
0.0
 11
-0.7071067811866883
 21
-58.56499759475116
 31
0.0
  0
LINE
  5
12389
330
1235D
100
AcDbEntity
  8
0
100
AcDbLine
 10
-45.96194077712573
 20
-21.81767004389533
 30
0.0
 11
-37.32794435217299
 21
-10.1081955975566
 31
0.0
  0
LINE
  5
1238A
330
1235D
100
AcDbEntity
  8
0
100
AcDbLine
 10
-33.58757210636114
 20
0.1741854468540316
 30
0.0
 11
-33.58757210636116
 21
37.57747480948857
 31
0.0
  0
LINE
  5
1238B
330
1235D
100
AcDbEntity
  8
0
100
AcDbLine
 10
-32.52691193458134
 20
36.9651023737928
 30
0.0
 11
-32.52691193458132
 21
-0.4381869888417578
 31
0.0
  0
LINE
  5
1238C
330
1235D
100
AcDbEntity
  8
0
100
AcDbLine
 10
-36.26728418039318
 20
-10.7205680332524
 30
0.0
 11
-44.90128060534591
 21
-22.43004247959114
 31
0.0
  0
LINE
  5
1238D
330
1235D
100
AcDbEntity
  8
0
100
AcDbLine
 10
0.3535533905931754
 20
-48.55793306927838
 30
0.0
 11
8.987549815545946
 21
-36.84845862293967
 31
0.0
  0
LINE
  5
1238E
330
1235D
100
AcDbEntity
  8
0
100
AcDbLine
 10
12.72792206135783
 20
-26.56607757852905
 30
0.0
 11
12.727922061358
 21
10.83721178410538
 31
0.0
  0
LINE
  5
1238F
330
1235D
100
AcDbEntity
  8
0
100
AcDbLine
 10
13.78858223313782
 20
10.2248393484096
 30
0.0
 11
13.78858223313765
 21
-27.17845001422486
 31
0.0
  0
LINE
  5
12390
330
1235D
100
AcDbEntity
  8
0
100
AcDbLine
 10
10.04820998732577
 20
-37.46083105863547
 30
0.0
 11
1.414213562372994
 21
-49.17030550497416
 31
0.0
  0
LINE
  5
12391
330
1235D
100
AcDbEntity
  8
0
100
AcDbLine
 10
1.414213562372994
 20
-49.17030550497416
 30
0.0
 11
0.3535533905931754
 21
-48.55793306927838
 31
0.0
  0
LINE
  5
12392
330
1235D
100
AcDbEntity
  8
0
100
AcDbLine
 10
-44.90128060534591
 20
-22.43004247959114
 30
0.0
 11
-45.96194077712573
 21
-21.81767004389533
 31
0.0
  0
ELLIPSE
  5
12393
330
1235D
100
AcDbEntity
  8
0
100
AcDbEllipse
 10
-42.0728534805997
 20
-4.724794038712327
 30
0.0
 11
-6.000000000000618
 21
-10.3923048454129
 31
0.0
210
0.0
220
0.0
230
1.0
 40
0.577350269189626
 41
1.378810109075633
 42
2.356194490192587
  0
ELLIPSE
  5
12394
330
1235D
100
AcDbEntity
  8
0
100
AcDbEllipse
 10
-41.01219330881987
 20
-5.337166474408123
 30
0.0
 11
6.0
 21
10.39230484541326
 31
0.0
210
0.0
220
0.0
230
0.9999999999999998
 40
0.5773502691896259
 41
4.520402762665312
 42
5.497787143782137
  0
ELLIPSE
  5
12395
330
1235D
100
AcDbEntity
  8
0
100
AcDbEllipse
 10
4.242640687119036
 20
-31.46505706409528
 30
0.0
 11
-6.00000000000069
 21
-10.39230484541286
 31
0.0
210
0.0
220
0.0
230
0.9999999999999998
 40
0.5773502691896243
 41
1.378810109075637
 42
2.35619449019259
  0
ELLIPSE
  5
12396
330
1235D
100
AcDbEntity
  8
0
100
AcDbEllipse
 10
5.303300858898856
 20
-32.07742949979107
 30
0.0
 11
6.000000000000044
 21
10.39230484541324
 31
0.0
210
0.0
220
0.0
230
1.0
 40
0.5773502691896243
 41
4.520402762665316
 42
5.49778714378214
  0
ELLIPSE
  5
12397
330
1235D
100
AcDbEntity
  8
0
100
AcDbEllipse
 10
-19.79898987322348
 20
20.79072411527893
 30
0.0
 11
-6.000000000000001
 21
10.39230484541327
 31
0.0
210
0.0
220
0.0
230
1.0
 40
0.5773502691896258
 41
0.9794938541811637
 42
1.178784220247851
  0
LINE
  5
12398
330
1235D
100
AcDbEntity
  8
0
100
AcDbLine
 10
-32.52691193458132
 20
-0.4381869888417578
 30
0.0
 11
-33.58757210636114
 21
0.1741854468540316
 31
0.0
  0
ELLIPSE
  5
12399
330
1235D
100
AcDbEntity
  8
0
100
AcDbEllipse
 10
50.55813485483811
 20
-18.60523591448384
 30
0.0
 11
6.0
 21
-10.39230484541326
 31
0.0
210
0.0
220
0.0
230
0.9999999999999998
 40
0.5773502691896261
 41
0.0000000000000006
 42
0.7853981633974444
  0
LINE
  5
1239A
330
1235D
100
AcDbEntity
  8
0
100
AcDbLine
 10
-37.32794435217299
 20
-10.1081955975566
 30
0.0
 11
-36.26728418039318
 21
-10.7205680332524
 31
0.0
  0
LINE
  5
1239B
330
1235D
100
AcDbEntity
  8
0
100
AcDbLine
 10
13.78858223313765
 20
-27.17845001422486
 30
0.0
 11
12.72792206135783
 21
-26.56607757852905
 31
0.0
  0
LINE
  5
1239C
330
1235D
100
AcDbEntity
  8
0
100
AcDbLine
 10
8.987549815545946
 20
-36.84845862293967
 30
0.0
 11
10.04820998732577
 21
-37.46083105863547
 31
0.0
  0
LINE
  5
1239D
330
1235D
100
AcDbEntity
  8
0
100
AcDbLine
 10
59.04341622907669
 20
-23.50421540005025
 30
0.0
 11
57.98275605729687
 21
-24.11658783574605
 31
0.0
  0
ELLIPSE
  5
1239E
330
1235D
100
AcDbEntity
  8
0
100
AcDbEllipse
 10
49.4974746830583
 20
-19.21760835017964
 30
0.0
 11
6.000000000000007
 21
-10.39230484541326
 31
0.0
210
0.0
220
0.0
230
1.0
 40
0.5773502691896259
 41
6.091199089460204
 42
7.068583470577027
  0
LINE
  5
1239F
330
1235D
100
AcDbEntity
  8
0
100
AcDbLine
 10
55.4974746830583
 20
-29.60991319559291
 30
0.0
 11
56.55813485483811
 21
-28.99754075989712
 31
0.0
  0
LINE
  5
123A0
330
1235D
100
AcDbEntity
  8
0
100
AcDbLine
 10
-29.34493141924188
 20
44.92594403783812
 30
0.0
 11
-33.58757210636116
 21
37.57747480948859
 31
0.0
  0
LINE
  5
123A1
330
1235D
100
AcDbEntity
  8
0
100
AcDbLine
 10
-32.52691193458134
 20
36.9651023737928
 30
0.0
 11
-28.28427124746206
 21
44.31357160214232
 31
0.0
  0
LINE
  5
123A2
330
1235D
100
AcDbEntity
  8
0
100
AcDbLine
 10
16.9705627484773
 20
18.18568101245491
 30
0.0
 11
12.727922061358
 21
10.83721178410539
 31
0.0
  0
LINE
  5
123A3
330
1235D
100
AcDbEntity
  8
0
100
AcDbLine
 10
13.78858223313782
 20
10.2248393484096
 30
0.0
 11
18.03122292025712
 21
17.57330857675912
 31
0.0
  0
LINE
  5
123A4
330
1235D
100
AcDbEntity
  8
0
100
AcDbLine
 10
-28.28427124746204
 20
63.09299296348001
 30
0.0
 11
-24.04163056034275
 21
65.54248270626342
 31
0.0
  0
LINE
  5
123A5
330
1235D
100
AcDbEntity
  8
0
100
AcDbLine
 10
-24.04163056034275
 20
65.54248270626342
 30
0.0
 11
-22.98097038856295
 21
66.15485514195899
 31
0.0
  0
LINE
  5
123A6
330
1235D
100
AcDbEntity
  8
0
100
AcDbLine
 10
-28.28427124746206
 20
44.31357160214232
 30
0.0
 11
-29.34493141924188
 21
44.92594403783812
 31
0.0
  0
LINE
  5
123A7
330
1235D
100
AcDbEntity
  8
0
100
AcDbLine
 10
-33.58757210636116
 20
37.57747480948859
 30
0.0
 11
-32.52691193458134
 21
36.9651023737928
 31
0.0
  0
LINE
  5
123A8
330
1235D
100
AcDbEntity
  8
0
100
AcDbLine
 10
18.03122292025712
 20
17.57330857675912
 30
0.0
 11
16.9705627484773
 21
18.18568101245491
 31
0.0
  0
LINE
  5
123A9
330
1235D
100
AcDbEntity
  8
0
100
AcDbLine
 10
12.727922061358
 20
10.83721178410539
 30
0.0
 11
13.78858223313782
 21
10.2248393484096
 31
0.0
  0
LINE
  5
123AA
330
1235D
100
AcDbEntity
  8
0
100
AcDbLine
 10
59.04341622907686
 20
13.89907396258424
 30
0.0
 11
54.8007755419576
 21
21.24754319093401
 31
0.0
  0
LINE
  5
123AB
330
1235D
100
AcDbEntity
  8
0
100
AcDbLine
 10
54.8007755419576
 20
21.24754319093401
 30
0.0
 11
53.74011537017779
 21
20.63517075523823
 31
0.0
  0
LINE
  5
123AC
330
1235D
100
AcDbEntity
  8
0
100
AcDbLine
 10
53.74011537017779
 20
20.63517075523823
 30
0.0
 11
57.98275605729705
 21
13.28670152688845
 31
0.0
  0
LINE
  5
123AD
330
1235D
100
AcDbEntity
  8
0
100
AcDbLine
 10
57.98275605729705
 20
13.28670152688845
 30
0.0
 11
59.04341622907686
 21
13.89907396258424
 31
0.0
  0
ELLIPSE
  5
123AE
330
1235D
100
AcDbEntity
  8
0
100
AcDbEllipse
 10
-11.07938948562809
 20
40.60179235229547
 30
0.0
 11
0.9850528317504721
 21
1.131225405767207
 31
0.0
210
0.0
220
0.0
230
1.0
 40
0.417368001336755
 41
0.0
 42
0.5753553954488071
  0
SPLINE
  5
123AF
330
1235D
100
AcDbEntity
  8
0
100
AcDbSpline
210
0.0
220
0.0
230
1.0
 70
     8
 71
     3
 72
    10
 73
     6
 74
     0
 42
0.000000001
 43
0.0000000001
 40
0.1396843436543195
 40
0.1396843436543195
 40
0.1396843436543195
 40
0.1396843436543195
 40
0.1418729186708953
 40
0.1418729186708953
 40
0.2837458373417896
 40
0.2837458373417896
 40
0.2837458373417896
 40
0.2837458373417896
 10
-11.24436650055038
 20
42.64960718899522
 30
0.0
 10
-11.24039260026841
 20
42.64497641566314
 30
0.0
 10
-11.23642336921023
 20
42.64034802582985
 30
0.0
 10
-10.97545571242483
 20
42.3358480067896
 30
0.0
 10
-10.73769860193481
 20
42.04575123669332
 30
0.0
 10
-10.50983665030883
 20
41.77459845200285
 30
0.0
  0
ELLIPSE
  5
123B0
330
1235D
100
AcDbEntity
  8
0
100
AcDbEllipse
 10
-9.899494936611819
 20
39.54047972742805
 30
0.0
 11
1.018271863351772
 21
1.101418363886366
 31
0.0
210
0.0
220
0.0
230
1.0
 40
0.3866729749328029
 41
0.0
 42
0.6279471263398957
  0
SPLINE
  5
123B1
330
1235D
100
AcDbEntity
  8
0
100
AcDbSpline
210
0.0
220
0.0
230
1.0
 70
     8
 71
     3
 72
    10
 73
     6
 74
     0
 42
0.000000001
 43
0.0000000001
 40
0.0
 40
0.0
 40
0.0
 40
0.0
 40
0.086624002652515
 40
0.086624002652515
 40
0.1732480053050299
 40
0.1732480053050299
 40
0.1732480053050299
 40
0.1732480053050299
 10
-10.50983665024117
 20
41.77459845195535
 30
0.0
 10
-10.30986987430791
 20
41.59271208819596
 30
0.0
 10
-10.11144380141345
 20
41.40879513430913
 30
0.0
 10
-9.716943544207964
 20
41.03799035706855
 30
0.0
 10
-9.520869356132584
 20
40.85109927377473
 30
0.0
 10
-9.325676577161354
 20
40.6631014765844
 30
0.0
  0
ELLIPSE
  5
123B2
330
1235D
100
AcDbEntity
  8
0
100
AcDbEllipse
 10
-9.899494936600895
 20
38.21103839862316
 30
0.0
 11
0.4817249453119055
 21
-1.420542529129011
 31
0.0
210
0.0
220
0.0
230
1.0
 40
0.6821022831553095
 41
0.9100452509960028
 42
2.142595991522583
  0
SPLINE
  5
123B3
330
1235D
100
AcDbEntity
  8
0
100
AcDbSpline
210
0.0
220
0.0
230
1.0
 70
     8
 71
     3
 72
    10
 73
     6
 74
     0
 42
0.000000001
 43
0.0000000001
 40
-0.2385842614456977
 40
-0.2385842614456977
 40
-0.2385842614456977
 40
-0.2385842614456977
 40
-0.1421416204810495
 40
-0.1421416204810495
 40
-0.120089773566874
 40
-0.120089773566874
 40
-0.120089773566874
 40
-0.120089773566874
 10
-8.83883476481014
 20
37.59866596293366
 30
0.0
 10
-8.393577800149444
 20
37.80269686907021
 30
0.0
 10
-8.086611397924322
 20
38.12121370507137
 30
0.0
 10
-7.970953800963647
 20
38.57473171873383
 30
0.0
 10
-7.960350687683166
 20
38.66155850122352
 30
0.0
 10
-7.960436648082644
 20
38.74976894128627
 30
0.0
  0
SPLINE
  5
123B4
330
1235D
100
AcDbEntity
  8
0
100
AcDbSpline
210
0.0
220
0.0
230
1.0
 70
     8
 71
     3
 72
    14
 73
    10
 74
     0
 42
0.000000001
 43
0.0000000001
 40
0.0
 40
0.0
 40
0.0
 40
0.0
 40
0.0303721411284294
 40
0.0303721411284294
 40
0.0789675669339164
 40
0.0789675669339164
 40
0.1421416204810495
 40
0.1421416204810495
 40
0.2385842614456977
 40
0.2385842614456977
 40
0.2385842614456977
 40
0.2385842614456977
 10
-9.325676577161363
 20
40.6631014765844
 30
0.0
 10
-9.257238009920985
 20
40.59718561662345
 30
0.0
 10
-9.195065744860295
 20
40.52871466055854
 30
0.0
 10
-9.053544231490274
 20
40.34680680513993
 30
0.0
 10
-8.986467134204158
 20
40.23105600714778
 30
0.0
 10
-8.889363598486097
 20
39.96868692302323
 30
0.0
 10
-8.877050973623079
 20
39.82339131680555
 30
0.0
 10
-8.960339994435821
 20
39.49759867068315
 30
0.0
 10
-9.118197618520662
 20
39.34124983496386
 30
0.0
 10
-9.345356528913018
 20
39.25607680411539
 30
0.0
  0
ELLIPSE
  5
123B5
330
1235D
100
AcDbEntity
  8
0
100
AcDbEllipse
 10
-12.20203624694718
 20
37.25430981146492
 30
0.0
 11
0.6735304878558934
 21
-1.340282314263905
 31
0.0
210
0.0
220
0.0
230
1.0
 40
0.6134744499317058
 41
0.8199141697227316
 42
2.003105718372864
  0
SPLINE
  5
123B6
330
1235D
100
AcDbEntity
  8
0
100
AcDbSpline
210
0.0
220
0.0
230
1.0
 70
     8
 71
     3
 72
    10
 73
     6
 74
     0
 42
0.000000001
 43
0.0000000001
 40
-0.3290771859225674
 40
-0.3290771859225674
 40
-0.3290771859225674
 40
-0.3290771859225674
 40
-0.1645385929612837
 40
-0.1645385929612837
 40
0.0
 40
0.0
 40
0.0
 40
0.0
 10
-11.14137607516737
 20
36.64193737576914
 30
0.0
 10
-10.75436650733987
 20
36.83642083664131
 30
0.0
 10
-10.3684482062918
 20
37.01149846325809
 30
0.0
 10
-9.600599851339307
 20
37.32815890220315
 30
0.0
 10
-9.218656147455348
 20
37.46986345893616
 30
0.0
 10
-8.838834764821088
 20
37.59866596292736
 30
0.0
  0
SPLINE
  5
123B7
330
1235D
100
AcDbEntity
  8
0
100
AcDbSpline
210
0.0
220
0.0
230
1.0
 70
     8
 71
     3
 72
    10
 73
     6
 74
     0
 42
0.000000001
 43
0.0000000001
 40
0.0
 40
0.0
 40
0.0
 40
0.0
 40
0.1645385929612837
 40
0.1645385929612837
 40
0.3290771859225674
 40
0.3290771859225674
 40
0.3290771859225674
 40
0.3290771859225674
 10
-9.34535652891304
 20
39.2560768041154
 30
0.0
 10
-9.732907171668902
 20
39.11076503627613
 30
0.0
 10
-10.12555121404662
 20
38.95128401392303
 30
0.0
 10
-10.92286087398953
 20
38.59785534094029
 30
0.0
 10
-11.32761387860029
 20
38.40380030409554
 30
0.0
 10
-11.73764014660481
 20
38.1910265194903
 30
0.0
  0
ELLIPSE
  5
123B8
330
1235D
100
AcDbEntity
  8
0
100
AcDbEllipse
 10
-13.70096987603614
 20
36.50105246581495
 30
0.0
 11
0.6735304878558975
 21
-1.340282314263914
 31
0.0
210
0.0
220
0.0
230
0.9999999999999998
 40
0.6134744499317064
 41
0.8199141697227325
 42
2.003105718372861
  0
LINE
  5
123B9
330
1235D
100
AcDbEntity
  8
0
100
AcDbLine
 10
-12.64030970425632
 20
35.88868003011915
 30
0.0
 11
-11.14137607516737
 21
36.64193737576913
 31
0.0
  0
LINE
  5
123BA
330
1235D
100
AcDbEntity
  8
0
100
AcDbLine
 10
-11.73764014660481
 20
38.1910265194903
 30
0.0
 11
-13.23657377569375
 21
37.43776917384034
 31
0.0
  0
ELLIPSE
  5
123BB
330
1235D
100
AcDbEntity
  8
0
100
AcDbEllipse
 10
-13.70096987776538
 20
42.83754609255182
 30
0.0
 11
0.8193997375741371
 21
-1.256417156128788
 31
0.0
210
0.0
220
0.0
230
1.0
 40
0.5388095822648823
 41
0.00000000014345
 42
0.7550720329637155
  0
ELLIPSE
  5
123BC
330
1235D
100
AcDbEntity
  8
0
100
AcDbEllipse
 10
-5.375211122249199
 20
43.25143346608005
 30
0.0
 11
-18.92465153915225
 21
-11.19850234446445
 31
0.0
210
0.0
220
0.0
230
1.0
 40
0.1346372153812725
 41
5.025585556707158
 42
7.381780046922151
  0
ELLIPSE
  5
123BD
330
1235D
100
AcDbEntity
  8
0
100
AcDbEllipse
 10
-6.435871294029023
 20
43.86380590177584
 30
0.0
 11
-17.74233703997129
 21
-11.57661130405068
 31
0.0
210
0.0
220
0.0
230
1.0
 40
0.0872913523692789
 41
5.532780666771412
 42
7.404387711445657
  0
ELLIPSE
  5
123BE
330
1235D
100
AcDbEntity
  8
0
100
AcDbEllipse
 10
-12.20203624694718
 20
43.81510821649621
 30
0.0
 11
0.8193997375596941
 21
-1.256417156078027
 31
0.0
210
0.0
220
0.0
230
1.0
 40
0.538809582268946
 41
0.0
 42
0.7550720328372851
  0
LINE
  5
123BF
330
1235D
100
AcDbEntity
  8
0
100
AcDbLine
 10
-11.14137607516736
 20
43.20273578080042
 30
0.0
 11
-12.64030970598555
 21
42.22517365685603
 31
0.0
  0
ELLIPSE
  5
123C0
330
1235D
100
AcDbEntity
  8
0
100
AcDbEllipse
 10
-9.899494936575742
 20
45.51712532008046
 30
0.0
 11
0.9480488983984187
 21
-1.162412700483588
 31
0.0
210
0.0
220
0.0
230
0.9999999999999998
 40
0.4487796140200863
 41
0.0
 42
0.7024165027826053
  0
SPLINE
  5
123C1
330
1235D
100
AcDbEntity
  8
0
100
AcDbSpline
210
0.0
220
0.0
230
1.0
 70
     8
 71
     3
 72
    10
 73
     6
 74
     0
 42
0.000000001
 43
0.0000000001
 40
-0.3290771859266546
 40
-0.3290771859266546
 40
-0.3290771859266546
 40
-0.3290771859266546
 40
-0.1645385929633273
 40
-0.1645385929633273
 40
0.0
 40
0.0
 40
0.0
 40
0.0
 10
-8.838834764795917
 20
44.90475288438467
 30
0.0
 10
-9.21865614743378
 20
44.5949754333507
 30
0.0
 10
-9.600599851321636
 20
44.2956493895695
 30
0.0
 10
-10.36844820628257
 20
43.7256749196419
 30
0.0
 10
-10.75436650733516
 20
43.45513247626154
 30
0.0
 10
-11.14137607516735
 20
43.2027357808004
 30
0.0
  0
SPLINE
  5
123C2
330
1235D
100
AcDbEntity
  8
0
100
AcDbSpline
210
0.0
220
0.0
230
1.0
 70
     8
 71
     3
 72
    12
 73
     8
 74
     0
 42
0.000000001
 43
0.0000000001
 40
-0.1184914436323657
 40
-0.1184914436323657
 40
-0.1184914436323657
 40
-0.1184914436323657
 40
-0.0753627829472242
 40
-0.0753627829472242
 40
-0.0289856857501221
 40
-0.0289856857501221
 40
-0.0000000000019333
 40
-0.0000000000019333
 40
-0.0000000000019333
 40
-0.0000000000019333
 10
-7.960351439490924
 20
46.20311190869727
 30
0.0
 10
-7.960550925169229
 20
46.04415941599507
 30
0.0
 10
-8.001773778319725
 20
45.87899699092051
 30
0.0
 10
-8.170790510983302
 20
45.5387706245685
 30
0.0
 10
-8.304370585356926
 20
45.36408854839679
 30
0.0
 10
-8.58312437401655
 20
45.09678339168413
 30
0.0
 10
-8.705013476551313
 20
44.99795522644783
 30
0.0
 10
-8.83883476478633
 20
44.90475288438705
 30
0.0
  0
ELLIPSE
  5
123C3
330
1235D
100
AcDbEntity
  8
0
100
AcDbEllipse
 10
36.06678619664963
 20
8.416310783187173
 30
0.0
 11
-0.6444133738665694
 21
1.354522574039244
 31
0.0
210
0.0
220
0.0
230
1.0
 40
0.6257331206090948
 41
0.3725120245364213
 42
0.8333043077522646
  0
ELLIPSE
  5
123C4
330
1235D
100
AcDbEntity
  8
0
100
AcDbEllipse
 10
48.69768798338146
 20
19.76516539842145
 30
0.0
 11
-26.60789148696049
 21
-14.33873511477723
 31
0.0
210
0.0
220
0.0
230
0.9999999999999998
 40
0.1000225409266442
 41
5.170902668615093
 42
7.081851048126985
  0
ELLIPSE
  5
123C5
330
1235D
100
AcDbEntity
  8
0
100
AcDbEllipse
 10
36.06678619664967
 20
16.52911092030106
 30
0.0
 11
-0.8425747043855828
 21
1.240994708904758
 31
0.0
210
0.0
220
0.0
230
0.9999999999999998
 40
0.5245233345042604
 41
0.7452041137883443
 42
1.810549179579982
  0
ELLIPSE
  5
123C6
330
1235D
100
AcDbEntity
  8
0
100
AcDbEllipse
 10
47.63702781160162
 20
20.37753783411725
 30
0.0
 11
-25.68345566027805
 21
-15.19796746748749
 31
0.0
210
0.0
220
0.0
230
1.0
 40
0.1346372153812717
 41
5.145249232568376
 42
7.262116370962245
  0
ELLIPSE
  5
123C7
330
1235D
100
AcDbEntity
  8
0
100
AcDbEllipse
 10
37.50694941946398
 20
9.004425943050918
 30
0.0
 11
0.5208505218990954
 21
-1.40666795436501
 31
0.0
210
0.0
220
0.0
230
1.0
 40
0.6701973449423547
 41
3.592562058822032
 42
4.03292284514347
  0
SPLINE
  5
123C8
330
1235D
100
AcDbEntity
  8
0
100
AcDbSpline
210
0.0
220
0.0
230
1.0
 70
     8
 71
     3
 72
    10
 73
     6
 74
     0
 42
0.000000001
 43
0.0000000001
 40
-0.1489505020863212
 40
-0.1489505020863212
 40
-0.1489505020863212
 40
-0.1489505020863212
 40
-0.0744752510431606
 40
-0.0744752510431606
 40
0.0
 40
0.0
 40
0.0
 40
0.0
 10
36.44628924768416
 20
9.616798378746715
 30
0.0
 10
36.61907265102905
 20
9.680775329048611
 30
0.0
 10
36.79132584406949
 20
9.741051440506357
 30
0.0
 10
37.13477119030324
 20
9.855259822037432
 30
0.0
 10
37.30596420617539
 20
9.909194313537721
 30
0.0
 10
37.4766594028871
 20
9.960453388345751
 30
0.0
  0
ELLIPSE
  5
123C9
330
1235D
100
AcDbEntity
  8
0
100
AcDbEllipse
 10
38.53731957466692
 20
9.348080952649958
 30
0.0
 11
-0.4314118640183588
 21
1.436622359419552
 31
0.0
210
0.0
220
0.0
230
0.9999999999999998
 40
0.6961202208620346
 41
0.587658594622722
 42
0.9343160604977933
  0
ELLIPSE
  5
123CA
330
1235D
100
AcDbEntity
  8
0
100
AcDbEllipse
 10
39.1999346988584
 20
17.81627647532535
 30
0.0
 11
1.030044369542927
 21
1.090416707856639
 31
0.0
210
0.0
220
0.0
230
1.0
 40
0.3751864151476561
 41
4.287665715117295
 42
5.610805162114782
  0
SPLINE
  5
123CB
330
1235D
100
AcDbEntity
  8
0
100
AcDbSpline
210
0.0
220
0.0
230
1.0
 70
     8
 71
     3
 72
    10
 73
     6
 74
     0
 42
0.000000001
 43
0.0000000001
 40
-0.0986315057595701
 40
-0.0986315057595701
 40
-0.0986315057595701
 40
-0.0986315057595701
 40
-0.0493157528797851
 40
-0.0493157528797851
 40
0.0
 40
0.0
 40
0.0
 40
0.0
 10
40.26059487063822
 20
18.42864891102114
 30
0.0
 10
40.14982499458952
 20
18.53328586890782
 30
0.0
 10
40.03923691823667
 20
18.63847714442182
 30
0.0
 10
39.81837934512109
 20
18.84979332739673
 30
0.0
 10
39.70810987032667
 20
18.95591845629666
 30
0.0
 10
39.59797974644678
 20
19.06243940821449
 30
0.0
  0
ELLIPSE
  5
123CC
330
1235D
100
AcDbEntity
  8
0
100
AcDbEllipse
 10
38.53731957466695
 20
18.4500669725187
 30
0.0
 11
-1.042846028619089
 21
-1.07818002234942
 31
0.0
210
0.0
220
0.0
230
1.0
 40
0.3623159750592205
 41
1.126298842996771
 42
2.473566334048447
  0
SPLINE
  5
123CD
330
1235D
100
AcDbEntity
  8
0
100
AcDbSpline
210
0.0
220
0.0
230
1.0
 70
     8
 71
     3
 72
    10
 73
     6
 74
     0
 42
0.000000001
 43
0.0000000001
 40
0.0
 40
0.0
 40
0.0
 40
0.0
 40
0.0493157528797851
 40
0.0493157528797851
 40
0.0986315057595701
 40
0.0986315057595701
 40
0.0986315057595701
 40
0.0986315057595701
 10
38.44157330344726
 20
17.64532108160666
 30
0.0
 10
38.55828225426287
 20
17.53944267801679
 30
0.0
 10
38.6754807309538
 20
17.43392669113975
 30
0.0
 10
38.91099142119897
 20
17.223724082664
 30
0.0
 10
39.02930368815416
 20
17.11903736022032
 30
0.0
 10
39.14824700570259
 20
17.01482704900574
 30
0.0
  0
ELLIPSE
  5
123CE
330
1235D
100
AcDbEntity
  8
0
100
AcDbEllipse
 10
41.97807630208497
 20
14.79756108403409
 30
0.0
 11
1.07572451946898
 21
1.04537876303914
 31
0.0
210
0.0
220
0.0
230
1.0
 40
0.3273577323099375
 41
4.897499714566537
 42
5.625840623118911
  0
SPLINE
  5
123CF
330
1235D
100
AcDbEntity
  8
0
100
AcDbSpline
210
0.0
220
0.0
230
1.0
 70
     8
 71
     3
 72
    10
 73
     6
 74
     0
 42
0.000000001
 43
0.0000000001
 40
-0.4298105547536821
 40
-0.4298105547536821
 40
-0.4298105547536821
 40
-0.4298105547536821
 40
-0.2527935054382477
 40
-0.2527935054382477
 40
-0.0000000000000003
 40
-0.0000000000000003
 40
-0.0000000000000003
 40
-0.0000000000000003
 10
43.0387364738648
 20
15.40993351972988
 30
0.0
 10
42.65017268460164
 20
15.8097767251466
 30
0.0
 10
42.27983686097424
 20
16.24763062296871
 30
0.0
 10
41.3715951385963
 20
17.29022460119896
 30
0.0
 10
40.82840340296598
 20
17.89227783610214
 30
0.0
 10
40.26059487063822
 20
18.42864891102113
 30
0.0
  0
SPLINE
  5
123D0
330
1235D
100
AcDbEntity
  8
0
100
AcDbSpline
210
0.0
220
0.0
230
1.0
 70
     8
 71
     3
 72
    10
 73
     6
 74
     0
 42
0.000000001
 43
0.0000000001
 40
0.0000000000000003
 40
0.0000000000000003
 40
0.0000000000000003
 40
0.0000000000000003
 40
0.2527935054382477
 40
0.2527935054382477
 40
0.4298105547536821
 40
0.4298105547536821
 40
0.4298105547536821
 40
0.4298105547536821
 10
39.14824700570259
 20
17.01482704900572
 30
0.0
 10
39.74334117698096
 20
16.62883031268685
 30
0.0
 10
40.36279880219853
 20
16.18708599918581
 30
0.0
 10
41.49616614719251
 20
15.36806311801411
 30
0.0
 10
41.98764321689036
 20
15.00861478048572
 30
0.0
 10
42.51243559891576
 20
14.64383804589202
 30
0.0
  0
ELLIPSE
  5
123D1
330
1235D
100
AcDbEntity
  8
0
100
AcDbEllipse
 10
41.97807630208494
 20
9.027543195552919
 30
0.0
 11
0.187036893316601
 21
1.488293385236417
 31
0.0
210
0.0
220
0.0
230
0.9999999999999998
 40
0.7479997204301321
 41
5.228190434604798
 42
5.956531343157167
  0
ELLIPSE
  5
123D2
330
1235D
100
AcDbEntity
  8
0
100
AcDbEllipse
 10
32.80409014808971
 20
18.4339003867362
 30
0.0
 11
12.86670137892407
 21
-8.191212071365397
 31
0.0
210
0.0
220
0.0
230
1.0
 40
0.2609200613534011
 41
5.779181046885874
 42
7.116398104046117
  0
ELLIPSE
  5
123D3
330
1235D
100
AcDbEntity
  8
0
100
AcDbEllipse
 10
31.74342997630989
 20
17.82152795104041
 30
0.0
 11
13.65152717823382
 21
-7.074985500025778
 31
0.0
210
0.0
220
0.0
230
1.0
 40
0.1990675239603142
 41
5.717381004953955
 42
7.054598062114195
  0
ELLIPSE
  5
123D4
330
1235D
100
AcDbEntity
  8
0
100
AcDbEllipse
 10
39.19993469885841
 20
9.216749409201213
 30
0.0
 11
0.3083698224032696
 21
1.467960507858089
 31
0.0
210
0.0
220
0.0
230
1.0
 40
0.7251908855986228
 41
5.288653074036311
 42
6.047746408756572
  0
SPLINE
  5
123D5
330
1235D
100
AcDbEntity
  8
0
100
AcDbSpline
210
0.0
220
0.0
230
1.0
 70
     8
 71
     3
 72
    10
 73
     6
 74
     0
 42
0.000000001
 43
0.0000000001
 40
-0.4298560553329306
 40
-0.4298560553329306
 40
-0.4298560553329306
 40
-0.4298560553329306
 40
-0.2504545042259927
 40
-0.2504545042259927
 40
0.0
 40
0.0
 40
0.0
 40
0.0
 10
40.26059487063824
 20
9.829121844897002
 30
0.0
 10
40.66355510988472
 20
9.7444732615415
 30
0.0
 10
41.05505864832848
 20
9.705709384478868
 30
0.0
 10
41.97344502882303
 20
9.669578693454997
 30
0.0
 10
42.48897275575723
 20
9.709005569370475
 30
0.0
 10
43.03873647386476
 20
9.639915631248708
 30
0.0
  0
SPLINE
  5
123D6
330
1235D
100
AcDbEntity
  8
0
100
AcDbSpline
210
0.0
220
0.0
230
1.0
 70
     8
 71
     3
 72
    10
 73
     6
 74
     0
 42
0.000000001
 43
0.0000000001
 40
0.0
 40
0.0
 40
0.0
 40
0.0
 40
0.2504545042259927
 40
0.2504545042259927
 40
0.26141642675017
 40
0.26141642675017
 40
0.26141642675017
 40
0.26141642675017
 10
42.51243559891573
 20
10.39224591753747
 30
0.0
 10
41.76992736951047
 20
10.54241446222824
 30
0.0
 10
41.09530064201727
 20
10.547288018093
 30
0.0
 10
40.43260965947478
 20
10.57709365853873
 30
0.0
 10
40.40489486947095
 20
10.57836497443846
 30
0.0
 10
40.37725217591595
 20
10.57966321646891
 30
0.0
  0
ELLIPSE
  5
123D7
330
1235D
100
AcDbEntity
  8
0
100
AcDbEllipse
 10
38.53731957466691
 20
9.348080952649958
 30
0.0
 11
-0.2763935293054416
 21
-1.474315643598093
 31
0.0
210
0.0
220
0.0
230
1.0
 40
0.7317060891393142
 41
2.131227017211992
 42
2.680687794904624
  0
SPLINE
  5
123D8
330
1235D
100
AcDbEntity
  8
0
100
AcDbSpline
210
0.0
220
0.0
230
1.0
 70
     8
 71
     3
 72
    10
 73
     6
 74
     0
 42
0.000000001
 43
0.0000000001
 40
-0.0986315057595801
 40
-0.0986315057595801
 40
-0.0986315057595801
 40
-0.0986315057595801
 40
-0.0493157528797903
 40
-0.0493157528797903
 40
-0.0000000000000004
 40
-0.0000000000000004
 40
-0.0000000000000004
 40
-0.0000000000000004
 10
39.59797974644673
 20
9.960453388345754
 30
0.0
 10
39.70810987032663
 20
9.939807026927717
 30
0.0
 10
39.81837934512107
 20
9.918603933915711
 30
0.0
 10
40.03923691823664
 20
9.874895758308927
 30
0.0
 10
40.14982499458952
 20
9.852390922519958
 30
0.0
 10
40.26059487063824
 20
9.829121844897002
 30
0.0
  0
ELLIPSE
  5
123D9
330
1235D
100
AcDbEntity
  8
0
100
AcDbEllipse
 10
38.53731957466695
 20
18.4500669725187
 30
0.0
 11
-0.9743856472127109
 21
1.140426503772107
 31
0.0
210
0.0
220
0.0
230
0.9999999999999998
 40
0.4267122036849482
 41
0.6924023912953814
 42
1.945961861863235
  0
SPLINE
  5
123DA
330
1235D
100
AcDbEntity
  8
0
100
AcDbSpline
210
0.0
220
0.0
230
1.0
 70
     8
 71
     3
 72
    10
 73
     6
 74
     0
 42
0.000000001
 43
0.0000000001
 40
-0.1489505020863073
 40
-0.1489505020863073
 40
-0.1489505020863073
 40
-0.1489505020863073
 40
-0.0744752510431537
 40
-0.0744752510431537
 40
0.0
 40
0.0
 40
0.0
 40
0.0
 10
37.47665940288714
 20
19.06243940821449
 30
0.0
 10
37.30596420617545
 20
18.91659664748078
 30
0.0
 10
37.13477119030331
 20
18.77285447138675
 30
0.0
 10
36.79132584406959
 20
18.49048632671789
 30
0.0
 10
36.61907265102917
 20
18.35186158343431
 30
0.0
 10
36.44628924768429
 20
18.21632544487087
 30
0.0
  0
ELLIPSE
  5
123DB
330
1235D
100
AcDbEntity
  8
0
100
AcDbEllipse
 10
37.50694941946412
 20
17.60395300917507
 30
0.0
 11
0.92579339863621
 21
-1.1802146343109
 31
0.0
210
0.0
220
0.0
230
1.0
 40
0.4663712957493053
 41
3.852704097088722
 42
5.071307076913496
  0
SPLINE
  5
123DC
330
1235D
100
AcDbEntity
  8
0
100
AcDbSpline
210
0.0
220
0.0
230
1.0
 70
     8
 71
     3
 72
    10
 73
     6
 74
     0
 42
0.000000001
 43
0.0000000001
 40
0.0
 40
0.0
 40
0.0
 40
0.0
 40
0.0744752510431537
 40
0.0744752510431537
 40
0.1489505020863073
 40
0.1489505020863073
 40
0.1489505020863073
 40
0.1489505020863073
 10
37.31680082723194
 20
16.78513869588569
 30
0.0
 10
37.50658144142236
 20
16.9241200650718
 30
0.0
 10
37.69528349460546
 20
17.06556092084501
 30
0.0
 10
38.07025583615659
 20
17.35253930980353
 30
0.0
 10
38.25652892117249
 20
17.49807684834882
 30
0.0
 10
38.44157330344727
 20
17.64532108160666
 30
0.0
  0
ELLIPSE
  5
123DD
330
1235D
100
AcDbEntity
  8
0
100
AcDbEllipse
 10
38.53731957466695
 20
18.4500669725187
 30
0.0
 11
-1.499999999999999
 21
-0.0000000000000829
 31
0.0
210
0.0
220
0.0
230
1.0
 40
0.5773502691896288
 41
3.926990816986997
 42
5.497787143781895
  0
ELLIPSE
  5
123DE
330
1235D
100
AcDbEntity
  8
0
100
AcDbEllipse
 10
38.53731957466691
 20
9.348080952649958
 30
0.0
 11
1.499999999999999
 21
-0.0000000000000978
 31
0.0
210
0.0
220
0.0
230
1.0
 40
0.5773502691896291
 41
0.7853981633976943
 42
2.356194490192589
  0
SPLINE
  5
123DF
330
1235D
100
AcDbEntity
  8
0
100
AcDbSpline
210
0.0
220
0.0
230
1.0
 70
     8
 71
     3
 72
     8
 73
     4
 74
     0
 42
0.000000001
 43
0.0000000001
 40
-1.158510647660076
 40
-1.158510647660076
 40
-1.158510647660076
 40
-1.158510647660076
 40
-0.9525469336706956
 40
-0.9525469336706956
 40
-0.9525469336706956
 40
-0.9525469336706956
 10
35.00612602486981
 20
9.02868321888295
 30
0.0
 10
35.48971876542611
 20
9.258752200745652
 30
0.0
 10
35.96842744550772
 20
9.439859273617564
 30
0.0
 10
36.44628924768416
 20
9.616798378746707
 30
0.0
  0
SPLINE
  5
123E0
330
1235D
100
AcDbEntity
  8
0
100
AcDbSpline
210
0.0
220
0.0
230
1.0
 70
     8
 71
     3
 72
     8
 73
     4
 74
     0
 42
0.000000001
 43
0.0000000001
 40
-0.205963713989394
 40
-0.205963713989394
 40
-0.205963713989394
 40
-0.205963713989394
 40
0.0
 40
0.0
 40
0.0
 40
0.0
 10
36.44628924768429
 20
18.21632544487087
 30
0.0
 10
35.9684264285491
 20
17.84147647202508
 30
0.0
 10
35.48971876542618
 20
17.46981917201081
 30
0.0
 10
35.00612602486986
 20
17.14148335599685
 30
0.0
  0
SPLINE
  5
123E1
330
1235D
100
AcDbEntity
  8
0
100
AcDbSpline
210
0.0
220
0.0
230
1.0
 70
     8
 71
     3
 72
     8
 73
     4
 74
     0
 42
0.000000001
 43
0.0000000001
 40
0.0
 40
0.0
 40
0.0
 40
0.0
 40
0.2059637139893941
 40
0.2059637139893941
 40
0.2059637139893941
 40
0.2059637139893941
 10
35.63455422683328
 20
15.80511228593131
 30
0.0
 10
36.1974302993687
 20
16.13368309630653
 30
0.0
 10
36.76594737004079
 20
16.468472763212
 30
0.0
 10
37.31680082723194
 20
16.78513869588569
 30
0.0
  0
SPLINE
  5
123E2
330
1235D
100
AcDbEntity
  8
0
100
AcDbSpline
210
0.0
220
0.0
230
1.0
 70
     8
 71
     3
 72
    12
 73
     8
 74
     0
 42
0.000000001
 43
0.0000000001
 40
0.1197625046292793
 40
0.1197625046292793
 40
0.1197625046292793
 40
0.1197625046292793
 40
0.1702475024050741
 40
0.1702475024050741
 40
0.2269966698734319
 40
0.2269966698734319
 40
0.2837458373417896
 40
0.2837458373417896
 40
0.2837458373417896
 40
0.2837458373417896
 10
-11.15139629099296
 20
42.71156328046919
 30
0.0
 10
-11.03935204710266
 20
42.60418801512408
 30
0.0
 10
-10.92877466746995
 20
42.4985082583403
 30
0.0
 10
-10.6961441077886
 20
42.27852335737496
 30
0.0
 10
-10.5743719843159
 20
42.16477093003399
 30
0.0
 10
-10.33286500958487
 20
41.94374132378424
 30
0.0
 10
-10.21313080972497
 20
41.83646179231111
 30
0.0
 10
-10.09433665387398
 20
41.73301775806269
 30
0.0
  0
SPLINE
  5
123E3
330
1235D
100
AcDbEntity
  8
0
100
AcDbSpline
210
0.0
220
0.0
230
1.0
 70
     8
 71
     3
 72
    16
 73
    12
 74
     0
 42
0.000000001
 43
0.0000000001
 40
0.0
 40
0.0
 40
0.0
 40
0.0
 40
0.034649601061006
 40
0.034649601061006
 40
0.069299202122012
 40
0.069299202122012
 40
0.1039488031830179
 40
0.1039488031830179
 40
0.1385984042440239
 40
0.1385984042440239
 40
0.1732480053050299
 40
0.1732480053050299
 40
0.1732480053050299
 40
0.1732480053050299
 10
-10.09433665385353
 20
41.73301775800965
 30
0.0
 10
-10.01235335248868
 20
41.66162802192475
 30
0.0
 10
-9.930624588173376
 20
41.58991955902353
 30
0.0
 10
-9.767635048816831
 20
41.44592898235732
 30
0.0
 10
-9.686374264396079
 20
41.37364684264442
 30
0.0
 10
-9.524281783227785
 20
41.22856522478996
 30
0.0
 10
-9.44345008224095
 20
41.15576572164728
 30
0.0
 10
-9.282179279295608
 20
41.00969901831049
 30
0.0
 10
-9.201740176545879
 20
40.93643179451044
 30
0.0
 10
-9.041220563530249
 20
40.78947335070427
 30
0.0
 10
-8.961140054576212
 20
40.71578210863832
 30
0.0
 10
-8.881223073260052
 20
40.64189809131441
 30
0.0
  0
SPLINE
  5
123E4
330
1235D
100
AcDbEntity
  8
0
100
AcDbSpline
210
0.0
220
0.0
230
1.0
 70
     8
 71
     3
 72
    16
 73
    12
 74
     0
 42
0.000000001
 43
0.0000000001
 40
0.0
 40
0.0
 40
0.0
 40
0.0
 40
0.0240179547133753
 40
0.0240179547133753
 40
0.0480359094267506
 40
0.0480359094267506
 40
0.0720538641401259
 40
0.0720538641401259
 40
0.0960718188535012
 40
0.0960718188535012
 40
0.1200897735668765
 40
0.1200897735668765
 40
0.1200897735668765
 40
0.1200897735668765
 10
-8.881223073260047
 20
40.64189809131441
 30
0.0
 10
-8.790227158535998
 20
40.5577714935732
 30
0.0
 10
-8.702099930946092
 20
40.46792699015589
 30
0.0
 10
-8.533382205810156
 20
40.2740746943391
 30
0.0
 10
-8.452760508693017
 20
40.17007343311727
 30
0.0
 10
-8.302464316485206
 20
39.94414285845652
 30
0.0
 10
-8.232719025141864
 20
39.8221723393232
 30
0.0
 10
-8.110668738632433
 20
39.55573469882535
 30
0.0
 10
-8.058312720823073
 20
39.41108207762287
 30
0.0
 10
-7.982961510070931
 20
39.09718352712258
 30
0.0
 10
-7.960155108391635
 20
38.92764098221515
 30
0.0
 10
-7.960155108391639
 20
38.74977110611992
 30
0.0
  0
SPLINE
  5
123E5
330
1235D
100
AcDbEntity
  8
0
100
AcDbSpline
210
0.0
220
0.0
230
1.0
 70
     8
 71
     3
 72
    16
 73
    12
 74
     0
 42
0.000000001
 43
0.0000000001
 40
0.6935097995172016
 40
0.6935097995172016
 40
0.6935097995172016
 40
0.6935097995172016
 40
0.7904272886253917
 40
0.7904272886253917
 40
0.8873447777335817
 40
0.8873447777335817
 40
0.9842622668417718
 40
0.9842622668417718
 40
1.081179755949962
 40
1.081179755949962
 40
1.178097245058152
 40
1.178097245058152
 40
1.178097245058152
 40
1.178097245058152
 10
-20.10196812734219
 20
36.45267026140631
 30
0.0
 10
-19.72019286332525
 20
36.75604968236253
 30
0.0
 10
-19.31467702909605
 20
37.07010448137205
 30
0.0
 10
-18.46056022331498
 20
37.71596833667401
 30
0.0
 10
-18.01195800040935
 20
38.04778046012621
 30
0.0
 10
-17.07629756381771
 20
38.72562607637578
 30
0.0
 10
-16.58923925410008
 20
39.0716606816919
 30
0.0
 10
-15.58155273092227
 20
39.77441197489109
 30
0.0
 10
-15.060925099022
 20
40.13112880464456
 30
0.0
 10
-13.99123405719173
 20
40.85168324705179
 30
0.0
 10
-13.44217164307594
 20
41.21552049017745
 30
0.0
 10
-12.88157014019777
 20
41.58112893647897
 30
0.0
  0
LINE
  5
123E6
330
1235D
100
AcDbEntity
  8
0
100
AcDbLine
 10
-12.8815701401984
 20
41.581128936434
 30
0.0
 11
-11.3826365093875
 21
42.55869106041823
 31
0.0
  0
SPLINE
  5
123E7
330
1235D
100
AcDbEntity
  8
0
100
AcDbSpline
210
0.0
220
0.0
230
1.0
 70
     8
 71
     3
 72
    16
 73
    12
 74
     0
 42
0.000000001
 43
0.0000000001
 40
0.0
 40
0.0
 40
0.0
 40
0.0
 40
0.0658154371853309
 40
0.0658154371853309
 40
0.1316308743706618
 40
0.1316308743706618
 40
0.1974463115559928
 40
0.1974463115559928
 40
0.2632617487413237
 40
0.2632617487413237
 40
0.3290771859266546
 40
0.3290771859266546
 40
0.3290771859266546
 40
0.3290771859266546
 10
-11.3826365093875
 20
42.5586910604182
 30
0.0
 10
-11.21646986262912
 20
42.66706024822045
 30
0.0
 10
-11.05100616919971
 20
42.7781891867039
 30
0.0
 10
-10.72171318019823
 20
43.00538016944911
 30
0.0
 10
-10.55788313876152
 20
43.12144079162919
 30
0.0
 10
-10.23196028477957
 20
43.35789551699554
 30
0.0
 10
-10.06986656028155
 20
43.47828860939188
 30
0.0
 10
-9.747420086774326
 20
43.72283564230968
 30
0.0
 10
-9.587066508020591
 20
43.84698894796921
 30
0.0
 10
-9.268032000488775
 20
44.09853520686789
 30
0.0
 10
-9.109350468434485
 20
44.22592779033762
 30
0.0
 10
-8.951446038165702
 20
44.35471261960636
 30
0.0
  0
SPLINE
  5
123E8
330
1235D
100
AcDbEntity
  8
0
100
AcDbSpline
210
0.0
220
0.0
230
1.0
 70
     8
 71
     3
 72
    16
 73
    12
 74
     0
 42
0.000000001
 43
0.0000000001
 40
0.0000000000038469
 40
0.0000000000038469
 40
0.0000000000038469
 40
0.0000000000038469
 40
0.0236982887295505
 40
0.0236982887295505
 40
0.0473965774552542
 40
0.0473965774552542
 40
0.0710948661809578
 40
0.0710948661809578
 40
0.0947931549066614
 40
0.0947931549066614
 40
0.118491443632365
 40
0.118491443632365
 40
0.118491443632365
 40
0.118491443632365
 10
-8.951446038142458
 20
44.35471261962532
 30
0.0
 10
-8.859369962587265
 20
44.42980868659702
 30
0.0
 10
-8.769453717891565
 20
44.51043707270658
 30
0.0
 10
-8.59526780110643
 20
44.68630081656863
 30
0.0
 10
-8.510946993992241
 20
44.78150896666949
 30
0.0
 10
-8.350818570504991
 20
44.99217792679722
 30
0.0
 10
-8.274874973177489
 20
45.10767790786655
 30
0.0
 10
-8.13852947585997
 20
45.36697844622657
 30
0.0
 10
-8.077973440302525
 20
45.51108975123066
 30
0.0
 10
-7.988614266316744
 20
45.83354614303003
 30
0.0
 10
-7.960155108391639
 20
46.01254090722274
 30
0.0
 10
-7.960155108391639
 20
46.20313748394702
 30
0.0
  0
LINE
  5
123E9
330
1235D
100
AcDbEntity
  8
0
100
AcDbLine
 10
-8.838834764831986
 20
-11.00407175571114
 30
0.0
 11
-44.90128060534591
 21
-31.82473456936816
 31
0.0
  0
LINE
  5
123EA
330
1235D
100
AcDbEntity
  8
0
100
AcDbLine
 10
1.41421356237295
 20
-58.56499759475119
 30
0.0
 11
37.47665940288687
 21
-37.74433478109417
 31
0.0
  0
LINE
  5
123EB
330
1235D
100
AcDbEntity
  8
0
100
AcDbLine
 10
-44.90128060534591
 20
-31.82473456936816
 30
0.0
 11
-45.96194077712574
 21
-31.21236213367236
 31
0.0
  0
ELLIPSE
  5
123EC
330
1235D
100
AcDbEntity
  8
0
100
AcDbEllipse
 10
-43.84062043356609
 20
-32.43710700506395
 30
0.0
 11
0.7500000000000795
 21
-1.299038105676616
 31
0.0
210
0.0
220
0.0
230
0.9999999999999998
 40
0.5773502691896259
 41
3.926990816987004
 42
5.497787143781907
  0
LINE
  5
123ED
330
1235D
100
AcDbEntity
  8
0
100
AcDbLine
 10
-7.778174593052167
 20
-12.84118906279853
 30
0.0
 11
-43.84062043356609
 21
-33.66185187645555
 31
0.0
  0
ELLIPSE
  5
123EE
330
1235D
100
AcDbEntity
  8
0
100
AcDbEllipse
 10
-0.7071067811866883
 20
-57.34025272335959
 30
0.0
 11
1.499999999999999
 21
-2.598076211353313
 31
0.0
210
0.0
220
0.0
230
1.0
 40
0.577350269189626
 41
5.497787143782137
 42
7.068583470577027
  0
LINE
  5
123EF
330
1235D
100
AcDbEntity
  8
0
100
AcDbLine
 10
0.3535533905931265
 20
-57.9526251590554
 30
0.0
 11
1.41421356237295
 21
-58.56499759475119
 31
0.0
  0
LINE
  5
123F0
330
1235D
100
AcDbEntity
  8
0
100
AcDbLine
 10
0.3535533905931221
 20
-57.95262515905537
 30
0.0
 11
-0.7071067811866883
 21
-58.56499759475116
 31
0.0
  0
ELLIPSE
  5
123F1
330
1235D
100
AcDbEntity
  8
0
100
AcDbEllipse
 10
-0.7071067811866883
 20
-57.34025272335959
 30
0.0
 11
0.7499999999999975
 21
-1.299038105676653
 31
0.0
210
0.0
220
0.0
230
1.0
 40
0.5773502691896258
 41
5.497787143782137
 42
7.068583470577022
  0
LINE
  5
123F2
330
1235D
100
AcDbEntity
  8
0
100
AcDbLine
 10
-0.7071067811866883
 20
-58.56499759475116
 30
0.0
 11
-0.7071067811866883
 21
-59.78974246614277
 31
0.0
  0
LINE
  5
123F3
330
1235D
100
AcDbEntity
  8
0
100
AcDbLine
 10
-43.84062043356609
 20
-33.66185187645555
 30
0.0
 11
-43.84062043356609
 21
-34.88659674784714
 31
0.0
  0
ELLIPSE
  5
123F4
330
1235D
100
AcDbEntity
  8
0
100
AcDbEllipse
 10
-43.84062043356609
 20
-32.43710700506395
 30
0.0
 11
1.500000000000158
 21
-2.598076211353232
 31
0.0
210
0.0
220
0.0
230
0.9999999999999998
 40
0.5773502691896259
 41
3.926990816986998
 42
5.497787143781894
  0
LINE
  5
123F5
330
1235D
100
AcDbEntity
  8
0
100
AcDbLine
 10
36.85533905932724
 20
-39.11766612105589
 30
0.0
 11
0.7928932188133109
 21
-59.93832893471289
 31
0.0
  0
ELLIPSE
  5
123F6
330
1235D
100
AcDbEntity
  8
0
100
AcDbEllipse
 10
-7.77817459305254
 20
25.53415024080481
 30
0.0
 11
-1.25
 21
-2.165063509461095
 31
0.0
210
0.0
220
0.0
230
1.0
 40
0.5773502691896261
 41
4.570491925780487
 42
6.425082361783791
  0
ELLIPSE
  5
123F7
330
1235D
100
AcDbEntity
  8
0
100
AcDbEllipse
 10
-18.61296301357992
 20
41.18716731928458
 30
0.0
 11
8.16675473281063
 21
0.0000000000001055
 31
0.0
210
0.0
220
0.0
230
1.0
 40
0.5773502691896225
 41
5.654866776461619
 42
6.408095538707123
  0
LINE
  5
123F8
330
1235D
100
AcDbEntity
  8
0
100
AcDbLine
 10
-12.00591964584409
 20
38.4157139819697
 30
0.0
 11
-11.73764014660481
 21
38.1910265194903
 31
0.0
  0
ELLIPSE
  5
123F9
330
1235D
100
AcDbEntity
  8
0
100
AcDbEllipse
 10
-11.17000666533042
 20
40.10180405653655
 30
0.0
 11
1.679777606426226
 21
-2.113846539592924
 31
0.0
210
0.0
220
0.0
230
1.0
 40
0.6605596098195706
 41
3.711761074682012
 42
5.01319969825708
  0
ELLIPSE
  5
123FA
330
1235D
100
AcDbEntity
  8
0
100
AcDbEllipse
 10
-14.8492424049179
 20
54.11153057327516
 30
0.0
 11
-1.249999999999999
 21
2.165063509461097
 31
0.0
210
0.0
220
0.0
230
1.0
 40
0.577350269189626
 41
4.42563242817304
 42
8.14073818618613
  0
ELLIPSE
  5
123FB
330
1235D
100
AcDbEntity
  8
0
100
AcDbEllipse
 10
-21.92031021678332
 20
50.02904766863645
 30
0.0
 11
-1.249999999999998
 21
2.165063509461096
 31
0.0
210
0.0
220
0.0
230
1.0
 40
0.577350269189626
 41
4.425632428173084
 42
8.140738186186087
  0
ELLIPSE
  5
123FC
330
1235D
100
AcDbEntity
  8
0
100
AcDbEllipse
 10
-13.78858223313807
 20
54.72390300897095
 30
0.0
 11
1.250000000000128
 21
-2.165063509461022
 31
0.0
210
0.0
220
0.0
230
1.0
 40
0.5773502691896258
 41
3.579741684173544
 42
4.999145532596124
  0
ELLIPSE
  5
123FD
330
1235D
100
AcDbEntity
  8
0
100
AcDbEllipse
 10
-20.8596500450035
 20
50.64142010433224
 30
0.0
 11
1.250000000000128
 21
-2.165063509461022
 31
0.0
210
0.0
220
0.0
230
1.0
 40
0.5773502691896258
 41
3.579741684173546
 42
4.99914553259608
  0
ELLIPSE
  5
123FE
330
1235D
100
AcDbEntity
  8
0
100
AcDbEllipse
 10
-7.778174593052264
 20
26.7588951121963
 30
0.0
 11
1.249999999999999
 21
-2.165063509461097
 31
0.0
210
0.0
220
0.0
230
0.9999999999999998
 40
0.5773502691896261
 41
4.662295549665564
 42
4.854286034988819
  0
LINE
  5
123FF
330
1235D
100
AcDbEntity
  8
0
100
AcDbLine
 10
-9.192388155425659
 20
23.49290878848551
 30
0.0
 11
-8.838834764832146
 21
23.28878464325344
 31
0.0
  0
SPLINE
  5
12400
330
1235D
100
AcDbEntity
  8
0
100
AcDbSpline
210
0.0
220
0.0
230
1.0
 70
     8
 71
     3
 72
    11
 73
     7
 74
     0
 42
0.000000001
 43
0.0000000001
 40
-1.0
 40
-1.0
 40
-1.0
 40
-1.0
 40
-0.8649350770680202
 40
-0.8649350770680202
 40
-0.8649350770680202
 40
-0.5000000000000386
 40
-0.5000000000000386
 40
-0.5000000000000386
 40
-0.5000000000000386
 10
-8.838834764832164
 20
26.55477096696446
 30
0.0
 10
-8.710117957412876
 20
26.70005095021686
 30
0.0
 10
-8.58471893347148
 20
26.84885878638104
 30
0.0
 10
-8.471420135433778
 20
26.99957122261004
 30
0.0
 10
-8.16529546075106
 20
27.40678468215521
 30
0.0
 10
-8.036161417304597
 20
27.82342630812062
 30
0.0
 10
-8.051072951312413
 20
28.17065985207364
 30
0.0
  0
SPLINE
  5
12401
330
1235D
100
AcDbEntity
  8
0
100
AcDbSpline
210
0.0
220
0.0
230
1.0
 70
     8
 71
     3
 72
    11
 73
     7
 74
     0
 42
0.000000001
 43
0.0000000001
 40
-1.0
 40
-1.0
 40
-1.0
 40
-1.0
 40
-0.8649350770678012
 40
-0.8649350770678012
 40
-0.8649350770678012
 40
0.0
 40
0.0
 40
0.0
 40
0.0
 10
-8.838834764832137
 20
25.73827438603672
 30
0.0
 10
-8.71011795741265
 20
25.59299440278407
 30
0.0
 10
-8.584718933471059
 20
25.44418656661964
 30
0.0
 10
-8.471420135433218
 20
25.29347413039039
 30
0.0
 10
-7.74587198803049
 20
24.3283347750711
 30
0.0
 10
-8.014552047096659
 20
23.31023358259346
 30
0.0
 10
-8.838834764832146
 20
23.28878464325343
 30
0.0
  0
LINE
  5
12402
330
1235D
100
AcDbEntity
  8
0
100
AcDbLine
 10
-9.398359767654568
 20
25.41523247503886
 30
0.0
 11
-8.838834764832142
 21
25.73827438603671
 31
0.0
  0
SPLINE
  5
12403
330
1235D
100
AcDbEntity
  8
0
100
AcDbSpline
210
0.0
220
0.0
230
1.0
 70
     8
 71
     3
 72
     8
 73
     4
 74
     0
 42
0.000000001
 43
0.0000000001
 40
0.4105686222821238
 40
0.4105686222821238
 40
0.4105686222821238
 40
0.4105686222821238
 40
0.7033723312471177
 40
0.7033723312471177
 40
0.7033723312471177
 40
0.7033723312471177
 10
-9.523828925571606
 20
24.00373881359972
 30
0.0
 10
-9.490317819227719
 20
24.11296041537859
 30
0.0
 10
-9.500573181585689
 20
24.27352569779251
 30
0.0
 10
-9.56310331899445
 20
24.4658405924552
 30
0.0
  0
SPLINE
  5
12404
330
1235D
100
AcDbEntity
  8
0
100
AcDbSpline
210
0.0
220
0.0
230
1.0
 70
     8
 71
     3
 72
     8
 73
     4
 74
     0
 42
0.000000001
 43
0.0000000001
 40
-1.0
 40
-1.0
 40
-1.0
 40
-1.0
 40
-0.5000000000000011
 40
-0.5000000000000011
 40
-0.5000000000000011
 40
-0.5000000000000011
 10
-8.838834764832013
 20
-7.942819490731578
 30
0.0
 10
-8.283474397562219
 20
-7.346815084286976
 30
0.0
 10
-8.005794213927334
 20
-6.619394428457161
 30
0.0
 10
-8.005794213927334
 20
-5.89197377262733
 30
0.0
  0
LINE
  5
12405
330
1235D
100
AcDbEntity
  8
0
100
AcDbLine
 10
-13.23657377569375
 20
37.43776917384034
 30
0.0
 11
-12.00591964584409
 21
38.4157139819697
 31
0.0
  0
ELLIPSE
  5
12406
330
1235D
100
AcDbEntity
  8
0
100
AcDbEllipse
 10
18.03122292025699
 20
-11.82056833663893
 30
0.0
 11
1.249999999999882
 21
2.165063509461164
 31
0.0
210
0.0
220
0.0
230
1.0
 40
0.5773502691896227
 41
3.579741684173551
 42
5.845036276595002
  0
ELLIPSE
  5
12407
330
1235D
100
AcDbEntity
  8
0
100
AcDbEllipse
 10
18.03122292025706
 20
4.509363281915539
 30
0.0
 11
1.249999999999882
 21
2.165063509461164
 31
0.0
210
0.0
220
0.0
230
1.0
 40
0.5773502691896227
 41
3.579741684173551
 42
5.845036276595002
  0
ELLIPSE
  5
12408
330
1235D
100
AcDbEntity
  8
0
100
AcDbEllipse
 10
18.03122292025691
 20
-28.1504999551934
 30
0.0
 11
1.249999999999881
 21
2.165063509461165
 31
0.0
210
0.0
220
0.0
230
0.9999999999999998
 40
0.5773502691896228
 41
3.579741684173546
 42
5.845036276594994
  0
ELLIPSE
  5
12409
330
1235D
100
AcDbEntity
  8
0
100
AcDbEllipse
 10
19.09188309203674
 20
-28.76287239088921
 30
0.0
 11
-1.250000000000009
 21
-2.16506350946109
 31
0.0
210
0.0
220
0.0
230
1.0
 40
0.577350269189623
 41
0.0
 42
6.283185307179586
  0
ELLIPSE
  5
1240A
330
1235D
100
AcDbEntity
  8
0
100
AcDbEllipse
 10
19.09188309203688
 20
3.896990846219745
 30
0.0
 11
-1.250000000000009
 21
-2.16506350946109
 31
0.0
210
0.0
220
0.0
230
1.0
 40
0.577350269189623
 41
0.0
 42
6.283185307179586
  0
ELLIPSE
  5
1240B
330
1235D
100
AcDbEntity
  8
0
100
AcDbEllipse
 10
19.09188309203681
 20
-12.43294077233473
 30
0.0
 11
-1.250000000000009
 21
-2.16506350946109
 31
0.0
210
0.0
220
0.0
230
1.0
 40
0.577350269189623
 41
0.0
 42
6.283185307179586
  0
ELLIPSE
  5
1240C
330
1235D
100
AcDbEntity
  8
0
100
AcDbEllipse
 10
44.00864163004195
 20
14.21341353909426
 30
0.0
 11
-1.185309973000775
 21
-4.02927292050376
 31
0.0
210
0.0
220
0.0
230
0.9999999999999998
 40
0.3706816908110058
 41
4.71460951059932
 42
6.051826567759562
  0
ELLIPSE
  5
1240D
330
1235D
100
AcDbEntity
  8
0
100
AcDbEllipse
 10
39.83192903243813
 20
12.64897007230264
 30
0.0
 11
7.592729584066651
 21
-0.000000000000038
 31
0.0
210
0.0
220
0.0
230
1.0
 40
0.5773502691896347
 41
1.660962753237638
 42
1.90842948738754
  0
ELLIPSE
  5
1240E
330
1235D
100
AcDbEntity
  8
0
100
AcDbEllipse
 10
34.42430471134737
 20
13.777916109696
 30
0.0
 11
1.624629784830868
 21
-3.873057973002781
 31
0.0
210
0.0
220
0.0
230
1.0
 40
0.4799246488165457
 41
0.0
 42
1.910948379511893
  0
LINE
  5
1240F
330
1235D
100
AcDbEntity
  8
0
100
AcDbLine
 10
31.16183615071437
 20
7.854869319386033
 30
0.0
 11
36.04893449617823
 21
9.904858136693238
 31
0.0
  0
SPLINE
  5
12410
330
1235D
100
AcDbEntity
  8
0
100
AcDbSpline
210
0.0
220
0.0
230
1.0
 70
     8
 71
     3
 72
    16
 73
    12
 74
     0
 42
0.000000001
 43
0.0000000001
 40
3.298672286269284
 40
3.298672286269284
 40
3.298672286269284
 40
3.298672286269284
 40
3.440463867569786
 40
3.440463867569786
 40
3.582255448870287
 40
3.582255448870287
 40
3.724047030170789
 40
3.724047030170789
 40
3.86583861147129
 40
3.86583861147129
 40
4.007630192771792
 40
4.007630192771792
 40
4.007630192771792
 40
4.007630192771792
 10
36.04893449617823
 20
9.904858136693221
 30
0.0
 10
36.26340275547956
 20
9.994821035361528
 30
0.0
 10
36.5010063255231
 20
10.08092773097474
 30
0.0
 10
37.01312456802725
 20
10.23731886066604
 30
0.0
 10
37.28761701996511
 20
10.30762236392336
 30
0.0
 10
37.86316322615736
 20
10.4269396149819
 30
0.0
 10
38.16420598009098
 20
10.47596642996919
 30
0.0
 10
38.78206066564417
 20
10.54937077329363
 30
0.0
 10
39.09886638354731
 20
10.57375545143457
 30
0.0
 10
39.73724958046505
 20
10.59632250081204
 30
0.0
 10
40.05882252474698
 20
10.5945069272728
 30
0.0
 10
40.37725542424909
 20
10.57964937538016
 30
0.0
  0
SPLINE
  5
12411
330
1235D
100
AcDbEntity
  8
0
100
AcDbSpline
210
0.0
220
0.0
230
1.0
 70
     8
 71
     3
 72
    11
 73
     7
 74
     0
 42
0.000000001
 43
0.0000000001
 40
-1.0
 40
-1.0
 40
-1.0
 40
-1.0
 40
-0.8649350770680202
 40
-0.8649350770680202
 40
-0.8649350770680202
 40
0.0
 40
0.0
 40
0.0
 40
0.0
 10
37.47665940288705
 20
-0.1854920584187747
 30
0.0
 10
37.54101780659669
 20
-0.0773694168727435
 30
0.0
 10
37.61557226647069
 20
0.0215499244507012
 30
0.0
 10
37.69973402166712
 20
0.107787282416405
 30
0.0
 10
38.23869300995801
 20
0.6600381128986355
 30
0.0
 10
39.18583838757889
 20
0.5069087757015512
 30
0.0
 10
39.59797974644669
 20
-0.1854920584188724
 30
0.0
  0
ELLIPSE
  5
12412
330
1235D
100
AcDbEntity
  8
0
100
AcDbEllipse
 10
38.53731957466685
 20
-1.20611278457853
 30
0.0
 11
-1.250000000000007
 21
-2.165063509461091
 31
0.0
210
0.0
220
0.0
230
0.9999999999999998
 40
0.5773502691896231
 41
4.570491925780487
 42
6.425082361783792
  0
ELLIPSE
  5
12413
330
1235D
100
AcDbEntity
  8
0
100
AcDbEllipse
 10
50.20458146424484
 20
-6.717464705840672
 30
0.0
 11
2.750000000000001
 21
-4.763139720814412
 31
0.0
210
0.0
220
0.0
230
0.9999999999999998
 40
0.577350269189626
 41
5.871908223239685
 42
6.089122209761023
  0
ELLIPSE
  5
12414
330
1235D
100
AcDbEntity
  8
0
100
AcDbEllipse
 10
50.20458146424484
 20
-6.717464705840672
 30
0.0
 11
-2.75
 21
4.763139720814412
 31
0.0
210
0.0
220
0.0
230
1.0
 40
0.577350269189626
 41
0.1940630974185629
 42
1.982073410734785
  0
LINE
  5
12415
330
1235D
100
AcDbEntity
  8
0
100
AcDbLine
 10
48.78329683405986
 20
-10.07698930898434
 30
0.0
 11
48.78329683405986
 21
-10.72868624543
 31
0.0
  0
ELLIPSE
  5
12416
330
1235D
100
AcDbEntity
  8
0
100
AcDbEllipse
 10
38.5373195746668
 20
-1.206112784578432
 30
0.0
 11
1.250000000000001
 21
-2.165063509461095
 31
0.0
210
0.0
220
0.0
230
1.0
 40
0.5773502691896259
 41
6.141288252575455
 42
7.995878688578602
  0
LINE
  5
12417
330
1235D
100
AcDbEntity
  8
0
100
AcDbLine
 10
47.72611562764348
 20
-13.45148759717884
 30
0.0
 11
47.72263666228002
 21
-13.44947901558974
 31
0.0
  0
LINE
  5
12418
330
1235D
100
AcDbEntity
  8
0
100
AcDbLine
 10
47.72263666228002
 20
-13.44947901558974
 30
0.0
 11
47.72263666228005
 21
-10.68936174468013
 31
0.0
  0
ELLIPSE
  5
12419
330
1235D
100
AcDbEntity
  8
0
100
AcDbEllipse
 10
49.14392129246502
 20
-7.329837141536463
 30
0.0
 11
-2.749999999999718
 21
4.763139720814578
 31
0.0
210
0.0
220
0.0
230
1.0
 40
0.5773502691896261
 41
2.730315569650131
 42
8.265258717914424
  0
LINE
  5
1241A
330
1235D
100
AcDbEntity
  8
0
100
AcDbLine
 10
50.56520592264996
 20
-12.33051987234489
 30
0.0
 11
50.56520592264995
 21
-15.09063714325449
 31
0.0
  0
LINE
  5
1241B
330
1235D
100
AcDbEntity
  8
0
100
AcDbLine
 10
50.56520592264995
 20
-15.09063714325449
 30
0.0
 11
50.56172695728654
 21
-15.08862856166542
 31
0.0
  0
SPLINE
  5
1241C
330
1235D
100
AcDbEntity
  8
0
100
AcDbSpline
210
0.0
220
0.0
230
1.0
 70
     8
 71
     3
 72
    11
 73
     7
 74
     0
 42
0.000000001
 43
0.0000000001
 40
0.1340645268892002
 40
0.1340645268892002
 40
0.1340645268892002
 40
0.1340645268892002
 40
0.8649350770678012
 40
0.8649350770678012
 40
0.8649350770678012
 40
0.8659354731107727
 40
0.8659354731107727
 40
0.8659354731107727
 40
0.8659354731107727
 10
36.86938529813371
 20
-2.82574027244379
 30
0.0
 10
37.80789705081505
 20
-2.796734601981882
 30
0.0
 10
39.30164947942473
 20
-2.749896857585709
 30
0.0
 10
40.21249068066556
 20
-2.81419488448797
 30
0.0
 10
40.21373741571771
 20
-2.814282893905875
 30
0.0
 10
40.2149830966502
 20
-2.81437078247293
 30
0.0
 10
40.21622772298456
 20
-2.814458548512126
 30
0.0
  0
LINE
  5
1241D
330
1235D
100
AcDbEntity
  8
0
100
AcDbLine
 10
47.72263666228002
 20
-13.44947901558974
 30
0.0
 11
47.72971951523763
 21
-13.44538972852803
 31
0.0
  0
LINE
  5
1241E
330
1235D
100
AcDbEntity
  8
0
100
AcDbLine
 10
37.47665940288704
 20
-3.451478382129766
 30
0.0
 11
37.18684501321717
 21
-3.28415396623884
 31
0.0
  0
LINE
  5
1241F
330
1235D
100
AcDbEntity
  8
0
100
AcDbLine
 10
37.18684501321717
 20
-3.28415396623884
 30
0.0
 11
37.12310601229371
 21
-3.247354236897801
 31
0.0
  0
SPLINE
  5
12420
330
1235D
100
AcDbEntity
  8
0
100
AcDbSpline
210
0.0
220
0.0
230
1.0
 70
     8
 71
     3
 72
    11
 73
     7
 74
     0
 42
0.000000001
 43
0.0000000001
 40
-1.0
 40
-1.0
 40
-1.0
 40
-1.0
 40
-0.8649350770678012
 40
-0.8649350770678012
 40
-0.8649350770678012
 40
0.0
 40
0.0
 40
0.0
 40
0.0
 10
39.59797974644668
 20
-3.45147838212966
 30
0.0
 10
39.53362134273694
 20
-3.485286340263002
 30
0.0
 10
39.4590668828628
 20
-3.511806521357803
 30
0.0
 10
39.37490512766621
 20
-3.532630787777608
 30
0.0
 10
38.8359461393753
 20
-3.665986200046549
 30
0.0
 10
37.88880076175478
 20
-3.667979367276212
 30
0.0
 10
37.47665940288704
 20
-3.451478382129775
 30
0.0
  0
LINE
  5
12421
330
1235D
100
AcDbEntity
  8
0
100
AcDbLine
 10
39.59797974644668
 20
-3.451478382129669
 30
0.0
 11
39.88779413611665
 21
-3.284153966238685
 31
0.0
  0
LINE
  5
12422
330
1235D
100
AcDbEntity
  8
0
100
AcDbLine
 10
39.88779413611665
 20
-3.284153966238685
 30
0.0
 11
39.95153313703986
 21
-3.247354236897792
 31
0.0
  0
LINE
  5
12423
330
1235D
100
AcDbEntity
  8
0
100
AcDbLine
 10
50.56520592264996
 20
-12.33051987234489
 30
0.0
 11
51.62586609442978
 21
-11.71814743664909
 31
0.0
  0
LINE
  5
12424
330
1235D
100
AcDbEntity
  8
0
100
AcDbLine
 10
47.72263666228005
 20
-10.68936174468013
 30
0.0
 11
48.78329683405986
 21
-10.07698930898434
 31
0.0
  0
LINE
  5
12425
330
1235D
100
AcDbEntity
  8
0
100
AcDbLine
 10
52.83721849759004
 20
-8.05524903920725
 30
0.0
 11
49.85102807365152
 21
-9.779326884319628
 31
0.0
  0
LINE
  5
12426
330
1235D
100
AcDbEntity
  8
0
100
AcDbLine
 10
-9.899494936611819
 20
57.37751689698597
 30
0.0
 11
-24.04163056034275
 21
65.54248270626342
 31
0.0
  0
LINE
  5
12427
330
1235D
100
AcDbEntity
  8
0
100
AcDbLine
 10
-28.28427124746204
 20
63.09299296348001
 30
0.0
 11
-28.28427124746206
 21
45.53831647353391
 31
0.0
  0
LINE
  5
12428
330
1235D
100
AcDbEntity
  8
0
100
AcDbLine
 10
-28.28427124746206
 20
39.82284040703986
 30
0.0
 11
-28.28427124746206
 21
37.37335066425666
 31
0.0
  0
LINE
  5
12429
330
1235D
100
AcDbEntity
  8
0
100
AcDbLine
 10
54.8007755419576
 20
21.24754319093401
 30
0.0
 11
40.65863991822663
 21
29.41250900021116
 31
0.0
  0
LINE
  5
1242A
330
1235D
100
AcDbEntity
  8
0
100
AcDbLine
 10
39.59797974644682
 20
28.80013656451537
 30
0.0
 11
53.74011537017779
 21
20.63517075523823
 31
0.0
  0
LINE
  5
1242B
330
1235D
100
AcDbEntity
  8
0
100
AcDbLine
 10
59.04341622907669
 20
-23.50421540005025
 30
0.0
 11
59.04341622907686
 21
13.89907396258424
 31
0.0
  0
LINE
  5
1242C
330
1235D
100
AcDbEntity
  8
0
100
AcDbLine
 10
57.98275605729687
 20
-24.11658783574605
 30
0.0
 11
57.98275605729705
 21
13.28670152688845
 31
0.0
  0
LINE
  5
1242D
330
1235D
100
AcDbEntity
  8
0
100
AcDbLine
 10
-8.838834764831995
 20
57.98988933268173
 30
0.0
 11
-22.98097038856295
 21
66.15485514195899
 31
0.0
  0
ELLIPSE
  5
1242E
330
1235D
100
AcDbEntity
  8
0
100
AcDbEllipse
 10
45.60838738653217
 20
-23.65976876009089
 30
0.0
 11
1.250000000000129
 21
-2.165063509461021
 31
0.0
210
0.0
220
0.0
230
1.0
 40
0.577350269189626
 41
3.579741684173544
 42
5.845036276595008
  0
ELLIPSE
  5
1242F
330
1235D
100
AcDbEntity
  8
0
100
AcDbEllipse
 10
45.60838738653234
 20
4.101114991451688
 30
0.0
 11
1.25000000000013
 21
-2.165063509461021
 31
0.0
210
0.0
220
0.0
230
1.0
 40
0.5773502691896261
 41
3.579741684173541
 42
5.845036276594997
  0
ELLIPSE
  5
12430
330
1235D
100
AcDbEntity
  8
0
100
AcDbEllipse
 10
45.60838738653244
 20
20.43104661000616
 30
0.0
 11
1.25000000000013
 21
-2.165063509461021
 31
0.0
210
0.0
220
0.0
230
1.0
 40
0.5773502691896261
 41
3.579741684173541
 42
5.845036276594997
  0
ELLIPSE
  5
12431
330
1235D
100
AcDbEntity
  8
0
100
AcDbEllipse
 10
52.67945519839786
 20
8.18359789609024
 30
0.0
 11
1.25000000000013
 21
-2.165063509461021
 31
0.0
210
0.0
220
0.0
230
1.0
 40
0.5773502691896261
 41
3.579741684173541
 42
5.845036276594997
  0
ELLIPSE
  5
12432
330
1235D
100
AcDbEntity
  8
0
100
AcDbEllipse
 10
45.60838738653224
 20
-12.22881662710276
 30
0.0
 11
1.250000000000129
 21
-2.165063509461021
 31
0.0
210
0.0
220
0.0
230
1.0
 40
0.577350269189626
 41
3.579741684173544
 42
5.845036276595008
  0
ELLIPSE
  5
12433
330
1235D
100
AcDbEntity
  8
0
100
AcDbEllipse
 10
52.67945519839769
 20
-22.02677559823551
 30
0.0
 11
1.250000000000129
 21
-2.165063509461021
 31
0.0
210
0.0
220
0.0
230
1.0
 40
0.577350269189626
 41
3.579741684173544
 42
5.845036276595008
  0
ELLIPSE
  5
12434
330
1235D
100
AcDbEntity
  8
0
100
AcDbEllipse
 10
44.54772721475236
 20
-24.27214119578668
 30
0.0
 11
1.25
 21
-2.165063509461095
 31
0.0
210
0.0
220
0.0
230
1.0
 40
0.577350269189626
 41
0.0
 42
6.283185307179586
  0
ELLIPSE
  5
12435
330
1235D
100
AcDbEntity
  8
0
100
AcDbEllipse
 10
51.61879502661786
 20
-22.63914803393131
 30
0.0
 11
1.25
 21
-2.165063509461095
 31
0.0
210
0.0
220
0.0
230
1.0
 40
0.577350269189626
 41
0.0
 42
6.283185307179586
  0
ELLIPSE
  5
12436
330
1235D
100
AcDbEntity
  8
0
100
AcDbEllipse
 10
44.54772721475243
 20
-12.84118906279855
 30
0.0
 11
1.25
 21
-2.165063509461095
 31
0.0
210
0.0
220
0.0
230
1.0
 40
0.577350269189626
 41
0.0
 42
6.283185307179586
  0
ELLIPSE
  5
12437
330
1235D
100
AcDbEntity
  8
0
100
AcDbEllipse
 10
51.61879502661804
 20
7.57122546039445
 30
0.0
 11
1.25
 21
-2.165063509461095
 31
0.0
210
0.0
220
0.0
230
1.0
 40
0.577350269189626
 41
0.0
 42
6.283185307179586
  0
ELLIPSE
  5
12438
330
1235D
100
AcDbEntity
  8
0
100
AcDbEllipse
 10
44.54772721475261
 20
19.81867417431037
 30
0.0
 11
1.25
 21
-2.165063509461095
 31
0.0
210
0.0
220
0.0
230
1.0
 40
0.577350269189626
 41
0.0
 42
6.283185307179586
  0
ELLIPSE
  5
12439
330
1235D
100
AcDbEntity
  8
0
100
AcDbEllipse
 10
44.54772721475252
 20
3.488742555755899
 30
0.0
 11
1.25
 21
-2.165063509461095
 31
0.0
210
0.0
220
0.0
230
1.0
 40
0.577350269189626
 41
0.0
 42
6.283185307179586
  0
LINE
  5
1243A
330
1235D
100
AcDbEntity
  8
0
100
AcDbLine
 10
39.59797974644654
 20
-33.03088082268921
 30
0.0
 11
54.24238381148498
 21
-30.07995903417887
 31
0.0
  0
SPLINE
  5
1243B
330
1235D
100
AcDbEntity
  8
0
100
AcDbSpline
210
0.0
220
0.0
230
1.0
 70
     8
 71
     3
 72
     8
 73
     4
 74
     0
 42
0.000000001
 43
0.0000000001
 40
-1.0
 40
-1.0
 40
-1.0
 40
-1.0
 40
0.0
 40
0.0
 40
0.0
 40
0.0
 10
37.47665940288689
 20
-34.68308251611463
 30
0.0
 10
38.03201977015668
 20
-33.81171116076588
 30
0.0
 10
39.04261937917677
 20
-33.26097726295718
 30
0.0
 10
39.59797974644654
 20
-33.03088082268922
 30
0.0
  0
LINE
  5
1243C
330
1235D
100
AcDbEntity
  8
0
100
AcDbLine
 10
47.72611562764348
 20
-13.45563539980995
 30
0.0
 11
47.72611562764348
 21
-13.45148759717884
 31
0.0
  0
LINE
  5
1243D
330
1235D
100
AcDbEntity
  8
0
100
AcDbLine
 10
50.56172695728654
 20
-15.08862856166542
 30
0.0
 11
50.56172695728654
 21
-15.09277636429654
 31
0.0
  0
LINE
  5
1243E
330
1235D
100
AcDbEntity
  8
0
100
AcDbLine
 10
50.56172695728654
 20
-15.09277636429654
 30
0.0
 11
50.5581348548381
 21
-15.09070246298098
 31
0.0
  0
LINE
  5
1243F
330
1235D
100
AcDbEntity
  8
0
100
AcDbLine
 10
50.5581348548381
 20
-15.09070246298098
 30
0.0
 11
50.5581348548381
 21
-15.08655466034987
 31
0.0
  0
LINE
  5
12440
330
1235D
100
AcDbEntity
  8
0
100
AcDbLine
 10
50.5581348548381
 20
-15.08655466034987
 30
0.0
 11
47.72970773009191
 21
-13.4535614984944
 31
0.0
  0
LINE
  5
12441
330
1235D
100
AcDbEntity
  8
0
100
AcDbLine
 10
47.72970773009191
 20
-13.4535614984944
 30
0.0
 11
47.72970773009191
 21
-13.45770930112551
 31
0.0
  0
LINE
  5
12442
330
1235D
100
AcDbEntity
  8
0
100
AcDbLine
 10
47.72970773009191
 20
-13.45770930112551
 30
0.0
 11
47.72611562764348
 21
-13.45563539980995
 31
0.0
  0
ELLIPSE
  5
12443
330
1235D
100
AcDbEntity
  8
0
100
AcDbEllipse
 10
49.85102807365152
 20
-12.22881662710279
 30
0.0
 11
-1.499999999999956
 21
-2.59807621135334
 31
0.0
210
0.0
220
0.0
230
1.0
 40
0.5773502691895965
 41
3.926990816987022
 42
5.497787143781923
  0
ELLIPSE
  5
12444
330
1235D
100
AcDbEntity
  8
0
100
AcDbEllipse
 10
52.67945519839772
 20
-13.86180978895827
 30
0.0
 11
1.500000000000163
 21
2.598076211353221
 31
0.0
210
0.0
220
0.0
230
1.0
 40
0.5773502691896241
 41
2.274522134611956
 42
2.356194490192585
  0
ELLIPSE
  5
12445
330
1235D
100
AcDbEntity
  8
0
100
AcDbEllipse
 10
52.67945519839772
 20
-13.86180978895827
 30
0.0
 11
1.500000000000021
 21
2.598076211353304
 31
0.0
210
0.0
220
0.0
230
0.9999999999999998
 40
0.5773502691896266
 41
0.8625158344705745
 42
0.9940868618318852
  0
LINE
  5
12446
330
1235D
100
AcDbEntity
  8
0
100
AcDbLine
 10
50.5581348548381
 20
-15.08655466034987
 30
0.0
 11
50.56520592264995
 21
-15.08247217744524
 31
0.0
  0
LINE
  5
12447
330
1235D
100
AcDbEntity
  8
0
100
AcDbLine
 10
49.85102807365152
 20
-9.779326884319628
 30
0.0
 11
52.60802290760276
 21
-11.3710785938558
 31
0.0
  0
LINE
  5
12448
330
1235D
100
AcDbEntity
  8
0
100
AcDbLine
 10
47.72970773009188
 20
-13.45356149849442
 30
0.0
 11
47.72611562764348
 21
-13.45563539980995
 31
0.0
  0
LINE
  5
12449
330
1235D
100
AcDbEntity
  8
0
100
AcDbLine
 10
47.72611562764348
 20
-13.45148759717884
 30
0.0
 11
47.72971077140746
 21
-13.44941193995893
 31
0.0
  0
LINE
  5
1244A
330
1235D
100
AcDbEntity
  8
0
100
AcDbLine
 10
50.56172695728654
 20
-15.08862856166542
 30
0.0
 11
50.5581348548381
 21
-15.09070246298098
 31
0.0
  0
LINE
  5
1244B
330
1235D
100
AcDbEntity
  8
0
100
AcDbLine
 10
50.56520592264995
 20
-15.08661998007635
 30
0.0
 11
50.56172695728654
 21
-15.08862856166542
 31
0.0
  0
SPLINE
  5
1244C
330
1235D
100
AcDbEntity
  8
0
100
AcDbSpline
210
0.0
220
0.0
230
1.0
 70
     8
 71
     3
 72
     8
 73
     4
 74
     0
 42
0.000000001
 43
0.0000000001
 40
-1.0
 40
-1.0
 40
-1.0
 40
-1.0
 40
0.0
 40
0.0
 40
0.0
 40
0.0
 10
-4.596194077712691
 20
-12.22881662710273
 30
0.0
 10
-5.303300858899135
 20
-12.46184325171987
 30
0.0
 10
-6.515707444595597
 20
-12.92879989572202
 30
0.0
 10
-7.778174593052176
 20
-12.84118906279852
 30
0.0
  0
LINE
  5
1244D
330
1235D
100
AcDbEntity
  8
0
100
AcDbLine
 10
-2.262741699797083
 20
-10.88159726857198
 30
0.0
 11
-4.596194077712687
 21
-12.22881662710273
 31
0.0
  0
LINE
  5
1244E
330
1235D
100
AcDbEntity
  8
0
100
AcDbLine
 10
-2.262741699797083
 20
-10.88159726857198
 30
0.0
 11
-1.202081528017262
 21
-10.26922483287618
 31
0.0
  0
LINE
  5
1244F
330
1235D
100
AcDbEntity
  8
0
100
AcDbLine
 10
-1.202081528017262
 20
-10.26922483287618
 30
0.0
 11
5.338656197958302
 21
-14.04552151966691
 31
0.0
  0
LINE
  5
12450
330
1235D
100
AcDbEntity
  8
0
100
AcDbLine
 10
4.277996026178481
 20
-14.65789395536271
 30
0.0
 11
-2.262741699797083
 21
-10.88159726857198
 31
0.0
  0
LINE
  5
12451
330
1235D
100
AcDbEntity
  8
0
100
AcDbLine
 10
6.894291116568705
 20
-13.14737528064642
 30
0.0
 11
4.277996026178481
 21
-14.65789395536271
 31
0.0
  0
LINE
  5
12452
330
1235D
100
AcDbEntity
  8
0
100
AcDbLine
 10
7.954951288348527
 20
-12.53500284495062
 30
0.0
 11
6.894291116568705
 21
-13.14737528064642
 31
0.0
  0
SPLINE
  5
12453
330
1235D
100
AcDbEntity
  8
0
100
AcDbSpline
210
0.0
220
0.0
230
1.0
 70
     8
 71
     3
 72
     8
 73
     4
 74
     0
 42
0.000000001
 43
0.0000000001
 40
0.0
 40
0.0
 40
0.0
 40
0.0
 40
0.0647569243097071
 40
0.0647569243097071
 40
0.0647569243097071
 40
0.0647569243097071
 10
-4.882132501229814
 20
-12.32656250008363
 30
0.0
 10
-4.678847166589159
 20
-12.25594868014069
 30
0.0
 10
-4.482625799557857
 20
-12.16324795113863
 30
0.0
 10
-4.306379775257078
 20
-12.06149226156498
 30
0.0
  0
LINE
  5
12454
330
1235D
100
AcDbEntity
  8
0
100
AcDbLine
 10
12.72792206135788
 20
-16.51542367697337
 30
0.0
 11
6.894291116568705
 21
-13.14737528064642
 31
0.0
  0
LINE
  5
12455
330
1235D
100
AcDbEntity
  8
0
100
AcDbLine
 10
12.72792206135789
 20
-15.29067880558179
 30
0.0
 11
7.954951288348527
 21
-12.53500284495062
 31
0.0
  0
LINE
  5
12456
330
1235D
100
AcDbEntity
  8
0
100
AcDbLine
 10
19.44543648262999
 20
-28.55874824565729
 30
0.0
 11
18.03122292025691
 21
-27.74225166472957
 31
0.0
  0
LINE
  5
12457
330
1235D
100
AcDbEntity
  8
0
100
AcDbLine
 10
12.72792206135784
 20
-24.68038948625062
 30
0.0
 11
-7.778174593052167
 21
-12.84118906279853
 31
0.0
  0
LINE
  5
12458
330
1235D
100
AcDbEntity
  8
0
100
AcDbLine
 10
-4.596194077712687
 20
-12.22881662710273
 30
0.0
 11
12.72792206135785
 21
-22.23089974346745
 31
0.0
  0
ENDBLK
  5
1235F
330
1235D
100
AcDbEntity
  8
0
100
AcDbBlockEnd
  0
ENDSEC
  0
SECTION
  2
ENTITIES
  0
INSERT
  5
12459
330
1F
100
AcDbEntity
  8
0
100
AcDbBlockReference
  2
SBE64_83-F-Front
 10
0.0
 20
0.0
 30
0.0
  0
INSERT
  5
1245A
330
1F
100
AcDbEntity
  8
0
100
AcDbBlockReference
  2
SBE64_83-F-Left
 10
95.35000000000048
 20
0.0
 30
0.0
  0
INSERT
  5
1245B
330
1F
100
AcDbEntity
  8
0
100
AcDbBlockReference
  2
SBE64_83-F-Right
 10
-95.3500000000001
 20
0.0
 30
0.0
  0
INSERT
  5
1245C
330
1F
100
AcDbEntity
  8
0
100
AcDbBlockReference
  2
SBE64_83-F-Top
 10
0.0
 20
-35.8500000000001
 30
0.0
  0
INSERT
  5
1245D
330
1F
100
AcDbEntity
  8
0
100
AcDbBlockReference
  2
SBE64_83-F-Bottom
 10
0.0
 20
117.3500000000003
 30
0.0
  0
INSERT
  5
1245E
330
1F
100
AcDbEntity
  8
0
100
AcDbBlockReference
  2
SBE64_83-F-ISO
 10
132.3119407771263
 20
-93.0048551419591
 30
0.0
  0
MTEXT
  5
1245F
330
1F
100
AcDbEntity
  8
0
100
AcDbMText
 10
0.0
 20
-115.2000000000001
 30
0.0
 40
8.450000000000025
 41
0.0
 71
     5
 72
     5
  1
SBE64/83
 73
     1
 44
1.0
1001
ACAD
1000
MTEXTBEGIN
1070
    73
1070
     1
1070
    44
1040
1.0
1070
    74
1070
     0
1000
MTEXTEND
  0
ENDSEC
  0
SECTION
  2
OBJECTS
  0
DICTIONARY
  5
C
330
0
100
AcDbDictionary
281
     1
  3
ACAD_CIP_PREVIOUS_PRODUCT_INFO
350
216
  3
ACAD_COLOR
350
6B
  3
ACAD_DETAILVIEWSTYLE
350
21B
  3
ACAD_GROUP
350
D
  3
ACAD_LAYOUT
350
1A
  3
ACAD_MATERIAL
350
6A
  3
ACAD_MLEADERSTYLE
350
12D
  3
ACAD_MLINESTYLE
350
17
  3
ACAD_PLOTSETTINGS
350
19
  3
ACAD_PLOTSTYLENAME
350
E
  3
ACAD_SCALELIST
350
10C
  3
ACAD_SECTIONVIEWSTYLE
350
219
  3
ACAD_TABLESTYLE
350
7E
  3
ACAD_VISUALSTYLE
350
EF
  3
ACDB_RECOMPOSE_DATA
350
12560
  3
AcDbVariableDictionary
350
5E
  3
DWGPROPS
350
12561
  0
DICTIONARY
  5
124B0
330
8
100
AcDbDictionary
280
     1
281
     1
  0
DICTIONARY
  5
1FF
330
2
100
AcDbDictionary
280
     1
281
     1
  3
ACAD_LAYERSTATES
360
200
  0
DICTIONARY
  5
13C
330
10
100
AcDbDictionary
280
     1
281
     1
  0
DICTIONARY
  5
1CE
330
1F
100
AcDbDictionary
280
     1
281
     1
  3
ACAD_LAYOUTSELFREF
360
124B8
  0
DICTIONARY
  5
12463
330
D2
100
AcDbDictionary
280
     1
281
     1
  3
ACAD_LAYOUTSELFREF
360
124C1
  0
DICTIONARY
  5
12465
330
D6
100
AcDbDictionary
280
     1
281
     1
  3
ACAD_LAYOUTSELFREF
360
124C4
  0
XRECORD
  5
216
102
{ACAD_REACTORS
330
C
102
}
330
C
100
AcDbXrecord
280
     1
300
ACD
300
2021
300

  0
DICTIONARY
  5
6B
102
{ACAD_REACTORS
330
C
102
}
330
C
100
AcDbDictionary
281
     1
  0
DICTIONARY
  5
21B
102
{ACAD_REACTORS
330
C
102
}
330
C
100
AcDbDictionary
281
     1
  3
Metric50
350
21C
  0
DICTIONARY
  5
D
102
{ACAD_REACTORS
330
C
102
}
330
C
100
AcDbDictionary
281
     1
  0
DICTIONARY
  5
1A
102
{ACAD_REACTORS
330
C
102
}
330
C
100
AcDbDictionary
281
     1
  3
Layout1
350
D3
  3
Layout2
350
D7
  3
Model
350
22
  0
DICTIONARY
  5
6A
102
{ACAD_REACTORS
330
C
102
}
330
C
100
AcDbDictionary
281
     1
  3
ByBlock
350
ED
  3
ByLayer
350
EC
  3
Global
350
EE
  0
DICTIONARY
  5
12D
102
{ACAD_REACTORS
330
C
102
}
330
C
100
AcDbDictionary
281
     1
  3
Standard
350
12E
  0
DICTIONARY
  5
17
102
{ACAD_REACTORS
330
C
102
}
330
C
100
AcDbDictionary
281
     1
  3
Standard
350
18
  0
DICTIONARY
  5
19
102
{ACAD_REACTORS
330
C
102
}
330
C
100
AcDbDictionary
281
     1
  0
ACDBDICTIONARYWDFLT
  5
E
102
{ACAD_REACTORS
330
C
102
}
330
C
100
AcDbDictionary
281
     1
  3
Normal
350
F
100
AcDbDictionaryWithDefault
340
F
  0
DICTIONARY
  5
10C
102
{ACAD_REACTORS
330
C
102
}
330
C
100
AcDbDictionary
281
     1
  3
A0
350
10D
  3
A1
350
1BE
  3
A2
350
1BF
  3
A3
350
1C0
  3
A4
350
1C1
  3
A5
350
1C2
  3
A6
350
1C3
  3
A7
350
1C4
  3
A8
350
1C5
  3
A9
350
1C6
  3
B0
350
1C7
  3
B1
350
1C8
  3
B2
350
1C9
  3
B3
350
1CA
  3
B4
350
1CB
  3
B5
350
1CC
  3
B6
350
1CD
  0
DICTIONARY
  5
219
102
{ACAD_REACTORS
330
C
102
}
330
C
100
AcDbDictionary
281
     1
  3
Metric50
350
21A
  0
DICTIONARY
  5
7E
102
{ACAD_REACTORS
330
C
102
}
330
C
100
AcDbDictionary
281
     1
  3
Standard
350
7F
  0
DICTIONARY
  5
EF
102
{ACAD_REACTORS
330
C
102
}
330
C
100
AcDbDictionary
281
     1
  3
2dWireframe
350
F5
  3
Basic
350
F4
  3
Brighten
350
FB
  3
ColorChange
350
FF
  3
Conceptual
350
F8
  3
Dim
350
FA
  3
EdgeColorOff
350
1E6
  3
Facepattern
350
FE
  3
Flat
350
F0
  3
FlatWithEdges
350
F1
  3
Gouraud
350
F2
  3
GouraudWithEdges
350
F3
  3
Hidden
350
F7
  3
JitterOff
350
1E4
  3
Linepattern
350
FD
  3
OverhangOff
350
1E5
  3
Realistic
350
F9
  3
Shaded
350
1F3
  3
Shaded with edges
350
1F2
  3
Shades of Gray
350
1EF
  3
Sketchy
350
1F0
  3
Thicken
350
FC
  3
Wireframe
350
F6
  3
X-Ray
350
1F1
  0
XRECORD
  5
12560
102
{ACAD_REACTORS
330
C
102
}
330
C
100
AcDbXrecord
280
     1
 90
        1
330
7F
  0
DICTIONARY
  5
5E
102
{ACAD_REACTORS
330
C
102
}
330
C
100
AcDbDictionary
281
     1
  3
CANNOSCALE
350
146
  3
CENTEREXE
350
259
  3
CENTERLTYPEFILE
350
25A
  3
CMLEADERSTYLE
350
145
  3
CTABLESTYLE
350
84
  3
CVIEWDETAILSTYLE
350
227
  3
CVIEWSECTIONSTYLE
350
228
  3
DIMASSOC
350
5F
  3
HIDETEXT
350
63
  3
INDEXCTL
350
1250D
  3
LAYEREVAL
350
1AE
  3
LAYERNOTIFY
350
1AF
  3
LIGHTINGUNITS
350
1250B
  3
MSLTSCALE
350
1250A
  3
PSOLHEIGHT
350
1255D
  3
PSOLWIDTH
350
1255C
  3
SORTENTS
350
1250C
  3
XCLIPFRAME
350
1255E
  0
XRECORD
  5
12561
102
{ACAD_REACTORS
330
C
102
}
330
C
100
AcDbXrecord
280
     1
  1
DWGPROPS COOKIE
  2

  3

  4

  6

  7

  8
tronnguyen
  9

300
=
301
=
302
=
303
=
304
=
305
=
306
=
307
=
308
=
309
=
 40
0.0050462962962963
 41
2460286.6225
 42
2460287.382326389
  1

 90
        0
  0
DICTIONARY
  5
200
102
{ACAD_REACTORS
330
1FF
102
}
330
1FF
100
AcDbDictionary
281
     1
  0
XRECORD
  5
124B8
102
{ACAD_REACTORS
330
1CE
102
}
330
1CE
100
AcDbXrecord
280
     1
340
1F
  0
XRECORD
  5
124C1
102
{ACAD_REACTORS
330
12463
102
}
330
12463
100
AcDbXrecord
280
     1
340
D2
  0
XRECORD
  5
124C4
102
{ACAD_REACTORS
330
12465
102
}
330
12465
100
AcDbXrecord
280
     1
340
D6
  0
ACDBDETAILVIEWSTYLE
  5
21C
102
{ACAD_XDICTIONARY
360
125A0
102
}
102
{ACAD_REACTORS
330
21B
102
}
330
21B
100
AcDbModelDocViewStyle
 70
     0
  3
Metric50
290
     0
100
AcDbDetailViewStyle
 70
     0
 71
     0
 90
        3
 71
     1
340
11
 40
5.0
340
0
 40
5.0
300

 40
0.0
280
     1
 71
     2
340
16
 90
       25
 71
     3
340
11
 40
5.0
 90
        0
 40
15.0
 90
        1
300
%<\AcVar ViewDetailId>% (%<\AcVar ViewScale \f "%sn">%)
 71
     4
340
16
 90
       25
340
16
 90
       25
280
     0
  0
LAYOUT
  5
D3
102
{ACAD_XDICTIONARY
360
12565
102
}
102
{ACAD_REACTORS
330
1A
102
}
330
1A
100
AcDbPlotSettings
  1

  2
C:\Documents and Settings\basas\Application Data\Autodesk\AutoCAD 2005\R16.1\enu\plotters\Default Windows System Printer.pc3
  4

  6

 40
0.0
 41
0.0
 42
0.0
 43
0.0
 44
0.0
 45
0.0
 46
0.0
 47
0.0
 48
0.0
 49
0.0
140
0.0
141
0.0
142
1.0
143
1.0
 70
   688
 72
     0
 73
     0
 74
     5
  7

 75
    16
147
1.0
148
0.0
149
0.0
100
AcDbLayout
  1
Layout1
 70
     1
 71
     1
 10
0.0
 20
0.0
 11
12.0
 21
9.0
 12
0.0
 22
0.0
 32
0.0
 14
0.0
 24
0.0
 34
0.0
 15
0.0
 25
0.0
 35
0.0
146
0.0
 13
0.0
 23
0.0
 33
0.0
 16
1.0
 26
0.0
 36
0.0
 17
0.0
 27
1.0
 37
0.0
 76
     0
330
D2
  0
LAYOUT
  5
D7
102
{ACAD_XDICTIONARY
360
12567
102
}
102
{ACAD_REACTORS
330
1A
102
}
330
1A
100
AcDbPlotSettings
  1

  2
C:\Documents and Settings\basas\Application Data\Autodesk\AutoCAD 2005\R16.1\enu\plotters\Default Windows System Printer.pc3
  4

  6

 40
0.0
 41
0.0
 42
0.0
 43
0.0
 44
0.0
 45
0.0
 46
0.0
 47
0.0
 48
0.0
 49
0.0
140
0.0
141
0.0
142
1.0
143
1.0
 70
   688
 72
     0
 73
     0
 74
     5
  7

 75
    16
147
1.0
148
0.0
149
0.0
100
AcDbLayout
  1
Layout2
 70
     1
 71
     2
 10
0.0
 20
0.0
 11
12.0
 21
9.0
 12
0.0
 22
0.0
 32
0.0
 14
0.0
 24
0.0
 34
0.0
 15
0.0
 25
0.0
 35
0.0
146
0.0
 13
0.0
 23
0.0
 33
0.0
 16
1.0
 26
0.0
 36
0.0
 17
0.0
 27
1.0
 37
0.0
 76
     0
330
D6
  0
LAYOUT
  5
22
102
{ACAD_XDICTIONARY
360
12562
102
}
102
{ACAD_REACTORS
330
1A
102
}
330
1A
100
AcDbPlotSettings
  1

  2
none_device
  4
ISO_A4_(210.00_x_297.00_MM)
  6

 40
7.5
 41
20.0
 42
7.5
 43
20.0
 44
210.0
 45
297.0
 46
11.54999923706054
 47
-13.65000009536743
 48
0.0
 49
0.0
140
0.0
141
0.0
142
1.0
143
8.704084754739808
 70
 11952
 72
     1
 73
     0
 74
     0
  7

 75
     0
147
0.1148885871608098
148
0.0
149
0.0
100
AcDbLayout
  1
Model
 70
     1
 71
     0
 10
0.0
 20
0.0
 11
12.0
 21
9.0
 12
0.0
 22
0.0
 32
0.0
 14
0.0
 24
0.0
 34
0.0
 15
0.0
 25
0.0
 35
0.0
146
0.0
 13
0.0
 23
0.0
 33
0.0
 16
1.0
 26
0.0
 36
0.0
 17
0.0
 27
1.0
 37
0.0
 76
     0
330
1F
331
EA
1001
ACAD_PSEXT
1000
None
1000
None
1000
Not applicable
1000
The layout will not be plotted unless a new plotter configuration name is selected.
1070
     0
  0
MATERIAL
  5
ED
102
{ACAD_XDICTIONARY
360
1F9
102
}
102
{ACAD_REACTORS
330
6A
102
}
330
6A
100
AcDbMaterial
  1
ByBlock
  0
MATERIAL
  5
EC
102
{ACAD_XDICTIONARY
360
1F7
102
}
102
{ACAD_REACTORS
330
6A
102
}
330
6A
100
AcDbMaterial
  1
ByLayer
  0
MATERIAL
  5
EE
102
{ACAD_XDICTIONARY
360
173
102
}
102
{ACAD_REACTORS
330
6A
102
}
330
6A
100
AcDbMaterial
  1
Global
 43
0.0007999999797903
 43
0.0
 43
0.0
 43
0.0
 43
0.0
 43
0.0007999999797903
 43
0.0
 43
0.0
 43
0.0
 43
0.0
 43
1.0
 43
0.0
 43
0.0
 43
0.0
 43
0.0
 43
1.0
 49
0.0007999999797903
 49
0.0
 49
0.0
 49
0.0
 49
0.0
 49
0.0007999999797903
 49
0.0
 49
0.0
 49
0.0
 49
0.0
 49
1.0
 49
0.0
 49
0.0
 49
0.0
 49
0.0
 49
1.0
142
0.0007999999797903
142
0.0
142
0.0
142
0.0
142
0.0
142
0.0007999999797903
142
0.0
142
0.0
142
0.0
142
0.0
142
1.0
142
0.0
142
0.0
142
0.0
142
0.0
142
1.0
144
0.0007999999797903
144
0.0
144
0.0
144
0.0
144
0.0
144
0.0007999999797903
144
0.0
144
0.0
144
0.0
144
0.0
144
1.0
144
0.0
144
0.0
144
0.0
144
0.0
144
1.0
1001
ACAD
1070
    -1
1070
     3
1070
     0
1000

1071
        0
1070
     0
  0
MLEADERSTYLE
  5
12E
102
{ACAD_XDICTIONARY
360
1258C
102
}
102
{ACAD_REACTORS
330
12D
102
}
330
12D
100
AcDbMLeaderStyle
170
     2
171
     1
172
     0
 90
        2
 40
0.0
 41
0.0
173
     1
 91
-1056964608
340
14
 92
       -2
290
     1
 42
2.0
291
     1
 43
8.0
  3
Standard
 44
4.0
300

342
11
174
     1
178
     1
175
     1
176
     0
 93
-1056964608
 45
4.0
292
     0
297
     0
 46
4.0
 94
-1056964608
 47
1.0
 49
1.0
140
1.0
293
     1
141
0.0
294
     1
177
     0
142
1.0
295
     0
296
     0
143
3.75
1001
ACAD_MLEADERVER
1070
     2
  0
MLINESTYLE
  5
18
102
{ACAD_REACTORS
330
17
102
}
330
17
100
AcDbMlineStyle
  2
STANDARD
 70
     0
  3

 62
   256
 51
90.0
 52
90.0
 71
     2
 49
0.5
 62
   256
  6
BYLAYER
 49
-0.5
 62
   256
  6
BYLAYER
  0
ACDBPLACEHOLDER
  5
F
102
{ACAD_REACTORS
330
E
102
}
330
E
  0
SCALE
  5
10D
102
{ACAD_REACTORS
330
10C
102
}
330
10C
100
AcDbScale
 70
     0
300
1:1
140
1.0
141
1.0
290
     1
  0
SCALE
  5
1BE
102
{ACAD_REACTORS
330
10C
102
}
330
10C
100
AcDbScale
 70
     0
300
1:2
140
1.0
141
2.0
290
     0
  0
SCALE
  5
1BF
102
{ACAD_REACTORS
330
10C
102
}
330
10C
100
AcDbScale
 70
     0
300
1:4
140
1.0
141
4.0
290
     0
  0
SCALE
  5
1C0
102
{ACAD_REACTORS
330
10C
102
}
330
10C
100
AcDbScale
 70
     0
300
1:5
140
1.0
141
5.0
290
     0
  0
SCALE
  5
1C1
102
{ACAD_REACTORS
330
10C
102
}
330
10C
100
AcDbScale
 70
     0
300
1:8
140
1.0
141
8.0
290
     0
  0
SCALE
  5
1C2
102
{ACAD_REACTORS
330
10C
102
}
330
10C
100
AcDbScale
 70
     0
300
1:10
140
1.0
141
10.0
290
     0
  0
SCALE
  5
1C3
102
{ACAD_REACTORS
330
10C
102
}
330
10C
100
AcDbScale
 70
     0
300
1:16
140
1.0
141
16.0
290
     0
  0
SCALE
  5
1C4
102
{ACAD_REACTORS
330
10C
102
}
330
10C
100
AcDbScale
 70
     0
300
1:20
140
1.0
141
20.0
290
     0
  0
SCALE
  5
1C5
102
{ACAD_REACTORS
330
10C
102
}
330
10C
100
AcDbScale
 70
     0
300
1:30
140
1.0
141
30.0
290
     0
  0
SCALE
  5
1C6
102
{ACAD_REACTORS
330
10C
102
}
330
10C
100
AcDbScale
 70
     0
300
1:40
140
1.0
141
40.0
290
     0
  0
SCALE
  5
1C7
102
{ACAD_REACTORS
330
10C
102
}
330
10C
100
AcDbScale
 70
     0
300
1:50
140
1.0
141
50.0
290
     0
  0
SCALE
  5
1C8
102
{ACAD_REACTORS
330
10C
102
}
330
10C
100
AcDbScale
 70
     0
300
1:100
140
1.0
141
100.0
290
     0
  0
SCALE
  5
1C9
102
{ACAD_REACTORS
330
10C
102
}
330
10C
100
AcDbScale
 70
     0
300
2:1
140
2.0
141
1.0
290
     0
  0
SCALE
  5
1CA
102
{ACAD_REACTORS
330
10C
102
}
330
10C
100
AcDbScale
 70
     0
300
4:1
140
4.0
141
1.0
290
     0
  0
SCALE
  5
1CB
102
{ACAD_REACTORS
330
10C
102
}
330
10C
100
AcDbScale
 70
     0
300
8:1
140
8.0
141
1.0
290
     0
  0
SCALE
  5
1CC
102
{ACAD_REACTORS
330
10C
102
}
330
10C
100
AcDbScale
 70
     0
300
10:1
140
10.0
141
1.0
290
     0
  0
SCALE
  5
1CD
102
{ACAD_REACTORS
330
10C
102
}
330
10C
100
AcDbScale
 70
     0
300
100:1
140
100.0
141
1.0
290
     0
  0
ACDBSECTIONVIEWSTYLE
  5
21A
102
{ACAD_XDICTIONARY
360
1259E
102
}
102
{ACAD_REACTORS
330
219
102
}
330
219
100
AcDbModelDocViewStyle
 70
     0
  3
Metric50
290
     0
100
AcDbSectionViewStyle
 70
     0
 71
     0
 90
      102
 71
     1
340
11
 40
5.0
340
0
340
0
 40
5.0
300
I, O, Q, S, X, Z
 40
10.0
 90
        0
 40
2.5
 90
        0
 71
     2
340
16
 90
       25
340
16
 90
       50
 40
5.0
 40
2.5
 40
5.0
 71
     3
340
11
 40
5.0
 90
        0
 40
15.0
 90
        1
300
%<\AcVar ViewSectionStartId>%-%<\AcVar ViewSectionEndId>% (%<\AcVar ViewScale \f "%sn">%)
 71
     4
300
ANSI31
 40
1.0
 90
        0
290
     0
290
     0
 90
        6
 40
0.0
 40
1.570796326794896
 40
0.2617993877991494
 40
1.308996938995747
 40
-0.2617993877991494
 40
1.832595714594046
  0
TABLESTYLE
  5
7F
102
{ACAD_XDICTIONARY
360
162
102
}
102
{ACAD_REACTORS
330
7E
102
}
330
7E
100
AcDbTableStyle
  3
Standard
 70
     0
 71
     0
 40
1.5
 41
1.5
280
     0
281
     0
  7
Standard
140
4.5
170
     2
 62
     0
 63
     7
283
     0
274
    -2
284
     1
 64
     0
275
    -2
285
     1
 65
     0
276
    -2
286
     1
 66
     0
277
    -2
287
     1
 67
     0
278
    -2
288
     1
 68
     0
279
    -2
289
     1
 69
     0
  7
Standard
140
6.0
170
     5
 62
     0
 63
     7
283
     0
274
    -2
284
     1
 64
     0
275
    -2
285
     1
 65
     0
276
    -2
286
     1
 66
     0
277
    -2
287
     1
 67
     0
278
    -2
288
     1
 68
     0
279
    -2
289
     1
 69
     0
  7
Standard
140
4.5
170
     5
 62
     0
 63
     7
283
     0
274
    -2
284
     1
 64
     0
275
    -2
285
     1
 65
     0
276
    -2
286
     1
 66
     0
277
    -2
287
     1
 67
     0
278
    -2
288
     1
 68
     0
279
    -2
289
     1
 69
     0
  0
VISUALSTYLE
  5
F5
102
{ACAD_XDICTIONARY
360
12576
102
}
102
{ACAD_REACTORS
330
EF
102
}
330
EF
100
AcDbVisualStyle
  2
2dWireframe
 70
     4
 71
     0
 72
     2
 73
     1
 90
        0
 40
-0.6
 41
-30.0
 62
     5
 63
     7
 74
     1
 91
        4
 64
     7
 65
   257
 75
     1
175
     1
 42
1.0
 92
        0
 66
   257
 43
1.0
 76
     1
 77
     6
 78
     2
 67
     7
 79
     5
170
     0
171
     0
290
     0
174
     0
 93
        1
 44
0.0
173
     0
291
     0
 45
0.0
1001
ACAD
1000
AcDbSavedByObjectVersion
1070
     0
  0
VISUALSTYLE
  5
F4
102
{ACAD_XDICTIONARY
360
12574
102
}
102
{ACAD_REACTORS
330
EF
102
}
330
EF
100
AcDbVisualStyle
  2
Basic
 70
     7
 71
     1
 72
     0
 73
     1
 90
        0
 40
-0.6
 41
-30.0
 62
     5
 63
     7
 74
     0
 91
        4
 64
     7
 65
   257
 75
     1
175
     1
 42
1.0
 92
        8
 66
     7
 43
1.0
 76
     1
 77
     6
 78
     2
 67
     7
 79
     5
170
     0
171
     0
290
     0
174
     0
 93
        1
 44
0.0
173
     0
291
     1
 45
0.0
1001
ACAD
1000
AcDbSavedByObjectVersion
1070
     0
  0
VISUALSTYLE
  5
FB
102
{ACAD_XDICTIONARY
360
12582
102
}
102
{ACAD_REACTORS
330
EF
102
}
330
EF
100
AcDbVisualStyle
  2
Brighten
 70
    12
 71
     2
 72
     2
 73
     1
 90
        0
 40
-0.6
 41
-30.0
 62
     5
 63
     7
 74
     1
 91
        4
 64
     7
 65
   257
 75
     1
175
     1
 42
1.0
 92
        8
 66
     7
 43
1.0
 76
     1
 77
     6
 78
     2
 67
     7
 79
     5
170
     0
171
     0
290
     0
174
     0
 93
        1
 44
50.0
173
     0
291
     1
 45
0.0
1001
ACAD
1000
AcDbSavedByObjectVersion
1070
     0
  0
VISUALSTYLE
  5
FF
102
{ACAD_XDICTIONARY
360
1258A
102
}
102
{ACAD_REACTORS
330
EF
102
}
330
EF
100
AcDbVisualStyle
  2
ColorChange
 70
    16
 71
     2
 72
     2
 73
     3
 90
        0
 40
-0.6
 41
-30.0
 62
     5
 63
     8
 74
     1
 91
        4
 64
     7
 65
   257
 75
     1
175
     1
 42
1.0
 92
        8
 66
     8
 43
1.0
 76
     1
 77
     6
 78
     2
 67
     7
 79
     5
170
     0
171
     0
290
     0
174
     0
 93
        1
 44
0.0
173
     0
291
     1
 45
0.0
1001
ACAD
1000
AcDbSavedByObjectVersion
1070
     0
  0
VISUALSTYLE
  5
F8
102
{ACAD_XDICTIONARY
360
1257C
102
}
102
{ACAD_REACTORS
330
EF
102
}
330
EF
100
AcDbVisualStyle
  2
Conceptual
 70
     9
 71
     3
 72
     2
 73
     1
 90
        0
 40
-0.6
 41
-30.0
 62
     5
 63
     7
 74
     2
 91
        2
 64
     7
 65
   257
 75
     1
175
     1
 42
40.0
 92
        8
 66
     7
 43
1.0
 76
     1
 77
     6
 78
     2
 67
     7
 79
     3
170
     0
171
     0
290
     0
174
     0
 93
        1
 44
0.0
173
     0
291
     0
 45
0.0
1001
ACAD
1000
AcDbSavedByObjectVersion
1070
     0
  0
VISUALSTYLE
  5
FA
102
{ACAD_XDICTIONARY
360
12580
102
}
102
{ACAD_REACTORS
330
EF
102
}
330
EF
100
AcDbVisualStyle
  2
Dim
 70
    11
 71
     2
 72
     2
 73
     1
 90
        0
 40
-0.6
 41
-30.0
 62
     5
 63
     7
 74
     1
 91
        4
 64
     7
 65
   257
 75
     1
175
     1
 42
1.0
 92
        8
 66
     7
 43
1.0
 76
     1
 77
     6
 78
     2
 67
     7
 79
     5
170
     0
171
     0
290
     0
174
     0
 93
        1
 44
-50.0
173
     0
291
     1
 45
0.0
1001
ACAD
1000
AcDbSavedByObjectVersion
1070
     0
  0
VISUALSTYLE
  5
1E6
102
{ACAD_XDICTIONARY
360
12592
102
}
102
{ACAD_REACTORS
330
EF
102
}
330
EF
100
AcDbVisualStyle
  2
EdgeColorOff
 70
    22
 71
     2
 72
     2
 73
     0
 90
        0
 40
-0.6
 41
-30.0
 62
     5
 63
     7
 74
     1
 91
        4
 64
     7
 65
   257
 75
     1
175
     1
 42
1.0
 92
        8
 66
     7
 43
1.0
 76
     1
 77
     6
 78
     2
 67
     7
 79
     5
170
     0
171
     0
290
     0
174
     0
 93
        1
 44
0.0
173
     0
291
     1
 45
0.0
1001
ACAD
1000
AcDbSavedByObjectVersion
1070
     0
  0
VISUALSTYLE
  5
FE
102
{ACAD_XDICTIONARY
360
12588
102
}
102
{ACAD_REACTORS
330
EF
102
}
330
EF
100
AcDbVisualStyle
  2
Facepattern
 70
    15
 71
     2
 72
     2
 73
     1
 90
        0
 40
-0.6
 41
-30.0
 62
     5
 63
     7
 74
     1
 91
        4
 64
     7
 65
   257
 75
     1
175
     1
 42
1.0
 92
        8
 66
     7
 43
1.0
 76
     1
 77
     6
 78
     2
 67
     7
 79
     5
170
     0
171
     0
290
     0
174
     0
 93
        1
 44
0.0
173
     0
291
     1
 45
0.0
1001
ACAD
1000
AcDbSavedByObjectVersion
1070
     0
  0
VISUALSTYLE
  5
F0
102
{ACAD_XDICTIONARY
360
1256C
102
}
102
{ACAD_REACTORS
330
EF
102
}
330
EF
100
AcDbVisualStyle
  2
Flat
 70
     0
 71
     2
 72
     1
 73
     1
 90
        2
 40
-0.6
 41
30.0
 62
     5
 63
     7
 74
     0
 91
        0
 64
     7
 65
   257
 75
     1
175
     1
 42
1.0
 92
        8
 66
     7
 43
1.0
 76
     1
 77
     6
 78
     2
 67
     7
 79
     5
170
     0
171
     0
290
     0
174
     0
 93
       13
 44
0.0
173
     0
291
     1
 45
0.0
1001
ACAD
1000
AcDbSavedByObjectVersion
1070
     0
  0
VISUALSTYLE
  5
F1
102
{ACAD_XDICTIONARY
360
1256E
102
}
102
{ACAD_REACTORS
330
EF
102
}
330
EF
100
AcDbVisualStyle
  2
FlatWithEdges
 70
     1
 71
     2
 72
     1
 73
     1
 90
        2
 40
-0.6
 41
30.0
 62
     5
 63
     7
 74
     1
 91
        0
 64
     7
 65
   257
 75
     1
175
     1
 42
1.0
 92
        0
 66
   257
 43
1.0
 76
     1
 77
     6
 78
     2
 67
     7
 79
     5
170
     0
171
     0
290
     0
174
     0
 93
       13
 44
0.0
173
     0
291
     1
 45
0.0
1001
ACAD
1000
AcDbSavedByObjectVersion
1070
     0
  0
VISUALSTYLE
  5
F2
102
{ACAD_XDICTIONARY
360
12570
102
}
102
{ACAD_REACTORS
330
EF
102
}
330
EF
100
AcDbVisualStyle
  2
Gouraud
 70
     2
 71
     2
 72
     2
 73
     1
 90
        2
 40
-0.6
 41
30.0
 62
     5
 63
     7
 74
     0
 91
        0
 64
     7
 65
   257
 75
     1
175
     1
 42
1.0
 92
        0
 66
     7
 43
1.0
 76
     1
 77
     6
 78
     2
 67
     7
 79
     5
170
     0
171
     0
290
     0
174
     0
 93
       13
 44
0.0
173
     0
291
     1
 45
0.0
1001
ACAD
1000
AcDbSavedByObjectVersion
1070
     0
  0
VISUALSTYLE
  5
F3
102
{ACAD_XDICTIONARY
360
12572
102
}
102
{ACAD_REACTORS
330
EF
102
}
330
EF
100
AcDbVisualStyle
  2
GouraudWithEdges
 70
     3
 71
     2
 72
     2
 73
     1
 90
        2
 40
-0.6
 41
30.0
 62
     5
 63
     7
 74
     1
 91
        0
 64
     7
 65
   257
 75
     1
175
     1
 42
1.0
 92
        0
 66
   257
 43
1.0
 76
     1
 77
     6
 78
     2
 67
     7
 79
     5
170
     0
171
     0
290
     0
174
     0
 93
       13
 44
0.0
173
     0
291
     1
 45
0.0
1001
ACAD
1000
AcDbSavedByObjectVersion
1070
     0
  0
VISUALSTYLE
  5
F7
102
{ACAD_XDICTIONARY
360
1257A
102
}
102
{ACAD_REACTORS
330
EF
102
}
330
EF
100
AcDbVisualStyle
  2
Hidden
 70
     6
 71
     1
 72
     2
 73
     2
 90
        0
 40
-0.6
 41
-30.0
 62
     5
 63
     7
 74
     2
 91
        2
 64
     7
 65
   257
 75
     2
175
     1
 42
40.0
 92
        0
 66
   257
 43
1.0
 76
     1
 77
     6
 78
     2
 67
     7
 79
     3
170
     0
171
     0
290
     0
174
     0
 93
        1
 44
0.0
173
     0
291
     0
 45
0.0
1001
ACAD
1000
AcDbSavedByObjectVersion
1070
     0
  0
VISUALSTYLE
  5
1E4
102
{ACAD_XDICTIONARY
360
1258E
102
}
102
{ACAD_REACTORS
330
EF
102
}
330
EF
100
AcDbVisualStyle
  2
JitterOff
 70
    20
 71
     2
 72
     2
 73
     0
 90
        0
 40
-0.6
 41
-30.0
 62
     5
 63
     7
 74
     1
 91
        4
 64
     7
 65
   257
 75
     1
175
     1
 42
1.0
 92
       10
 66
     7
 43
1.0
 76
     1
 77
     6
 78
     2
 67
     7
 79
     5
170
     0
171
     0
290
     0
174
     0
 93
        1
 44
0.0
173
     0
291
     1
 45
0.0
1001
ACAD
1000
AcDbSavedByObjectVersion
1070
     0
  0
VISUALSTYLE
  5
FD
102
{ACAD_XDICTIONARY
360
12586
102
}
102
{ACAD_REACTORS
330
EF
102
}
330
EF
100
AcDbVisualStyle
  2
Linepattern
 70
    14
 71
     2
 72
     2
 73
     1
 90
        0
 40
-0.6
 41
-30.0
 62
     5
 63
     7
 74
     1
 91
        4
 64
     7
 65
   257
 75
     7
175
     7
 42
1.0
 92
        8
 66
     7
 43
1.0
 76
     1
 77
     6
 78
     2
 67
     7
 79
     5
170
     0
171
     0
290
     0
174
     0
 93
        1
 44
0.0
173
     0
291
     1
 45
0.0
1001
ACAD
1000
AcDbSavedByObjectVersion
1070
     0
  0
VISUALSTYLE
  5
1E5
102
{ACAD_XDICTIONARY
360
12590
102
}
102
{ACAD_REACTORS
330
EF
102
}
330
EF
100
AcDbVisualStyle
  2
OverhangOff
 70
    21
 71
     2
 72
     2
 73
     0
 90
        0
 40
-0.6
 41
-30.0
 62
     5
 63
     7
 74
     1
 91
        4
 64
     7
 65
   257
 75
     1
175
     1
 42
1.0
 92
        9
 66
     7
 43
1.0
 76
     1
 77
     6
 78
     2
 67
     7
 79
     5
170
     0
171
     0
290
     0
174
     0
 93
        1
 44
0.0
173
     0
291
     1
 45
0.0
1001
ACAD
1000
AcDbSavedByObjectVersion
1070
     0
  0
VISUALSTYLE
  5
F9
102
{ACAD_XDICTIONARY
360
1257E
102
}
102
{ACAD_REACTORS
330
EF
102
}
330
EF
100
AcDbVisualStyle
  2
Realistic
 70
     8
 71
     2
 72
     2
 73
     0
 90
        2
 40
-0.6
 41
30.0
 62
     5
 63
     7
 74
     0
 91
        0
 64
     7
 65
   257
 75
     1
175
     1
 42
1.0
 92
        8
 66
   257
 43
1.0
 76
     1
 77
     6
 78
     2
 67
     7
 79
     3
170
     0
171
     0
290
     0
174
     0
 93
       13
 44
0.0
173
     0
291
     0
 45
0.0
1001
ACAD
1000
AcDbSavedByObjectVersion
1070
     0
  0
VISUALSTYLE
  5
1F3
102
{ACAD_XDICTIONARY
360
1259C
102
}
102
{ACAD_REACTORS
330
EF
102
}
330
EF
100
AcDbVisualStyle
  2
Shaded
 70
    27
 71
     2
 72
     2
 73
     1
 90
        2
 40
-0.6
 41
30.0
 62
     5
 63
     7
 74
     0
 91
        4
 64
     7
 65
   257
 75
     1
175
     1
 42
1.0
 92
        8
 66
   257
 43
1.0
 76
     1
 77
     6
 78
     2
 67
     8
 79
     3
170
     0
171
     0
290
     0
174
     0
 93
        5
 44
0.0
173
     0
291
     0
 45
0.0
1001
ACAD
1000
AcDbSavedByObjectVersion
1070
     0
  0
VISUALSTYLE
  5
1F2
102
{ACAD_XDICTIONARY
360
1259A
102
}
102
{ACAD_REACTORS
330
EF
102
}
330
EF
100
AcDbVisualStyle
  2
Shaded with edges
 70
    26
 71
     2
 72
     2
 73
     1
 90
        2
 40
-0.6
 41
30.0
 62
     5
 63
     7
 74
     1
 91
        2
 64
     7
 65
   257
 75
     2
175
     1
 42
1.0
 92
        8
 66
   257
 43
1.0
 76
     1
 77
     6
 78
     2
 67
     7
 79
     3
170
     0
171
     0
290
     0
174
     0
 93
        5
 44
0.0
173
     0
291
     0
 45
0.0
1001
ACAD
1000
AcDbSavedByObjectVersion
1070
     0
  0
VISUALSTYLE
  5
1EF
102
{ACAD_XDICTIONARY
360
12594
102
}
102
{ACAD_REACTORS
330
EF
102
}
330
EF
100
AcDbVisualStyle
  2
Shades of Gray
 70
    23
 71
     2
 72
     2
 73
     3
 90
        0
 40
-0.6
 41
-30.0
 62
     5
 63
     7
 74
     2
 91
        2
 64
     7
 65
     7
 75
     1
175
     1
 42
40.0
 92
        8
 66
     7
 43
1.0
 76
     1
 77
     6
 78
     2
 67
     7
 79
     3
170
     0
171
     0
290
     0
174
     0
 93
        1
 44
0.0
173
     0
291
     0
 45
0.0
1001
ACAD
1000
AcDbSavedByObjectVersion
1070
     0
  0
VISUALSTYLE
  5
1F0
102
{ACAD_XDICTIONARY
360
12596
102
}
102
{ACAD_REACTORS
330
EF
102
}
330
EF
100
AcDbVisualStyle
  2
Sketchy
 70
    24
 71
     1
 72
     2
 73
     2
 90
        0
 40
-0.6
 41
-30.0
 62
     5
 63
     7
 74
     2
 91
        2
 64
     7
 65
     7
 75
     1
175
     1
 42
40.0
 92
       11
 66
     7
 43
1.0
 76
     1
 77
     6
 78
     2
 67
     7
 79
     6
170
     0
171
     0
290
     0
174
     0
 93
        1
 44
0.0
173
     0
291
     0
 45
0.0
1001
ACAD
1000
AcDbSavedByObjectVersion
1070
     0
  0
VISUALSTYLE
  5
FC
102
{ACAD_XDICTIONARY
360
12584
102
}
102
{ACAD_REACTORS
330
EF
102
}
330
EF
100
AcDbVisualStyle
  2
Thicken
 70
    13
 71
     2
 72
     2
 73
     1
 90
        0
 40
-0.6
 41
-30.0
 62
     5
 63
     7
 74
     1
 91
        4
 64
     7
 65
   257
 75
     1
175
     1
 42
1.0
 92
       12
 66
     7
 43
1.0
 76
     1
 77
     6
 78
     2
 67
     7
 79
     5
170
     0
171
     0
290
     0
174
     0
 93
        1
 44
0.0
173
     0
291
     1
 45
0.0
1001
ACAD
1000
AcDbSavedByObjectVersion
1070
     0
  0
VISUALSTYLE
  5
F6
102
{ACAD_XDICTIONARY
360
12578
102
}
102
{ACAD_REACTORS
330
EF
102
}
330
EF
100
AcDbVisualStyle
  2
Wireframe
 70
     5
 71
     0
 72
     2
 73
     0
 90
        0
 40
-0.6
 41
-30.0
 62
     5
 63
     7
 74
     1
 91
        4
 64
     7
 65
   257
 75
     1
175
     1
 42
1.0
 92
        0
 66
   257
 43
1.0
 76
     1
 77
     6
 78
     2
 67
     7
 79
     3
170
     0
171
     0
290
     0
174
     0
 93
        1
 44
0.0
173
     0
291
     0
 45
0.0
1001
ACAD
1000
AcDbSavedByObjectVersion
1070
     0
  0
VISUALSTYLE
  5
1F1
102
{ACAD_XDICTIONARY
360
12598
102
}
102
{ACAD_REACTORS
330
EF
102
}
330
EF
100
AcDbVisualStyle
  2
X-Ray
 70
    25
 71
     2
 72
     2
 73
     1
 90
        1
 40
0.5
 41
-30.0
 62
     5
 63
     7
 74
     1
 91
        0
 64
     7
 65
   257
 75
     1
175
     1
 42
1.0
 92
        8
 66
     7
 43
1.0
 76
     1
 77
     6
 78
     2
 67
     7
 79
     3
170
     0
171
     0
290
     0
174
     0
 93
       13
 44
0.0
173
     0
291
     0
 45
0.0
1001
ACAD
1000
AcDbSavedByObjectVersion
1070
     0
  0
DICTIONARYVAR
  5
146
102
{ACAD_REACTORS
330
5E
102
}
330
5E
100
DictionaryVariables
280
     0
  1
1:1
  0
DICTIONARYVAR
  5
259
102
{ACAD_REACTORS
330
5E
102
}
330
5E
100
DictionaryVariables
280
     0
  1
3.500000
  0
DICTIONARYVAR
  5
25A
102
{ACAD_REACTORS
330
5E
102
}
330
5E
100
DictionaryVariables
280
     0
  1
acadiso.lin
  0
DICTIONARYVAR
  5
145
102
{ACAD_REACTORS
330
5E
102
}
330
5E
100
DictionaryVariables
280
     0
  1
STANDARD
  0
DICTIONARYVAR
  5
84
102
{ACAD_REACTORS
330
5E
102
}
330
5E
100
DictionaryVariables
280
     0
  1
STANDARD
  0
DICTIONARYVAR
  5
227
102
{ACAD_REACTORS
330
5E
102
}
330
5E
100
DictionaryVariables
280
     0
  1
Metric50
  0
DICTIONARYVAR
  5
228
102
{ACAD_REACTORS
330
5E
102
}
330
5E
100
DictionaryVariables
280
     0
  1
Metric50
  0
DICTIONARYVAR
  5
5F
102
{ACAD_REACTORS
330
5E
102
}
330
5E
100
DictionaryVariables
280
     0
  1
2
  0
DICTIONARYVAR
  5
63
102
{ACAD_REACTORS
330
5E
102
}
330
5E
100
DictionaryVariables
280
     0
  1
1
  0
DICTIONARYVAR
  5
1250D
102
{ACAD_REACTORS
330
5E
102
}
330
5E
100
DictionaryVariables
280
     0
  1
0
  0
DICTIONARYVAR
  5
1AE
102
{ACAD_REACTORS
330
5E
102
}
330
5E
100
DictionaryVariables
280
     0
  1
0
  0
DICTIONARYVAR
  5
1AF
102
{ACAD_REACTORS
330
5E
102
}
330
5E
100
DictionaryVariables
280
     0
  1
0
  0
DICTIONARYVAR
  5
1250B
102
{ACAD_REACTORS
330
5E
102
}
330
5E
100
DictionaryVariables
280
     0
  1
2
  0
DICTIONARYVAR
  5
1250A
102
{ACAD_REACTORS
330
5E
102
}
330
5E
100
DictionaryVariables
280
     0
  1
1
  0
DICTIONARYVAR
  5
1255D
102
{ACAD_REACTORS
330
5E
102
}
330
5E
100
DictionaryVariables
280
     0
  1
80.000000
  0
DICTIONARYVAR
  5
1255C
102
{ACAD_REACTORS
330
5E
102
}
330
5E
100
DictionaryVariables
280
     0
  1
5.000000
  0
DICTIONARYVAR
  5
1250C
102
{ACAD_REACTORS
330
5E
102
}
330
5E
100
DictionaryVariables
280
     0
  1
127
  0
DICTIONARYVAR
  5
1255E
102
{ACAD_REACTORS
330
5E
102
}
330
5E
100
DictionaryVariables
280
     0
  1
2
  0
DICTIONARY
  5
125A0
330
21C
100
AcDbDictionary
280
     1
281
     1
  3
ACAD_XREC_ROUNDTRIP
360
125A1
  0
DICTIONARY
  5
12565
330
D3
100
AcDbDictionary
280
     1
281
     1
  3
ACAD_XREC_ROUNDTRIP
360
12566
  0
DICTIONARY
  5
12567
330
D7
100
AcDbDictionary
280
     1
281
     1
  3
ACAD_XREC_ROUNDTRIP
360
12568
  0
DICTIONARY
  5
12562
330
22
100
AcDbDictionary
280
     1
281
     1
  3
ACAD_XREC_ROUNDTRIP
360
12563
  0
DICTIONARY
  5
1F9
330
ED
100
AcDbDictionary
280
     1
281
     1
  3
ACAD_XREC_ROUNDTRIP
360
1256A
  3
FBXASSET
360
1FA
  0
DICTIONARY
  5
1F7
330
EC
100
AcDbDictionary
280
     1
281
     1
  3
ACAD_XREC_ROUNDTRIP
360
12569
  3
FBXASSET
360
1F8
  0
DICTIONARY
  5
173
330
EE
100
AcDbDictionary
280
     1
281
     1
  3
ACAD_XREC_ROUNDTRIP
360
1256B
  3
BUMPTILE
360
175
  3
DIFFUSETILE
360
174
  3
FBXASSET
360
1FB
  3
OPACITYTILE
360
176
  3
REFLECTIONTILE
360
177
  0
DICTIONARY
  5
1258C
330
12E
100
AcDbDictionary
280
     1
281
     1
  3
ACAD_XREC_ROUNDTRIP
360
1258D
  0
DICTIONARY
  5
1259E
330
21A
100
AcDbDictionary
280
     1
281
     1
  3
ACAD_XREC_ROUNDTRIP
360
1259F
  0
DICTIONARY
  5
162
330
7F
100
AcDbDictionary
280
     1
281
     1
  3
ACAD_ROUNDTRIP_2008_TABLESTYLE_CELLSTYLEMAP
360
1255F
  3
ACAD_XREC_ROUNDTRIP
360
12564
  0
DICTIONARY
  5
12576
330
F5
100
AcDbDictionary
280
     1
281
     1
  3
ACAD_XREC_ROUNDTRIP
360
12577
  0
DICTIONARY
  5
12574
330
F4
100
AcDbDictionary
280
     1
281
     1
  3
ACAD_XREC_ROUNDTRIP
360
12575
  0
DICTIONARY
  5
12582
330
FB
100
AcDbDictionary
280
     1
281
     1
  3
ACAD_XREC_ROUNDTRIP
360
12583
  0
DICTIONARY
  5
1258A
330
FF
100
AcDbDictionary
280
     1
281
     1
  3
ACAD_XREC_ROUNDTRIP
360
1258B
  0
DICTIONARY
  5
1257C
330
F8
100
AcDbDictionary
280
     1
281
     1
  3
ACAD_XREC_ROUNDTRIP
360
1257D
  0
DICTIONARY
  5
12580
330
FA
100
AcDbDictionary
280
     1
281
     1
  3
ACAD_XREC_ROUNDTRIP
360
12581
  0
DICTIONARY
  5
12592
330
1E6
100
AcDbDictionary
280
     1
281
     1
  3
ACAD_XREC_ROUNDTRIP
360
12593
  0
DICTIONARY
  5
12588
330
FE
100
AcDbDictionary
280
     1
281
     1
  3
ACAD_XREC_ROUNDTRIP
360
12589
  0
DICTIONARY
  5
1256C
330
F0
100
AcDbDictionary
280
     1
281
     1
  3
ACAD_XREC_ROUNDTRIP
360
1256D
  0
DICTIONARY
  5
1256E
330
F1
100
AcDbDictionary
280
     1
281
     1
  3
ACAD_XREC_ROUNDTRIP
360
1256F
  0
DICTIONARY
  5
12570
330
F2
100
AcDbDictionary
280
     1
281
     1
  3
ACAD_XREC_ROUNDTRIP
360
12571
  0
DICTIONARY
  5
12572
330
F3
100
AcDbDictionary
280
     1
281
     1
  3
ACAD_XREC_ROUNDTRIP
360
12573
  0
DICTIONARY
  5
1257A
330
F7
100
AcDbDictionary
280
     1
281
     1
  3
ACAD_XREC_ROUNDTRIP
360
1257B
  0
DICTIONARY
  5
1258E
330
1E4
100
AcDbDictionary
280
     1
281
     1
  3
ACAD_XREC_ROUNDTRIP
360
1258F
  0
DICTIONARY
  5
12586
330
FD
100
AcDbDictionary
280
     1
281
     1
  3
ACAD_XREC_ROUNDTRIP
360
12587
  0
DICTIONARY
  5
12590
330
1E5
100
AcDbDictionary
280
     1
281
     1
  3
ACAD_XREC_ROUNDTRIP
360
12591
  0
DICTIONARY
  5
1257E
330
F9
100
AcDbDictionary
280
     1
281
     1
  3
ACAD_XREC_ROUNDTRIP
360
1257F
  0
DICTIONARY
  5
1259C
330
1F3
100
AcDbDictionary
280
     1
281
     1
  3
ACAD_XREC_ROUNDTRIP
360
1259D
  0
DICTIONARY
  5
1259A
330
1F2
100
AcDbDictionary
280
     1
281
     1
  3
ACAD_XREC_ROUNDTRIP
360
1259B
  0
DICTIONARY
  5
12594
330
1EF
100
AcDbDictionary
280
     1
281
     1
  3
ACAD_XREC_ROUNDTRIP
360
12595
  0
DICTIONARY
  5
12596
330
1F0
100
AcDbDictionary
280
     1
281
     1
  3
ACAD_XREC_ROUNDTRIP
360
12597
  0
DICTIONARY
  5
12584
330
FC
100
AcDbDictionary
280
     1
281
     1
  3
ACAD_XREC_ROUNDTRIP
360
12585
  0
DICTIONARY
  5
12578
330
F6
100
AcDbDictionary
280
     1
281
     1
  3
ACAD_XREC_ROUNDTRIP
360
12579
  0
DICTIONARY
  5
12598
330
1F1
100
AcDbDictionary
280
     1
281
     1
  3
ACAD_XREC_ROUNDTRIP
360
12599
  0
XRECORD
  5
125A1
102
{ACAD_REACTORS
330
125A0
102
}
330
125A0
100
AcDbXrecord
280
     1
102
DISPLAYNAME
  1
Metric50
102
FLAGS
 90
        0
  0
XRECORD
  5
12566
102
{ACAD_REACTORS
330
12565
102
}
330
12565
100
AcDbXrecord
280
     1
102
SHADEPLOT
 70
     0
102
SHADEPLOTRESLEVEL
 70
     2
102
SHADEPLOTCUSTOMDPI
 70
   300
  0
XRECORD
  5
12568
102
{ACAD_REACTORS
330
12567
102
}
330
12567
100
AcDbXrecord
280
     1
102
SHADEPLOT
 70
     0
102
SHADEPLOTRESLEVEL
 70
     2
102
SHADEPLOTCUSTOMDPI
 70
   300
  0
XRECORD
  5
12563
102
{ACAD_REACTORS
330
12562
102
}
330
12562
100
AcDbXrecord
280
     1
102
SHADEPLOT
 70
     0
102
SHADEPLOTRESLEVEL
 70
     2
102
SHADEPLOTCUSTOMDPI
 70
   300
  0
XRECORD
  5
1256A
102
{ACAD_REACTORS
330
1F9
102
}
330
1F9
100
AcDbXrecord
280
     1
102
MATERIAL
148
0.0
149
0.0
149
0.0
 93
        0
 94
       63
282
     0
 72
     1
 77
     1
171
     1
175
     1
179
     1
273
     0
  0
XRECORD
  5
1FA
102
{ACAD_REACTORS
330
1F9
102
}
330
1F9
100
AcDbXrecord
280
     1
 70
     1
 90
429727718
  1
D62C5603-E3A1-4AEA-B7FB-FE5D8D0755AF
310
504B03040A0000080000CC70623B3DEE336E79000000790000001B0000006175746F6465736B2D64657369676E2D7061636B6167652E786D6C3C3F786D6C2076657273696F6E3D22312E302220656E636F64696E673D227574662D3822203F3E3C666F726D6174733E3C666F726D61743E687474703A2F2F736368656D612E
310
6175746F6465736B2E636F6D2F64657369676E2D7061636B6167652F323030393C2F666F726D61743E3C2F666F726D6174733E504B0304140006080800CC70623BD486FD9CA0000000F4000000130000005B436F6E74656E745F54797065735D2E786D6C7D8EC10E82300C865F65E91D8A1E8C310C0EEA1BF002731658846E
310
D98AC1B77784ABF1D8FE5FBFBF75BBCE937A534CCEB38643598122B6FEE978D0B0485F9C41B54DDD7D022595594E1A469170414C76A4D9A4D207E29CF43ECE46F218070CC6BECC4078ACAA135ACF422C856C0E68EA1BF5669944DDD7BCDE7B1F8E415D77AECB980613C2E4AC91FC167A2B244592486606FC29C8FD7F045B9A
310
EF7053A7E60B504B0304140006080800CC70623B853B8169EB0000007C01000008000000636F72652E786D6C8D90416EC3201045AF62CDB6C206821CC7C244919D9CA01740401C94182C03558F5F9C3852BBEB6A467FFE9B197D7EFC9E1EC5975982F5AE035262288C535E5B377690E21535501C055FBC8FBF6C503839990E
310
5619041F179FE64D52DE45E362569DD7661365082642A11EB9E920A89B99642953CC8E702F67A9EE7234257977194EC9EAE275C4EABCCF5EAD5940D4AC6F0E35A568B8F43562CD7046CD199FD07E60174276A7BE677B5EADB0E0D14EEFFB6A31321A0D82627C4084204C3F096B71DD52F6819B16635EADF63F509AF53FA164
310
5DDCD1EDDD17164090FCC8732078B56691CB33A85CD7DCC40F504B0304140006080800CC70623B55019EA25F0000007C00000007000000636E782E786D6C4DCB3B0E80201045D1AD90E915ED2CF8AC45050C11660C8261F98AB1B07AC9C97D42D718D865D3E909258CFD00CCE24AC6E326A164D74DC0B4128928FF32603847
310
2BA13128B1252AC747C6BAB984FC68F0B87FE8960A5C09FE86CFB69FBA01504B0304140006080800CC70623BDBABAAF470010000D40300000C0000006662782F636F72652E786D6CC553D16E823014FD95A6AF4B694182CC941A83FA05FB810A9511A125A5257EFE2E82712ECEB8A7F100CD39F7F69E734AF9FADC366850B6
310
AF8DCE7018308C942E4C59EB2AC3DE1D498AD15A706B8CFB56869196ADCAF00863C12B6B7C374385D14E6907A836A59A41D9F7CA615434B0C8705F7CAA5606D23BA8E84F41278B93AC54100640439DE0BDB320004D43C63716C7C399D30917DCFBBA9CD9BA8469F5B156168B24CED3F7248AC8769F27244EB73B92EED8862C
310
B7F13E0C179B3C8F979C8ECD82BBBABDAA2BAC924E9558448CBD9330242CFA08E3154B5651FCC6D215639C8EE5774DBE2B5F6CF2B5768B68963BB5F5588420E442FC700B1139D4CB01F450C1E918227C2E09DF070D8140C84E1E9AAB8F1340832A9CB13130A5F1376A908D57309505ECF2A0DF179C4E9D30F5B239B87E3823
310
7A79C6F31DE1A8A5AEC08474B03C7837EAE4938639B44E5932B833D2C6B6B279CDC613877FA26EE21F4A2A4C63EC7F29A2F301D1F9F7A0E37D145F504B0304140006080800CC70623B9C113CC27E0000009D0000000B0000006662782F636E782E786D6C4DCCDF0A83201C86E15B91DFB94BFB330DD428C8FB886521330DA7
310
6397BF1A1DECE883878F57749FCDA1B7892F1BBC047A23808C7F84D9FA55424E0BE6803A256208E9EF06C84F9B91703228B1C690F78B66B34CD9A5439DF5CF0BFBF65E35BCA1B8D6A5C6F540381E886698B5741C695F9503EBA150A2F8958E3DC3EA0B504B0304140006080800CC70623B7DF2F77C2A010000120200003100
310
00006662782F41393633353835312D344632462D344230382D423046372D3739314545314133324237412F636F72652E786D6C8D51DB8EC22014FC15C2939B0D2DB4B45643319AE817EC0F6041255A68B86CFCFC856D4D76DF7CE190393373060EDB3DC707F856CE6B6B7A480A0C81328395DA5C7B18C3057510EC3873D686
310
3F34088C18550F330C39BB3A1BA7051AAC09CA84841A2BD5020AEF55806078A44B0FFD7053A328440C89E1EFC52486BBB8AA8214A99D789CF9E05200300FC927E4FB4D5B375D43103D5527440FB843077C5AA3F5861C8F645F5787F59E95B390B318B55CE45AA638FAA2957BD7248B390B7A7CC51F9C124149C82B8C378810
310
84AB2F42B7B8DD56F413775B8C5999E9FF4471926F8AA236A1AE96B8B3CC434E5839373893369E1FAF30EA395917409EB7F26AF8801C171837A4A6AC9C89E9F9C9B1A58BA30FD6A5EF5DDDCF894B9AD9B6A59C957943A9FCAE2FD5BC4DFE03504B0304140006080800CC70623BAD7543B64E01000033030000300000006662
310
782F41393633353835312D344632462D344230382D423046372D3739314545314133324237412F636E782E786D6CD593CD6EC32010845F0571AD6CE3D48AD20813A9873E410FBD12D82434182C7EAAE6EDBB2424CD25871E7B41D6EC30B3FA84F9E67BB2E40B4234DE8DB46F1925E094D7C6ED479AD3AE5951B2113C789FEE
310
6C943839C1488B4C05DF079FE72A69D8C96C13AAD6B8631503449F83828872B949AC57D26200B826A308D316B4064D6E46FCDA41C05550DC9E483A00797BFD207EFB092A45DE9514C1BBD22178396BD39D891265658C238DEA00936C654E5E433CB65A26D9F6EDB5EBC14EBF49A45CB856E66048291F6939A9A81BB5C89177
310
38143CA680F4AA299D66A042CEB3354A2684DC9D8D178FE0D9B8B41CAAD720F880EE7EF93C0C18769E099ECC04D5A102C8049A8A05632F4DDF376CF1DE0F6BB65C2F8627B65A33C6BB62177CEBBDAD973006829F89F22E814B54F4BC2BE347F8AA8F681390B50FA73F804400B5F542E796F19FF974E7F78DB802FE05E20750
310
4B0304140006080800CC70623BE75B7789680500003C100000340000006662782F41393633353835312D344632462D344230382D423046372D3739314545314133324237412F6F626A656374732E786D6CAD575B8F9B3818FD2B887D06C22499CB8AA1CA655245D5B455A356FB305264C061D8018C6C3393D95FBFC7600890
310
A4CD5EF210B0B1BFEBF98E3F7B1FF6596ABC522E1296DF9BAE3D320D9A872C4AF2F8DE2CE5CEBA358D0FBEC719939D65A691938CDE9B6ADAF4BD98B3B2D05311DD91329583D9D5FC0F438434A7A611A644887B5384CF34233629258BA878B12322891DEFF6B66BD70BFB62634E8AE781D082709A4B588AF91C528CDA28B73F
310
1C998EEF39EABBEFA97FBD6A7C7E9553F9D3D79FE442923C3C523610337627CB87ABE99D359D4CC6D6E4FACAB5E6ABF9D2726FC6A3C5F56271377BB88362213924694B38DD99FE47C48627A1E7D49F5A8BB5E1A74C0A599ED3B0F21F1E56366B89112D681E218F0915D0D6F17AD41FBA2A369DCF6335D62ABBD39779D5DDD1
310
11D4D8DE3CBB96B2E04FB8202E41051754A1AA8E8F76B4C6DFE810B580B1547F4B84911149794252234D024EF8BBE963A95AE27B3D310A9D5C215C7960FAEE415ED75694C6AFB17BCACA5D99A60A9AA65F217B0BFC53292ACB92BF283FAD0D3621576592CB5BED907C2FA8E9DF794E35E97BEA31BED21FEB401ABB94C44839
310
DCACBF0E1C5DA8DA5B2F4DFFD32AD86F543D9E565E7056502E157C00AD2671CD534549AB752FCA9CDA00677A313F04E51B22FF19E57B300579E3C97EB29F682D92935CEC18CF901B7B54FD8C51F362B56FC72FE0B3C1EAE335EDCCBF5AEC39ADB17DC238973F804BA5E6F6BFE7AF1FB32E523BE9F3BD571418E3631DCA4D48
310
5250CF639223210A9446CA30052EDF057BD35F8329C1ECD84552BF0DC8D18BE7BCE23BFE6BD960AB4A7DE79923A103BEBD80F911CBAA2C60DB19B01CF164A5583B772EE6D3FFA56666CBCDA74DC97724A48F9A58967497E489C4D979006FD7A05E227A1EBDD0F737C623387A9C844D3709995625106D157315F8B8392CD4E0
310
A0B9A720C4BE9829CEF37EA1E13111214D53925356365ADA634861B52519DD27A00AEB808EAF0628E6F435519D446F45CF2C9CF5214F0A15B2F6D06B79DA3EE3CBF7F56780D2F4E7EF73A0F5E5B02A38D07DC852C6B7C1FBB6664213E0C39E3EBA7FF4E1AD23EA2829407C85E586727488B751B2DB9502BC7B228A3FD68B6E
310
A65A22397E690AA8D158D7E404EC8CDA235CC3B7D1898680131CEC2CDF2638C65196279577750F15884AEE19F94199155B92B13297978469D4F8D358DF0AEF7631E28DC8F0D9F437D5D39A83B2231A1D52D543813A824EF8D44BCFF2FA6A31BD1E8DAD87F1CCB526B3879935BF59CDADD5C37479BB1CDD4CA7B3556B516589
310
EF352754B706114D9C885EC9131DE6EFEB43D99AFE2391C2F958179413D7CFEF6B1B6DB1E7600F00DE6E5C67454A339A4BA2E0FBA85ED26F045D454F463DBFCE484C2F90F2E5E3666003662ED8F755951A7D1BECD5B30B550B2785C8E7320B7292A4838DDA71BBC863ED7613CAF659337A3354231D4FF4A182A54904C2898C
310
98B28C4AD0CE056CCF332A80986E571EE9DBC305BB5FEB7E509220A58D25CF042D712A806AC0AD0C657FDEF80D2D9CEAA2EE4D1C76F60BFE74219A06527D6F82DF6412526107381E55E353090704D085B52408A8913C4ED159D79BDA71BB4BC506F4831350EB6F975CD22D69BF7AC49B91A2C0A9DDA3D5CA36AD20FC478E37
310
E61844E2352865EBCB61A275A65283CAAA9DD27703B4102F5AF51EF5F573B75CBB5AD38BC845F7A49F82A0966A49C2E3EA5EA0ECD326CD965F1DB402C6FA8B51A4658C5C5E2EC9E214602E55810345408596591009A82E7E7FFACA19EEA299B14A0081A705CB3296EBC14CDF658DCD336EA6D1136881AAEB87B81AB9EE53D5
310
F5EB8BC8362082DA24122F98680A4E7930C01A0079749CEA14382A0783E5EBA5A10F8C098456A03D6A4AEB6BB881E2513747552A5DB22C7EDAF83BD5528081A365F7FF06504B0304140006080000CC70623B000000000000000000000000350000006662782F41393633353835312D344632462D344230382D423046372D37
310
39314545314133324237412F76657274696365732E62696E504B0304140006080800CC70623BF270F1330600000004000000360000006662782F41393633353835312D344632462D344230382D423046372D3739314545314133324237412F747269616E676C65732E62696E636660600000504B0304140006080000CC7062
310
3B000000000000000000000000370000006662782F41393633353835312D344632462D344230382D423046372D3739314545314133324237412F617474726962757465732E62696E504B0304140006080800CC70623B08DA0BD19000000041010000360000006662782F41393633353835312D344632462D344230382D4230
310
46372D3739314545314133324237412F6469726563746F72792E786D6C858F410AC3201045AF22B36F53E9A60B35CBEEBAE80D244E44489C6234F4F835464A48035D0DF398FF9F8AF63D0E6CC63039F212F8F9020C7D47C6792B21C5FE7403D62A1188E2E60C98D7234A5830286103A55745067B9D86B8A3CF9C7F90C11DE6
310
07FB144396D7B6A82D282E9A152AD114D5EF2CB866EEE831B8EEA07A7BB5A8D7D61A2BAAEB7FD5F70921FF497D00504B0304140006080800CC70623BEDD1DC58FD000000A00100003B0000006662782F41393633353835312D344632462D344230382D423046372D3739314545314133324237412F7265736F75726365732F
310
636F72652E786D6C8D504B6E833010BD0A9A6D65B00922041947112427E8052C33A156828DFCA97AFC9A40A576D7CDCCE87D344F8F9FBFE667F689CE6B6B3A6039850C8DB2A336530731DC4903D95970676DF82583CCC8193B5861107C72362E3BA4AC096842428D1D7107A5F7182053CF7474E0D507CE32973124857FE48B
310
540F3961CEF244279DE03EB81420DB9EAC1384436FA353E879B1B182C7A8C75DA3C7F453DF353A1075D537A7BA6464B8F535A99AE14A9A2BBD90E350DD183B5CFABE3AF262350B1EF4FC9351399401471025A527C218A1E53BAB5A5AB765F5469B96525EACF23FA6B88CFF34456DC2A1DCE36E360F82A5202F42F062ED2BAD
310
579969AFDD8A6F504B010214000A0000080000CC70623B3DEE336E79000000790000001B00000000000000000000000000000000006175746F6465736B2D64657369676E2D7061636B6167652E786D6C504B01021400140006080800CC70623BD486FD9CA0000000F40000001300000000000000000000000000B20000005B
310
436F6E74656E745F54797065735D2E786D6C504B01021400140006080800CC70623B853B8169EB0000007C010000080000000000000000000000000083010000636F72652E786D6C504B01021400140006080800CC70623B55019EA25F0000007C000000070000000000000000000000000094020000636E782E786D6C504B
310
01021400140006080800CC70623BDBABAAF470010000D40300000C00000000000000000000000000180300006662782F636F72652E786D6C504B01021400140006080800CC70623B9C113CC27E0000009D0000000B00000000000000000000000000B20400006662782F636E782E786D6C504B01021400140006080800CC70
310
623B7DF2F77C2A010000120200003100000000000000000000000000590500006662782F41393633353835312D344632462D344230382D423046372D3739314545314133324237412F636F72652E786D6C504B01021400140006080800CC70623BAD7543B64E010000330300003000000000000000000000000000D2060000
310
6662782F41393633353835312D344632462D344230382D423046372D3739314545314133324237412F636E782E786D6C504B01021400140006080800CC70623BE75B7789680500003C10000034000000000000000000000000006E0800006662782F41393633353835312D344632462D344230382D423046372D3739314545
310
314133324237412F6F626A656374732E786D6C504B01021400140006080000CC70623B0000000000000000000000003500000000000000000000000000280E00006662782F41393633353835312D344632462D344230382D423046372D3739314545314133324237412F76657274696365732E62696E504B01021400140006
310
080800CC70623BF270F133060000000400000036000000000000000000000000007B0E00006662782F41393633353835312D344632462D344230382D423046372D3739314545314133324237412F747269616E676C65732E62696E504B01021400140006080000CC70623B0000000000000000000000003700000000000000
310
000000000000D50E00006662782F41393633353835312D344632462D344230382D423046372D3739314545314133324237412F617474726962757465732E62696E504B01021400140006080800CC70623B08DA0BD1900000004101000036000000000000000000000000002A0F00006662782F41393633353835312D344632
310
462D344230382D423046372D3739314545314133324237412F6469726563746F72792E786D6C504B01021400140006080800CC70623BEDD1DC58FD000000A00100003B000000000000000000000000000E1000006662782F41393633353835312D344632462D344230382D423046372D3739314545314133324237412F7265
310
736F75726365732F636F72652E786D6C504B0506000000000E000E0080040000641100000000
  0
XRECORD
  5
12569
102
{ACAD_REACTORS
330
1F7
102
}
330
1F7
100
AcDbXrecord
280
     1
102
MATERIAL
148
0.0
149
0.0
149
0.0
 93
        0
 94
       63
282
     0
 72
     1
 77
     1
171
     1
175
     1
179
     1
273
     0
  0
XRECORD
  5
1F8
102
{ACAD_REACTORS
330
1F7
102
}
330
1F7
100
AcDbXrecord
280
     1
 70
     1
 90
429727718
  1
30362254-06B7-45E0-A893-8CFA70E3D6BC
310
504B03040A0000080000CC70623B3DEE336E79000000790000001B0000006175746F6465736B2D64657369676E2D7061636B6167652E786D6C3C3F786D6C2076657273696F6E3D22312E302220656E636F64696E673D227574662D3822203F3E3C666F726D6174733E3C666F726D61743E687474703A2F2F736368656D612E
310
6175746F6465736B2E636F6D2F64657369676E2D7061636B6167652F323030393C2F666F726D61743E3C2F666F726D6174733E504B0304140006080800CC70623BD486FD9CA0000000F4000000130000005B436F6E74656E745F54797065735D2E786D6C7D8EC10E82300C865F65E91D8A1E8C310C0EEA1BF002731658846E
310
D98AC1B77784ABF1D8FE5FBFBF75BBCE937A534CCEB38643598122B6FEE978D0B0485F9C41B54DDD7D022595594E1A469170414C76A4D9A4D207E29CF43ECE46F218070CC6BECC4078ACAA135ACF422C856C0E68EA1BF5669944DDD7BCDE7B1F8E415D77AECB980613C2E4AC91FC167A2B244592486606FC29C8FD7F045B9A
310
EF7053A7E60B504B0304140006080800CC70623B1EC5D7A3EB0000007C01000008000000636F72652E786D6C8D90416EC3201045AF82665B6103C6756C6122AB4D4ED00B204C5C94182C03558F5F9C3852BBEB6A467FFE9B197D71FC9E6FE8CBACC17AD7032D0820E3B41FAD9B7A48F1820F808E52ACDEC75F36404ECDA687
310
4D0629A6D5A76597B477D1B89855E747B38B2A041301E95B6E7A08FAD3CCAA50296647B8168BD2573599823EBB0CA76447F43862C7BCCF5EAC59410E4DDD9C7973C2755553CCCFA4C603E3040F1565ED3B1FDE4E432BCA0D9622DAF9795FAF464533826484B498524CD807E51D79ED187F21878E10516EF63F505AC67F42C9
310
BA58B1FDDD071640D2FCC87D2045B96591CB3DA85CB7DCE40F504B0304140006080800CC70623B55019EA25F0000007C00000007000000636E782E786D6C4DCB3B0E80201045D1AD90E915ED2CF8AC45050C11660C8261F98AB1B07AC9C97D42D718D865D3E909258CFD00CCE24AC6E326A164D74DC0B4128928FF32603847
310
2BA13128B1252AC747C6BAB984FC68F0B87FE8960A5C09FE86CFB69FBA01504B0304140006080800CC70623B8C9102E971010000D40300000C0000006662782F636F72652E786D6CC5535B6E833010BC8AE5DF0A6C08340F1947A84D4ED00B38C6A128602363A31CBFCB234A53A551FA553EC09AD9F5CE8C31DB9E9B1AF5CA
310
7695D1198E428A91D2D214952E33ECDD315861B4E5CC1AE3BE9561A445A3323CC098B3D21ADFCE9034DA29ED00D5A6503328BA4E398C640D8B0C77F253352214DE4145770A5B214FA2546114020D759C75CE8200340D19DE981F0F6746269C33EFAB6266AB02A655C74A59CCF365BADC27CB5D902ED22848F6340DF238A141
310
BE88E2F57B92BFEDF23523433367AE6A2EEAA455C2A902F398D2751045018D3FA264435F3771F242571B4A1919CA6F9A7C5B3CD9E42BED16F12C776AEB308F40C848FC700B1139D4891EF410CEC810227CC6846F8386402064270EF5C5C709A05E49676C024C61FC95EA45ED154CA5211D1FF4FB8291A913A68E9B83EBBB33
310
E2A7673CDE118E5AE8124C0807CB8377834E366998436B950D7A7746DAD846D4CFD978E0F04FD455FC5D49D2D4C6FE9722321F10997F0F32DC47FE05504B0304140006080800CC70623BFFEA85907E0000009D0000000B0000006662782F636E782E786D6C4DCCD10A83201886E15B91FFDC95D95A811AB6F23E625948A6C3
310
E9D8E5AF46073BFAE0E1E365ED67B3E8ADC3CB78C7815C7240DA3DFC64DCC221C519D7805AC182F7F1EF06C88D9BE6703008B6049F9E274D7A1E938DBB5AE3D6131B2589BA0D3D965551E0B2EA732C9B9A624AAEB41E3A557677029960D9AFB4EF11165F504B0304140006080800CC70623B4FEEA4082C0100001202000031
310
0000006662782F39464131463745442D413632322D343644302D413938332D3331353338454246344243312F636F72652E786D6C8D515B6EC32010BC0AE2AB55850DD871ED0813254D72825EC00192A2C460F1A872FC42ED48ED5F7E00CDCECCCEB26C731F6FE05B39AFADE921293004CA082BB5B9F43086336A21D870E6AC
310
0D7F68109861543DCC30E4ECE26C9C164858139409093556AA051CBC570102714B8F1E7AF1A5C6A11862480C7F2DA6415C878B2A4891CA89C7990F2E050073937C42DE1DB7E4F87ED8A36D4329AA9B3D46DBAEAD504556557BD81DEBDD0761E52CE42C462D17B996298E3E6BE59E35C962CE821E1FF18553435012728A7187
310
0841987E927A8D9B35ADDF70BBC6989599FE4F1427F9A4286A132ABAC49D651EF234CD5CE04CDA78BA3DC2A8FB645D00B9DF8B57E215725C60BCA2A463E54C4CE327C7A65E1C7DB02E7DEFCBF594B864C5CA6CDBD49C957943E9FA5D5FBAF336F90F504B0304140006080800CC70623BAD7543B64E01000033030000300000
310
006662782F39464131463745442D413632322D343644302D413938332D3331353338454246344243312F636E782E786D6CD593CD6EC32010845F0571AD6CE3D48AD20813A9873E410FBD12D82434182C7EAAE6EDBB2424CD25871E7B41D6EC30B3FA84F9E67BB2E40B4234DE8DB46F1925E094D7C6ED479AD3AE5951B2113C
310
789FEE6C943839C1488B4C05DF079FE72A69D8C96C13AAD6B8631503449F83828872B949AC57D26200B826A308D316B4064D6E46FCDA41C05550DC9E483A00797BFD207EFB092A45DE9514C1BBD22178396BD39D891265658C238DEA00936C654E5E433CB65A26D9F6EDB5EBC14EBF49A45CB856E66048291F6939A9A81BB5
310
C8917738143CA680F4AA299D66A042CEB3354A2684DC9D8D178FE0D9B8B41CAAD720F880EE7EF93C0C18769E099ECC04D5A102C8049A8A05632F4DDF376CF1DE0F6BB65C2F8627B65A33C6BB62177CEBBDAD973006829F89F22E814B54F4BC2BE347F8AA8F681390B50FA73F804400B5F542E796F19FF974E7F78DB802FE05
310
E207504B0304140006080800CC70623B16AB87BA640500003C100000340000006662782F39464131463745442D413632322D343644302D413938332D3331353338454246344243312F6F626A656374732E786D6CAD575B6FA33818FD2B887DE6924B3BED8A326A92B68A663B534DD4D13E548A0C38942D60649B369D5FBFC7
310
600890A493BDE42160637FD7F31D7FF63E6FB3D478A55C242CBF3247B66B1A340F5994E4F19559CA8D75611A9F7D8F33263BCB4C232719BD32D5B4E97B316765A1A722BA21652A07B3B7B33F0D11D29C9A46981221AE4C113ED38CD8A4942CA2E2C58E882476BCD9DA23BB5ED8171B73523C0F841684D35CC252CCE79062D4
310
468DFA43D7747CCF51DF7D4FFDEB5593E3AB9CCA9FBEFE241792E4E19EB28198C968BAB8199F5D5A67D3E9C49A9E8F47D6EC76B6B0469F26EEFC7C3EBFBCBEB98462213924694B38DD98FE1D62C393D073EA4FADC5DAF04326852CCF6958F90F0F2B9BB5C48816348F90C7840A68EB78EDF68723159BCEE7891A6B95DDE9D3
310
BCEAEEE8086A6C6F9E5D4B59F0175C10A7A0820BAA5055C7473B5AE3CFDD452D602CD5DF12616444529E90D448938013FE6EFA58AA96F85E4F8C42275708571E98FE6827AF6B2B4AE3D7D83D64E5A64C53054DD3AF90BD06FEA9149565C94FCA0F6B834DC85599E4F2423B24DF0B6AFA979E534DFA9E7A4CC6FA631D486393
310
921829879BF5D781A373557BCB85E97FB90DB62B558F8795179C15944B051F40AB495CF35451D26A4727654E6D8033BD98EF82F21D91FF8AF2DD9982BCF1643BDD4EB516C9492E368C67C88DED563FC36D5EACF66DFF057C3658BDBFA69DF9578B3DA735B64F18C7F20770A9D45CFCF7FCF563D6456A277DBEF78A02637CA2
310
43B90A490AEAB94F72244481D24819A6C0E59B606BFA4B3025981DBB48EAB701D97BF19C577CC77F2D1B6C55A9EF3C732474C0B727303F625995056C3B02963D9EAC146BE78EC5FCEC7FA999EBC5EACBAAE41B12D27B4D2C0BBA49F244E2ECDC81B76B502F113D8F5EE8FB1BE3111CDD4FC2AA9B844CAB1288B68AB90A7CDC
310
1C166AB0D3DC5310625FCC14E779BFD0709F8890A629C9292B1B2DED31A4B0DA928CEE135085754027E3018A397D4D5427D15BD1330B677DC8934285AC3DF45A9EB68FF8F2B8FC0A509AFEECFD0FF2DE25CC6047F7214B195F07EFEB9A094D800F7BFAE8FED187B78EA8A3A400F115961BCAD1215E47C966530AF0EE8128FE
310
58CEBB996A8964FFA529A046635D9353B0336A8F700DDF46271A024E70B0B37C9DE01847591E54DED53D54202AB947E4076556AC49C6CA5C9E1226B7F1A7B1BE15DEED62C41B91E1B3E9AFAAA735036547343A925075041DF0A9979E893B391F8FCFA6967B3EFB644DCF6E5CEBFAE272625DCC6FAF3FB93793C5F90CE1EF57
310
407342756B10D1C489E8953CD1617E5CEECAD6F4EF8914CE5D5D504E5C3F1F9736DA62CFC11E00BCDDB8CC8A9466349744C1F75EBDA4DF09BA8A9E8C7A7E9991989E20E5DBDD6A6003664ED8F7A04A8DBE0DF6EAD9B9AA858342E47399053949D2C146EDB85DE4B176BB0965FBAC19BD19AA918E27FA50C1D22402E144464C
310
59462568E704B6E71915404CB72B8FF4EDE184DDAF753F284990D2C6926782963815403548A70C657FDEF80D2D9CEAA2AE4C1C76F60BFE74219A06527D6582DF6412526107381E55E353090704D085B52408D0933C4ED159D79BDA71BB4BC506F4831350EB6F979CD22D69BF7AC49B91A2C0A9DDA3D5CA36AD20FC478E37E6
310
1844E2352865EBCB6EA275A652E3836BE04EFB400BF1A2556F515F1FBB35B2AB35BD889C744FFA1004B5544B121E57F70215746DD2F5E2C1412B602CBF19455AC6C8E5E9922C4E01E65215385004546899059180EAFCF7A707CE7017CD8CDB0410789AB32C63B91E5CEBBBACB17AC6CD347A022D5075FD106377347AAABA7E
310
7D11590744509B44E205134DC1290F06580320F78E537D3D73540E06CB970B431F185308AD40BBD794D6D77003C5A36E8EAA54BA64597CD8F83BD552A080A365F7FF06504B0304140006080000CC70623B000000000000000000000000350000006662782F39464131463745442D413632322D343644302D413938332D3331
310
353338454246344243312F76657274696365732E62696E504B0304140006080800CC70623BF270F1330600000004000000360000006662782F39464131463745442D413632322D343644302D413938332D3331353338454246344243312F747269616E676C65732E62696E636660600000504B0304140006080000CC70623B
310
000000000000000000000000370000006662782F39464131463745442D413632322D343644302D413938332D3331353338454246344243312F617474726962757465732E62696E504B0304140006080800CC70623B08DA0BD19000000041010000360000006662782F39464131463745442D413632322D343644302D413938
310
332D3331353338454246344243312F6469726563746F72792E786D6C858F410AC3201045AF22B36F53E9A60B35CBEEBAE80D244E44489C6234F4F835464A48035D0DF398FF9F8AF63D0E6CC63039F212F8F9020C7D47C6792B21C5FE7403D62A1188E2E60C98D7234A5830286103A55745067B9D86B8A3CF9C7F90C11DE607
310
FB144396D7B6A82D282E9A152AD114D5EF2CB866EEE831B8EEA07A7BB5A8D7D61A2BAAEB7FD5F70921FF497D00504B0304140006080800CC70623B0D6EF93BFE000000A00100003B0000006662782F39464131463745442D413632322D343644302D413938332D3331353338454246344243312F7265736F75726365732F63
310
6F72652E786D6C8D50596E833010BD0A9ADFCA60B334011947A8694ED00B586642AC041B79A97AFC9A40A5F6AF3F33A3B7689E1E3F7DCD8FEC139DD7D6F4C0720A191A65476DA61E62B892236427C19DB5E1970C322367EC618541F0C9D9B8EC90B226A009093576C41D94DE63804C3DD2D18357379C652E63480A7FCF17A9
310
EE72C29CE5894E3AC17D702940B63D59270887DE46A7D0F36263058F518FBB468FE9A7BE6A7420864373B8D4873369AA8691FA421B3294352543C5CAF65C0F6FEF43CB8BD52C78D0F34F46E550061C419494B6843142CB0F5677F4B52BEB177AEC28E5C52AFF638ACBF84F53D42654E51E77B379102C05791282176B5F693D
310
CB4C7BED567C03504B010214000A0000080000CC70623B3DEE336E79000000790000001B00000000000000000000000000000000006175746F6465736B2D64657369676E2D7061636B6167652E786D6C504B01021400140006080800CC70623BD486FD9CA0000000F40000001300000000000000000000000000B20000005B
310
436F6E74656E745F54797065735D2E786D6C504B01021400140006080800CC70623B1EC5D7A3EB0000007C010000080000000000000000000000000083010000636F72652E786D6C504B01021400140006080800CC70623B55019EA25F0000007C000000070000000000000000000000000094020000636E782E786D6C504B
310
01021400140006080800CC70623B8C9102E971010000D40300000C00000000000000000000000000180300006662782F636F72652E786D6C504B01021400140006080800CC70623BFFEA85907E0000009D0000000B00000000000000000000000000B30400006662782F636E782E786D6C504B01021400140006080800CC70
310
623B4FEEA4082C0100001202000031000000000000000000000000005A0500006662782F39464131463745442D413632322D343644302D413938332D3331353338454246344243312F636F72652E786D6C504B01021400140006080800CC70623BAD7543B64E010000330300003000000000000000000000000000D5060000
310
6662782F39464131463745442D413632322D343644302D413938332D3331353338454246344243312F636E782E786D6C504B01021400140006080800CC70623B16AB87BA640500003C1000003400000000000000000000000000710800006662782F39464131463745442D413632322D343644302D413938332D3331353338
310
454246344243312F6F626A656374732E786D6C504B01021400140006080000CC70623B0000000000000000000000003500000000000000000000000000270E00006662782F39464131463745442D413632322D343644302D413938332D3331353338454246344243312F76657274696365732E62696E504B01021400140006
310
080800CC70623BF270F133060000000400000036000000000000000000000000007A0E00006662782F39464131463745442D413632322D343644302D413938332D3331353338454246344243312F747269616E676C65732E62696E504B01021400140006080000CC70623B0000000000000000000000003700000000000000
310
000000000000D40E00006662782F39464131463745442D413632322D343644302D413938332D3331353338454246344243312F617474726962757465732E62696E504B01021400140006080800CC70623B08DA0BD190000000410100003600000000000000000000000000290F00006662782F39464131463745442D413632
310
322D343644302D413938332D3331353338454246344243312F6469726563746F72792E786D6C504B01021400140006080800CC70623B0D6EF93BFE000000A00100003B000000000000000000000000000D1000006662782F39464131463745442D413632322D343644302D413938332D3331353338454246344243312F7265
310
736F75726365732F636F72652E786D6C504B0506000000000E000E0080040000641100000000
  0
XRECORD
  5
1256B
102
{ACAD_REACTORS
330
173
102
}
330
173
100
AcDbXrecord
280
     1
102
MATERIAL
148
0.0
149
0.0
149
0.0
 93
        0
 94
       63
282
     0
 72
     1
 77
     1
171
     1
175
     1
179
     1
273
     0
  0
XRECORD
  5
175
102
{ACAD_REACTORS
330
173
102
}
330
173
100
AcDbXrecord
280
     1
270
     1
271
     1
  0
XRECORD
  5
174
102
{ACAD_REACTORS
330
173
102
}
330
173
100
AcDbXrecord
280
     1
270
     1
271
     1
  0
XRECORD
  5
1FB
102
{ACAD_REACTORS
330
173
102
}
330
173
100
AcDbXrecord
280
     1
 70
     0
 90
1673772943
  1
ECE7A1D2-D628-4531-984C-D00F80459256
310
504B03040A0000080000CC70623B3DEE336E79000000790000001B0000006175746F6465736B2D64657369676E2D7061636B6167652E786D6C3C3F786D6C2076657273696F6E3D22312E302220656E636F64696E673D227574662D3822203F3E3C666F726D6174733E3C666F726D61743E687474703A2F2F736368656D612E
310
6175746F6465736B2E636F6D2F64657369676E2D7061636B6167652F323030393C2F666F726D61743E3C2F666F726D6174733E504B0304140006080800CC70623BD486FD9CA0000000F4000000130000005B436F6E74656E745F54797065735D2E786D6C7D8EC10E82300C865F65E91D8A1E8C310C0EEA1BF002731658846E
310
D98AC1B77784ABF1D8FE5FBFBF75BBCE937A534CCEB38643598122B6FEE978D0B0485F9C41B54DDD7D022595594E1A469170414C76A4D9A4D207E29CF43ECE46F218070CC6BECC4078ACAA135ACF422C856C0E68EA1BF5669944DDD7BCDE7B1F8E415D77AECB980613C2E4AC91FC167A2B244592486606FC29C8FD7F045B9A
310
EF7053A7E60B504B0304140006080800CC70623BD9DDAED0EC0000007C01000008000000636F72652E786D6C8D90416EC3201045AF82665B61836D9CD8C2444DD39CA01740405C94182C03558F5F9C3852BBEB6A467FFE9B197D7EF89E6EE8CB2CC17A37002D0820E394D7D68D03A478C17B4007C117EFE32F1B20272733C0
310
2A83E0E3E2D3BC49CABB685CCCAAF3DA6CA20CC14440EA969B0182FA34932C648AD911AEC52CD5558EA6A0CF2EC329598D1E47ACCEFBECC59A050463A7EA5833865FEBDD0E37353BE3EE8DBDE3F6786A48D375FBF6CC78B9C282473B3DEFABC5C86834888A900E538A49F5419B9EB47DD5BC907D4F082F57FB1F28CDFA9F50
310
B22ED6D5F6EE030B20687EE43E10BC5CB3C8E51E54AE6B6EE207504B0304140006080800CC70623B55019EA25F0000007C00000007000000636E782E786D6C4DCB3B0E80201045D1AD90E915ED2CF8AC45050C11660C8261F98AB1B07AC9C97D42D718D865D3E909258CFD00CCE24AC6E326A164D74DC0B4128928FF326038
310
472BA13128B1252AC747C6BAB984FC68F0B87FE8960A5C09FE86CFB69FBA01504B0304140006080800CC70623BA24EB22D72010000D40300000C0000006662782F636F72652E786D6CC5535B6E833010BC8AE5DF0A6C5E49888CA3A6694ED00B38E05014B091B1518EDFE511A5A9D228FD2A1F60CDEC7A67C6986DCE4D8D7A
310
69BA4AAB0C073EC548AA5C17952A33ECECD15B61B4E1CC686DBF9561A44423333CC098B3D268D7CE50AE9595CA02AA74216750749DB418E5352C32DCE59FB211BE70162ABA93DF8AFC244AE9073ED050C759670D0840D390E18DF9F1706664C23973AE2A66B62A605A75ACA4C13C4976E1364A12EF355A2EBD384AF65EFA96
310
BC7B8BED2EA6719AAE16FB8491A199335B351775B991C2CA02F390D2D40B028F861F41BCA68B7518BFD0D59A524686F29B26D7164F36B94AD9289CE54E6D1DE6010819891F6E21228B3AD1831EC219194284CF98F06DD01008846CC5A1BEF83801D4CBDC6A1303536877A57A513B0953A94FC707FDBE6064EA84A9E3E6E0FA
310
EE8CF0E9198F7784A316AA0413C2C2F2E0ECA0934D1AE6D05A69BCDE9E91D2A611F573361E38FC1375157F5752AE6B6DFE4B11990F88CCBF0719EE23FF02504B0304140006080800CC70623B408A7D3B7C0000009D0000000B0000006662782F636E782E786D6C4DCCD10A83201886E15B91FFDC552A92A0064DBC8F581632
310
D3703A76F9ABD1C18E3E78F878E5F0D9027ABBFCF2292AE86E2D20171F69F6715550CB827B40839639A5F2770314A7CD293819B45C73AAFB45B35BA61ACAA1C1C7E7855C58C15BC331339661262CC762340413D68D77DA5B42298546CBE6573AF60CEB2F504B0304140006080800CC70623B449FB9BD290100001202000031
310
0000006662782F36394639363044362D344446342D343946362D394244322D3234314243333846323333332F636F72652E786D6C8D515B6EC32010BC0AE22B55850D98B871848994463E412FE002495162B07854397EA176A4F62F3F2C9A9D991D587EB84F37F0AD7D30CEF6905418026DA553C65E7A98E219ED203808EE9D
310
8B7F6810D871D23D2C3014FCE25D9A57483A1BB58D19B54EE9151C43D0110279CB971E06F9A5A7B11A53CC8C70ADE6515EC78BAE4895DB992778883E0700CB907242D17643D7E2538BD869608875438BBAE38922CAC8F1BDD90DB4691A5E2F42C153326A951B95E398B3D1FE599322163C9AE9115F7A3D46ADA0A018778810
310
84E907617BDCEE297BC5BB3DC6BC2EF47FA234AB2745C9D8D8D035EE220B50105E2F0DC1954B9FB747187D9F9D8FA0CCDB042D5FA0C015C65B42DF78BD10F3F3B363CB56C7109DCFDFBBB97E662ED92EB62D13BC2E1BCAE5777DB9966D8A1F504B0304140006080800CC70623BAD7543B64E01000033030000300000006662
310
782F36394639363044362D344446342D343946362D394244322D3234314243333846323333332F636E782E786D6CD593CD6EC32010845F0571AD6CE3D48AD20813A9873E410FBD12D82434182C7EAAE6EDBB2424CD25871E7B41D6EC30B3FA84F9E67BB2E40B4234DE8DB46F1925E094D7C6ED479AD3AE5951B2113C789FEE
310
6C943839C1488B4C05DF079FE72A69D8C96C13AAD6B8631503449F83828872B949AC57D26200B826A308D316B4064D6E46FCDA41C05550DC9E483A00797BFD207EFB092A45DE9514C1BBD22178396BD39D891265658C238DEA00936C654E5E433CB65A26D9F6EDB5EBC14EBF49A45CB856E66048291F6939A9A81BB5C89177
310
38143CA680F4AA299D66A042CEB3354A2684DC9D8D178FE0D9B8B41CAAD720F880EE7EF93C0C18769E099ECC04D5A102C8049A8A05632F4DDF376CF1DE0F6BB65C2F8627B65A33C6BB62177CEBBDAD973006829F89F22E814B54F4BC2BE347F8AA8F681390B50FA73F804400B5F542E796F19FF974E7F78DB802FE05E20750
310
4B0304140006080800CC70623B8D05915C650500003B100000340000006662782F36394639363044362D344446342D343946362D394244322D3234314243333846323333332F6F626A656374732E786D6CAD575B6FA33814FE2B887D06429276DA1565D4266D158D3A339A6846FB502932E050B66023DB74D2FDF5FB190C01
310
9276B2973C046C8ECFF53B17071F77456EBD502133CEAE6CDF9DD81665314F32965ED995DA3A17B6F5310C04E7AA47665B8C14F4CAD6DB7618A48257A5D94AE89654B91AEDDEDDFC61C998326A5B714EA4BCB265FC440BE2924AF184CA6737218AB8E976E7FA6E4338649B0A523E8D98964450A6A029F619B8588D52FE7039
310
B1BD30F0F4F730D0FF866AF6369557DB33949F31A9088B0F848DD8CCFCF9F2767A76E99CCDE733677E3EF59D9BBB9BA5E37F984D16E78BC5E5F5ED25044B25C0C96822E8D60EEFE11B91C581D77CEA34368A1F5329E68CD1B8B61F16D63A1B8E092D294B10C78C4A48EB593D192E7DED9BDEE7995E1B91FDEDD3ACEA9FE831
310
6A756F9F7D4D79F4274C90A7A04248AA51D5F8C718DAE06FB2F75AC4796EBE65D22A88A22223B995679120E2D50E41AA49C260C046A35368846B0BECD0DFF3EBEB8AD4F835768F69B9ADF25C43D30E6B646F807FAA64AD59F61715C7A54127C4AACA98BA3006A9D792DAE165E0D59B61A01FB3A9F9D838D2DAE62445C86166
310
F37564E842E7DE6A69879FEEA2DD5AE7E371E1A5E025154AC307D06A03D73EB5978C58FFA4C8E9033066E0F3BD53BEC1F39F91BE7B55103791EDE6BBB991A2046172CB4581D8B893FA674DDA17A77B3B7C413D1B511FD2743BFF8A38F03A658705E3ADF8015C3A3417FF3D7E439FF591DA0B5F18BC20C1B8981957AE6392A3
310
F43C640C01D1A0B4728E2DD4F26DB4B3C3152A252A3B4E913CEC1C72F012782FF88EFF8637AA552DBEF76408E8A8DE9E50F9E1CB3A2DA0DB1B6039A893B56063DC5B3E3FFB5F72E67AB9FEB4AEC496C4F4C1149625DD662C53E89D7BF0F6151A046260D1337DFDC94502430F83B0EE07A130A224BCAD7DAE1D9FB6CD422FF6
310
920702629C4BB9AE79C12F243C6432A6794E18E5552BA56B431AAB5D91317302B2B071E86C3A42B1A02F999E24061403B5D0EB639195DA655DD3EBEAB4FB862DDF579F014AD0E73C22F99E28DA57FB98E75C6CA2D74D53086D600F4786E0FE3144B771A8A7B900F03594DB8A633CBC49B2EDB69228BB479CF863B5E807AAAB
310
23872F6DFEB4129B949CA33823F58830E86D65621E10047D9DB34D862E8EAC3C2ABC2F7B2C40D67CDFE01F5545B92105AF983AC54D93D69E56FB8E797F88913F898A9FEC705D3F9D1B54EC8426FB500D40A03BD0119B06E1B95DDC7EB8F6975367793EBD70E66733DFB9BC982F9CE564727731999F5D4ECFCE3B8D6A4DC2A0
310
6D50FD148437D110834A64C6CDDF57FBACB5C307A2A477DFE4939736CFEF2B175371E0E10CF0DD1D5C15654E0BCA14D1E87DD02FF93782A162C0A3D95F1524A52770F972BF1EE9809D13CE7DD599467F8ECE9ADD85CE85A34CD45355448C64F9E8A031DC2D596ACC6E5DD93D9B82DE2EF5CAF81363A8E47996A0DE24564A79
310
4115AACE09C55E14540231FDA13C319787134EBF34E3A022514E5B4D9E0826E25C02D5805B15ABE1BEF51B26383D445DD9E875EE33FE4C22DA16427D65A3BCA92CA6D28DD01DF5DC53330704308475351050232CCD31583787BA75774AFB06E5070DD0C8EF484E19968C5D83BA5B90B244D31E54D55A372320FE4786B7EA58
310
44E135AA5467CB7EA333A61683CC6A8C3257034C10CF46F40EF9F5BE59BE5BD30C3C72D235E95D10345C1D45445A5F0BB47E46A5EBE5570F9380B5FA629579952296A773720405982B9DE04011506178964401AA8BDF1FBF0A8EAB6861DD6580C0E38217056766716DAEB2D6FA0917D3E4116581EADB879C4E7CFFB11EFACD
310
3D641311495D92C8676CB409A72D18610D803CE8A626049E8EC1887CB5B44CC39883690DDA8399B4B9855B481E7D71D4A9D22F96E5BB73BF5793020C02137BF837504B0304140006080000CC70623B000000000000000000000000350000006662782F36394639363044362D344446342D343946362D394244322D32343142
310
43333846323333332F76657274696365732E62696E504B0304140006080800CC70623BF270F1330600000004000000360000006662782F36394639363044362D344446342D343946362D394244322D3234314243333846323333332F747269616E676C65732E62696E636660600000504B0304140006080000CC70623B0000
310
00000000000000000000370000006662782F36394639363044362D344446342D343946362D394244322D3234314243333846323333332F617474726962757465732E62696E504B0304140006080800CC70623B08DA0BD19000000041010000360000006662782F36394639363044362D344446342D343946362D394244322D
310
3234314243333846323333332F6469726563746F72792E786D6C858F410AC3201045AF22B36F53E9A60B35CBEEBAE80D244E44489C6234F4F835464A48035D0DF398FF9F8AF63D0E6CC63039F212F8F9020C7D47C6792B21C5FE7403D62A1188E2E60C98D7234A5830286103A55745067B9D86B8A3CF9C7F90C11DE607FB14
310
4396D7B6A82D282E9A152AD114D5EF2CB866EEE831B8EEA07A7BB5A8D7D61A2BAAEB7FD5F70921FF497D00504B0304140006080800CC70623BCA768048FE000000A00100003B0000006662782F36394639363044362D344446342D343946362D394244322D3234314243333846323333332F7265736F75726365732F636F72
310
652E786D6C8D50596E833010BD0A9ADFCA60D600328E9AA639412F609909B1126CE4A5EAF16B0295DABFFECC8CDEA2797AECF8353F924FB44E193D409E5248504B332A3D0D10FC95B4901C39B3C6F85F3248B49871801506CE266BC2B243D2688FDA47549B11775038871E12F988C7004EDE7016A9083E2ADC3D5D84BC8B09
310
D33C8D74D471E6BC8D0192EDC93A815B742658898E651BCB59086ADC356A8C3FD555A1055ED7E7E254D615792D0F075295F585746FF53B694EE78A565DD736979A65AB9933AFE69F8CD2A2F038022F28ED489E135A7CE4554F9BBEA85E68DB53CAB255FEC71496F19FA6A0B42F8B3DEE6673C0F318E4497096AD7DC5F52C33
310
EEB55BFE0D504B010214000A0000080000CC70623B3DEE336E79000000790000001B00000000000000000000000000000000006175746F6465736B2D64657369676E2D7061636B6167652E786D6C504B01021400140006080800CC70623BD486FD9CA0000000F40000001300000000000000000000000000B20000005B436F
310
6E74656E745F54797065735D2E786D6C504B01021400140006080800CC70623BD9DDAED0EC0000007C010000080000000000000000000000000083010000636F72652E786D6C504B01021400140006080800CC70623B55019EA25F0000007C000000070000000000000000000000000095020000636E782E786D6C504B0102
310
1400140006080800CC70623BA24EB22D72010000D40300000C00000000000000000000000000190300006662782F636F72652E786D6C504B01021400140006080800CC70623B408A7D3B7C0000009D0000000B00000000000000000000000000B50400006662782F636E782E786D6C504B01021400140006080800CC70623B
310
449FB9BD290100001202000031000000000000000000000000005A0500006662782F36394639363044362D344446342D343946362D394244322D3234314243333846323333332F636F72652E786D6C504B01021400140006080800CC70623BAD7543B64E010000330300003000000000000000000000000000D20600006662
310
782F36394639363044362D344446342D343946362D394244322D3234314243333846323333332F636E782E786D6C504B01021400140006080800CC70623B8D05915C650500003B10000034000000000000000000000000006E0800006662782F36394639363044362D344446342D343946362D394244322D32343142433338
310
46323333332F6F626A656374732E786D6C504B01021400140006080000CC70623B0000000000000000000000003500000000000000000000000000250E00006662782F36394639363044362D344446342D343946362D394244322D3234314243333846323333332F76657274696365732E62696E504B010214001400060808
310
00CC70623BF270F13306000000040000003600000000000000000000000000780E00006662782F36394639363044362D344446342D343946362D394244322D3234314243333846323333332F747269616E676C65732E62696E504B01021400140006080000CC70623B00000000000000000000000037000000000000000000
310
00000000D20E00006662782F36394639363044362D344446342D343946362D394244322D3234314243333846323333332F617474726962757465732E62696E504B01021400140006080800CC70623B08DA0BD190000000410100003600000000000000000000000000270F00006662782F36394639363044362D344446342D
310
343946362D394244322D3234314243333846323333332F6469726563746F72792E786D6C504B01021400140006080800CC70623BCA768048FE000000A00100003B000000000000000000000000000B1000006662782F36394639363044362D344446342D343946362D394244322D3234314243333846323333332F7265736F
310
75726365732F636F72652E786D6C504B0506000000000E000E0080040000621100000000
  0
XRECORD
  5
176
102
{ACAD_REACTORS
330
173
102
}
330
173
100
AcDbXrecord
280
     1
270
     1
271
     1
  0
XRECORD
  5
177
102
{ACAD_REACTORS
330
173
102
}
330
173
100
AcDbXrecord
280
     1
270
     1
271
     1
  0
XRECORD
  5
1258D
102
{ACAD_REACTORS
330
1258C
102
}
330
1258C
100
AcDbXrecord
280
     1
102
ACAD_ROUNDTRIP_2012_MLEADER_STYLE
298
     1
  0
XRECORD
  5
1259F
102
{ACAD_REACTORS
330
1259E
102
}
330
1259E
100
AcDbXrecord
280
     1
102
DISPLAYNAME
  1
Metric50
102
FLAGS
 90
        0
  0
CELLSTYLEMAP
  5
1255F
102
{ACAD_REACTORS
330
162
102
}
330
162
100
AcDbCellStyleMap
 90
        3
300
CELLSTYLE
  1
TABLEFORMAT_BEGIN
 90
        5
170
     1
 91
        0
 92
    32768
 62
   257
 93
        1
300
CONTENTFORMAT
  1
CONTENTFORMAT_BEGIN
 90
        0
 91
        0
 92
      512
 93
        0
300

 40
0.0
140
1.0
 94
        5
 62
     0
340
11
144
6.0
309
CONTENTFORMAT_END
171
     1
301
MARGIN
  1
CELLMARGIN_BEGIN
 40
1.5
 40
1.5
 40
1.5
 40
1.5
 40
4.5
 40
4.5
309
CELLMARGIN_END
 94
        6
 95
        1
302
GRIDFORMAT
  1
GRIDFORMAT_BEGIN
 90
        0
 91
        1
 62
     0
 92
       -2
340
14
 93
        0
 40
1.125
309
GRIDFORMAT_END
 95
        2
302
GRIDFORMAT
  1
GRIDFORMAT_BEGIN
 90
        0
 91
        1
 62
     0
 92
       -2
340
14
 93
        0
 40
1.125
309
GRIDFORMAT_END
 95
        4
302
GRIDFORMAT
  1
GRIDFORMAT_BEGIN
 90
        0
 91
        1
 62
     0
 92
       -2
340
14
 93
        0
 40
1.125
309
GRIDFORMAT_END
 95
        8
302
GRIDFORMAT
  1
GRIDFORMAT_BEGIN
 90
        0
 91
        1
 62
     0
 92
       -2
340
14
 93
        0
 40
1.125
309
GRIDFORMAT_END
 95
       16
302
GRIDFORMAT
  1
GRIDFORMAT_BEGIN
 90
        0
 91
        1
 62
     0
 92
       -2
340
14
 93
        0
 40
1.125
309
GRIDFORMAT_END
 95
       32
302
GRIDFORMAT
  1
GRIDFORMAT_BEGIN
 90
        0
 91
        1
 62
     0
 92
       -2
340
14
 93
        0
 40
1.125
309
GRIDFORMAT_END
309
TABLEFORMAT_END
  1
CELLSTYLE_BEGIN
 90
        1
 91
        1
300
_TITLE
309
CELLSTYLE_END
300
CELLSTYLE
  1
TABLEFORMAT_BEGIN
 90
        5
170
     1
 91
        0
 92
        0
 62
   257
 93
        1
300
CONTENTFORMAT
  1
CONTENTFORMAT_BEGIN
 90
        0
 91
        0
 92
      512
 93
        0
300

 40
0.0
140
1.0
 94
        5
 62
     0
340
11
144
4.5
309
CONTENTFORMAT_END
171
     1
301
MARGIN
  1
CELLMARGIN_BEGIN
 40
1.5
 40
1.5
 40
1.5
 40
1.5
 40
4.5
 40
4.5
309
CELLMARGIN_END
 94
        6
 95
        1
302
GRIDFORMAT
  1
GRIDFORMAT_BEGIN
 90
        0
 91
        1
 62
     0
 92
       -2
340
14
 93
        0
 40
1.125
309
GRIDFORMAT_END
 95
        2
302
GRIDFORMAT
  1
GRIDFORMAT_BEGIN
 90
        0
 91
        1
 62
     0
 92
       -2
340
14
 93
        0
 40
1.125
309
GRIDFORMAT_END
 95
        4
302
GRIDFORMAT
  1
GRIDFORMAT_BEGIN
 90
        0
 91
        1
 62
     0
 92
       -2
340
14
 93
        0
 40
1.125
309
GRIDFORMAT_END
 95
        8
302
GRIDFORMAT
  1
GRIDFORMAT_BEGIN
 90
        0
 91
        1
 62
     0
 92
       -2
340
14
 93
        0
 40
1.125
309
GRIDFORMAT_END
 95
       16
302
GRIDFORMAT
  1
GRIDFORMAT_BEGIN
 90
        0
 91
        1
 62
     0
 92
       -2
340
14
 93
        0
 40
1.125
309
GRIDFORMAT_END
 95
       32
302
GRIDFORMAT
  1
GRIDFORMAT_BEGIN
 90
        0
 91
        1
 62
     0
 92
       -2
340
14
 93
        0
 40
1.125
309
GRIDFORMAT_END
309
TABLEFORMAT_END
  1
CELLSTYLE_BEGIN
 90
        2
 91
        1
300
_HEADER
309
CELLSTYLE_END
300
CELLSTYLE
  1
TABLEFORMAT_BEGIN
 90
        5
170
     1
 91
        0
 92
        0
 62
   257
 93
        1
300
CONTENTFORMAT
  1
CONTENTFORMAT_BEGIN
 90
        0
 91
        0
 92
      512
 93
        0
300

 40
0.0
140
1.0
 94
        2
 62
     0
340
11
144
4.5
309
CONTENTFORMAT_END
171
     1
301
MARGIN
  1
CELLMARGIN_BEGIN
 40
1.5
 40
1.5
 40
1.5
 40
1.5
 40
4.5
 40
4.5
309
CELLMARGIN_END
 94
        6
 95
        1
302
GRIDFORMAT
  1
GRIDFORMAT_BEGIN
 90
        0
 91
        1
 62
     0
 92
       -2
340
14
 93
        0
 40
1.125
309
GRIDFORMAT_END
 95
        2
302
GRIDFORMAT
  1
GRIDFORMAT_BEGIN
 90
        0
 91
        1
 62
     0
 92
       -2
340
14
 93
        0
 40
1.125
309
GRIDFORMAT_END
 95
        4
302
GRIDFORMAT
  1
GRIDFORMAT_BEGIN
 90
        0
 91
        1
 62
     0
 92
       -2
340
14
 93
        0
 40
1.125
309
GRIDFORMAT_END
 95
        8
302
GRIDFORMAT
  1
GRIDFORMAT_BEGIN
 90
        0
 91
        1
 62
     0
 92
       -2
340
14
 93
        0
 40
1.125
309
GRIDFORMAT_END
 95
       16
302
GRIDFORMAT
  1
GRIDFORMAT_BEGIN
 90
        0
 91
        1
 62
     0
 92
       -2
340
14
 93
        0
 40
1.125
309
GRIDFORMAT_END
 95
       32
302
GRIDFORMAT
  1
GRIDFORMAT_BEGIN
 90
        0
 91
        1
 62
     0
 92
       -2
340
14
 93
        0
 40
1.125
309
GRIDFORMAT_END
309
TABLEFORMAT_END
  1
CELLSTYLE_BEGIN
 90
        3
 91
        2
300
_DATA
309
CELLSTYLE_END
  0
XRECORD
  5
12564
102
{ACAD_REACTORS
330
162
102
}
330
162
100
AcDbXrecord
280
     1
102
ACAD_ROUNDTRIP_PRE2007_TABLESTYLE
 90
      512
 91
        0
  1

 92
      512
 93
        0
  2

 94
      512
 95
        0
  3

  0
XRECORD
  5
12577
102
{ACAD_REACTORS
330
12576
102
}
330
12576
100
AcDbXrecord
280
     1
102
RTVSPost2010Prop28
280
     1
102
RTVSPost2010PropOp28
 70
     1
102
RTVSPost2010Prop29
280
     1
102
RTVSPost2010PropOp29
 70
     1
102
RTVSPost2010Prop30
280
     0
102
RTVSPost2010PropOp30
 70
     1
102
RTVSPost2010Prop31
280
     0
102
RTVSPost2010PropOp31
 70
     1
102
RTVSPost2010Prop32
280
     0
102
RTVSPost2010PropOp32
 70
     1
102
RTVSPost2010Prop33
280
     0
102
RTVSPost2010PropOp33
 70
     1
102
RTVSPost2010Prop34
280
     0
102
RTVSPost2010PropOp34
 70
     1
102
RTVSPost2010Prop35
280
     0
102
RTVSPost2010PropOp35
 70
     1
102
RTVSPost2010Prop36
280
     0
102
RTVSPost2010PropOp36
 70
     1
102
RTVSPost2010Prop37
 90
       50
102
RTVSPost2010PropOp37
 70
     1
102
RTVSPost2010Prop38
140
0.0
102
RTVSPost2010PropOp38
 70
     1
102
RTVSPost2010Prop39
140
1.0
102
RTVSPost2010PropOp39
 70
     1
102
RTVSPost2010Prop40
 90
        0
102
RTVSPost2010PropOp40
 70
     1
102
RTVSPost2010Prop41ColorIndex
 90
       18
102
RTVSPost2010Prop41ColorRGB
 90
        0
102
RTVSPost2010PropOp41
 70
     1
102
RTVSPost2010Prop42
 90
       50
102
RTVSPost2010PropOp42
 70
     1
102
RTVSPost2010Prop43
 90
        3
102
RTVSPost2010PropOp43
 70
     1
102
RTVSPost2010Prop44ColorIndex
 90
        5
102
RTVSPost2010Prop44ColorRGB
 90
      255
102
RTVSPost2010PropOp44
 70
     1
102
RTVSPost2010Prop45
280
     0
102
RTVSPost2010PropOp45
 70
     1
102
RTVSPost2010Prop46
 90
       50
102
RTVSPost2010PropOp46
 70
     1
102
RTVSPost2010Prop47
 90
       50
102
RTVSPost2010PropOp47
 70
     1
102
RTVSPost2010Prop48
 90
       50
102
RTVSPost2010PropOp48
 70
     1
102
RTVSPost2010Prop49
280
     0
102
RTVSPost2010PropOp49
 70
     1
102
RTVSPost2010Prop50
 90
       50
102
RTVSPost2010PropOp50
 70
     1
102
RTVSPost2010Prop51ColorIndex
 90
      256
102
RTVSPost2010Prop51ColorRGB
 90
-16777216
102
RTVSPost2010PropOp51
 70
     0
102
RTVSPost2010Prop52
140
1.0
102
RTVSPost2010PropOp52
 70
     0
102
RTVSPost2010Prop53
 90
        2
102
RTVSPost2010PropOp53
 70
     1
102
RTVSPost2010Prop54
  1
strokes_ogs.tif
102
RTVSPost2010PropOp54
 70
     1
102
RTVSPost2010Prop55
280
     0
102
RTVSPost2010PropOp55
 70
     1
102
RTVSPost2010Prop56
140
1.0
102
RTVSPost2010PropOp56
 70
     1
102
RTVSPost2010Prop57
140
1.0
102
RTVSPost2010PropOp57
 70
     1
102
RTVSPropertyOp0
 70
     1
102
RTVSPropertyOp1
 70
     1
102
RTVSPropertyOp2
 70
     1
102
RTVSPropertyOp3
 70
     1
102
RTVSPropertyOp4
 70
     1
102
RTVSPropertyOp5
 70
     1
102
RTVSPropertyOp6
 70
     1
102
RTVSPropertyOp7
 70
     1
102
RTVSPropertyOp8
 70
     1
102
RTVSPropertyOp9
 70
     1
102
RTVSPropertyOp10
 70
     1
102
RTVSPropertyOp11
 70
     1
102
RTVSPropertyOp12
 70
     1
102
RTVSPropertyOp13
 70
     1
102
RTVSPropertyOp14
 70
     1
102
RTVSPropertyOp15
 70
     1
102
RTVSPropertyOp16
 70
     1
102
RTVSPropertyOp17
 70
     1
102
RTVSPropertyOp18
 70
     1
102
RTVSPropertyOp19
 70
     1
102
RTVSPropertyOp20
 70
     1
102
RTVSPropertyOp21
 70
     1
102
RTVSPropertyOp22
 70
     1
102
RTVSPropertyOp23
 70
     1
102
RTVSPropertyOp24
 70
     1
102
RTVSPropertyOp25
 70
     1
102
RTVSPropertyOp26
 70
     1
102
RTVSPropertyOp27
 70
     1
102
RTVSPropertyOp28
 70
     1
102
RTVSPropertyOp29
 70
     1
102
RTVSPropertyOp30
 70
     1
102
RTVSPropertyOp31
 70
     1
102
RTVSPropertyOp32
 70
     1
102
RTVSPropertyOp33
 70
     1
102
RTVSPropertyOp34
 70
     1
102
RTVSPropertyOp35
 70
     1
102
RTVSPropertyOp36
 70
     1
102
RTVSPropertyOp37
 70
     1
102
RTVSPropertyOp38
 70
     1
102
RTVSPropertyOp39
 70
     1
102
RTVSPropertyOp40
 70
     1
102
RTVSPropertyOp41
 70
     1
102
RTVSPropertyOp42
 70
     1
102
RTVSPropertyOp43
 70
     1
102
RTVSPropertyOp44
 70
     1
102
RTVSPropertyOp45
 70
     1
102
RTVSPropertyOp46
 70
     1
102
RTVSPropertyOp47
 70
     1
102
RTVSPropertyOp48
 70
     1
102
RTVSPropertyOp49
 70
     1
102
RTVSPropertyOp50
 70
     1
102
RTVSPropertyOp51
 70
     0
102
RTVSPropertyOp52
 70
     0
102
RTVSPropertyOp53
 70
     1
102
RTVSPropertyOp54
 70
     1
102
RTVSPropertyOp55
 70
     1
102
RTVSPropertyOp56
 70
     1
102
RTVSPropertyOp57
 70
     1
102
RTVSPropertyOp58
 70
     1
102
RTVSPropertyOp59
 70
     1
102
RTVSPropertyOp60
 70
     1
102
RTVSPropertyOp61
 70
     1
102
RTVSPropertyOp62
 70
     1
  0
XRECORD
  5
12575
102
{ACAD_REACTORS
330
12574
102
}
330
12574
100
AcDbXrecord
280
     1
102
RTVSPost2010Prop28
280
     0
102
RTVSPost2010PropOp28
 70
     1
102
RTVSPost2010Prop29
280
     1
102
RTVSPost2010PropOp29
 70
     1
102
RTVSPost2010Prop30
280
     1
102
RTVSPost2010PropOp30
 70
     1
102
RTVSPost2010Prop31
280
     0
102
RTVSPost2010PropOp31
 70
     1
102
RTVSPost2010Prop32
280
     0
102
RTVSPost2010PropOp32
 70
     1
102
RTVSPost2010Prop33
280
     0
102
RTVSPost2010PropOp33
 70
     1
102
RTVSPost2010Prop34
280
     0
102
RTVSPost2010PropOp34
 70
     1
102
RTVSPost2010Prop35
280
     0
102
RTVSPost2010PropOp35
 70
     1
102
RTVSPost2010Prop36
280
     0
102
RTVSPost2010PropOp36
 70
     1
102
RTVSPost2010Prop37
 90
       50
102
RTVSPost2010PropOp37
 70
     1
102
RTVSPost2010Prop38
140
0.0
102
RTVSPost2010PropOp38
 70
     1
102
RTVSPost2010Prop39
140
1.0
102
RTVSPost2010PropOp39
 70
     1
102
RTVSPost2010Prop40
 90
        0
102
RTVSPost2010PropOp40
 70
     1
102
RTVSPost2010Prop41ColorIndex
 90
       18
102
RTVSPost2010Prop41ColorRGB
 90
        0
102
RTVSPost2010PropOp41
 70
     1
102
RTVSPost2010Prop42
 90
       50
102
RTVSPost2010PropOp42
 70
     1
102
RTVSPost2010Prop43
 90
        3
102
RTVSPost2010PropOp43
 70
     1
102
RTVSPost2010Prop44ColorIndex
 90
        5
102
RTVSPost2010Prop44ColorRGB
 90
      255
102
RTVSPost2010PropOp44
 70
     1
102
RTVSPost2010Prop45
280
     0
102
RTVSPost2010PropOp45
 70
     1
102
RTVSPost2010Prop46
 90
       50
102
RTVSPost2010PropOp46
 70
     1
102
RTVSPost2010Prop47
 90
       50
102
RTVSPost2010PropOp47
 70
     1
102
RTVSPost2010Prop48
 90
       50
102
RTVSPost2010PropOp48
 70
     1
102
RTVSPost2010Prop49
280
     0
102
RTVSPost2010PropOp49
 70
     1
102
RTVSPost2010Prop50
 90
       50
102
RTVSPost2010PropOp50
 70
     1
102
RTVSPost2010Prop51ColorIndex
 90
      256
102
RTVSPost2010Prop51ColorRGB
 90
-16777216
102
RTVSPost2010PropOp51
 70
     0
102
RTVSPost2010Prop52
140
1.0
102
RTVSPost2010PropOp52
 70
     0
102
RTVSPost2010Prop53
 90
        2
102
RTVSPost2010PropOp53
 70
     1
102
RTVSPost2010Prop54
  1
strokes_ogs.tif
102
RTVSPost2010PropOp54
 70
     1
102
RTVSPost2010Prop55
280
     0
102
RTVSPost2010PropOp55
 70
     1
102
RTVSPost2010Prop56
140
1.0
102
RTVSPost2010PropOp56
 70
     1
102
RTVSPost2010Prop57
140
1.0
102
RTVSPost2010PropOp57
 70
     1
102
RTVSPropertyOp0
 70
     1
102
RTVSPropertyOp1
 70
     1
102
RTVSPropertyOp2
 70
     1
102
RTVSPropertyOp3
 70
     1
102
RTVSPropertyOp4
 70
     1
102
RTVSPropertyOp5
 70
     1
102
RTVSPropertyOp6
 70
     1
102
RTVSPropertyOp7
 70
     1
102
RTVSPropertyOp8
 70
     1
102
RTVSPropertyOp9
 70
     1
102
RTVSPropertyOp10
 70
     1
102
RTVSPropertyOp11
 70
     1
102
RTVSPropertyOp12
 70
     1
102
RTVSPropertyOp13
 70
     1
102
RTVSPropertyOp14
 70
     1
102
RTVSPropertyOp15
 70
     1
102
RTVSPropertyOp16
 70
     1
102
RTVSPropertyOp17
 70
     1
102
RTVSPropertyOp18
 70
     1
102
RTVSPropertyOp19
 70
     1
102
RTVSPropertyOp20
 70
     1
102
RTVSPropertyOp21
 70
     1
102
RTVSPropertyOp22
 70
     1
102
RTVSPropertyOp23
 70
     1
102
RTVSPropertyOp24
 70
     1
102
RTVSPropertyOp25
 70
     1
102
RTVSPropertyOp26
 70
     1
102
RTVSPropertyOp27
 70
     1
102
RTVSPropertyOp28
 70
     1
102
RTVSPropertyOp29
 70
     1
102
RTVSPropertyOp30
 70
     1
102
RTVSPropertyOp31
 70
     1
102
RTVSPropertyOp32
 70
     1
102
RTVSPropertyOp33
 70
     1
102
RTVSPropertyOp34
 70
     1
102
RTVSPropertyOp35
 70
     1
102
RTVSPropertyOp36
 70
     1
102
RTVSPropertyOp37
 70
     1
102
RTVSPropertyOp38
 70
     1
102
RTVSPropertyOp39
 70
     1
102
RTVSPropertyOp40
 70
     1
102
RTVSPropertyOp41
 70
     1
102
RTVSPropertyOp42
 70
     1
102
RTVSPropertyOp43
 70
     1
102
RTVSPropertyOp44
 70
     1
102
RTVSPropertyOp45
 70
     1
102
RTVSPropertyOp46
 70
     1
102
RTVSPropertyOp47
 70
     1
102
RTVSPropertyOp48
 70
     1
102
RTVSPropertyOp49
 70
     1
102
RTVSPropertyOp50
 70
     1
102
RTVSPropertyOp51
 70
     0
102
RTVSPropertyOp52
 70
     0
102
RTVSPropertyOp53
 70
     1
102
RTVSPropertyOp54
 70
     1
102
RTVSPropertyOp55
 70
     1
102
RTVSPropertyOp56
 70
     1
102
RTVSPropertyOp57
 70
     1
102
RTVSPropertyOp58
 70
     1
102
RTVSPropertyOp59
 70
     1
102
RTVSPropertyOp60
 70
     1
102
RTVSPropertyOp61
 70
     1
102
RTVSPropertyOp62
 70
     1
  0
XRECORD
  5
12583
102
{ACAD_REACTORS
330
12582
102
}
330
12582
100
AcDbXrecord
280
     1
102
RTVSPost2010Prop28
280
     0
102
RTVSPost2010PropOp28
 70
     1
102
RTVSPost2010Prop29
280
     1
102
RTVSPost2010PropOp29
 70
     1
102
RTVSPost2010Prop30
280
     1
102
RTVSPost2010PropOp30
 70
     1
102
RTVSPost2010Prop31
280
     0
102
RTVSPost2010PropOp31
 70
     1
102
RTVSPost2010Prop32
280
     0
102
RTVSPost2010PropOp32
 70
     1
102
RTVSPost2010Prop33
280
     0
102
RTVSPost2010PropOp33
 70
     1
102
RTVSPost2010Prop34
280
     0
102
RTVSPost2010PropOp34
 70
     1
102
RTVSPost2010Prop35
280
     0
102
RTVSPost2010PropOp35
 70
     1
102
RTVSPost2010Prop36
280
     0
102
RTVSPost2010PropOp36
 70
     1
102
RTVSPost2010Prop37
 90
       50
102
RTVSPost2010PropOp37
 70
     1
102
RTVSPost2010Prop38
140
0.0
102
RTVSPost2010PropOp38
 70
     1
102
RTVSPost2010Prop39
140
1.0
102
RTVSPost2010PropOp39
 70
     1
102
RTVSPost2010Prop40
 90
        0
102
RTVSPost2010PropOp40
 70
     1
102
RTVSPost2010Prop41ColorIndex
 90
       18
102
RTVSPost2010Prop41ColorRGB
 90
        0
102
RTVSPost2010PropOp41
 70
     1
102
RTVSPost2010Prop42
 90
       50
102
RTVSPost2010PropOp42
 70
     1
102
RTVSPost2010Prop43
 90
        3
102
RTVSPost2010PropOp43
 70
     1
102
RTVSPost2010Prop44ColorIndex
 90
        5
102
RTVSPost2010Prop44ColorRGB
 90
      255
102
RTVSPost2010PropOp44
 70
     1
102
RTVSPost2010Prop45
280
     0
102
RTVSPost2010PropOp45
 70
     1
102
RTVSPost2010Prop46
 90
       50
102
RTVSPost2010PropOp46
 70
     1
102
RTVSPost2010Prop47
 90
       50
102
RTVSPost2010PropOp47
 70
     1
102
RTVSPost2010Prop48
 90
       50
102
RTVSPost2010PropOp48
 70
     1
102
RTVSPost2010Prop49
280
     0
102
RTVSPost2010PropOp49
 70
     1
102
RTVSPost2010Prop50
 90
       50
102
RTVSPost2010PropOp50
 70
     1
102
RTVSPost2010Prop51ColorIndex
 90
      256
102
RTVSPost2010Prop51ColorRGB
 90
-16777216
102
RTVSPost2010PropOp51
 70
     0
102
RTVSPost2010Prop52
140
1.0
102
RTVSPost2010PropOp52
 70
     0
102
RTVSPost2010Prop53
 90
        2
102
RTVSPost2010PropOp53
 70
     1
102
RTVSPost2010Prop54
  1
strokes_ogs.tif
102
RTVSPost2010PropOp54
 70
     1
102
RTVSPost2010Prop55
280
     0
102
RTVSPost2010PropOp55
 70
     1
102
RTVSPost2010Prop56
140
1.0
102
RTVSPost2010PropOp56
 70
     1
102
RTVSPost2010Prop57
140
1.0
102
RTVSPost2010PropOp57
 70
     1
102
RTVSPropertyOp0
 70
     1
102
RTVSPropertyOp1
 70
     1
102
RTVSPropertyOp2
 70
     1
102
RTVSPropertyOp3
 70
     1
102
RTVSPropertyOp4
 70
     1
102
RTVSPropertyOp5
 70
     1
102
RTVSPropertyOp6
 70
     1
102
RTVSPropertyOp7
 70
     1
102
RTVSPropertyOp8
 70
     1
102
RTVSPropertyOp9
 70
     1
102
RTVSPropertyOp10
 70
     1
102
RTVSPropertyOp11
 70
     1
102
RTVSPropertyOp12
 70
     1
102
RTVSPropertyOp13
 70
     1
102
RTVSPropertyOp14
 70
     1
102
RTVSPropertyOp15
 70
     1
102
RTVSPropertyOp16
 70
     1
102
RTVSPropertyOp17
 70
     1
102
RTVSPropertyOp18
 70
     1
102
RTVSPropertyOp19
 70
     1
102
RTVSPropertyOp20
 70
     1
102
RTVSPropertyOp21
 70
     1
102
RTVSPropertyOp22
 70
     1
102
RTVSPropertyOp23
 70
     1
102
RTVSPropertyOp24
 70
     1
102
RTVSPropertyOp25
 70
     1
102
RTVSPropertyOp26
 70
     1
102
RTVSPropertyOp27
 70
     1
102
RTVSPropertyOp28
 70
     1
102
RTVSPropertyOp29
 70
     1
102
RTVSPropertyOp30
 70
     1
102
RTVSPropertyOp31
 70
     1
102
RTVSPropertyOp32
 70
     1
102
RTVSPropertyOp33
 70
     1
102
RTVSPropertyOp34
 70
     1
102
RTVSPropertyOp35
 70
     1
102
RTVSPropertyOp36
 70
     1
102
RTVSPropertyOp37
 70
     1
102
RTVSPropertyOp38
 70
     1
102
RTVSPropertyOp39
 70
     1
102
RTVSPropertyOp40
 70
     1
102
RTVSPropertyOp41
 70
     1
102
RTVSPropertyOp42
 70
     1
102
RTVSPropertyOp43
 70
     1
102
RTVSPropertyOp44
 70
     1
102
RTVSPropertyOp45
 70
     1
102
RTVSPropertyOp46
 70
     1
102
RTVSPropertyOp47
 70
     1
102
RTVSPropertyOp48
 70
     1
102
RTVSPropertyOp49
 70
     1
102
RTVSPropertyOp50
 70
     1
102
RTVSPropertyOp51
 70
     0
102
RTVSPropertyOp52
 70
     0
102
RTVSPropertyOp53
 70
     1
102
RTVSPropertyOp54
 70
     1
102
RTVSPropertyOp55
 70
     1
102
RTVSPropertyOp56
 70
     1
102
RTVSPropertyOp57
 70
     1
102
RTVSPropertyOp58
 70
     1
102
RTVSPropertyOp59
 70
     1
102
RTVSPropertyOp60
 70
     1
102
RTVSPropertyOp61
 70
     1
102
RTVSPropertyOp62
 70
     1
  0
XRECORD
  5
1258B
102
{ACAD_REACTORS
330
1258A
102
}
330
1258A
100
AcDbXrecord
280
     1
102
RTVSPost2010Prop28
280
     0
102
RTVSPost2010PropOp28
 70
     1
102
RTVSPost2010Prop29
280
     1
102
RTVSPost2010PropOp29
 70
     1
102
RTVSPost2010Prop30
280
     1
102
RTVSPost2010PropOp30
 70
     1
102
RTVSPost2010Prop31
280
     0
102
RTVSPost2010PropOp31
 70
     1
102
RTVSPost2010Prop32
280
     0
102
RTVSPost2010PropOp32
 70
     1
102
RTVSPost2010Prop33
280
     0
102
RTVSPost2010PropOp33
 70
     1
102
RTVSPost2010Prop34
280
     0
102
RTVSPost2010PropOp34
 70
     1
102
RTVSPost2010Prop35
280
     0
102
RTVSPost2010PropOp35
 70
     1
102
RTVSPost2010Prop36
280
     0
102
RTVSPost2010PropOp36
 70
     1
102
RTVSPost2010Prop37
 90
       50
102
RTVSPost2010PropOp37
 70
     1
102
RTVSPost2010Prop38
140
0.0
102
RTVSPost2010PropOp38
 70
     1
102
RTVSPost2010Prop39
140
1.0
102
RTVSPost2010PropOp39
 70
     1
102
RTVSPost2010Prop40
 90
        0
102
RTVSPost2010PropOp40
 70
     1
102
RTVSPost2010Prop41ColorIndex
 90
       18
102
RTVSPost2010Prop41ColorRGB
 90
        0
102
RTVSPost2010PropOp41
 70
     1
102
RTVSPost2010Prop42
 90
       50
102
RTVSPost2010PropOp42
 70
     1
102
RTVSPost2010Prop43
 90
        3
102
RTVSPost2010PropOp43
 70
     1
102
RTVSPost2010Prop44ColorIndex
 90
        5
102
RTVSPost2010Prop44ColorRGB
 90
      255
102
RTVSPost2010PropOp44
 70
     1
102
RTVSPost2010Prop45
280
     0
102
RTVSPost2010PropOp45
 70
     1
102
RTVSPost2010Prop46
 90
       50
102
RTVSPost2010PropOp46
 70
     1
102
RTVSPost2010Prop47
 90
       50
102
RTVSPost2010PropOp47
 70
     1
102
RTVSPost2010Prop48
 90
       50
102
RTVSPost2010PropOp48
 70
     1
102
RTVSPost2010Prop49
280
     0
102
RTVSPost2010PropOp49
 70
     1
102
RTVSPost2010Prop50
 90
       50
102
RTVSPost2010PropOp50
 70
     1
102
RTVSPost2010Prop51ColorIndex
 90
      256
102
RTVSPost2010Prop51ColorRGB
 90
-16777216
102
RTVSPost2010PropOp51
 70
     0
102
RTVSPost2010Prop52
140
1.0
102
RTVSPost2010PropOp52
 70
     0
102
RTVSPost2010Prop53
 90
        2
102
RTVSPost2010PropOp53
 70
     1
102
RTVSPost2010Prop54
  1
strokes_ogs.tif
102
RTVSPost2010PropOp54
 70
     1
102
RTVSPost2010Prop55
280
     0
102
RTVSPost2010PropOp55
 70
     1
102
RTVSPost2010Prop56
140
1.0
102
RTVSPost2010PropOp56
 70
     1
102
RTVSPost2010Prop57
140
1.0
102
RTVSPost2010PropOp57
 70
     1
102
RTVSPropertyOp0
 70
     1
102
RTVSPropertyOp1
 70
     1
102
RTVSPropertyOp2
 70
     1
102
RTVSPropertyOp3
 70
     1
102
RTVSPropertyOp4
 70
     1
102
RTVSPropertyOp5
 70
     1
102
RTVSPropertyOp6
 70
     1
102
RTVSPropertyOp7
 70
     1
102
RTVSPropertyOp8
 70
     1
102
RTVSPropertyOp9
 70
     1
102
RTVSPropertyOp10
 70
     1
102
RTVSPropertyOp11
 70
     1
102
RTVSPropertyOp12
 70
     1
102
RTVSPropertyOp13
 70
     1
102
RTVSPropertyOp14
 70
     1
102
RTVSPropertyOp15
 70
     1
102
RTVSPropertyOp16
 70
     1
102
RTVSPropertyOp17
 70
     1
102
RTVSPropertyOp18
 70
     1
102
RTVSPropertyOp19
 70
     1
102
RTVSPropertyOp20
 70
     1
102
RTVSPropertyOp21
 70
     1
102
RTVSPropertyOp22
 70
     1
102
RTVSPropertyOp23
 70
     1
102
RTVSPropertyOp24
 70
     1
102
RTVSPropertyOp25
 70
     1
102
RTVSPropertyOp26
 70
     1
102
RTVSPropertyOp27
 70
     1
102
RTVSPropertyOp28
 70
     1
102
RTVSPropertyOp29
 70
     1
102
RTVSPropertyOp30
 70
     1
102
RTVSPropertyOp31
 70
     1
102
RTVSPropertyOp32
 70
     1
102
RTVSPropertyOp33
 70
     1
102
RTVSPropertyOp34
 70
     1
102
RTVSPropertyOp35
 70
     1
102
RTVSPropertyOp36
 70
     1
102
RTVSPropertyOp37
 70
     1
102
RTVSPropertyOp38
 70
     1
102
RTVSPropertyOp39
 70
     1
102
RTVSPropertyOp40
 70
     1
102
RTVSPropertyOp41
 70
     1
102
RTVSPropertyOp42
 70
     1
102
RTVSPropertyOp43
 70
     1
102
RTVSPropertyOp44
 70
     1
102
RTVSPropertyOp45
 70
     1
102
RTVSPropertyOp46
 70
     1
102
RTVSPropertyOp47
 70
     1
102
RTVSPropertyOp48
 70
     1
102
RTVSPropertyOp49
 70
     1
102
RTVSPropertyOp50
 70
     1
102
RTVSPropertyOp51
 70
     0
102
RTVSPropertyOp52
 70
     0
102
RTVSPropertyOp53
 70
     1
102
RTVSPropertyOp54
 70
     1
102
RTVSPropertyOp55
 70
     1
102
RTVSPropertyOp56
 70
     1
102
RTVSPropertyOp57
 70
     1
102
RTVSPropertyOp58
 70
     1
102
RTVSPropertyOp59
 70
     1
102
RTVSPropertyOp60
 70
     1
102
RTVSPropertyOp61
 70
     1
102
RTVSPropertyOp62
 70
     1
  0
XRECORD
  5
1257D
102
{ACAD_REACTORS
330
1257C
102
}
330
1257C
100
AcDbXrecord
280
     1
102
RTVSPost2010Prop28
280
     0
102
RTVSPost2010PropOp28
 70
     1
102
RTVSPost2010Prop29
280
     1
102
RTVSPost2010PropOp29
 70
     1
102
RTVSPost2010Prop30
280
     1
102
RTVSPost2010PropOp30
 70
     1
102
RTVSPost2010Prop31
280
     0
102
RTVSPost2010PropOp31
 70
     1
102
RTVSPost2010Prop32
280
     0
102
RTVSPost2010PropOp32
 70
     1
102
RTVSPost2010Prop33
280
     0
102
RTVSPost2010PropOp33
 70
     1
102
RTVSPost2010Prop34
280
     0
102
RTVSPost2010PropOp34
 70
     1
102
RTVSPost2010Prop35
280
     0
102
RTVSPost2010PropOp35
 70
     1
102
RTVSPost2010Prop36
280
     0
102
RTVSPost2010PropOp36
 70
     1
102
RTVSPost2010Prop37
 90
       50
102
RTVSPost2010PropOp37
 70
     1
102
RTVSPost2010Prop38
140
0.0
102
RTVSPost2010PropOp38
 70
     1
102
RTVSPost2010Prop39
140
1.0
102
RTVSPost2010PropOp39
 70
     1
102
RTVSPost2010Prop40
 90
        0
102
RTVSPost2010PropOp40
 70
     1
102
RTVSPost2010Prop41ColorIndex
 90
       18
102
RTVSPost2010Prop41ColorRGB
 90
        0
102
RTVSPost2010PropOp41
 70
     1
102
RTVSPost2010Prop42
 90
       50
102
RTVSPost2010PropOp42
 70
     1
102
RTVSPost2010Prop43
 90
        3
102
RTVSPost2010PropOp43
 70
     1
102
RTVSPost2010Prop44ColorIndex
 90
        5
102
RTVSPost2010Prop44ColorRGB
 90
      255
102
RTVSPost2010PropOp44
 70
     1
102
RTVSPost2010Prop45
280
     0
102
RTVSPost2010PropOp45
 70
     1
102
RTVSPost2010Prop46
 90
       50
102
RTVSPost2010PropOp46
 70
     1
102
RTVSPost2010Prop47
 90
       50
102
RTVSPost2010PropOp47
 70
     1
102
RTVSPost2010Prop48
 90
       50
102
RTVSPost2010PropOp48
 70
     1
102
RTVSPost2010Prop49
280
     0
102
RTVSPost2010PropOp49
 70
     1
102
RTVSPost2010Prop50
 90
       50
102
RTVSPost2010PropOp50
 70
     1
102
RTVSPost2010Prop51ColorIndex
 90
      256
102
RTVSPost2010Prop51ColorRGB
 90
-16777216
102
RTVSPost2010PropOp51
 70
     0
102
RTVSPost2010Prop52
140
1.0
102
RTVSPost2010PropOp52
 70
     0
102
RTVSPost2010Prop53
 90
        2
102
RTVSPost2010PropOp53
 70
     1
102
RTVSPost2010Prop54
  1
strokes_ogs.tif
102
RTVSPost2010PropOp54
 70
     1
102
RTVSPost2010Prop55
280
     0
102
RTVSPost2010PropOp55
 70
     1
102
RTVSPost2010Prop56
140
1.0
102
RTVSPost2010PropOp56
 70
     1
102
RTVSPost2010Prop57
140
1.0
102
RTVSPost2010PropOp57
 70
     1
102
RTVSPropertyOp0
 70
     1
102
RTVSPropertyOp1
 70
     1
102
RTVSPropertyOp2
 70
     1
102
RTVSPropertyOp3
 70
     1
102
RTVSPropertyOp4
 70
     1
102
RTVSPropertyOp5
 70
     1
102
RTVSPropertyOp6
 70
     1
102
RTVSPropertyOp7
 70
     1
102
RTVSPropertyOp8
 70
     1
102
RTVSPropertyOp9
 70
     1
102
RTVSPropertyOp10
 70
     1
102
RTVSPropertyOp11
 70
     1
102
RTVSPropertyOp12
 70
     1
102
RTVSPropertyOp13
 70
     1
102
RTVSPropertyOp14
 70
     1
102
RTVSPropertyOp15
 70
     1
102
RTVSPropertyOp16
 70
     1
102
RTVSPropertyOp17
 70
     1
102
RTVSPropertyOp18
 70
     1
102
RTVSPropertyOp19
 70
     1
102
RTVSPropertyOp20
 70
     1
102
RTVSPropertyOp21
 70
     1
102
RTVSPropertyOp22
 70
     1
102
RTVSPropertyOp23
 70
     1
102
RTVSPropertyOp24
 70
     1
102
RTVSPropertyOp25
 70
     1
102
RTVSPropertyOp26
 70
     1
102
RTVSPropertyOp27
 70
     1
102
RTVSPropertyOp28
 70
     1
102
RTVSPropertyOp29
 70
     1
102
RTVSPropertyOp30
 70
     1
102
RTVSPropertyOp31
 70
     1
102
RTVSPropertyOp32
 70
     1
102
RTVSPropertyOp33
 70
     1
102
RTVSPropertyOp34
 70
     1
102
RTVSPropertyOp35
 70
     1
102
RTVSPropertyOp36
 70
     1
102
RTVSPropertyOp37
 70
     1
102
RTVSPropertyOp38
 70
     1
102
RTVSPropertyOp39
 70
     1
102
RTVSPropertyOp40
 70
     1
102
RTVSPropertyOp41
 70
     1
102
RTVSPropertyOp42
 70
     1
102
RTVSPropertyOp43
 70
     1
102
RTVSPropertyOp44
 70
     1
102
RTVSPropertyOp45
 70
     1
102
RTVSPropertyOp46
 70
     1
102
RTVSPropertyOp47
 70
     1
102
RTVSPropertyOp48
 70
     1
102
RTVSPropertyOp49
 70
     1
102
RTVSPropertyOp50
 70
     1
102
RTVSPropertyOp51
 70
     0
102
RTVSPropertyOp52
 70
     0
102
RTVSPropertyOp53
 70
     1
102
RTVSPropertyOp54
 70
     1
102
RTVSPropertyOp55
 70
     1
102
RTVSPropertyOp56
 70
     1
102
RTVSPropertyOp57
 70
     1
102
RTVSPropertyOp58
 70
     1
102
RTVSPropertyOp59
 70
     1
102
RTVSPropertyOp60
 70
     1
102
RTVSPropertyOp61
 70
     1
102
RTVSPropertyOp62
 70
     1
  0
XRECORD
  5
12581
102
{ACAD_REACTORS
330
12580
102
}
330
12580
100
AcDbXrecord
280
     1
102
RTVSPost2010Prop28
280
     0
102
RTVSPost2010PropOp28
 70
     1
102
RTVSPost2010Prop29
280
     1
102
RTVSPost2010PropOp29
 70
     1
102
RTVSPost2010Prop30
280
     1
102
RTVSPost2010PropOp30
 70
     1
102
RTVSPost2010Prop31
280
     0
102
RTVSPost2010PropOp31
 70
     1
102
RTVSPost2010Prop32
280
     0
102
RTVSPost2010PropOp32
 70
     1
102
RTVSPost2010Prop33
280
     0
102
RTVSPost2010PropOp33
 70
     1
102
RTVSPost2010Prop34
280
     0
102
RTVSPost2010PropOp34
 70
     1
102
RTVSPost2010Prop35
280
     0
102
RTVSPost2010PropOp35
 70
     1
102
RTVSPost2010Prop36
280
     0
102
RTVSPost2010PropOp36
 70
     1
102
RTVSPost2010Prop37
 90
       50
102
RTVSPost2010PropOp37
 70
     1
102
RTVSPost2010Prop38
140
0.0
102
RTVSPost2010PropOp38
 70
     1
102
RTVSPost2010Prop39
140
1.0
102
RTVSPost2010PropOp39
 70
     1
102
RTVSPost2010Prop40
 90
        0
102
RTVSPost2010PropOp40
 70
     1
102
RTVSPost2010Prop41ColorIndex
 90
       18
102
RTVSPost2010Prop41ColorRGB
 90
        0
102
RTVSPost2010PropOp41
 70
     1
102
RTVSPost2010Prop42
 90
       50
102
RTVSPost2010PropOp42
 70
     1
102
RTVSPost2010Prop43
 90
        3
102
RTVSPost2010PropOp43
 70
     1
102
RTVSPost2010Prop44ColorIndex
 90
        5
102
RTVSPost2010Prop44ColorRGB
 90
      255
102
RTVSPost2010PropOp44
 70
     1
102
RTVSPost2010Prop45
280
     0
102
RTVSPost2010PropOp45
 70
     1
102
RTVSPost2010Prop46
 90
       50
102
RTVSPost2010PropOp46
 70
     1
102
RTVSPost2010Prop47
 90
       50
102
RTVSPost2010PropOp47
 70
     1
102
RTVSPost2010Prop48
 90
       50
102
RTVSPost2010PropOp48
 70
     1
102
RTVSPost2010Prop49
280
     0
102
RTVSPost2010PropOp49
 70
     1
102
RTVSPost2010Prop50
 90
       50
102
RTVSPost2010PropOp50
 70
     1
102
RTVSPost2010Prop51ColorIndex
 90
      256
102
RTVSPost2010Prop51ColorRGB
 90
-16777216
102
RTVSPost2010PropOp51
 70
     0
102
RTVSPost2010Prop52
140
1.0
102
RTVSPost2010PropOp52
 70
     0
102
RTVSPost2010Prop53
 90
        2
102
RTVSPost2010PropOp53
 70
     1
102
RTVSPost2010Prop54
  1
strokes_ogs.tif
102
RTVSPost2010PropOp54
 70
     1
102
RTVSPost2010Prop55
280
     0
102
RTVSPost2010PropOp55
 70
     1
102
RTVSPost2010Prop56
140
1.0
102
RTVSPost2010PropOp56
 70
     1
102
RTVSPost2010Prop57
140
1.0
102
RTVSPost2010PropOp57
 70
     1
102
RTVSPropertyOp0
 70
     1
102
RTVSPropertyOp1
 70
     1
102
RTVSPropertyOp2
 70
     1
102
RTVSPropertyOp3
 70
     1
102
RTVSPropertyOp4
 70
     1
102
RTVSPropertyOp5
 70
     1
102
RTVSPropertyOp6
 70
     1
102
RTVSPropertyOp7
 70
     1
102
RTVSPropertyOp8
 70
     1
102
RTVSPropertyOp9
 70
     1
102
RTVSPropertyOp10
 70
     1
102
RTVSPropertyOp11
 70
     1
102
RTVSPropertyOp12
 70
     1
102
RTVSPropertyOp13
 70
     1
102
RTVSPropertyOp14
 70
     1
102
RTVSPropertyOp15
 70
     1
102
RTVSPropertyOp16
 70
     1
102
RTVSPropertyOp17
 70
     1
102
RTVSPropertyOp18
 70
     1
102
RTVSPropertyOp19
 70
     1
102
RTVSPropertyOp20
 70
     1
102
RTVSPropertyOp21
 70
     1
102
RTVSPropertyOp22
 70
     1
102
RTVSPropertyOp23
 70
     1
102
RTVSPropertyOp24
 70
     1
102
RTVSPropertyOp25
 70
     1
102
RTVSPropertyOp26
 70
     1
102
RTVSPropertyOp27
 70
     1
102
RTVSPropertyOp28
 70
     1
102
RTVSPropertyOp29
 70
     1
102
RTVSPropertyOp30
 70
     1
102
RTVSPropertyOp31
 70
     1
102
RTVSPropertyOp32
 70
     1
102
RTVSPropertyOp33
 70
     1
102
RTVSPropertyOp34
 70
     1
102
RTVSPropertyOp35
 70
     1
102
RTVSPropertyOp36
 70
     1
102
RTVSPropertyOp37
 70
     1
102
RTVSPropertyOp38
 70
     1
102
RTVSPropertyOp39
 70
     1
102
RTVSPropertyOp40
 70
     1
102
RTVSPropertyOp41
 70
     1
102
RTVSPropertyOp42
 70
     1
102
RTVSPropertyOp43
 70
     1
102
RTVSPropertyOp44
 70
     1
102
RTVSPropertyOp45
 70
     1
102
RTVSPropertyOp46
 70
     1
102
RTVSPropertyOp47
 70
     1
102
RTVSPropertyOp48
 70
     1
102
RTVSPropertyOp49
 70
     1
102
RTVSPropertyOp50
 70
     1
102
RTVSPropertyOp51
 70
     0
102
RTVSPropertyOp52
 70
     0
102
RTVSPropertyOp53
 70
     1
102
RTVSPropertyOp54
 70
     1
102
RTVSPropertyOp55
 70
     1
102
RTVSPropertyOp56
 70
     1
102
RTVSPropertyOp57
 70
     1
102
RTVSPropertyOp58
 70
     1
102
RTVSPropertyOp59
 70
     1
102
RTVSPropertyOp60
 70
     1
102
RTVSPropertyOp61
 70
     1
102
RTVSPropertyOp62
 70
     1
  0
XRECORD
  5
12593
102
{ACAD_REACTORS
330
12592
102
}
330
12592
100
AcDbXrecord
280
     1
102
RTVSPost2010Prop28
280
     0
102
RTVSPost2010PropOp28
 70
     1
102
RTVSPost2010Prop29
280
     1
102
RTVSPost2010PropOp29
 70
     1
102
RTVSPost2010Prop30
280
     1
102
RTVSPost2010PropOp30
 70
     1
102
RTVSPost2010Prop31
280
     0
102
RTVSPost2010PropOp31
 70
     1
102
RTVSPost2010Prop32
280
     0
102
RTVSPost2010PropOp32
 70
     1
102
RTVSPost2010Prop33
280
     0
102
RTVSPost2010PropOp33
 70
     1
102
RTVSPost2010Prop34
280
     0
102
RTVSPost2010PropOp34
 70
     1
102
RTVSPost2010Prop35
280
     0
102
RTVSPost2010PropOp35
 70
     1
102
RTVSPost2010Prop36
280
     0
102
RTVSPost2010PropOp36
 70
     1
102
RTVSPost2010Prop37
 90
       50
102
RTVSPost2010PropOp37
 70
     1
102
RTVSPost2010Prop38
140
0.0
102
RTVSPost2010PropOp38
 70
     1
102
RTVSPost2010Prop39
140
1.0
102
RTVSPost2010PropOp39
 70
     1
102
RTVSPost2010Prop40
 90
        0
102
RTVSPost2010PropOp40
 70
     1
102
RTVSPost2010Prop41ColorIndex
 90
       18
102
RTVSPost2010Prop41ColorRGB
 90
        0
102
RTVSPost2010PropOp41
 70
     1
102
RTVSPost2010Prop42
 90
       50
102
RTVSPost2010PropOp42
 70
     1
102
RTVSPost2010Prop43
 90
        3
102
RTVSPost2010PropOp43
 70
     1
102
RTVSPost2010Prop44ColorIndex
 90
        5
102
RTVSPost2010Prop44ColorRGB
 90
      255
102
RTVSPost2010PropOp44
 70
     1
102
RTVSPost2010Prop45
280
     0
102
RTVSPost2010PropOp45
 70
     1
102
RTVSPost2010Prop46
 90
       50
102
RTVSPost2010PropOp46
 70
     1
102
RTVSPost2010Prop47
 90
       50
102
RTVSPost2010PropOp47
 70
     1
102
RTVSPost2010Prop48
 90
       50
102
RTVSPost2010PropOp48
 70
     1
102
RTVSPost2010Prop49
280
     0
102
RTVSPost2010PropOp49
 70
     1
102
RTVSPost2010Prop50
 90
       50
102
RTVSPost2010PropOp50
 70
     1
102
RTVSPost2010Prop51ColorIndex
 90
      256
102
RTVSPost2010Prop51ColorRGB
 90
-16777216
102
RTVSPost2010PropOp51
 70
     0
102
RTVSPost2010Prop52
140
1.0
102
RTVSPost2010PropOp52
 70
     0
102
RTVSPost2010Prop53
 90
        2
102
RTVSPost2010PropOp53
 70
     1
102
RTVSPost2010Prop54
  1
strokes_ogs.tif
102
RTVSPost2010PropOp54
 70
     1
102
RTVSPost2010Prop55
280
     0
102
RTVSPost2010PropOp55
 70
     1
102
RTVSPost2010Prop56
140
1.0
102
RTVSPost2010PropOp56
 70
     1
102
RTVSPost2010Prop57
140
1.0
102
RTVSPost2010PropOp57
 70
     1
102
RTVSPropertyOp0
 70
     0
102
RTVSPropertyOp1
 70
     0
102
RTVSPropertyOp2
 70
     0
102
RTVSPropertyOp3
 70
     0
102
RTVSPropertyOp4
 70
     0
102
RTVSPropertyOp5
 70
     0
102
RTVSPropertyOp6
 70
     0
102
RTVSPropertyOp7
 70
     0
102
RTVSPropertyOp8
 70
     0
102
RTVSPropertyOp9
 70
     0
102
RTVSPropertyOp10
 70
     0
102
RTVSPropertyOp11
 70
     0
102
RTVSPropertyOp12
 70
     0
102
RTVSPropertyOp13
 70
     0
102
RTVSPropertyOp14
 70
     2
102
RTVSPropertyOp15
 70
     0
102
RTVSPropertyOp16
 70
     0
102
RTVSPropertyOp17
 70
     0
102
RTVSPropertyOp18
 70
     0
102
RTVSPropertyOp19
 70
     0
102
RTVSPropertyOp20
 70
     0
102
RTVSPropertyOp21
 70
     0
102
RTVSPropertyOp22
 70
     0
102
RTVSPropertyOp23
 70
     0
102
RTVSPropertyOp24
 70
     0
102
RTVSPropertyOp25
 70
     0
102
RTVSPropertyOp26
 70
     0
102
RTVSPropertyOp27
 70
     0
102
RTVSPropertyOp28
 70
     1
102
RTVSPropertyOp29
 70
     1
102
RTVSPropertyOp30
 70
     1
102
RTVSPropertyOp31
 70
     1
102
RTVSPropertyOp32
 70
     1
102
RTVSPropertyOp33
 70
     1
102
RTVSPropertyOp34
 70
     1
102
RTVSPropertyOp35
 70
     1
102
RTVSPropertyOp36
 70
     1
102
RTVSPropertyOp37
 70
     1
102
RTVSPropertyOp38
 70
     1
102
RTVSPropertyOp39
 70
     1
102
RTVSPropertyOp40
 70
     1
102
RTVSPropertyOp41
 70
     1
102
RTVSPropertyOp42
 70
     1
102
RTVSPropertyOp43
 70
     1
102
RTVSPropertyOp44
 70
     1
102
RTVSPropertyOp45
 70
     1
102
RTVSPropertyOp46
 70
     1
102
RTVSPropertyOp47
 70
     1
102
RTVSPropertyOp48
 70
     1
102
RTVSPropertyOp49
 70
     1
102
RTVSPropertyOp50
 70
     1
102
RTVSPropertyOp51
 70
     0
102
RTVSPropertyOp52
 70
     0
102
RTVSPropertyOp53
 70
     1
102
RTVSPropertyOp54
 70
     1
102
RTVSPropertyOp55
 70
     1
102
RTVSPropertyOp56
 70
     1
102
RTVSPropertyOp57
 70
     1
102
RTVSPropertyOp58
 70
     1
102
RTVSPropertyOp59
 70
     1
102
RTVSPropertyOp60
 70
     1
102
RTVSPropertyOp61
 70
     1
102
RTVSPropertyOp62
 70
     1
  0
XRECORD
  5
12589
102
{ACAD_REACTORS
330
12588
102
}
330
12588
100
AcDbXrecord
280
     1
102
RTVSPost2010Prop28
280
     0
102
RTVSPost2010PropOp28
 70
     1
102
RTVSPost2010Prop29
280
     1
102
RTVSPost2010PropOp29
 70
     1
102
RTVSPost2010Prop30
280
     1
102
RTVSPost2010PropOp30
 70
     1
102
RTVSPost2010Prop31
280
     0
102
RTVSPost2010PropOp31
 70
     1
102
RTVSPost2010Prop32
280
     0
102
RTVSPost2010PropOp32
 70
     1
102
RTVSPost2010Prop33
280
     0
102
RTVSPost2010PropOp33
 70
     1
102
RTVSPost2010Prop34
280
     0
102
RTVSPost2010PropOp34
 70
     1
102
RTVSPost2010Prop35
280
     0
102
RTVSPost2010PropOp35
 70
     1
102
RTVSPost2010Prop36
280
     0
102
RTVSPost2010PropOp36
 70
     1
102
RTVSPost2010Prop37
 90
       50
102
RTVSPost2010PropOp37
 70
     1
102
RTVSPost2010Prop38
140
0.0
102
RTVSPost2010PropOp38
 70
     1
102
RTVSPost2010Prop39
140
1.0
102
RTVSPost2010PropOp39
 70
     1
102
RTVSPost2010Prop40
 90
        0
102
RTVSPost2010PropOp40
 70
     1
102
RTVSPost2010Prop41ColorIndex
 90
       18
102
RTVSPost2010Prop41ColorRGB
 90
        0
102
RTVSPost2010PropOp41
 70
     1
102
RTVSPost2010Prop42
 90
       50
102
RTVSPost2010PropOp42
 70
     1
102
RTVSPost2010Prop43
 90
        3
102
RTVSPost2010PropOp43
 70
     1
102
RTVSPost2010Prop44ColorIndex
 90
        5
102
RTVSPost2010Prop44ColorRGB
 90
      255
102
RTVSPost2010PropOp44
 70
     1
102
RTVSPost2010Prop45
280
     0
102
RTVSPost2010PropOp45
 70
     1
102
RTVSPost2010Prop46
 90
       50
102
RTVSPost2010PropOp46
 70
     1
102
RTVSPost2010Prop47
 90
       50
102
RTVSPost2010PropOp47
 70
     1
102
RTVSPost2010Prop48
 90
       50
102
RTVSPost2010PropOp48
 70
     1
102
RTVSPost2010Prop49
280
     0
102
RTVSPost2010PropOp49
 70
     1
102
RTVSPost2010Prop50
 90
       50
102
RTVSPost2010PropOp50
 70
     1
102
RTVSPost2010Prop51ColorIndex
 90
      256
102
RTVSPost2010Prop51ColorRGB
 90
-16777216
102
RTVSPost2010PropOp51
 70
     0
102
RTVSPost2010Prop52
140
1.0
102
RTVSPost2010PropOp52
 70
     0
102
RTVSPost2010Prop53
 90
        2
102
RTVSPost2010PropOp53
 70
     1
102
RTVSPost2010Prop54
  1
strokes_ogs.tif
102
RTVSPost2010PropOp54
 70
     1
102
RTVSPost2010Prop55
280
     0
102
RTVSPost2010PropOp55
 70
     1
102
RTVSPost2010Prop56
140
1.0
102
RTVSPost2010PropOp56
 70
     1
102
RTVSPost2010Prop57
140
1.0
102
RTVSPost2010PropOp57
 70
     1
102
RTVSPropertyOp0
 70
     1
102
RTVSPropertyOp1
 70
     1
102
RTVSPropertyOp2
 70
     1
102
RTVSPropertyOp3
 70
     1
102
RTVSPropertyOp4
 70
     1
102
RTVSPropertyOp5
 70
     1
102
RTVSPropertyOp6
 70
     1
102
RTVSPropertyOp7
 70
     1
102
RTVSPropertyOp8
 70
     1
102
RTVSPropertyOp9
 70
     1
102
RTVSPropertyOp10
 70
     1
102
RTVSPropertyOp11
 70
     1
102
RTVSPropertyOp12
 70
     1
102
RTVSPropertyOp13
 70
     1
102
RTVSPropertyOp14
 70
     1
102
RTVSPropertyOp15
 70
     1
102
RTVSPropertyOp16
 70
     1
102
RTVSPropertyOp17
 70
     1
102
RTVSPropertyOp18
 70
     1
102
RTVSPropertyOp19
 70
     1
102
RTVSPropertyOp20
 70
     1
102
RTVSPropertyOp21
 70
     1
102
RTVSPropertyOp22
 70
     1
102
RTVSPropertyOp23
 70
     1
102
RTVSPropertyOp24
 70
     1
102
RTVSPropertyOp25
 70
     1
102
RTVSPropertyOp26
 70
     1
102
RTVSPropertyOp27
 70
     1
102
RTVSPropertyOp28
 70
     1
102
RTVSPropertyOp29
 70
     1
102
RTVSPropertyOp30
 70
     1
102
RTVSPropertyOp31
 70
     1
102
RTVSPropertyOp32
 70
     1
102
RTVSPropertyOp33
 70
     1
102
RTVSPropertyOp34
 70
     1
102
RTVSPropertyOp35
 70
     1
102
RTVSPropertyOp36
 70
     1
102
RTVSPropertyOp37
 70
     1
102
RTVSPropertyOp38
 70
     1
102
RTVSPropertyOp39
 70
     1
102
RTVSPropertyOp40
 70
     1
102
RTVSPropertyOp41
 70
     1
102
RTVSPropertyOp42
 70
     1
102
RTVSPropertyOp43
 70
     1
102
RTVSPropertyOp44
 70
     1
102
RTVSPropertyOp45
 70
     1
102
RTVSPropertyOp46
 70
     1
102
RTVSPropertyOp47
 70
     1
102
RTVSPropertyOp48
 70
     1
102
RTVSPropertyOp49
 70
     1
102
RTVSPropertyOp50
 70
     1
102
RTVSPropertyOp51
 70
     0
102
RTVSPropertyOp52
 70
     0
102
RTVSPropertyOp53
 70
     1
102
RTVSPropertyOp54
 70
     1
102
RTVSPropertyOp55
 70
     1
102
RTVSPropertyOp56
 70
     1
102
RTVSPropertyOp57
 70
     1
102
RTVSPropertyOp58
 70
     1
102
RTVSPropertyOp59
 70
     1
102
RTVSPropertyOp60
 70
     1
102
RTVSPropertyOp61
 70
     1
102
RTVSPropertyOp62
 70
     1
  0
XRECORD
  5
1256D
102
{ACAD_REACTORS
330
1256C
102
}
330
1256C
100
AcDbXrecord
280
     1
102
RTVSPost2010Prop28
280
     0
102
RTVSPost2010PropOp28
 70
     1
102
RTVSPost2010Prop29
280
     1
102
RTVSPost2010PropOp29
 70
     1
102
RTVSPost2010Prop30
280
     1
102
RTVSPost2010PropOp30
 70
     1
102
RTVSPost2010Prop31
280
     0
102
RTVSPost2010PropOp31
 70
     1
102
RTVSPost2010Prop32
280
     0
102
RTVSPost2010PropOp32
 70
     1
102
RTVSPost2010Prop33
280
     0
102
RTVSPost2010PropOp33
 70
     1
102
RTVSPost2010Prop34
280
     0
102
RTVSPost2010PropOp34
 70
     1
102
RTVSPost2010Prop35
280
     0
102
RTVSPost2010PropOp35
 70
     1
102
RTVSPost2010Prop36
280
     0
102
RTVSPost2010PropOp36
 70
     1
102
RTVSPost2010Prop37
 90
       50
102
RTVSPost2010PropOp37
 70
     1
102
RTVSPost2010Prop38
140
0.0
102
RTVSPost2010PropOp38
 70
     1
102
RTVSPost2010Prop39
140
1.0
102
RTVSPost2010PropOp39
 70
     1
102
RTVSPost2010Prop40
 90
        0
102
RTVSPost2010PropOp40
 70
     1
102
RTVSPost2010Prop41ColorIndex
 90
       18
102
RTVSPost2010Prop41ColorRGB
 90
        0
102
RTVSPost2010PropOp41
 70
     1
102
RTVSPost2010Prop42
 90
       50
102
RTVSPost2010PropOp42
 70
     1
102
RTVSPost2010Prop43
 90
        3
102
RTVSPost2010PropOp43
 70
     1
102
RTVSPost2010Prop44ColorIndex
 90
        5
102
RTVSPost2010Prop44ColorRGB
 90
      255
102
RTVSPost2010PropOp44
 70
     1
102
RTVSPost2010Prop45
280
     0
102
RTVSPost2010PropOp45
 70
     1
102
RTVSPost2010Prop46
 90
       50
102
RTVSPost2010PropOp46
 70
     1
102
RTVSPost2010Prop47
 90
       50
102
RTVSPost2010PropOp47
 70
     1
102
RTVSPost2010Prop48
 90
       50
102
RTVSPost2010PropOp48
 70
     1
102
RTVSPost2010Prop49
280
     0
102
RTVSPost2010PropOp49
 70
     1
102
RTVSPost2010Prop50
 90
       50
102
RTVSPost2010PropOp50
 70
     1
102
RTVSPost2010Prop51ColorIndex
 90
      256
102
RTVSPost2010Prop51ColorRGB
 90
-16777216
102
RTVSPost2010PropOp51
 70
     0
102
RTVSPost2010Prop52
140
1.0
102
RTVSPost2010PropOp52
 70
     0
102
RTVSPost2010Prop53
 90
        2
102
RTVSPost2010PropOp53
 70
     1
102
RTVSPost2010Prop54
  1
strokes_ogs.tif
102
RTVSPost2010PropOp54
 70
     1
102
RTVSPost2010Prop55
280
     0
102
RTVSPost2010PropOp55
 70
     1
102
RTVSPost2010Prop56
140
1.0
102
RTVSPost2010PropOp56
 70
     1
102
RTVSPost2010Prop57
140
1.0
102
RTVSPost2010PropOp57
 70
     1
102
RTVSPropertyOp0
 70
     1
102
RTVSPropertyOp1
 70
     1
102
RTVSPropertyOp2
 70
     1
102
RTVSPropertyOp3
 70
     1
102
RTVSPropertyOp4
 70
     1
102
RTVSPropertyOp5
 70
     1
102
RTVSPropertyOp6
 70
     1
102
RTVSPropertyOp7
 70
     1
102
RTVSPropertyOp8
 70
     1
102
RTVSPropertyOp9
 70
     1
102
RTVSPropertyOp10
 70
     1
102
RTVSPropertyOp11
 70
     1
102
RTVSPropertyOp12
 70
     1
102
RTVSPropertyOp13
 70
     1
102
RTVSPropertyOp14
 70
     1
102
RTVSPropertyOp15
 70
     1
102
RTVSPropertyOp16
 70
     1
102
RTVSPropertyOp17
 70
     1
102
RTVSPropertyOp18
 70
     1
102
RTVSPropertyOp19
 70
     1
102
RTVSPropertyOp20
 70
     1
102
RTVSPropertyOp21
 70
     1
102
RTVSPropertyOp22
 70
     1
102
RTVSPropertyOp23
 70
     1
102
RTVSPropertyOp24
 70
     1
102
RTVSPropertyOp25
 70
     1
102
RTVSPropertyOp26
 70
     1
102
RTVSPropertyOp27
 70
     1
102
RTVSPropertyOp28
 70
     1
102
RTVSPropertyOp29
 70
     1
102
RTVSPropertyOp30
 70
     1
102
RTVSPropertyOp31
 70
     1
102
RTVSPropertyOp32
 70
     1
102
RTVSPropertyOp33
 70
     1
102
RTVSPropertyOp34
 70
     1
102
RTVSPropertyOp35
 70
     1
102
RTVSPropertyOp36
 70
     1
102
RTVSPropertyOp37
 70
     1
102
RTVSPropertyOp38
 70
     1
102
RTVSPropertyOp39
 70
     1
102
RTVSPropertyOp40
 70
     1
102
RTVSPropertyOp41
 70
     1
102
RTVSPropertyOp42
 70
     1
102
RTVSPropertyOp43
 70
     1
102
RTVSPropertyOp44
 70
     1
102
RTVSPropertyOp45
 70
     1
102
RTVSPropertyOp46
 70
     1
102
RTVSPropertyOp47
 70
     1
102
RTVSPropertyOp48
 70
     1
102
RTVSPropertyOp49
 70
     1
102
RTVSPropertyOp50
 70
     1
102
RTVSPropertyOp51
 70
     0
102
RTVSPropertyOp52
 70
     0
102
RTVSPropertyOp53
 70
     1
102
RTVSPropertyOp54
 70
     1
102
RTVSPropertyOp55
 70
     1
102
RTVSPropertyOp56
 70
     1
102
RTVSPropertyOp57
 70
     1
102
RTVSPropertyOp58
 70
     1
102
RTVSPropertyOp59
 70
     1
102
RTVSPropertyOp60
 70
     1
102
RTVSPropertyOp61
 70
     1
102
RTVSPropertyOp62
 70
     1
  0
XRECORD
  5
1256F
102
{ACAD_REACTORS
330
1256E
102
}
330
1256E
100
AcDbXrecord
280
     1
102
RTVSPost2010Prop28
280
     0
102
RTVSPost2010PropOp28
 70
     1
102
RTVSPost2010Prop29
280
     1
102
RTVSPost2010PropOp29
 70
     1
102
RTVSPost2010Prop30
280
     1
102
RTVSPost2010PropOp30
 70
     1
102
RTVSPost2010Prop31
280
     0
102
RTVSPost2010PropOp31
 70
     1
102
RTVSPost2010Prop32
280
     0
102
RTVSPost2010PropOp32
 70
     1
102
RTVSPost2010Prop33
280
     0
102
RTVSPost2010PropOp33
 70
     1
102
RTVSPost2010Prop34
280
     0
102
RTVSPost2010PropOp34
 70
     1
102
RTVSPost2010Prop35
280
     0
102
RTVSPost2010PropOp35
 70
     1
102
RTVSPost2010Prop36
280
     0
102
RTVSPost2010PropOp36
 70
     1
102
RTVSPost2010Prop37
 90
       50
102
RTVSPost2010PropOp37
 70
     1
102
RTVSPost2010Prop38
140
0.0
102
RTVSPost2010PropOp38
 70
     1
102
RTVSPost2010Prop39
140
1.0
102
RTVSPost2010PropOp39
 70
     1
102
RTVSPost2010Prop40
 90
        0
102
RTVSPost2010PropOp40
 70
     1
102
RTVSPost2010Prop41ColorIndex
 90
       18
102
RTVSPost2010Prop41ColorRGB
 90
        0
102
RTVSPost2010PropOp41
 70
     1
102
RTVSPost2010Prop42
 90
       50
102
RTVSPost2010PropOp42
 70
     1
102
RTVSPost2010Prop43
 90
        3
102
RTVSPost2010PropOp43
 70
     1
102
RTVSPost2010Prop44ColorIndex
 90
        5
102
RTVSPost2010Prop44ColorRGB
 90
      255
102
RTVSPost2010PropOp44
 70
     1
102
RTVSPost2010Prop45
280
     0
102
RTVSPost2010PropOp45
 70
     1
102
RTVSPost2010Prop46
 90
       50
102
RTVSPost2010PropOp46
 70
     1
102
RTVSPost2010Prop47
 90
       50
102
RTVSPost2010PropOp47
 70
     1
102
RTVSPost2010Prop48
 90
       50
102
RTVSPost2010PropOp48
 70
     1
102
RTVSPost2010Prop49
280
     0
102
RTVSPost2010PropOp49
 70
     1
102
RTVSPost2010Prop50
 90
       50
102
RTVSPost2010PropOp50
 70
     1
102
RTVSPost2010Prop51ColorIndex
 90
      256
102
RTVSPost2010Prop51ColorRGB
 90
-16777216
102
RTVSPost2010PropOp51
 70
     0
102
RTVSPost2010Prop52
140
1.0
102
RTVSPost2010PropOp52
 70
     0
102
RTVSPost2010Prop53
 90
        2
102
RTVSPost2010PropOp53
 70
     1
102
RTVSPost2010Prop54
  1
strokes_ogs.tif
102
RTVSPost2010PropOp54
 70
     1
102
RTVSPost2010Prop55
280
     0
102
RTVSPost2010PropOp55
 70
     1
102
RTVSPost2010Prop56
140
1.0
102
RTVSPost2010PropOp56
 70
     1
102
RTVSPost2010Prop57
140
1.0
102
RTVSPost2010PropOp57
 70
     1
102
RTVSPropertyOp0
 70
     1
102
RTVSPropertyOp1
 70
     1
102
RTVSPropertyOp2
 70
     1
102
RTVSPropertyOp3
 70
     1
102
RTVSPropertyOp4
 70
     1
102
RTVSPropertyOp5
 70
     1
102
RTVSPropertyOp6
 70
     1
102
RTVSPropertyOp7
 70
     1
102
RTVSPropertyOp8
 70
     1
102
RTVSPropertyOp9
 70
     1
102
RTVSPropertyOp10
 70
     1
102
RTVSPropertyOp11
 70
     1
102
RTVSPropertyOp12
 70
     1
102
RTVSPropertyOp13
 70
     1
102
RTVSPropertyOp14
 70
     1
102
RTVSPropertyOp15
 70
     1
102
RTVSPropertyOp16
 70
     1
102
RTVSPropertyOp17
 70
     1
102
RTVSPropertyOp18
 70
     1
102
RTVSPropertyOp19
 70
     1
102
RTVSPropertyOp20
 70
     1
102
RTVSPropertyOp21
 70
     1
102
RTVSPropertyOp22
 70
     1
102
RTVSPropertyOp23
 70
     1
102
RTVSPropertyOp24
 70
     1
102
RTVSPropertyOp25
 70
     1
102
RTVSPropertyOp26
 70
     1
102
RTVSPropertyOp27
 70
     1
102
RTVSPropertyOp28
 70
     1
102
RTVSPropertyOp29
 70
     1
102
RTVSPropertyOp30
 70
     1
102
RTVSPropertyOp31
 70
     1
102
RTVSPropertyOp32
 70
     1
102
RTVSPropertyOp33
 70
     1
102
RTVSPropertyOp34
 70
     1
102
RTVSPropertyOp35
 70
     1
102
RTVSPropertyOp36
 70
     1
102
RTVSPropertyOp37
 70
     1
102
RTVSPropertyOp38
 70
     1
102
RTVSPropertyOp39
 70
     1
102
RTVSPropertyOp40
 70
     1
102
RTVSPropertyOp41
 70
     1
102
RTVSPropertyOp42
 70
     1
102
RTVSPropertyOp43
 70
     1
102
RTVSPropertyOp44
 70
     1
102
RTVSPropertyOp45
 70
     1
102
RTVSPropertyOp46
 70
     1
102
RTVSPropertyOp47
 70
     1
102
RTVSPropertyOp48
 70
     1
102
RTVSPropertyOp49
 70
     1
102
RTVSPropertyOp50
 70
     1
102
RTVSPropertyOp51
 70
     0
102
RTVSPropertyOp52
 70
     0
102
RTVSPropertyOp53
 70
     1
102
RTVSPropertyOp54
 70
     1
102
RTVSPropertyOp55
 70
     1
102
RTVSPropertyOp56
 70
     1
102
RTVSPropertyOp57
 70
     1
102
RTVSPropertyOp58
 70
     1
102
RTVSPropertyOp59
 70
     1
102
RTVSPropertyOp60
 70
     1
102
RTVSPropertyOp61
 70
     1
102
RTVSPropertyOp62
 70
     1
  0
XRECORD
  5
12571
102
{ACAD_REACTORS
330
12570
102
}
330
12570
100
AcDbXrecord
280
     1
102
RTVSPost2010Prop28
280
     0
102
RTVSPost2010PropOp28
 70
     1
102
RTVSPost2010Prop29
280
     1
102
RTVSPost2010PropOp29
 70
     1
102
RTVSPost2010Prop30
280
     1
102
RTVSPost2010PropOp30
 70
     1
102
RTVSPost2010Prop31
280
     0
102
RTVSPost2010PropOp31
 70
     1
102
RTVSPost2010Prop32
280
     0
102
RTVSPost2010PropOp32
 70
     1
102
RTVSPost2010Prop33
280
     0
102
RTVSPost2010PropOp33
 70
     1
102
RTVSPost2010Prop34
280
     0
102
RTVSPost2010PropOp34
 70
     1
102
RTVSPost2010Prop35
280
     0
102
RTVSPost2010PropOp35
 70
     1
102
RTVSPost2010Prop36
280
     0
102
RTVSPost2010PropOp36
 70
     1
102
RTVSPost2010Prop37
 90
       50
102
RTVSPost2010PropOp37
 70
     1
102
RTVSPost2010Prop38
140
0.0
102
RTVSPost2010PropOp38
 70
     1
102
RTVSPost2010Prop39
140
1.0
102
RTVSPost2010PropOp39
 70
     1
102
RTVSPost2010Prop40
 90
        0
102
RTVSPost2010PropOp40
 70
     1
102
RTVSPost2010Prop41ColorIndex
 90
       18
102
RTVSPost2010Prop41ColorRGB
 90
        0
102
RTVSPost2010PropOp41
 70
     1
102
RTVSPost2010Prop42
 90
       50
102
RTVSPost2010PropOp42
 70
     1
102
RTVSPost2010Prop43
 90
        3
102
RTVSPost2010PropOp43
 70
     1
102
RTVSPost2010Prop44ColorIndex
 90
        5
102
RTVSPost2010Prop44ColorRGB
 90
      255
102
RTVSPost2010PropOp44
 70
     1
102
RTVSPost2010Prop45
280
     0
102
RTVSPost2010PropOp45
 70
     1
102
RTVSPost2010Prop46
 90
       50
102
RTVSPost2010PropOp46
 70
     1
102
RTVSPost2010Prop47
 90
       50
102
RTVSPost2010PropOp47
 70
     1
102
RTVSPost2010Prop48
 90
       50
102
RTVSPost2010PropOp48
 70
     1
102
RTVSPost2010Prop49
280
     0
102
RTVSPost2010PropOp49
 70
     1
102
RTVSPost2010Prop50
 90
       50
102
RTVSPost2010PropOp50
 70
     1
102
RTVSPost2010Prop51ColorIndex
 90
      256
102
RTVSPost2010Prop51ColorRGB
 90
-16777216
102
RTVSPost2010PropOp51
 70
     0
102
RTVSPost2010Prop52
140
1.0
102
RTVSPost2010PropOp52
 70
     0
102
RTVSPost2010Prop53
 90
        2
102
RTVSPost2010PropOp53
 70
     1
102
RTVSPost2010Prop54
  1
strokes_ogs.tif
102
RTVSPost2010PropOp54
 70
     1
102
RTVSPost2010Prop55
280
     0
102
RTVSPost2010PropOp55
 70
     1
102
RTVSPost2010Prop56
140
1.0
102
RTVSPost2010PropOp56
 70
     1
102
RTVSPost2010Prop57
140
1.0
102
RTVSPost2010PropOp57
 70
     1
102
RTVSPropertyOp0
 70
     1
102
RTVSPropertyOp1
 70
     1
102
RTVSPropertyOp2
 70
     1
102
RTVSPropertyOp3
 70
     1
102
RTVSPropertyOp4
 70
     1
102
RTVSPropertyOp5
 70
     1
102
RTVSPropertyOp6
 70
     1
102
RTVSPropertyOp7
 70
     1
102
RTVSPropertyOp8
 70
     1
102
RTVSPropertyOp9
 70
     1
102
RTVSPropertyOp10
 70
     1
102
RTVSPropertyOp11
 70
     1
102
RTVSPropertyOp12
 70
     1
102
RTVSPropertyOp13
 70
     1
102
RTVSPropertyOp14
 70
     1
102
RTVSPropertyOp15
 70
     1
102
RTVSPropertyOp16
 70
     1
102
RTVSPropertyOp17
 70
     1
102
RTVSPropertyOp18
 70
     1
102
RTVSPropertyOp19
 70
     1
102
RTVSPropertyOp20
 70
     1
102
RTVSPropertyOp21
 70
     1
102
RTVSPropertyOp22
 70
     1
102
RTVSPropertyOp23
 70
     1
102
RTVSPropertyOp24
 70
     1
102
RTVSPropertyOp25
 70
     1
102
RTVSPropertyOp26
 70
     1
102
RTVSPropertyOp27
 70
     1
102
RTVSPropertyOp28
 70
     1
102
RTVSPropertyOp29
 70
     1
102
RTVSPropertyOp30
 70
     1
102
RTVSPropertyOp31
 70
     1
102
RTVSPropertyOp32
 70
     1
102
RTVSPropertyOp33
 70
     1
102
RTVSPropertyOp34
 70
     1
102
RTVSPropertyOp35
 70
     1
102
RTVSPropertyOp36
 70
     1
102
RTVSPropertyOp37
 70
     1
102
RTVSPropertyOp38
 70
     1
102
RTVSPropertyOp39
 70
     1
102
RTVSPropertyOp40
 70
     1
102
RTVSPropertyOp41
 70
     1
102
RTVSPropertyOp42
 70
     1
102
RTVSPropertyOp43
 70
     1
102
RTVSPropertyOp44
 70
     1
102
RTVSPropertyOp45
 70
     1
102
RTVSPropertyOp46
 70
     1
102
RTVSPropertyOp47
 70
     1
102
RTVSPropertyOp48
 70
     1
102
RTVSPropertyOp49
 70
     1
102
RTVSPropertyOp50
 70
     1
102
RTVSPropertyOp51
 70
     0
102
RTVSPropertyOp52
 70
     0
102
RTVSPropertyOp53
 70
     1
102
RTVSPropertyOp54
 70
     1
102
RTVSPropertyOp55
 70
     1
102
RTVSPropertyOp56
 70
     1
102
RTVSPropertyOp57
 70
     1
102
RTVSPropertyOp58
 70
     1
102
RTVSPropertyOp59
 70
     1
102
RTVSPropertyOp60
 70
     1
102
RTVSPropertyOp61
 70
     1
102
RTVSPropertyOp62
 70
     1
  0
XRECORD
  5
12573
102
{ACAD_REACTORS
330
12572
102
}
330
12572
100
AcDbXrecord
280
     1
102
RTVSPost2010Prop28
280
     0
102
RTVSPost2010PropOp28
 70
     1
102
RTVSPost2010Prop29
280
     1
102
RTVSPost2010PropOp29
 70
     1
102
RTVSPost2010Prop30
280
     1
102
RTVSPost2010PropOp30
 70
     1
102
RTVSPost2010Prop31
280
     0
102
RTVSPost2010PropOp31
 70
     1
102
RTVSPost2010Prop32
280
     0
102
RTVSPost2010PropOp32
 70
     1
102
RTVSPost2010Prop33
280
     0
102
RTVSPost2010PropOp33
 70
     1
102
RTVSPost2010Prop34
280
     0
102
RTVSPost2010PropOp34
 70
     1
102
RTVSPost2010Prop35
280
     0
102
RTVSPost2010PropOp35
 70
     1
102
RTVSPost2010Prop36
280
     0
102
RTVSPost2010PropOp36
 70
     1
102
RTVSPost2010Prop37
 90
       50
102
RTVSPost2010PropOp37
 70
     1
102
RTVSPost2010Prop38
140
0.0
102
RTVSPost2010PropOp38
 70
     1
102
RTVSPost2010Prop39
140
1.0
102
RTVSPost2010PropOp39
 70
     1
102
RTVSPost2010Prop40
 90
        0
102
RTVSPost2010PropOp40
 70
     1
102
RTVSPost2010Prop41ColorIndex
 90
       18
102
RTVSPost2010Prop41ColorRGB
 90
        0
102
RTVSPost2010PropOp41
 70
     1
102
RTVSPost2010Prop42
 90
       50
102
RTVSPost2010PropOp42
 70
     1
102
RTVSPost2010Prop43
 90
        3
102
RTVSPost2010PropOp43
 70
     1
102
RTVSPost2010Prop44ColorIndex
 90
        5
102
RTVSPost2010Prop44ColorRGB
 90
      255
102
RTVSPost2010PropOp44
 70
     1
102
RTVSPost2010Prop45
280
     0
102
RTVSPost2010PropOp45
 70
     1
102
RTVSPost2010Prop46
 90
       50
102
RTVSPost2010PropOp46
 70
     1
102
RTVSPost2010Prop47
 90
       50
102
RTVSPost2010PropOp47
 70
     1
102
RTVSPost2010Prop48
 90
       50
102
RTVSPost2010PropOp48
 70
     1
102
RTVSPost2010Prop49
280
     0
102
RTVSPost2010PropOp49
 70
     1
102
RTVSPost2010Prop50
 90
       50
102
RTVSPost2010PropOp50
 70
     1
102
RTVSPost2010Prop51ColorIndex
 90
      256
102
RTVSPost2010Prop51ColorRGB
 90
-16777216
102
RTVSPost2010PropOp51
 70
     0
102
RTVSPost2010Prop52
140
1.0
102
RTVSPost2010PropOp52
 70
     0
102
RTVSPost2010Prop53
 90
        2
102
RTVSPost2010PropOp53
 70
     1
102
RTVSPost2010Prop54
  1
strokes_ogs.tif
102
RTVSPost2010PropOp54
 70
     1
102
RTVSPost2010Prop55
280
     0
102
RTVSPost2010PropOp55
 70
     1
102
RTVSPost2010Prop56
140
1.0
102
RTVSPost2010PropOp56
 70
     1
102
RTVSPost2010Prop57
140
1.0
102
RTVSPost2010PropOp57
 70
     1
102
RTVSPropertyOp0
 70
     1
102
RTVSPropertyOp1
 70
     1
102
RTVSPropertyOp2
 70
     1
102
RTVSPropertyOp3
 70
     1
102
RTVSPropertyOp4
 70
     1
102
RTVSPropertyOp5
 70
     1
102
RTVSPropertyOp6
 70
     1
102
RTVSPropertyOp7
 70
     1
102
RTVSPropertyOp8
 70
     1
102
RTVSPropertyOp9
 70
     1
102
RTVSPropertyOp10
 70
     1
102
RTVSPropertyOp11
 70
     1
102
RTVSPropertyOp12
 70
     1
102
RTVSPropertyOp13
 70
     1
102
RTVSPropertyOp14
 70
     1
102
RTVSPropertyOp15
 70
     1
102
RTVSPropertyOp16
 70
     1
102
RTVSPropertyOp17
 70
     1
102
RTVSPropertyOp18
 70
     1
102
RTVSPropertyOp19
 70
     1
102
RTVSPropertyOp20
 70
     1
102
RTVSPropertyOp21
 70
     1
102
RTVSPropertyOp22
 70
     1
102
RTVSPropertyOp23
 70
     1
102
RTVSPropertyOp24
 70
     1
102
RTVSPropertyOp25
 70
     1
102
RTVSPropertyOp26
 70
     1
102
RTVSPropertyOp27
 70
     1
102
RTVSPropertyOp28
 70
     1
102
RTVSPropertyOp29
 70
     1
102
RTVSPropertyOp30
 70
     1
102
RTVSPropertyOp31
 70
     1
102
RTVSPropertyOp32
 70
     1
102
RTVSPropertyOp33
 70
     1
102
RTVSPropertyOp34
 70
     1
102
RTVSPropertyOp35
 70
     1
102
RTVSPropertyOp36
 70
     1
102
RTVSPropertyOp37
 70
     1
102
RTVSPropertyOp38
 70
     1
102
RTVSPropertyOp39
 70
     1
102
RTVSPropertyOp40
 70
     1
102
RTVSPropertyOp41
 70
     1
102
RTVSPropertyOp42
 70
     1
102
RTVSPropertyOp43
 70
     1
102
RTVSPropertyOp44
 70
     1
102
RTVSPropertyOp45
 70
     1
102
RTVSPropertyOp46
 70
     1
102
RTVSPropertyOp47
 70
     1
102
RTVSPropertyOp48
 70
     1
102
RTVSPropertyOp49
 70
     1
102
RTVSPropertyOp50
 70
     1
102
RTVSPropertyOp51
 70
     0
102
RTVSPropertyOp52
 70
     0
102
RTVSPropertyOp53
 70
     1
102
RTVSPropertyOp54
 70
     1
102
RTVSPropertyOp55
 70
     1
102
RTVSPropertyOp56
 70
     1
102
RTVSPropertyOp57
 70
     1
102
RTVSPropertyOp58
 70
     1
102
RTVSPropertyOp59
 70
     1
102
RTVSPropertyOp60
 70
     1
102
RTVSPropertyOp61
 70
     1
102
RTVSPropertyOp62
 70
     1
  0
XRECORD
  5
1257B
102
{ACAD_REACTORS
330
1257A
102
}
330
1257A
100
AcDbXrecord
280
     1
102
RTVSPost2010Prop28
280
     0
102
RTVSPost2010PropOp28
 70
     1
102
RTVSPost2010Prop29
280
     1
102
RTVSPost2010PropOp29
 70
     1
102
RTVSPost2010Prop30
280
     1
102
RTVSPost2010PropOp30
 70
     1
102
RTVSPost2010Prop31
280
     0
102
RTVSPost2010PropOp31
 70
     1
102
RTVSPost2010Prop32
280
     0
102
RTVSPost2010PropOp32
 70
     1
102
RTVSPost2010Prop33
280
     0
102
RTVSPost2010PropOp33
 70
     1
102
RTVSPost2010Prop34
280
     0
102
RTVSPost2010PropOp34
 70
     1
102
RTVSPost2010Prop35
280
     0
102
RTVSPost2010PropOp35
 70
     1
102
RTVSPost2010Prop36
280
     0
102
RTVSPost2010PropOp36
 70
     1
102
RTVSPost2010Prop37
 90
       50
102
RTVSPost2010PropOp37
 70
     1
102
RTVSPost2010Prop38
140
0.0
102
RTVSPost2010PropOp38
 70
     1
102
RTVSPost2010Prop39
140
1.0
102
RTVSPost2010PropOp39
 70
     1
102
RTVSPost2010Prop40
 90
        0
102
RTVSPost2010PropOp40
 70
     1
102
RTVSPost2010Prop41ColorIndex
 90
       18
102
RTVSPost2010Prop41ColorRGB
 90
        0
102
RTVSPost2010PropOp41
 70
     1
102
RTVSPost2010Prop42
 90
       50
102
RTVSPost2010PropOp42
 70
     1
102
RTVSPost2010Prop43
 90
        3
102
RTVSPost2010PropOp43
 70
     1
102
RTVSPost2010Prop44ColorIndex
 90
        5
102
RTVSPost2010Prop44ColorRGB
 90
      255
102
RTVSPost2010PropOp44
 70
     1
102
RTVSPost2010Prop45
280
     0
102
RTVSPost2010PropOp45
 70
     1
102
RTVSPost2010Prop46
 90
       50
102
RTVSPost2010PropOp46
 70
     1
102
RTVSPost2010Prop47
 90
       50
102
RTVSPost2010PropOp47
 70
     1
102
RTVSPost2010Prop48
 90
       50
102
RTVSPost2010PropOp48
 70
     1
102
RTVSPost2010Prop49
280
     0
102
RTVSPost2010PropOp49
 70
     1
102
RTVSPost2010Prop50
 90
       50
102
RTVSPost2010PropOp50
 70
     1
102
RTVSPost2010Prop51ColorIndex
 90
      256
102
RTVSPost2010Prop51ColorRGB
 90
-16777216
102
RTVSPost2010PropOp51
 70
     0
102
RTVSPost2010Prop52
140
1.0
102
RTVSPost2010PropOp52
 70
     0
102
RTVSPost2010Prop53
 90
        2
102
RTVSPost2010PropOp53
 70
     1
102
RTVSPost2010Prop54
  1
strokes_ogs.tif
102
RTVSPost2010PropOp54
 70
     1
102
RTVSPost2010Prop55
280
     0
102
RTVSPost2010PropOp55
 70
     1
102
RTVSPost2010Prop56
140
1.0
102
RTVSPost2010PropOp56
 70
     1
102
RTVSPost2010Prop57
140
1.0
102
RTVSPost2010PropOp57
 70
     1
102
RTVSPropertyOp0
 70
     1
102
RTVSPropertyOp1
 70
     1
102
RTVSPropertyOp2
 70
     1
102
RTVSPropertyOp3
 70
     1
102
RTVSPropertyOp4
 70
     1
102
RTVSPropertyOp5
 70
     1
102
RTVSPropertyOp6
 70
     1
102
RTVSPropertyOp7
 70
     1
102
RTVSPropertyOp8
 70
     1
102
RTVSPropertyOp9
 70
     1
102
RTVSPropertyOp10
 70
     1
102
RTVSPropertyOp11
 70
     1
102
RTVSPropertyOp12
 70
     1
102
RTVSPropertyOp13
 70
     1
102
RTVSPropertyOp14
 70
     1
102
RTVSPropertyOp15
 70
     1
102
RTVSPropertyOp16
 70
     1
102
RTVSPropertyOp17
 70
     1
102
RTVSPropertyOp18
 70
     1
102
RTVSPropertyOp19
 70
     1
102
RTVSPropertyOp20
 70
     1
102
RTVSPropertyOp21
 70
     1
102
RTVSPropertyOp22
 70
     1
102
RTVSPropertyOp23
 70
     1
102
RTVSPropertyOp24
 70
     1
102
RTVSPropertyOp25
 70
     1
102
RTVSPropertyOp26
 70
     1
102
RTVSPropertyOp27
 70
     1
102
RTVSPropertyOp28
 70
     1
102
RTVSPropertyOp29
 70
     1
102
RTVSPropertyOp30
 70
     1
102
RTVSPropertyOp31
 70
     1
102
RTVSPropertyOp32
 70
     1
102
RTVSPropertyOp33
 70
     1
102
RTVSPropertyOp34
 70
     1
102
RTVSPropertyOp35
 70
     1
102
RTVSPropertyOp36
 70
     1
102
RTVSPropertyOp37
 70
     1
102
RTVSPropertyOp38
 70
     1
102
RTVSPropertyOp39
 70
     1
102
RTVSPropertyOp40
 70
     1
102
RTVSPropertyOp41
 70
     1
102
RTVSPropertyOp42
 70
     1
102
RTVSPropertyOp43
 70
     1
102
RTVSPropertyOp44
 70
     1
102
RTVSPropertyOp45
 70
     1
102
RTVSPropertyOp46
 70
     1
102
RTVSPropertyOp47
 70
     1
102
RTVSPropertyOp48
 70
     1
102
RTVSPropertyOp49
 70
     1
102
RTVSPropertyOp50
 70
     1
102
RTVSPropertyOp51
 70
     0
102
RTVSPropertyOp52
 70
     0
102
RTVSPropertyOp53
 70
     1
102
RTVSPropertyOp54
 70
     1
102
RTVSPropertyOp55
 70
     1
102
RTVSPropertyOp56
 70
     1
102
RTVSPropertyOp57
 70
     1
102
RTVSPropertyOp58
 70
     1
102
RTVSPropertyOp59
 70
     1
102
RTVSPropertyOp60
 70
     1
102
RTVSPropertyOp61
 70
     1
102
RTVSPropertyOp62
 70
     1
  0
XRECORD
  5
1258F
102
{ACAD_REACTORS
330
1258E
102
}
330
1258E
100
AcDbXrecord
280
     1
102
RTVSPost2010Prop28
280
     0
102
RTVSPost2010PropOp28
 70
     1
102
RTVSPost2010Prop29
280
     1
102
RTVSPost2010PropOp29
 70
     1
102
RTVSPost2010Prop30
280
     1
102
RTVSPost2010PropOp30
 70
     1
102
RTVSPost2010Prop31
280
     0
102
RTVSPost2010PropOp31
 70
     1
102
RTVSPost2010Prop32
280
     0
102
RTVSPost2010PropOp32
 70
     1
102
RTVSPost2010Prop33
280
     0
102
RTVSPost2010PropOp33
 70
     1
102
RTVSPost2010Prop34
280
     0
102
RTVSPost2010PropOp34
 70
     1
102
RTVSPost2010Prop35
280
     0
102
RTVSPost2010PropOp35
 70
     1
102
RTVSPost2010Prop36
280
     0
102
RTVSPost2010PropOp36
 70
     1
102
RTVSPost2010Prop37
 90
       50
102
RTVSPost2010PropOp37
 70
     1
102
RTVSPost2010Prop38
140
0.0
102
RTVSPost2010PropOp38
 70
     1
102
RTVSPost2010Prop39
140
1.0
102
RTVSPost2010PropOp39
 70
     1
102
RTVSPost2010Prop40
 90
        0
102
RTVSPost2010PropOp40
 70
     1
102
RTVSPost2010Prop41ColorIndex
 90
       18
102
RTVSPost2010Prop41ColorRGB
 90
        0
102
RTVSPost2010PropOp41
 70
     1
102
RTVSPost2010Prop42
 90
       50
102
RTVSPost2010PropOp42
 70
     1
102
RTVSPost2010Prop43
 90
        3
102
RTVSPost2010PropOp43
 70
     1
102
RTVSPost2010Prop44ColorIndex
 90
        5
102
RTVSPost2010Prop44ColorRGB
 90
      255
102
RTVSPost2010PropOp44
 70
     1
102
RTVSPost2010Prop45
280
     0
102
RTVSPost2010PropOp45
 70
     1
102
RTVSPost2010Prop46
 90
       50
102
RTVSPost2010PropOp46
 70
     1
102
RTVSPost2010Prop47
 90
       50
102
RTVSPost2010PropOp47
 70
     1
102
RTVSPost2010Prop48
 90
       50
102
RTVSPost2010PropOp48
 70
     1
102
RTVSPost2010Prop49
280
     0
102
RTVSPost2010PropOp49
 70
     1
102
RTVSPost2010Prop50
 90
       50
102
RTVSPost2010PropOp50
 70
     1
102
RTVSPost2010Prop51ColorIndex
 90
      256
102
RTVSPost2010Prop51ColorRGB
 90
-16777216
102
RTVSPost2010PropOp51
 70
     0
102
RTVSPost2010Prop52
140
1.0
102
RTVSPost2010PropOp52
 70
     0
102
RTVSPost2010Prop53
 90
        2
102
RTVSPost2010PropOp53
 70
     1
102
RTVSPost2010Prop54
  1
strokes_ogs.tif
102
RTVSPost2010PropOp54
 70
     1
102
RTVSPost2010Prop55
280
     0
102
RTVSPost2010PropOp55
 70
     1
102
RTVSPost2010Prop56
140
1.0
102
RTVSPost2010PropOp56
 70
     1
102
RTVSPost2010Prop57
140
1.0
102
RTVSPost2010PropOp57
 70
     1
102
RTVSPropertyOp0
 70
     0
102
RTVSPropertyOp1
 70
     0
102
RTVSPropertyOp2
 70
     0
102
RTVSPropertyOp3
 70
     0
102
RTVSPropertyOp4
 70
     0
102
RTVSPropertyOp5
 70
     0
102
RTVSPropertyOp6
 70
     0
102
RTVSPropertyOp7
 70
     0
102
RTVSPropertyOp8
 70
     0
102
RTVSPropertyOp9
 70
     0
102
RTVSPropertyOp10
 70
     0
102
RTVSPropertyOp11
 70
     0
102
RTVSPropertyOp12
 70
     0
102
RTVSPropertyOp13
 70
     0
102
RTVSPropertyOp14
 70
     2
102
RTVSPropertyOp15
 70
     0
102
RTVSPropertyOp16
 70
     0
102
RTVSPropertyOp17
 70
     0
102
RTVSPropertyOp18
 70
     0
102
RTVSPropertyOp19
 70
     0
102
RTVSPropertyOp20
 70
     0
102
RTVSPropertyOp21
 70
     0
102
RTVSPropertyOp22
 70
     0
102
RTVSPropertyOp23
 70
     0
102
RTVSPropertyOp24
 70
     0
102
RTVSPropertyOp25
 70
     0
102
RTVSPropertyOp26
 70
     0
102
RTVSPropertyOp27
 70
     0
102
RTVSPropertyOp28
 70
     1
102
RTVSPropertyOp29
 70
     1
102
RTVSPropertyOp30
 70
     1
102
RTVSPropertyOp31
 70
     1
102
RTVSPropertyOp32
 70
     1
102
RTVSPropertyOp33
 70
     1
102
RTVSPropertyOp34
 70
     1
102
RTVSPropertyOp35
 70
     1
102
RTVSPropertyOp36
 70
     1
102
RTVSPropertyOp37
 70
     1
102
RTVSPropertyOp38
 70
     1
102
RTVSPropertyOp39
 70
     1
102
RTVSPropertyOp40
 70
     1
102
RTVSPropertyOp41
 70
     1
102
RTVSPropertyOp42
 70
     1
102
RTVSPropertyOp43
 70
     1
102
RTVSPropertyOp44
 70
     1
102
RTVSPropertyOp45
 70
     1
102
RTVSPropertyOp46
 70
     1
102
RTVSPropertyOp47
 70
     1
102
RTVSPropertyOp48
 70
     1
102
RTVSPropertyOp49
 70
     1
102
RTVSPropertyOp50
 70
     1
102
RTVSPropertyOp51
 70
     0
102
RTVSPropertyOp52
 70
     0
102
RTVSPropertyOp53
 70
     1
102
RTVSPropertyOp54
 70
     1
102
RTVSPropertyOp55
 70
     1
102
RTVSPropertyOp56
 70
     1
102
RTVSPropertyOp57
 70
     1
102
RTVSPropertyOp58
 70
     1
102
RTVSPropertyOp59
 70
     1
102
RTVSPropertyOp60
 70
     1
102
RTVSPropertyOp61
 70
     1
102
RTVSPropertyOp62
 70
     1
  0
XRECORD
  5
12587
102
{ACAD_REACTORS
330
12586
102
}
330
12586
100
AcDbXrecord
280
     1
102
RTVSPost2010Prop28
280
     0
102
RTVSPost2010PropOp28
 70
     1
102
RTVSPost2010Prop29
280
     1
102
RTVSPost2010PropOp29
 70
     1
102
RTVSPost2010Prop30
280
     1
102
RTVSPost2010PropOp30
 70
     1
102
RTVSPost2010Prop31
280
     0
102
RTVSPost2010PropOp31
 70
     1
102
RTVSPost2010Prop32
280
     0
102
RTVSPost2010PropOp32
 70
     1
102
RTVSPost2010Prop33
280
     0
102
RTVSPost2010PropOp33
 70
     1
102
RTVSPost2010Prop34
280
     0
102
RTVSPost2010PropOp34
 70
     1
102
RTVSPost2010Prop35
280
     0
102
RTVSPost2010PropOp35
 70
     1
102
RTVSPost2010Prop36
280
     0
102
RTVSPost2010PropOp36
 70
     1
102
RTVSPost2010Prop37
 90
       50
102
RTVSPost2010PropOp37
 70
     1
102
RTVSPost2010Prop38
140
0.0
102
RTVSPost2010PropOp38
 70
     1
102
RTVSPost2010Prop39
140
1.0
102
RTVSPost2010PropOp39
 70
     1
102
RTVSPost2010Prop40
 90
        0
102
RTVSPost2010PropOp40
 70
     1
102
RTVSPost2010Prop41ColorIndex
 90
       18
102
RTVSPost2010Prop41ColorRGB
 90
        0
102
RTVSPost2010PropOp41
 70
     1
102
RTVSPost2010Prop42
 90
       50
102
RTVSPost2010PropOp42
 70
     1
102
RTVSPost2010Prop43
 90
        3
102
RTVSPost2010PropOp43
 70
     1
102
RTVSPost2010Prop44ColorIndex
 90
        5
102
RTVSPost2010Prop44ColorRGB
 90
      255
102
RTVSPost2010PropOp44
 70
     1
102
RTVSPost2010Prop45
280
     0
102
RTVSPost2010PropOp45
 70
     1
102
RTVSPost2010Prop46
 90
       50
102
RTVSPost2010PropOp46
 70
     1
102
RTVSPost2010Prop47
 90
       50
102
RTVSPost2010PropOp47
 70
     1
102
RTVSPost2010Prop48
 90
       50
102
RTVSPost2010PropOp48
 70
     1
102
RTVSPost2010Prop49
280
     0
102
RTVSPost2010PropOp49
 70
     1
102
RTVSPost2010Prop50
 90
       50
102
RTVSPost2010PropOp50
 70
     1
102
RTVSPost2010Prop51ColorIndex
 90
      256
102
RTVSPost2010Prop51ColorRGB
 90
-16777216
102
RTVSPost2010PropOp51
 70
     0
102
RTVSPost2010Prop52
140
1.0
102
RTVSPost2010PropOp52
 70
     0
102
RTVSPost2010Prop53
 90
        2
102
RTVSPost2010PropOp53
 70
     1
102
RTVSPost2010Prop54
  1
strokes_ogs.tif
102
RTVSPost2010PropOp54
 70
     1
102
RTVSPost2010Prop55
280
     0
102
RTVSPost2010PropOp55
 70
     1
102
RTVSPost2010Prop56
140
1.0
102
RTVSPost2010PropOp56
 70
     1
102
RTVSPost2010Prop57
140
1.0
102
RTVSPost2010PropOp57
 70
     1
102
RTVSPropertyOp0
 70
     1
102
RTVSPropertyOp1
 70
     1
102
RTVSPropertyOp2
 70
     1
102
RTVSPropertyOp3
 70
     1
102
RTVSPropertyOp4
 70
     1
102
RTVSPropertyOp5
 70
     1
102
RTVSPropertyOp6
 70
     1
102
RTVSPropertyOp7
 70
     1
102
RTVSPropertyOp8
 70
     1
102
RTVSPropertyOp9
 70
     1
102
RTVSPropertyOp10
 70
     1
102
RTVSPropertyOp11
 70
     1
102
RTVSPropertyOp12
 70
     1
102
RTVSPropertyOp13
 70
     1
102
RTVSPropertyOp14
 70
     1
102
RTVSPropertyOp15
 70
     1
102
RTVSPropertyOp16
 70
     1
102
RTVSPropertyOp17
 70
     1
102
RTVSPropertyOp18
 70
     1
102
RTVSPropertyOp19
 70
     1
102
RTVSPropertyOp20
 70
     1
102
RTVSPropertyOp21
 70
     1
102
RTVSPropertyOp22
 70
     1
102
RTVSPropertyOp23
 70
     1
102
RTVSPropertyOp24
 70
     1
102
RTVSPropertyOp25
 70
     1
102
RTVSPropertyOp26
 70
     1
102
RTVSPropertyOp27
 70
     1
102
RTVSPropertyOp28
 70
     1
102
RTVSPropertyOp29
 70
     1
102
RTVSPropertyOp30
 70
     1
102
RTVSPropertyOp31
 70
     1
102
RTVSPropertyOp32
 70
     1
102
RTVSPropertyOp33
 70
     1
102
RTVSPropertyOp34
 70
     1
102
RTVSPropertyOp35
 70
     1
102
RTVSPropertyOp36
 70
     1
102
RTVSPropertyOp37
 70
     1
102
RTVSPropertyOp38
 70
     1
102
RTVSPropertyOp39
 70
     1
102
RTVSPropertyOp40
 70
     1
102
RTVSPropertyOp41
 70
     1
102
RTVSPropertyOp42
 70
     1
102
RTVSPropertyOp43
 70
     1
102
RTVSPropertyOp44
 70
     1
102
RTVSPropertyOp45
 70
     1
102
RTVSPropertyOp46
 70
     1
102
RTVSPropertyOp47
 70
     1
102
RTVSPropertyOp48
 70
     1
102
RTVSPropertyOp49
 70
     1
102
RTVSPropertyOp50
 70
     1
102
RTVSPropertyOp51
 70
     0
102
RTVSPropertyOp52
 70
     0
102
RTVSPropertyOp53
 70
     1
102
RTVSPropertyOp54
 70
     1
102
RTVSPropertyOp55
 70
     1
102
RTVSPropertyOp56
 70
     1
102
RTVSPropertyOp57
 70
     1
102
RTVSPropertyOp58
 70
     1
102
RTVSPropertyOp59
 70
     1
102
RTVSPropertyOp60
 70
     1
102
RTVSPropertyOp61
 70
     1
102
RTVSPropertyOp62
 70
     1
  0
XRECORD
  5
12591
102
{ACAD_REACTORS
330
12590
102
}
330
12590
100
AcDbXrecord
280
     1
102
RTVSPost2010Prop28
280
     0
102
RTVSPost2010PropOp28
 70
     1
102
RTVSPost2010Prop29
280
     1
102
RTVSPost2010PropOp29
 70
     1
102
RTVSPost2010Prop30
280
     1
102
RTVSPost2010PropOp30
 70
     1
102
RTVSPost2010Prop31
280
     0
102
RTVSPost2010PropOp31
 70
     1
102
RTVSPost2010Prop32
280
     0
102
RTVSPost2010PropOp32
 70
     1
102
RTVSPost2010Prop33
280
     0
102
RTVSPost2010PropOp33
 70
     1
102
RTVSPost2010Prop34
280
     0
102
RTVSPost2010PropOp34
 70
     1
102
RTVSPost2010Prop35
280
     0
102
RTVSPost2010PropOp35
 70
     1
102
RTVSPost2010Prop36
280
     0
102
RTVSPost2010PropOp36
 70
     1
102
RTVSPost2010Prop37
 90
       50
102
RTVSPost2010PropOp37
 70
     1
102
RTVSPost2010Prop38
140
0.0
102
RTVSPost2010PropOp38
 70
     1
102
RTVSPost2010Prop39
140
1.0
102
RTVSPost2010PropOp39
 70
     1
102
RTVSPost2010Prop40
 90
        0
102
RTVSPost2010PropOp40
 70
     1
102
RTVSPost2010Prop41ColorIndex
 90
       18
102
RTVSPost2010Prop41ColorRGB
 90
        0
102
RTVSPost2010PropOp41
 70
     1
102
RTVSPost2010Prop42
 90
       50
102
RTVSPost2010PropOp42
 70
     1
102
RTVSPost2010Prop43
 90
        3
102
RTVSPost2010PropOp43
 70
     1
102
RTVSPost2010Prop44ColorIndex
 90
        5
102
RTVSPost2010Prop44ColorRGB
 90
      255
102
RTVSPost2010PropOp44
 70
     1
102
RTVSPost2010Prop45
280
     0
102
RTVSPost2010PropOp45
 70
     1
102
RTVSPost2010Prop46
 90
       50
102
RTVSPost2010PropOp46
 70
     1
102
RTVSPost2010Prop47
 90
       50
102
RTVSPost2010PropOp47
 70
     1
102
RTVSPost2010Prop48
 90
       50
102
RTVSPost2010PropOp48
 70
     1
102
RTVSPost2010Prop49
280
     0
102
RTVSPost2010PropOp49
 70
     1
102
RTVSPost2010Prop50
 90
       50
102
RTVSPost2010PropOp50
 70
     1
102
RTVSPost2010Prop51ColorIndex
 90
      256
102
RTVSPost2010Prop51ColorRGB
 90
-16777216
102
RTVSPost2010PropOp51
 70
     0
102
RTVSPost2010Prop52
140
1.0
102
RTVSPost2010PropOp52
 70
     0
102
RTVSPost2010Prop53
 90
        2
102
RTVSPost2010PropOp53
 70
     1
102
RTVSPost2010Prop54
  1
strokes_ogs.tif
102
RTVSPost2010PropOp54
 70
     1
102
RTVSPost2010Prop55
280
     0
102
RTVSPost2010PropOp55
 70
     1
102
RTVSPost2010Prop56
140
1.0
102
RTVSPost2010PropOp56
 70
     1
102
RTVSPost2010Prop57
140
1.0
102
RTVSPost2010PropOp57
 70
     1
102
RTVSPropertyOp0
 70
     0
102
RTVSPropertyOp1
 70
     0
102
RTVSPropertyOp2
 70
     0
102
RTVSPropertyOp3
 70
     0
102
RTVSPropertyOp4
 70
     0
102
RTVSPropertyOp5
 70
     0
102
RTVSPropertyOp6
 70
     0
102
RTVSPropertyOp7
 70
     0
102
RTVSPropertyOp8
 70
     0
102
RTVSPropertyOp9
 70
     0
102
RTVSPropertyOp10
 70
     0
102
RTVSPropertyOp11
 70
     0
102
RTVSPropertyOp12
 70
     0
102
RTVSPropertyOp13
 70
     0
102
RTVSPropertyOp14
 70
     2
102
RTVSPropertyOp15
 70
     0
102
RTVSPropertyOp16
 70
     0
102
RTVSPropertyOp17
 70
     0
102
RTVSPropertyOp18
 70
     0
102
RTVSPropertyOp19
 70
     0
102
RTVSPropertyOp20
 70
     0
102
RTVSPropertyOp21
 70
     0
102
RTVSPropertyOp22
 70
     0
102
RTVSPropertyOp23
 70
     0
102
RTVSPropertyOp24
 70
     0
102
RTVSPropertyOp25
 70
     0
102
RTVSPropertyOp26
 70
     0
102
RTVSPropertyOp27
 70
     0
102
RTVSPropertyOp28
 70
     1
102
RTVSPropertyOp29
 70
     1
102
RTVSPropertyOp30
 70
     1
102
RTVSPropertyOp31
 70
     1
102
RTVSPropertyOp32
 70
     1
102
RTVSPropertyOp33
 70
     1
102
RTVSPropertyOp34
 70
     1
102
RTVSPropertyOp35
 70
     1
102
RTVSPropertyOp36
 70
     1
102
RTVSPropertyOp37
 70
     1
102
RTVSPropertyOp38
 70
     1
102
RTVSPropertyOp39
 70
     1
102
RTVSPropertyOp40
 70
     1
102
RTVSPropertyOp41
 70
     1
102
RTVSPropertyOp42
 70
     1
102
RTVSPropertyOp43
 70
     1
102
RTVSPropertyOp44
 70
     1
102
RTVSPropertyOp45
 70
     1
102
RTVSPropertyOp46
 70
     1
102
RTVSPropertyOp47
 70
     1
102
RTVSPropertyOp48
 70
     1
102
RTVSPropertyOp49
 70
     1
102
RTVSPropertyOp50
 70
     1
102
RTVSPropertyOp51
 70
     0
102
RTVSPropertyOp52
 70
     0
102
RTVSPropertyOp53
 70
     1
102
RTVSPropertyOp54
 70
     1
102
RTVSPropertyOp55
 70
     1
102
RTVSPropertyOp56
 70
     1
102
RTVSPropertyOp57
 70
     1
102
RTVSPropertyOp58
 70
     1
102
RTVSPropertyOp59
 70
     1
102
RTVSPropertyOp60
 70
     1
102
RTVSPropertyOp61
 70
     1
102
RTVSPropertyOp62
 70
     1
  0
XRECORD
  5
1257F
102
{ACAD_REACTORS
330
1257E
102
}
330
1257E
100
AcDbXrecord
280
     1
102
RTVSPost2010Prop28
280
     0
102
RTVSPost2010PropOp28
 70
     1
102
RTVSPost2010Prop29
280
     1
102
RTVSPost2010PropOp29
 70
     1
102
RTVSPost2010Prop30
280
     1
102
RTVSPost2010PropOp30
 70
     1
102
RTVSPost2010Prop31
280
     0
102
RTVSPost2010PropOp31
 70
     1
102
RTVSPost2010Prop32
280
     0
102
RTVSPost2010PropOp32
 70
     1
102
RTVSPost2010Prop33
280
     0
102
RTVSPost2010PropOp33
 70
     1
102
RTVSPost2010Prop34
280
     0
102
RTVSPost2010PropOp34
 70
     1
102
RTVSPost2010Prop35
280
     0
102
RTVSPost2010PropOp35
 70
     1
102
RTVSPost2010Prop36
280
     0
102
RTVSPost2010PropOp36
 70
     1
102
RTVSPost2010Prop37
 90
       50
102
RTVSPost2010PropOp37
 70
     1
102
RTVSPost2010Prop38
140
0.0
102
RTVSPost2010PropOp38
 70
     1
102
RTVSPost2010Prop39
140
1.0
102
RTVSPost2010PropOp39
 70
     1
102
RTVSPost2010Prop40
 90
        0
102
RTVSPost2010PropOp40
 70
     1
102
RTVSPost2010Prop41ColorIndex
 90
       18
102
RTVSPost2010Prop41ColorRGB
 90
        0
102
RTVSPost2010PropOp41
 70
     1
102
RTVSPost2010Prop42
 90
       50
102
RTVSPost2010PropOp42
 70
     1
102
RTVSPost2010Prop43
 90
        3
102
RTVSPost2010PropOp43
 70
     1
102
RTVSPost2010Prop44ColorIndex
 90
        5
102
RTVSPost2010Prop44ColorRGB
 90
      255
102
RTVSPost2010PropOp44
 70
     1
102
RTVSPost2010Prop45
280
     0
102
RTVSPost2010PropOp45
 70
     1
102
RTVSPost2010Prop46
 90
       50
102
RTVSPost2010PropOp46
 70
     1
102
RTVSPost2010Prop47
 90
       50
102
RTVSPost2010PropOp47
 70
     1
102
RTVSPost2010Prop48
 90
       50
102
RTVSPost2010PropOp48
 70
     1
102
RTVSPost2010Prop49
280
     0
102
RTVSPost2010PropOp49
 70
     1
102
RTVSPost2010Prop50
 90
       50
102
RTVSPost2010PropOp50
 70
     1
102
RTVSPost2010Prop51ColorIndex
 90
      256
102
RTVSPost2010Prop51ColorRGB
 90
-16777216
102
RTVSPost2010PropOp51
 70
     0
102
RTVSPost2010Prop52
140
1.0
102
RTVSPost2010PropOp52
 70
     0
102
RTVSPost2010Prop53
 90
        2
102
RTVSPost2010PropOp53
 70
     1
102
RTVSPost2010Prop54
  1
strokes_ogs.tif
102
RTVSPost2010PropOp54
 70
     1
102
RTVSPost2010Prop55
280
     0
102
RTVSPost2010PropOp55
 70
     1
102
RTVSPost2010Prop56
140
1.0
102
RTVSPost2010PropOp56
 70
     1
102
RTVSPost2010Prop57
140
1.0
102
RTVSPost2010PropOp57
 70
     1
102
RTVSPropertyOp0
 70
     1
102
RTVSPropertyOp1
 70
     1
102
RTVSPropertyOp2
 70
     1
102
RTVSPropertyOp3
 70
     1
102
RTVSPropertyOp4
 70
     1
102
RTVSPropertyOp5
 70
     1
102
RTVSPropertyOp6
 70
     1
102
RTVSPropertyOp7
 70
     1
102
RTVSPropertyOp8
 70
     1
102
RTVSPropertyOp9
 70
     1
102
RTVSPropertyOp10
 70
     1
102
RTVSPropertyOp11
 70
     1
102
RTVSPropertyOp12
 70
     1
102
RTVSPropertyOp13
 70
     1
102
RTVSPropertyOp14
 70
     1
102
RTVSPropertyOp15
 70
     1
102
RTVSPropertyOp16
 70
     1
102
RTVSPropertyOp17
 70
     1
102
RTVSPropertyOp18
 70
     1
102
RTVSPropertyOp19
 70
     1
102
RTVSPropertyOp20
 70
     1
102
RTVSPropertyOp21
 70
     1
102
RTVSPropertyOp22
 70
     1
102
RTVSPropertyOp23
 70
     1
102
RTVSPropertyOp24
 70
     1
102
RTVSPropertyOp25
 70
     1
102
RTVSPropertyOp26
 70
     1
102
RTVSPropertyOp27
 70
     1
102
RTVSPropertyOp28
 70
     1
102
RTVSPropertyOp29
 70
     1
102
RTVSPropertyOp30
 70
     1
102
RTVSPropertyOp31
 70
     1
102
RTVSPropertyOp32
 70
     1
102
RTVSPropertyOp33
 70
     1
102
RTVSPropertyOp34
 70
     1
102
RTVSPropertyOp35
 70
     1
102
RTVSPropertyOp36
 70
     1
102
RTVSPropertyOp37
 70
     1
102
RTVSPropertyOp38
 70
     1
102
RTVSPropertyOp39
 70
     1
102
RTVSPropertyOp40
 70
     1
102
RTVSPropertyOp41
 70
     1
102
RTVSPropertyOp42
 70
     1
102
RTVSPropertyOp43
 70
     1
102
RTVSPropertyOp44
 70
     1
102
RTVSPropertyOp45
 70
     1
102
RTVSPropertyOp46
 70
     1
102
RTVSPropertyOp47
 70
     1
102
RTVSPropertyOp48
 70
     1
102
RTVSPropertyOp49
 70
     1
102
RTVSPropertyOp50
 70
     1
102
RTVSPropertyOp51
 70
     0
102
RTVSPropertyOp52
 70
     0
102
RTVSPropertyOp53
 70
     1
102
RTVSPropertyOp54
 70
     1
102
RTVSPropertyOp55
 70
     1
102
RTVSPropertyOp56
 70
     1
102
RTVSPropertyOp57
 70
     1
102
RTVSPropertyOp58
 70
     1
102
RTVSPropertyOp59
 70
     1
102
RTVSPropertyOp60
 70
     1
102
RTVSPropertyOp61
 70
     1
102
RTVSPropertyOp62
 70
     1
  0
XRECORD
  5
1259D
102
{ACAD_REACTORS
330
1259C
102
}
330
1259C
100
AcDbXrecord
280
     1
102
RTVSPost2010Prop28
280
     0
102
RTVSPost2010PropOp28
 70
     1
102
RTVSPost2010Prop29
280
     1
102
RTVSPost2010PropOp29
 70
     1
102
RTVSPost2010Prop30
280
     1
102
RTVSPost2010PropOp30
 70
     1
102
RTVSPost2010Prop31
280
     0
102
RTVSPost2010PropOp31
 70
     1
102
RTVSPost2010Prop32
280
     0
102
RTVSPost2010PropOp32
 70
     1
102
RTVSPost2010Prop33
280
     0
102
RTVSPost2010PropOp33
 70
     1
102
RTVSPost2010Prop34
280
     0
102
RTVSPost2010PropOp34
 70
     1
102
RTVSPost2010Prop35
280
     0
102
RTVSPost2010PropOp35
 70
     1
102
RTVSPost2010Prop36
280
     0
102
RTVSPost2010PropOp36
 70
     1
102
RTVSPost2010Prop37
 90
       50
102
RTVSPost2010PropOp37
 70
     1
102
RTVSPost2010Prop38
140
0.0
102
RTVSPost2010PropOp38
 70
     1
102
RTVSPost2010Prop39
140
1.0
102
RTVSPost2010PropOp39
 70
     1
102
RTVSPost2010Prop40
 90
        0
102
RTVSPost2010PropOp40
 70
     1
102
RTVSPost2010Prop41ColorIndex
 90
       18
102
RTVSPost2010Prop41ColorRGB
 90
        0
102
RTVSPost2010PropOp41
 70
     1
102
RTVSPost2010Prop42
 90
       50
102
RTVSPost2010PropOp42
 70
     1
102
RTVSPost2010Prop43
 90
        3
102
RTVSPost2010PropOp43
 70
     1
102
RTVSPost2010Prop44ColorIndex
 90
        5
102
RTVSPost2010Prop44ColorRGB
 90
      255
102
RTVSPost2010PropOp44
 70
     1
102
RTVSPost2010Prop45
280
     0
102
RTVSPost2010PropOp45
 70
     1
102
RTVSPost2010Prop46
 90
       50
102
RTVSPost2010PropOp46
 70
     1
102
RTVSPost2010Prop47
 90
       50
102
RTVSPost2010PropOp47
 70
     1
102
RTVSPost2010Prop48
 90
       50
102
RTVSPost2010PropOp48
 70
     1
102
RTVSPost2010Prop49
280
     0
102
RTVSPost2010PropOp49
 70
     1
102
RTVSPost2010Prop50
 90
       50
102
RTVSPost2010PropOp50
 70
     1
102
RTVSPost2010Prop51ColorIndex
 90
      256
102
RTVSPost2010Prop51ColorRGB
 90
-16777216
102
RTVSPost2010PropOp51
 70
     0
102
RTVSPost2010Prop52
140
1.0
102
RTVSPost2010PropOp52
 70
     0
102
RTVSPost2010Prop53
 90
        2
102
RTVSPost2010PropOp53
 70
     1
102
RTVSPost2010Prop54
  1
strokes_ogs.tif
102
RTVSPost2010PropOp54
 70
     1
102
RTVSPost2010Prop55
280
     0
102
RTVSPost2010PropOp55
 70
     1
102
RTVSPost2010Prop56
140
1.0
102
RTVSPost2010PropOp56
 70
     1
102
RTVSPost2010Prop57
140
1.0
102
RTVSPost2010PropOp57
 70
     1
102
RTVSPropertyOp0
 70
     1
102
RTVSPropertyOp1
 70
     1
102
RTVSPropertyOp2
 70
     1
102
RTVSPropertyOp3
 70
     1
102
RTVSPropertyOp4
 70
     1
102
RTVSPropertyOp5
 70
     1
102
RTVSPropertyOp6
 70
     1
102
RTVSPropertyOp7
 70
     1
102
RTVSPropertyOp8
 70
     1
102
RTVSPropertyOp9
 70
     1
102
RTVSPropertyOp10
 70
     1
102
RTVSPropertyOp11
 70
     1
102
RTVSPropertyOp12
 70
     1
102
RTVSPropertyOp13
 70
     1
102
RTVSPropertyOp14
 70
     1
102
RTVSPropertyOp15
 70
     1
102
RTVSPropertyOp16
 70
     1
102
RTVSPropertyOp17
 70
     1
102
RTVSPropertyOp18
 70
     1
102
RTVSPropertyOp19
 70
     1
102
RTVSPropertyOp20
 70
     1
102
RTVSPropertyOp21
 70
     1
102
RTVSPropertyOp22
 70
     1
102
RTVSPropertyOp23
 70
     1
102
RTVSPropertyOp24
 70
     1
102
RTVSPropertyOp25
 70
     1
102
RTVSPropertyOp26
 70
     1
102
RTVSPropertyOp27
 70
     1
102
RTVSPropertyOp28
 70
     1
102
RTVSPropertyOp29
 70
     1
102
RTVSPropertyOp30
 70
     1
102
RTVSPropertyOp31
 70
     1
102
RTVSPropertyOp32
 70
     1
102
RTVSPropertyOp33
 70
     1
102
RTVSPropertyOp34
 70
     1
102
RTVSPropertyOp35
 70
     1
102
RTVSPropertyOp36
 70
     1
102
RTVSPropertyOp37
 70
     1
102
RTVSPropertyOp38
 70
     1
102
RTVSPropertyOp39
 70
     1
102
RTVSPropertyOp40
 70
     1
102
RTVSPropertyOp41
 70
     1
102
RTVSPropertyOp42
 70
     1
102
RTVSPropertyOp43
 70
     1
102
RTVSPropertyOp44
 70
     1
102
RTVSPropertyOp45
 70
     1
102
RTVSPropertyOp46
 70
     1
102
RTVSPropertyOp47
 70
     1
102
RTVSPropertyOp48
 70
     1
102
RTVSPropertyOp49
 70
     1
102
RTVSPropertyOp50
 70
     1
102
RTVSPropertyOp51
 70
     0
102
RTVSPropertyOp52
 70
     0
102
RTVSPropertyOp53
 70
     1
102
RTVSPropertyOp54
 70
     1
102
RTVSPropertyOp55
 70
     1
102
RTVSPropertyOp56
 70
     1
102
RTVSPropertyOp57
 70
     1
102
RTVSPropertyOp58
 70
     1
102
RTVSPropertyOp59
 70
     1
102
RTVSPropertyOp60
 70
     1
102
RTVSPropertyOp61
 70
     1
102
RTVSPropertyOp62
 70
     1
  0
XRECORD
  5
1259B
102
{ACAD_REACTORS
330
1259A
102
}
330
1259A
100
AcDbXrecord
280
     1
102
RTVSPost2010Prop28
280
     0
102
RTVSPost2010PropOp28
 70
     1
102
RTVSPost2010Prop29
280
     1
102
RTVSPost2010PropOp29
 70
     1
102
RTVSPost2010Prop30
280
     1
102
RTVSPost2010PropOp30
 70
     1
102
RTVSPost2010Prop31
280
     0
102
RTVSPost2010PropOp31
 70
     1
102
RTVSPost2010Prop32
280
     0
102
RTVSPost2010PropOp32
 70
     1
102
RTVSPost2010Prop33
280
     0
102
RTVSPost2010PropOp33
 70
     1
102
RTVSPost2010Prop34
280
     0
102
RTVSPost2010PropOp34
 70
     1
102
RTVSPost2010Prop35
280
     0
102
RTVSPost2010PropOp35
 70
     1
102
RTVSPost2010Prop36
280
     0
102
RTVSPost2010PropOp36
 70
     1
102
RTVSPost2010Prop37
 90
       50
102
RTVSPost2010PropOp37
 70
     1
102
RTVSPost2010Prop38
140
0.0
102
RTVSPost2010PropOp38
 70
     1
102
RTVSPost2010Prop39
140
1.0
102
RTVSPost2010PropOp39
 70
     1
102
RTVSPost2010Prop40
 90
        0
102
RTVSPost2010PropOp40
 70
     1
102
RTVSPost2010Prop41ColorIndex
 90
       18
102
RTVSPost2010Prop41ColorRGB
 90
        0
102
RTVSPost2010PropOp41
 70
     1
102
RTVSPost2010Prop42
 90
       50
102
RTVSPost2010PropOp42
 70
     1
102
RTVSPost2010Prop43
 90
        3
102
RTVSPost2010PropOp43
 70
     1
102
RTVSPost2010Prop44ColorIndex
 90
        5
102
RTVSPost2010Prop44ColorRGB
 90
      255
102
RTVSPost2010PropOp44
 70
     1
102
RTVSPost2010Prop45
280
     0
102
RTVSPost2010PropOp45
 70
     1
102
RTVSPost2010Prop46
 90
       50
102
RTVSPost2010PropOp46
 70
     1
102
RTVSPost2010Prop47
 90
       50
102
RTVSPost2010PropOp47
 70
     1
102
RTVSPost2010Prop48
 90
       50
102
RTVSPost2010PropOp48
 70
     1
102
RTVSPost2010Prop49
280
     0
102
RTVSPost2010PropOp49
 70
     1
102
RTVSPost2010Prop50
 90
       50
102
RTVSPost2010PropOp50
 70
     1
102
RTVSPost2010Prop51ColorIndex
 90
      256
102
RTVSPost2010Prop51ColorRGB
 90
-16777216
102
RTVSPost2010PropOp51
 70
     0
102
RTVSPost2010Prop52
140
1.0
102
RTVSPost2010PropOp52
 70
     0
102
RTVSPost2010Prop53
 90
        2
102
RTVSPost2010PropOp53
 70
     1
102
RTVSPost2010Prop54
  1
strokes_ogs.tif
102
RTVSPost2010PropOp54
 70
     1
102
RTVSPost2010Prop55
280
     0
102
RTVSPost2010PropOp55
 70
     1
102
RTVSPost2010Prop56
140
1.0
102
RTVSPost2010PropOp56
 70
     1
102
RTVSPost2010Prop57
140
1.0
102
RTVSPost2010PropOp57
 70
     1
102
RTVSPropertyOp0
 70
     1
102
RTVSPropertyOp1
 70
     1
102
RTVSPropertyOp2
 70
     1
102
RTVSPropertyOp3
 70
     1
102
RTVSPropertyOp4
 70
     1
102
RTVSPropertyOp5
 70
     1
102
RTVSPropertyOp6
 70
     1
102
RTVSPropertyOp7
 70
     1
102
RTVSPropertyOp8
 70
     1
102
RTVSPropertyOp9
 70
     1
102
RTVSPropertyOp10
 70
     1
102
RTVSPropertyOp11
 70
     1
102
RTVSPropertyOp12
 70
     1
102
RTVSPropertyOp13
 70
     1
102
RTVSPropertyOp14
 70
     1
102
RTVSPropertyOp15
 70
     1
102
RTVSPropertyOp16
 70
     1
102
RTVSPropertyOp17
 70
     1
102
RTVSPropertyOp18
 70
     1
102
RTVSPropertyOp19
 70
     1
102
RTVSPropertyOp20
 70
     1
102
RTVSPropertyOp21
 70
     1
102
RTVSPropertyOp22
 70
     1
102
RTVSPropertyOp23
 70
     1
102
RTVSPropertyOp24
 70
     1
102
RTVSPropertyOp25
 70
     1
102
RTVSPropertyOp26
 70
     1
102
RTVSPropertyOp27
 70
     1
102
RTVSPropertyOp28
 70
     1
102
RTVSPropertyOp29
 70
     1
102
RTVSPropertyOp30
 70
     1
102
RTVSPropertyOp31
 70
     1
102
RTVSPropertyOp32
 70
     1
102
RTVSPropertyOp33
 70
     1
102
RTVSPropertyOp34
 70
     1
102
RTVSPropertyOp35
 70
     1
102
RTVSPropertyOp36
 70
     1
102
RTVSPropertyOp37
 70
     1
102
RTVSPropertyOp38
 70
     1
102
RTVSPropertyOp39
 70
     1
102
RTVSPropertyOp40
 70
     1
102
RTVSPropertyOp41
 70
     1
102
RTVSPropertyOp42
 70
     1
102
RTVSPropertyOp43
 70
     1
102
RTVSPropertyOp44
 70
     1
102
RTVSPropertyOp45
 70
     1
102
RTVSPropertyOp46
 70
     1
102
RTVSPropertyOp47
 70
     1
102
RTVSPropertyOp48
 70
     1
102
RTVSPropertyOp49
 70
     1
102
RTVSPropertyOp50
 70
     1
102
RTVSPropertyOp51
 70
     0
102
RTVSPropertyOp52
 70
     0
102
RTVSPropertyOp53
 70
     1
102
RTVSPropertyOp54
 70
     1
102
RTVSPropertyOp55
 70
     1
102
RTVSPropertyOp56
 70
     1
102
RTVSPropertyOp57
 70
     1
102
RTVSPropertyOp58
 70
     1
102
RTVSPropertyOp59
 70
     1
102
RTVSPropertyOp60
 70
     1
102
RTVSPropertyOp61
 70
     1
102
RTVSPropertyOp62
 70
     1
  0
XRECORD
  5
12595
102
{ACAD_REACTORS
330
12594
102
}
330
12594
100
AcDbXrecord
280
     1
102
RTVSPost2010Prop28
280
     0
102
RTVSPost2010PropOp28
 70
     1
102
RTVSPost2010Prop29
280
     1
102
RTVSPost2010PropOp29
 70
     1
102
RTVSPost2010Prop30
280
     1
102
RTVSPost2010PropOp30
 70
     1
102
RTVSPost2010Prop31
280
     0
102
RTVSPost2010PropOp31
 70
     1
102
RTVSPost2010Prop32
280
     0
102
RTVSPost2010PropOp32
 70
     1
102
RTVSPost2010Prop33
280
     0
102
RTVSPost2010PropOp33
 70
     1
102
RTVSPost2010Prop34
280
     0
102
RTVSPost2010PropOp34
 70
     1
102
RTVSPost2010Prop35
280
     0
102
RTVSPost2010PropOp35
 70
     1
102
RTVSPost2010Prop36
280
     0
102
RTVSPost2010PropOp36
 70
     1
102
RTVSPost2010Prop37
 90
       50
102
RTVSPost2010PropOp37
 70
     1
102
RTVSPost2010Prop38
140
0.0
102
RTVSPost2010PropOp38
 70
     1
102
RTVSPost2010Prop39
140
1.0
102
RTVSPost2010PropOp39
 70
     1
102
RTVSPost2010Prop40
 90
        0
102
RTVSPost2010PropOp40
 70
     1
102
RTVSPost2010Prop41ColorIndex
 90
       18
102
RTVSPost2010Prop41ColorRGB
 90
        0
102
RTVSPost2010PropOp41
 70
     1
102
RTVSPost2010Prop42
 90
       50
102
RTVSPost2010PropOp42
 70
     1
102
RTVSPost2010Prop43
 90
        3
102
RTVSPost2010PropOp43
 70
     1
102
RTVSPost2010Prop44ColorIndex
 90
        5
102
RTVSPost2010Prop44ColorRGB
 90
      255
102
RTVSPost2010PropOp44
 70
     1
102
RTVSPost2010Prop45
280
     0
102
RTVSPost2010PropOp45
 70
     1
102
RTVSPost2010Prop46
 90
       50
102
RTVSPost2010PropOp46
 70
     1
102
RTVSPost2010Prop47
 90
       50
102
RTVSPost2010PropOp47
 70
     1
102
RTVSPost2010Prop48
 90
       50
102
RTVSPost2010PropOp48
 70
     1
102
RTVSPost2010Prop49
280
     0
102
RTVSPost2010PropOp49
 70
     1
102
RTVSPost2010Prop50
 90
       50
102
RTVSPost2010PropOp50
 70
     1
102
RTVSPost2010Prop51ColorIndex
 90
      256
102
RTVSPost2010Prop51ColorRGB
 90
-16777216
102
RTVSPost2010PropOp51
 70
     0
102
RTVSPost2010Prop52
140
1.0
102
RTVSPost2010PropOp52
 70
     0
102
RTVSPost2010Prop53
 90
        2
102
RTVSPost2010PropOp53
 70
     1
102
RTVSPost2010Prop54
  1
strokes_ogs.tif
102
RTVSPost2010PropOp54
 70
     1
102
RTVSPost2010Prop55
280
     0
102
RTVSPost2010PropOp55
 70
     1
102
RTVSPost2010Prop56
140
1.0
102
RTVSPost2010PropOp56
 70
     1
102
RTVSPost2010Prop57
140
1.0
102
RTVSPost2010PropOp57
 70
     1
102
RTVSPropertyOp0
 70
     1
102
RTVSPropertyOp1
 70
     1
102
RTVSPropertyOp2
 70
     1
102
RTVSPropertyOp3
 70
     1
102
RTVSPropertyOp4
 70
     1
102
RTVSPropertyOp5
 70
     1
102
RTVSPropertyOp6
 70
     1
102
RTVSPropertyOp7
 70
     1
102
RTVSPropertyOp8
 70
     1
102
RTVSPropertyOp9
 70
     1
102
RTVSPropertyOp10
 70
     1
102
RTVSPropertyOp11
 70
     1
102
RTVSPropertyOp12
 70
     1
102
RTVSPropertyOp13
 70
     1
102
RTVSPropertyOp14
 70
     1
102
RTVSPropertyOp15
 70
     1
102
RTVSPropertyOp16
 70
     1
102
RTVSPropertyOp17
 70
     1
102
RTVSPropertyOp18
 70
     1
102
RTVSPropertyOp19
 70
     1
102
RTVSPropertyOp20
 70
     1
102
RTVSPropertyOp21
 70
     1
102
RTVSPropertyOp22
 70
     1
102
RTVSPropertyOp23
 70
     1
102
RTVSPropertyOp24
 70
     1
102
RTVSPropertyOp25
 70
     1
102
RTVSPropertyOp26
 70
     1
102
RTVSPropertyOp27
 70
     1
102
RTVSPropertyOp28
 70
     1
102
RTVSPropertyOp29
 70
     1
102
RTVSPropertyOp30
 70
     1
102
RTVSPropertyOp31
 70
     1
102
RTVSPropertyOp32
 70
     1
102
RTVSPropertyOp33
 70
     1
102
RTVSPropertyOp34
 70
     1
102
RTVSPropertyOp35
 70
     1
102
RTVSPropertyOp36
 70
     1
102
RTVSPropertyOp37
 70
     1
102
RTVSPropertyOp38
 70
     1
102
RTVSPropertyOp39
 70
     1
102
RTVSPropertyOp40
 70
     1
102
RTVSPropertyOp41
 70
     1
102
RTVSPropertyOp42
 70
     1
102
RTVSPropertyOp43
 70
     1
102
RTVSPropertyOp44
 70
     1
102
RTVSPropertyOp45
 70
     1
102
RTVSPropertyOp46
 70
     1
102
RTVSPropertyOp47
 70
     1
102
RTVSPropertyOp48
 70
     1
102
RTVSPropertyOp49
 70
     1
102
RTVSPropertyOp50
 70
     1
102
RTVSPropertyOp51
 70
     0
102
RTVSPropertyOp52
 70
     0
102
RTVSPropertyOp53
 70
     1
102
RTVSPropertyOp54
 70
     1
102
RTVSPropertyOp55
 70
     1
102
RTVSPropertyOp56
 70
     1
102
RTVSPropertyOp57
 70
     1
102
RTVSPropertyOp58
 70
     1
102
RTVSPropertyOp59
 70
     1
102
RTVSPropertyOp60
 70
     1
102
RTVSPropertyOp61
 70
     1
102
RTVSPropertyOp62
 70
     1
  0
XRECORD
  5
12597
102
{ACAD_REACTORS
330
12596
102
}
330
12596
100
AcDbXrecord
280
     1
102
RTVSPost2010Prop28
280
     0
102
RTVSPost2010PropOp28
 70
     1
102
RTVSPost2010Prop29
280
     1
102
RTVSPost2010PropOp29
 70
     1
102
RTVSPost2010Prop30
280
     1
102
RTVSPost2010PropOp30
 70
     1
102
RTVSPost2010Prop31
280
     0
102
RTVSPost2010PropOp31
 70
     1
102
RTVSPost2010Prop32
280
     0
102
RTVSPost2010PropOp32
 70
     1
102
RTVSPost2010Prop33
280
     0
102
RTVSPost2010PropOp33
 70
     1
102
RTVSPost2010Prop34
280
     0
102
RTVSPost2010PropOp34
 70
     1
102
RTVSPost2010Prop35
280
     0
102
RTVSPost2010PropOp35
 70
     1
102
RTVSPost2010Prop36
280
     0
102
RTVSPost2010PropOp36
 70
     1
102
RTVSPost2010Prop37
 90
       50
102
RTVSPost2010PropOp37
 70
     1
102
RTVSPost2010Prop38
140
0.0
102
RTVSPost2010PropOp38
 70
     1
102
RTVSPost2010Prop39
140
1.0
102
RTVSPost2010PropOp39
 70
     1
102
RTVSPost2010Prop40
 90
        0
102
RTVSPost2010PropOp40
 70
     1
102
RTVSPost2010Prop41ColorIndex
 90
       18
102
RTVSPost2010Prop41ColorRGB
 90
        0
102
RTVSPost2010PropOp41
 70
     1
102
RTVSPost2010Prop42
 90
       50
102
RTVSPost2010PropOp42
 70
     1
102
RTVSPost2010Prop43
 90
        3
102
RTVSPost2010PropOp43
 70
     1
102
RTVSPost2010Prop44ColorIndex
 90
        5
102
RTVSPost2010Prop44ColorRGB
 90
      255
102
RTVSPost2010PropOp44
 70
     1
102
RTVSPost2010Prop45
280
     0
102
RTVSPost2010PropOp45
 70
     1
102
RTVSPost2010Prop46
 90
       50
102
RTVSPost2010PropOp46
 70
     1
102
RTVSPost2010Prop47
 90
       50
102
RTVSPost2010PropOp47
 70
     1
102
RTVSPost2010Prop48
 90
       50
102
RTVSPost2010PropOp48
 70
     1
102
RTVSPost2010Prop49
280
     0
102
RTVSPost2010PropOp49
 70
     1
102
RTVSPost2010Prop50
 90
       50
102
RTVSPost2010PropOp50
 70
     1
102
RTVSPost2010Prop51ColorIndex
 90
      256
102
RTVSPost2010Prop51ColorRGB
 90
-16777216
102
RTVSPost2010PropOp51
 70
     0
102
RTVSPost2010Prop52
140
1.0
102
RTVSPost2010PropOp52
 70
     0
102
RTVSPost2010Prop53
 90
        2
102
RTVSPost2010PropOp53
 70
     1
102
RTVSPost2010Prop54
  1
strokes_ogs.tif
102
RTVSPost2010PropOp54
 70
     1
102
RTVSPost2010Prop55
280
     0
102
RTVSPost2010PropOp55
 70
     1
102
RTVSPost2010Prop56
140
1.0
102
RTVSPost2010PropOp56
 70
     1
102
RTVSPost2010Prop57
140
1.0
102
RTVSPost2010PropOp57
 70
     1
102
RTVSPropertyOp0
 70
     1
102
RTVSPropertyOp1
 70
     1
102
RTVSPropertyOp2
 70
     1
102
RTVSPropertyOp3
 70
     1
102
RTVSPropertyOp4
 70
     1
102
RTVSPropertyOp5
 70
     1
102
RTVSPropertyOp6
 70
     1
102
RTVSPropertyOp7
 70
     1
102
RTVSPropertyOp8
 70
     1
102
RTVSPropertyOp9
 70
     1
102
RTVSPropertyOp10
 70
     1
102
RTVSPropertyOp11
 70
     1
102
RTVSPropertyOp12
 70
     1
102
RTVSPropertyOp13
 70
     1
102
RTVSPropertyOp14
 70
     1
102
RTVSPropertyOp15
 70
     1
102
RTVSPropertyOp16
 70
     1
102
RTVSPropertyOp17
 70
     1
102
RTVSPropertyOp18
 70
     1
102
RTVSPropertyOp19
 70
     1
102
RTVSPropertyOp20
 70
     1
102
RTVSPropertyOp21
 70
     1
102
RTVSPropertyOp22
 70
     1
102
RTVSPropertyOp23
 70
     1
102
RTVSPropertyOp24
 70
     1
102
RTVSPropertyOp25
 70
     1
102
RTVSPropertyOp26
 70
     1
102
RTVSPropertyOp27
 70
     1
102
RTVSPropertyOp28
 70
     1
102
RTVSPropertyOp29
 70
     1
102
RTVSPropertyOp30
 70
     1
102
RTVSPropertyOp31
 70
     1
102
RTVSPropertyOp32
 70
     1
102
RTVSPropertyOp33
 70
     1
102
RTVSPropertyOp34
 70
     1
102
RTVSPropertyOp35
 70
     1
102
RTVSPropertyOp36
 70
     1
102
RTVSPropertyOp37
 70
     1
102
RTVSPropertyOp38
 70
     1
102
RTVSPropertyOp39
 70
     1
102
RTVSPropertyOp40
 70
     1
102
RTVSPropertyOp41
 70
     1
102
RTVSPropertyOp42
 70
     1
102
RTVSPropertyOp43
 70
     1
102
RTVSPropertyOp44
 70
     1
102
RTVSPropertyOp45
 70
     1
102
RTVSPropertyOp46
 70
     1
102
RTVSPropertyOp47
 70
     1
102
RTVSPropertyOp48
 70
     1
102
RTVSPropertyOp49
 70
     1
102
RTVSPropertyOp50
 70
     1
102
RTVSPropertyOp51
 70
     0
102
RTVSPropertyOp52
 70
     0
102
RTVSPropertyOp53
 70
     1
102
RTVSPropertyOp54
 70
     1
102
RTVSPropertyOp55
 70
     1
102
RTVSPropertyOp56
 70
     1
102
RTVSPropertyOp57
 70
     1
102
RTVSPropertyOp58
 70
     1
102
RTVSPropertyOp59
 70
     1
102
RTVSPropertyOp60
 70
     1
102
RTVSPropertyOp61
 70
     1
102
RTVSPropertyOp62
 70
     1
  0
XRECORD
  5
12585
102
{ACAD_REACTORS
330
12584
102
}
330
12584
100
AcDbXrecord
280
     1
102
RTVSPost2010Prop28
280
     0
102
RTVSPost2010PropOp28
 70
     1
102
RTVSPost2010Prop29
280
     1
102
RTVSPost2010PropOp29
 70
     1
102
RTVSPost2010Prop30
280
     1
102
RTVSPost2010PropOp30
 70
     1
102
RTVSPost2010Prop31
280
     0
102
RTVSPost2010PropOp31
 70
     1
102
RTVSPost2010Prop32
280
     0
102
RTVSPost2010PropOp32
 70
     1
102
RTVSPost2010Prop33
280
     0
102
RTVSPost2010PropOp33
 70
     1
102
RTVSPost2010Prop34
280
     0
102
RTVSPost2010PropOp34
 70
     1
102
RTVSPost2010Prop35
280
     0
102
RTVSPost2010PropOp35
 70
     1
102
RTVSPost2010Prop36
280
     0
102
RTVSPost2010PropOp36
 70
     1
102
RTVSPost2010Prop37
 90
       50
102
RTVSPost2010PropOp37
 70
     1
102
RTVSPost2010Prop38
140
0.0
102
RTVSPost2010PropOp38
 70
     1
102
RTVSPost2010Prop39
140
1.0
102
RTVSPost2010PropOp39
 70
     1
102
RTVSPost2010Prop40
 90
        0
102
RTVSPost2010PropOp40
 70
     1
102
RTVSPost2010Prop41ColorIndex
 90
       18
102
RTVSPost2010Prop41ColorRGB
 90
        0
102
RTVSPost2010PropOp41
 70
     1
102
RTVSPost2010Prop42
 90
       50
102
RTVSPost2010PropOp42
 70
     1
102
RTVSPost2010Prop43
 90
        3
102
RTVSPost2010PropOp43
 70
     1
102
RTVSPost2010Prop44ColorIndex
 90
        5
102
RTVSPost2010Prop44ColorRGB
 90
      255
102
RTVSPost2010PropOp44
 70
     1
102
RTVSPost2010Prop45
280
     0
102
RTVSPost2010PropOp45
 70
     1
102
RTVSPost2010Prop46
 90
       50
102
RTVSPost2010PropOp46
 70
     1
102
RTVSPost2010Prop47
 90
       50
102
RTVSPost2010PropOp47
 70
     1
102
RTVSPost2010Prop48
 90
       50
102
RTVSPost2010PropOp48
 70
     1
102
RTVSPost2010Prop49
280
     0
102
RTVSPost2010PropOp49
 70
     1
102
RTVSPost2010Prop50
 90
       50
102
RTVSPost2010PropOp50
 70
     1
102
RTVSPost2010Prop51ColorIndex
 90
      256
102
RTVSPost2010Prop51ColorRGB
 90
-16777216
102
RTVSPost2010PropOp51
 70
     0
102
RTVSPost2010Prop52
140
1.0
102
RTVSPost2010PropOp52
 70
     0
102
RTVSPost2010Prop53
 90
        2
102
RTVSPost2010PropOp53
 70
     1
102
RTVSPost2010Prop54
  1
strokes_ogs.tif
102
RTVSPost2010PropOp54
 70
     1
102
RTVSPost2010Prop55
280
     0
102
RTVSPost2010PropOp55
 70
     1
102
RTVSPost2010Prop56
140
1.0
102
RTVSPost2010PropOp56
 70
     1
102
RTVSPost2010Prop57
140
1.0
102
RTVSPost2010PropOp57
 70
     1
102
RTVSPropertyOp0
 70
     1
102
RTVSPropertyOp1
 70
     1
102
RTVSPropertyOp2
 70
     1
102
RTVSPropertyOp3
 70
     1
102
RTVSPropertyOp4
 70
     1
102
RTVSPropertyOp5
 70
     1
102
RTVSPropertyOp6
 70
     1
102
RTVSPropertyOp7
 70
     1
102
RTVSPropertyOp8
 70
     1
102
RTVSPropertyOp9
 70
     1
102
RTVSPropertyOp10
 70
     1
102
RTVSPropertyOp11
 70
     1
102
RTVSPropertyOp12
 70
     1
102
RTVSPropertyOp13
 70
     1
102
RTVSPropertyOp14
 70
     1
102
RTVSPropertyOp15
 70
     1
102
RTVSPropertyOp16
 70
     1
102
RTVSPropertyOp17
 70
     1
102
RTVSPropertyOp18
 70
     1
102
RTVSPropertyOp19
 70
     1
102
RTVSPropertyOp20
 70
     1
102
RTVSPropertyOp21
 70
     1
102
RTVSPropertyOp22
 70
     1
102
RTVSPropertyOp23
 70
     1
102
RTVSPropertyOp24
 70
     1
102
RTVSPropertyOp25
 70
     1
102
RTVSPropertyOp26
 70
     1
102
RTVSPropertyOp27
 70
     1
102
RTVSPropertyOp28
 70
     1
102
RTVSPropertyOp29
 70
     1
102
RTVSPropertyOp30
 70
     1
102
RTVSPropertyOp31
 70
     1
102
RTVSPropertyOp32
 70
     1
102
RTVSPropertyOp33
 70
     1
102
RTVSPropertyOp34
 70
     1
102
RTVSPropertyOp35
 70
     1
102
RTVSPropertyOp36
 70
     1
102
RTVSPropertyOp37
 70
     1
102
RTVSPropertyOp38
 70
     1
102
RTVSPropertyOp39
 70
     1
102
RTVSPropertyOp40
 70
     1
102
RTVSPropertyOp41
 70
     1
102
RTVSPropertyOp42
 70
     1
102
RTVSPropertyOp43
 70
     1
102
RTVSPropertyOp44
 70
     1
102
RTVSPropertyOp45
 70
     1
102
RTVSPropertyOp46
 70
     1
102
RTVSPropertyOp47
 70
     1
102
RTVSPropertyOp48
 70
     1
102
RTVSPropertyOp49
 70
     1
102
RTVSPropertyOp50
 70
     1
102
RTVSPropertyOp51
 70
     0
102
RTVSPropertyOp52
 70
     0
102
RTVSPropertyOp53
 70
     1
102
RTVSPropertyOp54
 70
     1
102
RTVSPropertyOp55
 70
     1
102
RTVSPropertyOp56
 70
     1
102
RTVSPropertyOp57
 70
     1
102
RTVSPropertyOp58
 70
     1
102
RTVSPropertyOp59
 70
     1
102
RTVSPropertyOp60
 70
     1
102
RTVSPropertyOp61
 70
     1
102
RTVSPropertyOp62
 70
     1
  0
XRECORD
  5
12579
102
{ACAD_REACTORS
330
12578
102
}
330
12578
100
AcDbXrecord
280
     1
102
RTVSPost2010Prop28
280
     0
102
RTVSPost2010PropOp28
 70
     1
102
RTVSPost2010Prop29
280
     1
102
RTVSPost2010PropOp29
 70
     1
102
RTVSPost2010Prop30
280
     1
102
RTVSPost2010PropOp30
 70
     1
102
RTVSPost2010Prop31
280
     0
102
RTVSPost2010PropOp31
 70
     1
102
RTVSPost2010Prop32
280
     0
102
RTVSPost2010PropOp32
 70
     1
102
RTVSPost2010Prop33
280
     0
102
RTVSPost2010PropOp33
 70
     1
102
RTVSPost2010Prop34
280
     0
102
RTVSPost2010PropOp34
 70
     1
102
RTVSPost2010Prop35
280
     0
102
RTVSPost2010PropOp35
 70
     1
102
RTVSPost2010Prop36
280
     0
102
RTVSPost2010PropOp36
 70
     1
102
RTVSPost2010Prop37
 90
       50
102
RTVSPost2010PropOp37
 70
     1
102
RTVSPost2010Prop38
140
0.0
102
RTVSPost2010PropOp38
 70
     1
102
RTVSPost2010Prop39
140
1.0
102
RTVSPost2010PropOp39
 70
     1
102
RTVSPost2010Prop40
 90
        0
102
RTVSPost2010PropOp40
 70
     1
102
RTVSPost2010Prop41ColorIndex
 90
       18
102
RTVSPost2010Prop41ColorRGB
 90
        0
102
RTVSPost2010PropOp41
 70
     1
102
RTVSPost2010Prop42
 90
       50
102
RTVSPost2010PropOp42
 70
     1
102
RTVSPost2010Prop43
 90
        3
102
RTVSPost2010PropOp43
 70
     1
102
RTVSPost2010Prop44ColorIndex
 90
        5
102
RTVSPost2010Prop44ColorRGB
 90
      255
102
RTVSPost2010PropOp44
 70
     1
102
RTVSPost2010Prop45
280
     0
102
RTVSPost2010PropOp45
 70
     1
102
RTVSPost2010Prop46
 90
       50
102
RTVSPost2010PropOp46
 70
     1
102
RTVSPost2010Prop47
 90
       50
102
RTVSPost2010PropOp47
 70
     1
102
RTVSPost2010Prop48
 90
       50
102
RTVSPost2010PropOp48
 70
     1
102
RTVSPost2010Prop49
280
     0
102
RTVSPost2010PropOp49
 70
     1
102
RTVSPost2010Prop50
 90
       50
102
RTVSPost2010PropOp50
 70
     1
102
RTVSPost2010Prop51ColorIndex
 90
      256
102
RTVSPost2010Prop51ColorRGB
 90
-16777216
102
RTVSPost2010PropOp51
 70
     0
102
RTVSPost2010Prop52
140
1.0
102
RTVSPost2010PropOp52
 70
     0
102
RTVSPost2010Prop53
 90
        2
102
RTVSPost2010PropOp53
 70
     1
102
RTVSPost2010Prop54
  1
strokes_ogs.tif
102
RTVSPost2010PropOp54
 70
     1
102
RTVSPost2010Prop55
280
     0
102
RTVSPost2010PropOp55
 70
     1
102
RTVSPost2010Prop56
140
1.0
102
RTVSPost2010PropOp56
 70
     1
102
RTVSPost2010Prop57
140
1.0
102
RTVSPost2010PropOp57
 70
     1
102
RTVSPropertyOp0
 70
     1
102
RTVSPropertyOp1
 70
     1
102
RTVSPropertyOp2
 70
     1
102
RTVSPropertyOp3
 70
     1
102
RTVSPropertyOp4
 70
     1
102
RTVSPropertyOp5
 70
     1
102
RTVSPropertyOp6
 70
     1
102
RTVSPropertyOp7
 70
     1
102
RTVSPropertyOp8
 70
     1
102
RTVSPropertyOp9
 70
     1
102
RTVSPropertyOp10
 70
     1
102
RTVSPropertyOp11
 70
     1
102
RTVSPropertyOp12
 70
     1
102
RTVSPropertyOp13
 70
     1
102
RTVSPropertyOp14
 70
     1
102
RTVSPropertyOp15
 70
     1
102
RTVSPropertyOp16
 70
     1
102
RTVSPropertyOp17
 70
     1
102
RTVSPropertyOp18
 70
     1
102
RTVSPropertyOp19
 70
     1
102
RTVSPropertyOp20
 70
     1
102
RTVSPropertyOp21
 70
     1
102
RTVSPropertyOp22
 70
     1
102
RTVSPropertyOp23
 70
     1
102
RTVSPropertyOp24
 70
     1
102
RTVSPropertyOp25
 70
     1
102
RTVSPropertyOp26
 70
     1
102
RTVSPropertyOp27
 70
     1
102
RTVSPropertyOp28
 70
     1
102
RTVSPropertyOp29
 70
     1
102
RTVSPropertyOp30
 70
     1
102
RTVSPropertyOp31
 70
     1
102
RTVSPropertyOp32
 70
     1
102
RTVSPropertyOp33
 70
     1
102
RTVSPropertyOp34
 70
     1
102
RTVSPropertyOp35
 70
     1
102
RTVSPropertyOp36
 70
     1
102
RTVSPropertyOp37
 70
     1
102
RTVSPropertyOp38
 70
     1
102
RTVSPropertyOp39
 70
     1
102
RTVSPropertyOp40
 70
     1
102
RTVSPropertyOp41
 70
     1
102
RTVSPropertyOp42
 70
     1
102
RTVSPropertyOp43
 70
     1
102
RTVSPropertyOp44
 70
     1
102
RTVSPropertyOp45
 70
     1
102
RTVSPropertyOp46
 70
     1
102
RTVSPropertyOp47
 70
     1
102
RTVSPropertyOp48
 70
     1
102
RTVSPropertyOp49
 70
     1
102
RTVSPropertyOp50
 70
     1
102
RTVSPropertyOp51
 70
     0
102
RTVSPropertyOp52
 70
     0
102
RTVSPropertyOp53
 70
     1
102
RTVSPropertyOp54
 70
     1
102
RTVSPropertyOp55
 70
     1
102
RTVSPropertyOp56
 70
     1
102
RTVSPropertyOp57
 70
     1
102
RTVSPropertyOp58
 70
     1
102
RTVSPropertyOp59
 70
     1
102
RTVSPropertyOp60
 70
     1
102
RTVSPropertyOp61
 70
     1
102
RTVSPropertyOp62
 70
     1
  0
XRECORD
  5
12599
102
{ACAD_REACTORS
330
12598
102
}
330
12598
100
AcDbXrecord
280
     1
102
RTVSPost2010Prop28
280
     0
102
RTVSPost2010PropOp28
 70
     1
102
RTVSPost2010Prop29
280
     1
102
RTVSPost2010PropOp29
 70
     1
102
RTVSPost2010Prop30
280
     1
102
RTVSPost2010PropOp30
 70
     1
102
RTVSPost2010Prop31
280
     0
102
RTVSPost2010PropOp31
 70
     1
102
RTVSPost2010Prop32
280
     0
102
RTVSPost2010PropOp32
 70
     1
102
RTVSPost2010Prop33
280
     0
102
RTVSPost2010PropOp33
 70
     1
102
RTVSPost2010Prop34
280
     0
102
RTVSPost2010PropOp34
 70
     1
102
RTVSPost2010Prop35
280
     0
102
RTVSPost2010PropOp35
 70
     1
102
RTVSPost2010Prop36
280
     0
102
RTVSPost2010PropOp36
 70
     1
102
RTVSPost2010Prop37
 90
       50
102
RTVSPost2010PropOp37
 70
     1
102
RTVSPost2010Prop38
140
0.0
102
RTVSPost2010PropOp38
 70
     1
102
RTVSPost2010Prop39
140
1.0
102
RTVSPost2010PropOp39
 70
     1
102
RTVSPost2010Prop40
 90
        0
102
RTVSPost2010PropOp40
 70
     1
102
RTVSPost2010Prop41ColorIndex
 90
       18
102
RTVSPost2010Prop41ColorRGB
 90
        0
102
RTVSPost2010PropOp41
 70
     1
102
RTVSPost2010Prop42
 90
       50
102
RTVSPost2010PropOp42
 70
     1
102
RTVSPost2010Prop43
 90
        3
102
RTVSPost2010PropOp43
 70
     1
102
RTVSPost2010Prop44ColorIndex
 90
        5
102
RTVSPost2010Prop44ColorRGB
 90
      255
102
RTVSPost2010PropOp44
 70
     1
102
RTVSPost2010Prop45
280
     0
102
RTVSPost2010PropOp45
 70
     1
102
RTVSPost2010Prop46
 90
       50
102
RTVSPost2010PropOp46
 70
     1
102
RTVSPost2010Prop47
 90
       50
102
RTVSPost2010PropOp47
 70
     1
102
RTVSPost2010Prop48
 90
       50
102
RTVSPost2010PropOp48
 70
     1
102
RTVSPost2010Prop49
280
     0
102
RTVSPost2010PropOp49
 70
     1
102
RTVSPost2010Prop50
 90
       50
102
RTVSPost2010PropOp50
 70
     1
102
RTVSPost2010Prop51ColorIndex
 90
      256
102
RTVSPost2010Prop51ColorRGB
 90
-16777216
102
RTVSPost2010PropOp51
 70
     0
102
RTVSPost2010Prop52
140
1.0
102
RTVSPost2010PropOp52
 70
     0
102
RTVSPost2010Prop53
 90
        2
102
RTVSPost2010PropOp53
 70
     1
102
RTVSPost2010Prop54
  1
strokes_ogs.tif
102
RTVSPost2010PropOp54
 70
     1
102
RTVSPost2010Prop55
280
     0
102
RTVSPost2010PropOp55
 70
     1
102
RTVSPost2010Prop56
140
1.0
102
RTVSPost2010PropOp56
 70
     1
102
RTVSPost2010Prop57
140
1.0
102
RTVSPost2010PropOp57
 70
     1
102
RTVSPropertyOp0
 70
     1
102
RTVSPropertyOp1
 70
     1
102
RTVSPropertyOp2
 70
     1
102
RTVSPropertyOp3
 70
     1
102
RTVSPropertyOp4
 70
     1
102
RTVSPropertyOp5
 70
     1
102
RTVSPropertyOp6
 70
     1
102
RTVSPropertyOp7
 70
     1
102
RTVSPropertyOp8
 70
     1
102
RTVSPropertyOp9
 70
     1
102
RTVSPropertyOp10
 70
     1
102
RTVSPropertyOp11
 70
     1
102
RTVSPropertyOp12
 70
     1
102
RTVSPropertyOp13
 70
     1
102
RTVSPropertyOp14
 70
     1
102
RTVSPropertyOp15
 70
     1
102
RTVSPropertyOp16
 70
     1
102
RTVSPropertyOp17
 70
     1
102
RTVSPropertyOp18
 70
     1
102
RTVSPropertyOp19
 70
     1
102
RTVSPropertyOp20
 70
     1
102
RTVSPropertyOp21
 70
     1
102
RTVSPropertyOp22
 70
     1
102
RTVSPropertyOp23
 70
     1
102
RTVSPropertyOp24
 70
     1
102
RTVSPropertyOp25
 70
     1
102
RTVSPropertyOp26
 70
     1
102
RTVSPropertyOp27
 70
     1
102
RTVSPropertyOp28
 70
     1
102
RTVSPropertyOp29
 70
     1
102
RTVSPropertyOp30
 70
     1
102
RTVSPropertyOp31
 70
     1
102
RTVSPropertyOp32
 70
     1
102
RTVSPropertyOp33
 70
     1
102
RTVSPropertyOp34
 70
     1
102
RTVSPropertyOp35
 70
     1
102
RTVSPropertyOp36
 70
     1
102
RTVSPropertyOp37
 70
     1
102
RTVSPropertyOp38
 70
     1
102
RTVSPropertyOp39
 70
     1
102
RTVSPropertyOp40
 70
     1
102
RTVSPropertyOp41
 70
     1
102
RTVSPropertyOp42
 70
     1
102
RTVSPropertyOp43
 70
     1
102
RTVSPropertyOp44
 70
     1
102
RTVSPropertyOp45
 70
     1
102
RTVSPropertyOp46
 70
     1
102
RTVSPropertyOp47
 70
     1
102
RTVSPropertyOp48
 70
     1
102
RTVSPropertyOp49
 70
     1
102
RTVSPropertyOp50
 70
     1
102
RTVSPropertyOp51
 70
     0
102
RTVSPropertyOp52
 70
     0
102
RTVSPropertyOp53
 70
     1
102
RTVSPropertyOp54
 70
     1
102
RTVSPropertyOp55
 70
     1
102
RTVSPropertyOp56
 70
     1
102
RTVSPropertyOp57
 70
     1
102
RTVSPropertyOp58
 70
     1
102
RTVSPropertyOp59
 70
     1
102
RTVSPropertyOp60
 70
     1
102
RTVSPropertyOp61
 70
     1
102
RTVSPropertyOp62
 70
     1
  0
ENDSEC
  0
EOF
