  0
SECTION
  2
HEADER
  9
$ACADVER
  1
AC1015
  9
$ACADMAINTVER
 70
    18
  9
$DWGCODEPAGE
  3
ANSI_1252
  9
$INSBASE
 10
0.0
 20
0.0
 30
0.0
  9
$EXTMIN
 10
-188.5244743392388
 20
-362.0140683334485
 30
-0.0015258207003583
  9
$EXTMAX
 10
188.5308844974856
 20
158.5154119072428
 30
0.0000000349246037
  9
$LIMMIN
 10
0.0
 20
0.0
  9
$LIMMAX
 10
420.0
 20
297.0
  9
$ORTHOMODE
 70
     0
  9
$REGENMODE
 70
     1
  9
$FILLMODE
 70
     1
  9
$QTEXTMODE
 70
     0
  9
$MIRRTEXT
 70
     0
  9
$LTSCALE
 40
1.0
  9
$ATTMODE
 70
     1
  9
$TEXTSIZE
 40
2.5
  9
$TRACEWID
 40
1.0
  9
$TEXTSTYLE
  7
Standard
  9
$CLAYER
  8
0
  9
$CELTYPE
  6
ByLayer
  9
$CECOLOR
 62
   256
  9
$CELTSCALE
 40
1.0
  9
$DISPSILH
 70
     0
  9
$DIMSCALE
 40
1.0
  9
$DIMASZ
 40
2.5
  9
$DIMEXO
 40
0.625
  9
$DIMDLI
 40
3.75
  9
$DIMRND
 40
0.0
  9
$DIMDLE
 40
0.0
  9
$DIMEXE
 40
1.25
  9
$DIMTP
 40
0.0
  9
$DIMTM
 40
0.0
  9
$DIMTXT
 40
2.5
  9
$DIMCEN
 40
2.5
  9
$DIMTSZ
 40
0.0
  9
$DIMTOL
 70
     0
  9
$DIMLIM
 70
     0
  9
$DIMTIH
 70
     0
  9
$DIMTOH
 70
     0
  9
$DIMSE1
 70
     0
  9
$DIMSE2
 70
     0
  9
$DIMTAD
 70
     1
  9
$DIMZIN
 70
     8
  9
$DIMBLK
  1

  9
$DIMASO
 70
     1
  9
$DIMSHO
 70
     1
  9
$DIMPOST
  1

  9
$DIMAPOST
  1

  9
$DIMALT
 70
     0
  9
$DIMALTD
 70
     3
  9
$DIMALTF
 40
0.03937007874016
  9
$DIMLFAC
 40
1.0
  9
$DIMTOFL
 70
     1
  9
$DIMTVP
 40
0.0
  9
$DIMTIX
 70
     0
  9
$DIMSOXD
 70
     0
  9
$DIMSAH
 70
     0
  9
$DIMBLK1
  1

  9
$DIMBLK2
  1

  9
$DIMSTYLE
  2
ISO-25
  9
$DIMCLRD
 70
     0
  9
$DIMCLRE
 70
     0
  9
$DIMCLRT
 70
     0
  9
$DIMTFAC
 40
1.0
  9
$DIMGAP
 40
0.625
  9
$DIMJUST
 70
     0
  9
$DIMSD1
 70
     0
  9
$DIMSD2
 70
     0
  9
$DIMTOLJ
 70
     0
  9
$DIMTZIN
 70
     8
  9
$DIMALTZ
 70
     0
  9
$DIMALTTZ
 70
     0
  9
$DIMUPT
 70
     0
  9
$DIMDEC
 70
     2
  9
$DIMTDEC
 70
     2
  9
$DIMALTU
 70
     2
  9
$DIMALTTD
 70
     3
  9
$DIMTXSTY
  7
Standard
  9
$DIMAUNIT
 70
     0
  9
$DIMADEC
 70
     0
  9
$DIMALTRND
 40
0.0
  9
$DIMAZIN
 70
     0
  9
$DIMDSEP
 70
    44
  9
$DIMATFIT
 70
     3
  9
$DIMFRAC
 70
     0
  9
$DIMLDRBLK
  1

  9
$DIMLUNIT
 70
     2
  9
$DIMLWD
 70
    -2
  9
$DIMLWE
 70
    -2
  9
$DIMTMOVE
 70
     0
  9
$LUNITS
 70
     2
  9
$LUPREC
 70
     4
  9
$SKETCHINC
 40
1.0
  9
$FILLETRAD
 40
0.0
  9
$AUNITS
 70
     0
  9
$AUPREC
 70
     0
  9
$MENU
  1
.
  9
$ELEVATION
 40
0.0
  9
$PELEVATION
 40
0.0
  9
$THICKNESS
 40
0.0
  9
$LIMCHECK
 70
     0
  9
$CHAMFERA
 40
0.0
  9
$CHAMFERB
 40
0.0
  9
$CHAMFERC
 40
0.0
  9
$CHAMFERD
 40
0.0
  9
$SKPOLY
 70
     0
  9
$TDCREATE
 40
2460286.622500000
  9
$TDUCREATE
 40
2460286.330833334
  9
$TDUPDATE
 40
2460286.631516204
  9
$TDUUPDATE
 40
2460286.339849537
  9
$TDINDWG
 40
0.0032870370
  9
$TDUSRTIMER
 40
0.0032870370
  9
$USRTIMER
 70
     1
  9
$ANGBASE
 50
0.0
  9
$ANGDIR
 70
     0
  9
$PDMODE
 70
     0
  9
$PDSIZE
 40
0.0
  9
$PLINEWID
 40
0.0
  9
$SPLFRAME
 70
     0
  9
$SPLINETYPE
 70
     6
  9
$SPLINESEGS
 70
     8
  9
$HANDSEED
  5
A6E
  9
$SURFTAB1
 70
     6
  9
$SURFTAB2
 70
     6
  9
$SURFTYPE
 70
     6
  9
$SURFU
 70
     6
  9
$SURFV
 70
     6
  9
$UCSBASE
  2

  9
$UCSNAME
  2

  9
$UCSORG
 10
0.0
 20
0.0
 30
0.0
  9
$UCSXDIR
 10
1.0
 20
0.0
 30
0.0
  9
$UCSYDIR
 10
0.0
 20
1.0
 30
0.0
  9
$UCSORTHOREF
  2

  9
$UCSORTHOVIEW
 70
     0
  9
$UCSORGTOP
 10
0.0
 20
0.0
 30
0.0
  9
$UCSORGBOTTOM
 10
0.0
 20
0.0
 30
0.0
  9
$UCSORGLEFT
 10
0.0
 20
0.0
 30
0.0
  9
$UCSORGRIGHT
 10
0.0
 20
0.0
 30
0.0
  9
$UCSORGFRONT
 10
0.0
 20
0.0
 30
0.0
  9
$UCSORGBACK
 10
0.0
 20
0.0
 30
0.0
  9
$PUCSBASE
  2

  9
$PUCSNAME
  2

  9
$PUCSORG
 10
0.0
 20
0.0
 30
0.0
  9
$PUCSXDIR
 10
1.0
 20
0.0
 30
0.0
  9
$PUCSYDIR
 10
0.0
 20
1.0
 30
0.0
  9
$PUCSORTHOREF
  2

  9
$PUCSORTHOVIEW
 70
     0
  9
$PUCSORGTOP
 10
0.0
 20
0.0
 30
0.0
  9
$PUCSORGBOTTOM
 10
0.0
 20
0.0
 30
0.0
  9
$PUCSORGLEFT
 10
0.0
 20
0.0
 30
0.0
  9
$PUCSORGRIGHT
 10
0.0
 20
0.0
 30
0.0
  9
$PUCSORGFRONT
 10
0.0
 20
0.0
 30
0.0
  9
$PUCSORGBACK
 10
0.0
 20
0.0
 30
0.0
  9
$USERI1
 70
     0
  9
$USERI2
 70
     0
  9
$USERI3
 70
     0
  9
$USERI4
 70
     0
  9
$USERI5
 70
     0
  9
$USERR1
 40
0.0
  9
$USERR2
 40
0.0
  9
$USERR3
 40
0.0
  9
$USERR4
 40
0.0
  9
$USERR5
 40
0.0
  9
$WORLDVIEW
 70
     1
  9
$SHADEDGE
 70
     3
  9
$SHADEDIF
 70
    70
  9
$TILEMODE
 70
     1
  9
$MAXACTVP
 70
    48
  9
$PINSBASE
 10
0.0
 20
0.0
 30
0.0
  9
$PLIMCHECK
 70
     0
  9
$PEXTMIN
 10
0.0
 20
0.0
 30
0.0
  9
$PEXTMAX
 10
0.0
 20
0.0
 30
0.0
  9
$PLIMMIN
 10
0.0
 20
0.0
  9
$PLIMMAX
 10
12.0
 20
9.0
  9
$UNITMODE
 70
     0
  9
$VISRETAIN
 70
     1
  9
$PLINEGEN
 70
     0
  9
$PSLTSCALE
 70
     1
  9
$TREEDEPTH
 70
  3020
  9
$CMLSTYLE
  2
Standard
  9
$CMLJUST
 70
     0
  9
$CMLSCALE
 40
20.0
  9
$PROXYGRAPHICS
 70
     1
  9
$MEASUREMENT
 70
     1
  9
$CELWEIGHT
370
    -1
  9
$ENDCAPS
280
     0
  9
$JOINSTYLE
280
     0
  9
$LWDISPLAY
290
     0
  9
$INSUNITS
 70
     4
  9
$HYPERLINKBASE
  1

  9
$STYLESHEET
  1

  9
$XEDIT
290
     1
  9
$CEPSNTYPE
380
     0
  9
$PSTYLEMODE
290
     1
  9
$FINGERPRINTGUID
  2
{F076C30E-3F10-754B-AD36-B589FE558AAC}
  9
$VERSIONGUID
  2
{C597ABF6-FB46-E743-A007-505827E064E5}
  9
$EXTNAMES
290
     1
  9
$PSVPSCALE
 40
0.0
  9
$OLESTARTUP
290
     0
  0
ENDSEC
  0
SECTION
  2
CLASSES
  0
CLASS
  1
ACDBDICTIONARYWDFLT
  2
AcDbDictionaryWithDefault
  3
ObjectDBX Classes
 90
        0
280
     0
281
     0
  0
CLASS
  1
ACDBPLACEHOLDER
  2
AcDbPlaceHolder
  3
ObjectDBX Classes
 90
        0
280
     0
281
     0
  0
CLASS
  1
LAYOUT
  2
AcDbLayout
  3
ObjectDBX Classes
 90
        0
280
     0
281
     0
  0
CLASS
  1
DICTIONARYVAR
  2
AcDbDictionaryVar
  3
ObjectDBX Classes
 90
        0
280
     0
281
     0
  0
CLASS
  1
TABLESTYLE
  2
AcDbTableStyle
  3
ObjectDBX Classes
 90
     4095
280
     0
281
     0
  0
CLASS
  1
MATERIAL
  2
AcDbMaterial
  3
ObjectDBX Classes
 90
     1153
280
     0
281
     0
  0
CLASS
  1
VISUALSTYLE
  2
AcDbVisualStyle
  3
ObjectDBX Classes
 90
     4095
280
     0
281
     0
  0
CLASS
  1
SCALE
  2
AcDbScale
  3
ObjectDBX Classes
 90
     1153
280
     0
281
     0
  0
CLASS
  1
MLEADERSTYLE
  2
AcDbMLeaderStyle
  3
ACDB_MLEADERSTYLE_CLASS
 90
     4095
280
     0
281
     0
  0
CLASS
  1
CELLSTYLEMAP
  2
AcDbCellStyleMap
  3
ObjectDBX Classes
 90
     1152
280
     0
281
     0
  0
CLASS
  1
EXACXREFPANELOBJECT
  2
ExAcXREFPanelObject
  3
EXAC_ESW
 90
    33793
280
     0
281
     0
  0
CLASS
  1
NPOCOLLECTION
  2
AcDbImpNonPersistentObjectsCollection
  3
ObjectDBX Classes
 90
    33921
280
     0
281
     0
  0
CLASS
  1
LAYER_INDEX
  2
AcDbLayerIndex
  3
ObjectDBX Classes
 90
    32768
280
     0
281
     0
  0
CLASS
  1
SPATIAL_INDEX
  2
AcDbSpatialIndex
  3
ObjectDBX Classes
 90
    32768
280
     0
281
     0
  0
CLASS
  1
IDBUFFER
  2
AcDbIdBuffer
  3
ObjectDBX Classes
 90
    32768
280
     0
281
     0
  0
CLASS
  1
ACDBSECTIONVIEWSTYLE
  2
AcDbSectionViewStyle
  3
ObjectDBX Classes
 90
     1025
280
     0
281
     0
  0
CLASS
  1
ACDBDETAILVIEWSTYLE
  2
AcDbDetailViewStyle
  3
ObjectDBX Classes
 90
     1025
280
     0
281
     0
  0
CLASS
  1
XRECORD
  2
AcDbXrecord
  3
ObjectDBX Classes
 90
        0
280
     0
281
     0
  0
ENDSEC
  0
SECTION
  2
TABLES
  0
TABLE
  2
VPORT
  5
8
102
{ACAD_XDICTIONARY
360
97C
102
}
330
0
100
AcDbSymbolTable
 70
     1
  0
VPORT
  5
EA
330
8
100
AcDbSymbolTableRecord
100
AcDbViewportTableRecord
  2
*Active
 70
     0
 10
0.0
 20
0.0
 11
1.0
 21
1.0
 12
0.0032050791233758
 22
-101.7493282131028
 13
0.0
 23
0.0
 14
10.0
 24
10.0
 15
10.0
 25
10.0
 16
0.0
 26
0.0
 36
1.0
 17
0.0
 27
0.0
 37
0.0
 40
553.535930128416
 41
0.9846153846153846
 42
50.0
 43
0.0
 44
0.0
 50
0.0
 51
0.0
 71
     0
 72
  1000
 73
     1
 74
     3
 75
     0
 76
     1
 77
     0
 78
     0
281
     0
 65
     1
110
0.0
120
0.0
130
0.0
111
1.0
121
0.0
131
0.0
112
0.0
122
1.0
132
0.0
 79
     0
146
0.0
1001
ACAD_NAV_VCDISPLAY
1070
     3
  0
ENDTAB
  0
TABLE
  2
LTYPE
  5
5
330
0
100
AcDbSymbolTable
 70
     1
  0
LTYPE
  5
14
330
5
100
AcDbSymbolTableRecord
100
AcDbLinetypeTableRecord
  2
ByBlock
 70
     0
  3

 72
    65
 73
     0
 40
0.0
  0
LTYPE
  5
15
330
5
100
AcDbSymbolTableRecord
100
AcDbLinetypeTableRecord
  2
ByLayer
 70
     0
  3

 72
    65
 73
     0
 40
0.0
  0
LTYPE
  5
16
330
5
100
AcDbSymbolTableRecord
100
AcDbLinetypeTableRecord
  2
Continuous
 70
     0
  3
Solid line
 72
    65
 73
     0
 40
0.0
  0
ENDTAB
  0
TABLE
  2
LAYER
  5
2
102
{ACAD_XDICTIONARY
360
1FF
102
}
330
0
100
AcDbSymbolTable
 70
     1
  0
LAYER
  5
10
102
{ACAD_XDICTIONARY
360
13C
102
}
330
2
100
AcDbSymbolTableRecord
100
AcDbLayerTableRecord
  2
0
 70
     0
 62
     7
  6
Continuous
370
    -3
390
F
  0
ENDTAB
  0
TABLE
  2
STYLE
  5
3
330
0
100
AcDbSymbolTable
 70
     1
  0
STYLE
  5
11
330
3
100
AcDbSymbolTableRecord
100
AcDbTextStyleTableRecord
  2
Standard
 70
     0
 40
0.0
 41
1.0
 50
0.0
 71
     0
 42
2.5
  3
arial.ttf
  4

1001
ACAD
1000
Arial
1071
       34
  0
ENDTAB
  0
TABLE
  2
VIEW
  5
6
330
0
100
AcDbSymbolTable
 70
     0
  0
ENDTAB
  0
TABLE
  2
UCS
  5
7
330
0
100
AcDbSymbolTable
 70
     0
  0
ENDTAB
  0
TABLE
  2
APPID
  5
9
330
0
100
AcDbSymbolTable
 70
     8
  0
APPID
  5
12
330
9
100
AcDbSymbolTableRecord
100
AcDbRegAppTableRecord
  2
ACAD
 70
     0
  0
APPID
  5
9E
330
9
100
AcDbSymbolTableRecord
100
AcDbRegAppTableRecord
  2
ACAD_PSEXT
 70
     0
  0
APPID
  5
133
330
9
100
AcDbSymbolTableRecord
100
AcDbRegAppTableRecord
  2
AcadAnnoPO
 70
     0
  0
APPID
  5
134
330
9
100
AcDbSymbolTableRecord
100
AcDbRegAppTableRecord
  2
AcadAnnotative
 70
     0
  0
APPID
  5
135
330
9
100
AcDbSymbolTableRecord
100
AcDbRegAppTableRecord
  2
ACAD_DSTYLE_DIMJAG
 70
     0
  0
APPID
  5
136
330
9
100
AcDbSymbolTableRecord
100
AcDbRegAppTableRecord
  2
ACAD_DSTYLE_DIMTALN
 70
     0
  0
APPID
  5
165
330
9
100
AcDbSymbolTableRecord
100
AcDbRegAppTableRecord
  2
ACAD_MLEADERVER
 70
     0
  0
APPID
  5
217
330
9
100
AcDbSymbolTableRecord
100
AcDbRegAppTableRecord
  2
ACAD_NAV_VCDISPLAY
 70
     0
  0
ENDTAB
  0
TABLE
  2
DIMSTYLE
  5
A
330
0
100
AcDbSymbolTable
 70
     1
100
AcDbDimStyleTable
 71
     0
  0
DIMSTYLE
105
27
330
A
100
AcDbSymbolTableRecord
100
AcDbDimStyleTableRecord
  2
ISO-25
 70
     0
 41
2.5
 42
0.625
 43
3.75
 44
1.25
 73
     0
 74
     0
 77
     1
 78
     8
140
2.5
141
2.5
143
0.03937007874016
147
0.625
171
     3
172
     1
271
     2
272
     2
274
     3
278
    44
283
     0
284
     8
340
11
  0
ENDTAB
  0
TABLE
  2
BLOCK_RECORD
  5
1
330
0
100
AcDbSymbolTable
 70
     7
  0
BLOCK_RECORD
  5
1F
102
{ACAD_XDICTIONARY
360
1CE
102
}
330
1
100
AcDbSymbolTableRecord
100
AcDbBlockTableRecord
  2
*Model_Space
340
22
  0
BLOCK_RECORD
  5
D2
102
{ACAD_XDICTIONARY
360
92F
102
}
330
1
100
AcDbSymbolTableRecord
100
AcDbBlockTableRecord
  2
*Paper_Space
340
D3
  0
BLOCK_RECORD
  5
D6
102
{ACAD_XDICTIONARY
360
931
102
}
330
1
100
AcDbSymbolTableRecord
100
AcDbBlockTableRecord
  2
*Paper_Space0
340
D7
  0
BLOCK_RECORD
  5
700
330
1
100
AcDbSymbolTableRecord
100
AcDbBlockTableRecord
  2
CBH150S-Front
340
0
102
{BLKREFS
331
925
102
}
  0
BLOCK_RECORD
  5
759
330
1
100
AcDbSymbolTableRecord
100
AcDbBlockTableRecord
  2
CBH150S-Left
340
0
102
{BLKREFS
331
926
102
}
  0
BLOCK_RECORD
  5
7A9
330
1
100
AcDbSymbolTableRecord
100
AcDbBlockTableRecord
  2
CBH150S-Right
340
0
102
{BLKREFS
331
927
102
}
  0
BLOCK_RECORD
  5
7F4
330
1
100
AcDbSymbolTableRecord
100
AcDbBlockTableRecord
  2
CBH150S-Top
340
0
102
{BLKREFS
331
928
102
}
  0
BLOCK_RECORD
  5
828
330
1
100
AcDbSymbolTableRecord
100
AcDbBlockTableRecord
  2
CBH150S-Bottom
340
0
102
{BLKREFS
331
929
102
}
  0
BLOCK_RECORD
  5
859
330
1
100
AcDbSymbolTableRecord
100
AcDbBlockTableRecord
  2
CBH150S-ISO
340
0
102
{BLKREFS
331
92A
102
}
  0
ENDTAB
  0
ENDSEC
  0
SECTION
  2
BLOCKS
  0
BLOCK
  5
20
330
1F
100
AcDbEntity
  8
0
100
AcDbBlockBegin
  2
*Model_Space
 70
     0
 10
0.0
 20
0.0
 30
0.0
  3
*Model_Space
  1

  0
ENDBLK
  5
21
330
1F
100
AcDbEntity
  8
0
100
AcDbBlockEnd
  0
BLOCK
  5
D4
330
D2
100
AcDbEntity
 67
     1
  8
0
100
AcDbBlockBegin
  2
*Paper_Space
 70
     0
 10
0.0
 20
0.0
 30
0.0
  3
*Paper_Space
  1

  0
ENDBLK
  5
D5
330
D2
100
AcDbEntity
 67
     1
  8
0
100
AcDbBlockEnd
  0
BLOCK
  5
D8
330
D6
100
AcDbEntity
 67
     1
  8
0
100
AcDbBlockBegin
  2
*Paper_Space0
 70
     0
 10
0.0
 20
0.0
 30
0.0
  3
*Paper_Space0
  1

  0
ENDBLK
  5
D9
330
D6
100
AcDbEntity
 67
     1
  8
0
100
AcDbBlockEnd
  0
BLOCK
  5
701
330
700
100
AcDbEntity
  8
0
100
AcDbBlockBegin
  2
CBH150S-Front
 70
     0
 10
0.0
 20
0.0
 30
0.0
  3
CBH150S-Front
  1

  0
LINE
  5
703
330
700
100
AcDbEntity
  8
0
100
AcDbLine
 10
3.749999999999972
 20
-7.999999999999989
 30
0.0
 11
8.000000000000033
 21
-7.999999999999989
 31
0.0
  0
LINE
  5
704
330
700
100
AcDbEntity
  8
0
100
AcDbLine
 10
3.749999999999972
 20
-15.99999999999999
 30
0.0
 11
1.249999999999986
 21
-15.99999999999999
 31
0.0
  0
ARC
  5
705
330
700
100
AcDbEntity
  8
0
100
AcDbCircle
 10
1.249999999999987
 20
-13.49999999999999
 30
0.0
 40
2.5
100
AcDbArc
 50
270.0
 51
0.0
  0
LINE
  5
706
330
700
100
AcDbEntity
  8
0
100
AcDbLine
 10
3.749999999999987
 20
-10.49999999999999
 30
0.0
 11
3.749999999999987
 21
-13.49999999999999
 31
0.0
  0
ARC
  5
707
330
700
100
AcDbEntity
  8
0
100
AcDbCircle
 10
1.249999999999987
 20
-10.49999999999999
 30
0.0
 40
2.5
100
AcDbArc
 50
0.0
 51
90.0
  0
ARC
  5
708
330
700
100
AcDbEntity
  8
0
100
AcDbCircle
 10
8.000000000000035
 20
-12.0
 30
0.0
 40
4.0
100
AcDbArc
 50
270.0
 51
90.00000000000007
  0
LINE
  5
709
330
700
100
AcDbEntity
  8
0
100
AcDbLine
 10
8.000000000000039
 20
-15.99999999999999
 30
0.0
 11
3.749999999999972
 21
-15.99999999999999
 31
0.0
  0
LINE
  5
70A
330
700
100
AcDbEntity
  8
0
100
AcDbLine
 10
-3.750000000000012
 20
-97.25000000000001
 30
0.0
 11
-3.750000000000012
 21
-112.75
 31
0.0
  0
LINE
  5
70B
330
700
100
AcDbEntity
  8
0
100
AcDbLine
 10
-3.750000000000012
 20
-127.25
 30
0.0
 11
-3.750000000000012
 21
-142.75
 31
0.0
  0
LINE
  5
70C
330
700
100
AcDbEntity
  8
0
100
AcDbLine
 10
-3.750000000000012
 20
-67.25
 30
0.0
 11
-3.750000000000012
 21
-82.75
 31
0.0
  0
LINE
  5
70D
330
700
100
AcDbEntity
  8
0
100
AcDbLine
 10
-3.750000000000012
 20
-37.25000000000001
 30
0.0
 11
-3.750000000000012
 21
-52.74999999999999
 31
0.0
  0
LINE
  5
70E
330
700
100
AcDbEntity
  8
0
100
AcDbLine
 10
1.249999999999987
 20
-7.999999999999998
 30
0.0
 11
3.749999999999972
 21
-7.999999999999998
 31
0.0
  0
LINE
  5
70F
330
700
100
AcDbEntity
  8
0
100
AcDbLine
 10
3.749999999999987
 20
-125.0
 30
0.0
 11
3.749999999999987
 21
-25.0
 31
0.0
  0
LINE
  5
710
330
700
100
AcDbEntity
  8
0
100
AcDbLine
 10
3.749999999999987
 20
-125.0
 30
0.0
 11
3.749999999999987
 21
-126.5
 31
0.0
  0
LINE
  5
711
330
700
100
AcDbEntity
  8
0
100
AcDbLine
 10
3.749999999999987
 20
-23.5
 30
0.0
 11
3.749999999999987
 21
-25.0
 31
0.0
  0
ARC
  5
712
330
700
100
AcDbEntity
  8
0
100
AcDbCircle
 10
-3.750000000000012
 20
-115.25
 30
0.0
 40
2.5
100
AcDbArc
 50
0.0
 51
90.00000000000003
  0
ARC
  5
713
330
700
100
AcDbEntity
  8
0
100
AcDbCircle
 10
-3.750000000000012
 20
-94.75000000000001
 30
0.0
 40
2.5
100
AcDbArc
 50
270.0
 51
0.0
  0
ARC
  5
714
330
700
100
AcDbEntity
  8
0
100
AcDbCircle
 10
-3.750000000000012
 20
-145.25
 30
0.0
 40
2.5
100
AcDbArc
 50
0.0
 51
90.00000000000003
  0
ARC
  5
715
330
700
100
AcDbEntity
  8
0
100
AcDbCircle
 10
-3.750000000000012
 20
-124.75
 30
0.0
 40
2.5
100
AcDbArc
 50
270.0
 51
0.0
  0
ARC
  5
716
330
700
100
AcDbEntity
  8
0
100
AcDbCircle
 10
-3.750000000000012
 20
-85.24999999999998
 30
0.0
 40
2.5
100
AcDbArc
 50
0.0
 51
90.00000000000003
  0
ARC
  5
717
330
700
100
AcDbEntity
  8
0
100
AcDbCircle
 10
-3.750000000000012
 20
-64.75
 30
0.0
 40
2.5
100
AcDbArc
 50
270.0
 51
0.0
  0
ARC
  5
718
330
700
100
AcDbEntity
  8
0
100
AcDbCircle
 10
-3.750000000000012
 20
-55.24999999999999
 30
0.0
 40
2.5
100
AcDbArc
 50
0.0
 51
90.00000000000003
  0
ARC
  5
719
330
700
100
AcDbEntity
  8
0
100
AcDbCircle
 10
-3.750000000000012
 20
-34.75000000000001
 30
0.0
 40
2.5
100
AcDbArc
 50
270.0
 51
0.0
  0
ARC
  5
71A
330
700
100
AcDbEntity
  8
0
100
AcDbCircle
 10
1.249999999999987
 20
-126.5
 30
0.0
 40
2.5
100
AcDbArc
 50
270.0
 51
0.0
  0
ARC
  5
71B
330
700
100
AcDbEntity
  8
0
100
AcDbCircle
 10
1.249999999999987
 20
-23.5
 30
0.0
 40
2.5
100
AcDbArc
 50
0.0
 51
90.00000000000003
  0
LINE
  5
71C
330
700
100
AcDbEntity
  8
0
100
AcDbLine
 10
25.99999999999998
 20
0.0
 30
0.0
 11
29.99999999999999
 21
-4.000000000000012
 31
0.0
  0
LINE
  5
71D
330
700
100
AcDbEntity
  8
0
100
AcDbLine
 10
30.0
 20
-93.99999999999998
 30
0.0
 11
25.99999999999999
 21
-97.99999999999997
 31
0.0
  0
LINE
  5
71E
330
700
100
AcDbEntity
  8
0
100
AcDbLine
 10
-30.00000000000004
 20
-107.0
 30
0.0
 11
-26.00000000000005
 21
-103.0
 31
0.0
  0
LINE
  5
71F
330
700
100
AcDbEntity
  8
0
100
AcDbLine
 10
26.26567829401113
 20
-134.7665282018188
 30
0.0
 11
29.99999999999995
 21
-140.1999999999999
 31
0.0
  0
LINE
  5
720
330
700
100
AcDbEntity
  8
0
100
AcDbLine
 10
-26.00000000000003
 20
-150.0
 30
0.0
 11
-30.00000000000003
 21
-145.9999999999999
 31
0.0
  0
LINE
  5
721
330
700
100
AcDbEntity
  8
0
100
AcDbLine
 10
29.99999999999995
 20
-145.9999999999999
 30
0.0
 11
25.99999999999994
 21
-150.0
 31
0.0
  0
LINE
  5
722
330
700
100
AcDbEntity
  8
0
100
AcDbLine
 10
1.249999999999987
 20
-4.000000000000003
 30
0.0
 11
1.249999999999987
 21
0.0
 31
0.0
  0
LINE
  5
723
330
700
100
AcDbEntity
  8
0
100
AcDbLine
 10
1.249999999999987
 20
0.0
 30
0.0
 11
-1.250000000000012
 21
0.0
 31
0.0
  0
LINE
  5
724
330
700
100
AcDbEntity
  8
0
100
AcDbLine
 10
-1.250000000000012
 20
0.0
 30
0.0
 11
-1.250000000000012
 21
-4.000000000000003
 31
0.0
  0
LINE
  5
725
330
700
100
AcDbEntity
  8
0
100
AcDbLine
 10
-1.250000000000012
 20
-4.000000000000003
 30
0.0
 11
1.249999999999987
 21
-4.000000000000003
 31
0.0
  0
LINE
  5
726
330
700
100
AcDbEntity
  8
0
100
AcDbLine
 10
1.249999999999987
 20
-150.0
 30
0.0
 11
1.249999999999987
 21
-146.0
 31
0.0
  0
LINE
  5
727
330
700
100
AcDbEntity
  8
0
100
AcDbLine
 10
1.249999999999987
 20
-146.0
 30
0.0
 11
-1.250000000000012
 21
-146.0
 31
0.0
  0
LINE
  5
728
330
700
100
AcDbEntity
  8
0
100
AcDbLine
 10
-1.250000000000012
 20
-146.0
 30
0.0
 11
-1.250000000000012
 21
-150.0
 31
0.0
  0
LINE
  5
729
330
700
100
AcDbEntity
  8
0
100
AcDbLine
 10
-1.250000000000012
 20
-150.0
 30
0.0
 11
1.249999999999987
 21
-150.0
 31
0.0
  0
LINE
  5
72A
330
700
100
AcDbEntity
  8
0
100
AcDbLine
 10
3.749999999999986
 20
0.0
 30
0.0
 11
25.99999999999998
 21
0.0
 31
0.0
  0
LINE
  5
72B
330
700
100
AcDbEntity
  8
0
100
AcDbLine
 10
25.99999999999999
 20
-97.99999999999997
 30
0.0
 11
3.749999999999982
 21
-97.99999999999998
 31
0.0
  0
ARC
  5
72C
330
700
100
AcDbEntity
  8
0
100
AcDbCircle
 10
3.129999999999979
 20
-27.50000000000007
 30
0.0
 40
2.5
100
AcDbArc
 50
284.3591939916977
 51
75.64080600830227
  0
LINE
  5
72D
330
700
100
AcDbEntity
  8
0
100
AcDbLine
 10
-8.870000000000011
 20
-30.00000000000005
 30
0.0
 11
-1.250000000000036
 21
-30.00000000000006
 31
0.0
  0
ARC
  5
72E
330
700
100
AcDbEntity
  8
0
100
AcDbCircle
 10
-8.870000000000006
 20
-50.00000000000003
 30
0.0
 40
20.00000000000001
100
AcDbArc
 50
90.00000000000003
 51
270.0
  0
LINE
  5
72F
330
700
100
AcDbEntity
  8
0
100
AcDbLine
 10
-3.750000000000035
 20
-70.00000000000004
 30
0.0
 11
-8.869999999999986
 21
-70.00000000000004
 31
0.0
  0
ARC
  5
730
330
700
100
AcDbEntity
  8
0
100
AcDbCircle
 10
3.130000000000005
 20
-72.50000000000006
 30
0.0
 40
2.5
100
AcDbArc
 50
284.3591939916974
 51
75.64080600830291
  0
LINE
  5
731
330
700
100
AcDbEntity
  8
0
100
AcDbLine
 10
29.99999999999999
 20
-4.000000000000012
 30
0.0
 11
30.0
 21
-93.99999999999998
 31
0.0
  0
ARC
  5
732
330
700
100
AcDbEntity
  8
0
100
AcDbCircle
 10
-0.0000000000000054
 20
-47.00000000000002
 30
0.0
 40
5.5
100
AcDbArc
 50
132.9858860801903
 51
180.0
  0
ARC
  5
733
330
700
100
AcDbEntity
  8
0
100
AcDbCircle
 10
-0.0000000000000054
 20
-47.00000000000002
 30
0.0
 40
5.5
100
AcDbArc
 50
0.0
 51
47.01411391980998
  0
LINE
  5
734
330
700
100
AcDbEntity
  8
0
100
AcDbLine
 10
5.499999999999984
 20
-47.00000000000002
 30
0.0
 11
5.499999999999984
 21
-47.80039840795546
 31
0.0
  0
ARC
  5
735
330
700
100
AcDbEntity
  8
0
100
AcDbCircle
 10
0.0000000000000036
 20
-98.0
 30
0.0
 40
50.5
100
AcDbArc
 50
72.54239687627793
 51
83.74746297001768
  0
ARC
  5
736
330
700
100
AcDbEntity
  8
0
100
AcDbCircle
 10
13.49999999999999
 20
-55.07273593623745
 30
0.0
 40
5.499999999999999
100
AcDbArc
 50
252.5423968762778
 51
72.54239687627801
  0
ARC
  5
737
330
700
100
AcDbEntity
  8
0
100
AcDbCircle
 10
0.0000000000000036
 20
-98.0
 30
0.0
 40
39.5
100
AcDbArc
 50
72.54239687627792
 51
84.55232296704156
  0
ARC
  5
738
330
700
100
AcDbEntity
  8
0
100
AcDbCircle
 10
-0.0000000000000043
 20
-53.00000000000003
 30
0.0
 40
5.5
100
AcDbArc
 50
180.0
 51
256.8634412130548
  0
LINE
  5
739
330
700
100
AcDbEntity
  8
0
100
AcDbLine
 10
-5.500000000000008
 20
-53.00000000000003
 30
0.0
 11
-5.500000000000008
 21
-47.00000000000002
 31
0.0
  0
CIRCLE
  5
73A
330
700
100
AcDbEntity
  8
0
100
AcDbCircle
 10
22.5
 20
-90.5
 30
0.0
 40
2.5
  0
CIRCLE
  5
73B
330
700
100
AcDbEntity
  8
0
100
AcDbCircle
 10
12.5
 20
-80.50000000000002
 30
0.0
 40
2.5
  0
CIRCLE
  5
73C
330
700
100
AcDbEntity
  8
0
100
AcDbCircle
 10
22.5
 20
-70.50000000000001
 30
0.0
 40
2.5
  0
CIRCLE
  5
73D
330
700
100
AcDbEntity
  8
0
100
AcDbCircle
 10
-12.50000000000005
 20
-62.25000000000003
 30
0.0
 40
2.5
  0
CIRCLE
  5
73E
330
700
100
AcDbEntity
  8
0
100
AcDbCircle
 10
-22.50000000000006
 20
-50.00000000000003
 30
0.0
 40
2.5
  0
CIRCLE
  5
73F
330
700
100
AcDbEntity
  8
0
100
AcDbCircle
 10
-12.50000000000006
 20
-37.75000000000003
 30
0.0
 40
2.5
  0
CIRCLE
  5
740
330
700
100
AcDbEntity
  8
0
100
AcDbCircle
 10
12.49999999999997
 20
-37.50000000000002
 30
0.0
 40
2.5
  0
CIRCLE
  5
741
330
700
100
AcDbEntity
  8
0
100
AcDbCircle
 10
22.49999999999997
 20
-27.50000000000002
 30
0.0
 40
2.5
  0
CIRCLE
  5
742
330
700
100
AcDbEntity
  8
0
100
AcDbCircle
 10
12.49999999999997
 20
-17.50000000000001
 30
0.0
 40
2.5
  0
CIRCLE
  5
743
330
700
100
AcDbEntity
  8
0
100
AcDbCircle
 10
22.49999999999997
 20
-7.500000000000017
 30
0.0
 40
2.5
  0
LINE
  5
744
330
700
100
AcDbEntity
  8
0
100
AcDbLine
 10
-30.00000000000003
 20
-145.9999999999999
 30
0.0
 11
-30.00000000000004
 21
-107.0
 31
0.0
  0
LINE
  5
745
330
700
100
AcDbEntity
  8
0
100
AcDbLine
 10
-2.695919873863291
 20
-123.6492122680242
 30
0.0
 11
-1.250000000000036
 21
-124.2042489051432
 31
0.0
  0
LINE
  5
746
330
700
100
AcDbEntity
  8
0
100
AcDbLine
 10
3.749999999999978
 20
-126.1235690803203
 30
0.0
 11
26.26567829401113
 21
-134.7665282018188
 31
0.0
  0
LINE
  5
747
330
700
100
AcDbEntity
  8
0
100
AcDbLine
 10
-1.500000000000039
 20
-150.0
 30
0.0
 11
-26.00000000000003
 21
-150.0
 31
0.0
  0
LINE
  5
748
330
700
100
AcDbEntity
  8
0
100
AcDbLine
 10
29.99999999999995
 20
-140.1999999999999
 30
0.0
 11
29.99999999999995
 21
-145.9999999999999
 31
0.0
  0
LINE
  5
749
330
700
100
AcDbEntity
  8
0
100
AcDbLine
 10
1.249999999999987
 20
-146.0
 30
0.0
 11
1.249999999999987
 21
-4.000000000000003
 31
0.0
  0
LINE
  5
74A
330
700
100
AcDbEntity
  8
0
100
AcDbLine
 10
-1.250000000000012
 20
-4.000000000000003
 30
0.0
 11
-1.250000000000012
 21
-146.0
 31
0.0
  0
LINE
  5
74B
330
700
100
AcDbEntity
  8
0
100
AcDbLine
 10
-26.00000000000005
 20
-103.0
 30
0.0
 11
-3.750000000000035
 21
-103.0
 31
0.0
  0
LINE
  5
74C
330
700
100
AcDbEntity
  8
0
100
AcDbLine
 10
25.99999999999994
 20
-150.0
 30
0.0
 11
1.49999999999995
 21
-150.0
 31
0.0
  0
LINE
  5
74D
330
700
100
AcDbEntity
  8
0
100
AcDbLine
 10
1.499999999999949
 20
-150.0
 30
0.0
 11
1.249999999999963
 21
-149.5
 31
0.0
  0
LINE
  5
74E
330
700
100
AcDbEntity
  8
0
100
AcDbLine
 10
-1.250000000000046
 20
-149.5
 30
0.0
 11
-1.500000000000039
 21
-150.0
 31
0.0
  0
CIRCLE
  5
74F
330
700
100
AcDbEntity
  8
0
100
AcDbCircle
 10
-12.50000000000005
 20
-110.5
 30
0.0
 40
2.5
  0
CIRCLE
  5
750
330
700
100
AcDbEntity
  8
0
100
AcDbCircle
 10
-22.50000000000007
 20
-120.5
 30
0.0
 40
2.5
  0
CIRCLE
  5
751
330
700
100
AcDbEntity
  8
0
100
AcDbCircle
 10
7.499999999999947
 20
-136.8999999999999
 30
0.0
 40
2.5
  0
CIRCLE
  5
752
330
700
100
AcDbEntity
  8
0
100
AcDbCircle
 10
22.49999999999993
 20
-142.5
 30
0.0
 40
2.5
  0
CIRCLE
  5
753
330
700
100
AcDbEntity
  8
0
100
AcDbCircle
 10
-12.50000000000009
 20
-132.4999999999999
 30
0.0
 40
5.750000000000001
  0
ARC
  5
754
330
700
100
AcDbEntity
  8
0
100
AcDbCircle
 10
-1.800000000000048
 20
-121.3152612017812
 30
0.0
 40
2.499999999999999
100
AcDbArc
 50
141.260575402144
 51
249.0
  0
LINE
  5
755
330
700
100
AcDbEntity
  8
0
100
AcDbLine
 10
3.749999999999986
 20
0.0
 30
0.0
 11
1.249999999999987
 21
0.0
 31
0.0
  0
SPLINE
  5
756
330
700
100
AcDbEntity
  8
0
100
AcDbSpline
210
0.0
220
0.0
230
1.0
 70
     8
 71
     3
 72
    12
 73
     8
 74
     0
 42
0.000000001
 43
0.0000000001
 40
0.2515279598947871
 40
0.2515279598947871
 40
0.2515279598947871
 40
0.2515279598947871
 40
0.2899987807519915
 40
0.2899987807519915
 40
0.3739899205678294
 40
0.3739899205678294
 40
0.4976769880291255
 40
0.4976769880291255
 40
0.4976769880291255
 40
0.4976769880291255
 10
-1.956616706305131
 20
-118.9222519752006
 30
0.0
 10
-2.070396853044552
 20
-118.9469347995538
 30
0.0
 10
-2.184965676457388
 20
-118.9760124922644
 30
0.0
 10
-2.550399764788683
 20
-119.0830047237231
 30
0.0
 10
-2.80055293094425
 20
-119.1776952942812
 30
0.0
 10
-3.397726223133077
 20
-119.472416742953
 30
0.0
 10
-3.635796725436357
 20
-119.6565172952428
 30
0.0
 10
-3.750000000000064
 20
-119.7508124170649
 30
0.0
  0
SPLINE
  5
757
330
700
100
AcDbEntity
  8
0
100
AcDbSpline
210
0.0
220
0.0
230
1.0
 70
     8
 71
     3
 72
    16
 73
    12
 74
     0
 42
0.000000001
 43
0.0000000001
 40
0.0
 40
0.0
 40
0.0
 40
0.0
 40
0.0413665349789598
 40
0.0413665349789598
 40
0.0660460115638263
 40
0.0660460115638263
 40
0.0871387586838379
 40
0.0871387586838379
 40
0.1008593572467675
 40
0.1008593572467675
 40
0.1186575329330778
 40
0.1186575329330778
 40
0.1186575329330778
 40
0.1186575329330778
 10
-3.750000000000035
 20
-119.7508124170649
 30
0.0
 10
-3.678744210336722
 20
-119.6327622706715
 30
0.0
 10
-3.518402823032544
 20
-119.3884607509832
 30
0.0
 10
-3.116542908424724
 20
-119.055180877571
 30
0.0
 10
-2.951822254011715
 20
-118.9565760011046
 30
0.0
 10
-2.633821326895715
 20
-118.8387496667737
 30
0.0
 10
-2.487789580592142
 20
-118.8120999571063
 30
0.0
 10
-2.258387986254177
 20
-118.817807526691
 30
0.0
 10
-2.173103672865718
 20
-118.832777705801
 30
0.0
 10
-1.990952904449572
 20
-118.8950252725499
 30
0.0
 10
-1.917373338829417
 20
-118.9440426218052
 30
0.0
 10
-1.869330718455278
 20
-118.9813101355382
 30
0.0
  0
SPLINE
  5
758
330
700
100
AcDbEntity
  8
0
100
AcDbSpline
210
0.0
220
0.0
230
1.0
 70
     8
 71
     3
 72
    10
 73
     6
 74
     0
 42
0.000000001
 43
0.0000000001
 40
0.0
 40
0.0
 40
0.0
 40
0.0
 40
0.1013325825262294
 40
0.1013325825262294
 40
0.2026651653026372
 40
0.2026651653026372
 40
0.2026651653026372
 40
0.2026651653026372
 10
-1.869330718455294
 20
-118.9813101355382
 30
0.0
 10
-1.671335388744578
 20
-119.1355307966991
 30
0.0
 10
-1.515714012066851
 20
-119.2885100675179
 30
0.0
 10
-1.304184877605137
 20
-119.5969501005734
 30
0.0
 10
-1.250000000000014
 20
-119.7499293717639
 30
0.0
 10
-1.250000000000011
 20
-119.9041500333055
 30
0.0
  0
ENDBLK
  5
702
330
700
100
AcDbEntity
  8
0
100
AcDbBlockEnd
  0
BLOCK
  5
75A
330
759
100
AcDbEntity
  8
0
100
AcDbBlockBegin
  2
CBH150S-Left
 70
     0
 10
0.0
 20
0.0
 30
0.0
  3
CBH150S-Left
  1

  0
LINE
  5
75C
330
759
100
AcDbEntity
  8
0
100
AcDbLine
 10
2.500000000000035
 20
-13.49999999999998
 30
0.0
 11
2.500000000000035
 21
-10.5
 31
0.0
  0
LINE
  5
75D
330
759
100
AcDbEntity
  8
0
100
AcDbLine
 10
2.500000000000036
 20
-13.49999999999998
 30
0.0
 11
5.000000000000033
 21
-13.49999999999998
 31
0.0
  0
LINE
  5
75E
330
759
100
AcDbEntity
  8
0
100
AcDbLine
 10
5.000000000000031
 20
-10.5
 30
0.0
 11
2.500000000000034
 21
-10.5
 31
0.0
  0
LINE
  5
75F
330
759
100
AcDbEntity
  8
0
100
AcDbLine
 10
30.4
 20
-13.49999999999999
 30
0.0
 11
5.000000000000035
 21
-13.49999999999998
 31
0.0
  0
ARC
  5
760
330
759
100
AcDbEntity
  8
0
100
AcDbCircle
 10
30.4
 20
-11.99999999999999
 30
0.0
 40
1.499999999999994
100
AcDbArc
 50
270.0
 51
90.0
  0
LINE
  5
761
330
759
100
AcDbEntity
  8
0
100
AcDbLine
 10
5.000000000000031
 20
-10.5
 30
0.0
 11
30.4
 21
-10.5
 31
0.0
  0
LINE
  5
762
330
759
100
AcDbEntity
  8
0
100
AcDbLine
 10
0.0
 20
-8.000000000000007
 30
0.0
 11
0.0
 21
-15.99999999999999
 31
0.0
  0
CIRCLE
  5
763
330
759
100
AcDbEntity
  8
0
100
AcDbCircle
 10
97.50000000000001
 20
-105.0
 30
0.0
 40
7.749999999999995
  0
CIRCLE
  5
764
330
759
100
AcDbEntity
  8
0
100
AcDbCircle
 10
97.50000000000001
 20
-135.0
 30
0.0
 40
7.749999999999995
  0
CIRCLE
  5
765
330
759
100
AcDbEntity
  8
0
100
AcDbCircle
 10
97.50000000000001
 20
-75.0
 30
0.0
 40
7.749999999999995
  0
CIRCLE
  5
766
330
759
100
AcDbEntity
  8
0
100
AcDbCircle
 10
97.50000000000001
 20
-45.0
 30
0.0
 40
7.749999999999995
  0
ARC
  5
767
330
759
100
AcDbEntity
  8
0
100
AcDbCircle
 10
2.500000000000035
 20
-15.99999999999998
 30
0.0
 40
2.5
100
AcDbArc
 50
90.0
 51
180.0
  0
ARC
  5
768
330
759
100
AcDbEntity
  8
0
100
AcDbCircle
 10
2.500000000000034
 20
-8.000000000000007
 30
0.0
 40
2.5
100
AcDbArc
 50
180.0
 51
270.0
  0
LINE
  5
769
330
759
100
AcDbEntity
  8
0
100
AcDbLine
 10
69.75000000000007
 20
-25.0
 30
0.0
 11
69.75000000000007
 21
-125.0
 31
0.0
  0
ARC
  5
76A
330
759
100
AcDbEntity
  8
0
100
AcDbCircle
 10
68.25000000000001
 20
-125.0
 30
0.0
 40
1.499999999999994
100
AcDbArc
 50
180.0
 51
0.0
  0
LINE
  5
76B
330
759
100
AcDbEntity
  8
0
100
AcDbLine
 10
66.75000000000003
 20
-125.0
 30
0.0
 11
66.74999999999998
 21
-25.0
 31
0.0
  0
ARC
  5
76C
330
759
100
AcDbEntity
  8
0
100
AcDbCircle
 10
68.25000000000001
 20
-25.0
 30
0.0
 40
1.499999999999994
100
AcDbArc
 50
0.0
 51
180.0
  0
LINE
  5
76D
330
759
100
AcDbEntity
  8
0
100
AcDbLine
 10
0.0
 20
-97.99999999999998
 30
0.0
 11
0.0
 21
-74.92190008051536
 31
0.0
  0
LINE
  5
76E
330
759
100
AcDbEntity
  8
0
100
AcDbLine
 10
0.0
 20
-25.07809991948477
 30
0.0
 11
0.0
 21
-15.99999999999998
 31
0.0
  0
LINE
  5
76F
330
759
100
AcDbEntity
  8
0
100
AcDbLine
 10
0.0
 20
-8.000000000000007
 30
0.0
 11
0.0
 21
0.0
 31
0.0
  0
LINE
  5
770
330
759
100
AcDbEntity
  8
0
100
AcDbLine
 10
0.0
 20
0.0
 30
0.0
 11
5.000000000000036
 21
0.0
 31
0.0
  0
SPLINE
  5
771
330
759
100
AcDbEntity
  8
0
100
AcDbSpline
210
0.0
220
0.0
230
1.0
 70
     8
 71
     3
 72
    10
 73
     6
 74
     0
 42
0.000000001
 43
0.0000000001
 40
0.0
 40
0.0
 40
0.0
 40
0.0
 40
0.0234076985422105
 40
0.0234076985422105
 40
0.0535323894478778
 40
0.0535323894478778
 40
0.0535323894478778
 40
0.0535323894478778
 10
2.542891258127303
 20
-25.00000000000005
 30
0.0
 10
2.528500089299306
 20
-24.99999991852563
 30
0.0
 10
2.51777987416922
 20
-25.00652132578962
 30
0.0
 10
2.501531051232825
 20
-25.03602692455747
 30
0.0
 10
2.500000000000039
 20
-25.0601447864652
 30
0.0
 10
2.500000000000039
 20
-25.07809991948477
 30
0.0
  0
LINE
  5
772
330
759
100
AcDbEntity
  8
0
100
AcDbLine
 10
5.000000000000036
 20
-98.0
 30
0.0
 11
0.0
 21
-98.0
 31
0.0
  0
LINE
  5
773
330
759
100
AcDbEntity
  8
0
100
AcDbLine
 10
0.0857825162545717
 20
-75.00000000000006
 30
0.0
 11
5.000000000000035
 21
-75.00000000000006
 31
0.0
  0
SPLINE
  5
774
330
759
100
AcDbEntity
  8
0
100
AcDbSpline
210
0.0
220
0.0
230
1.0
 70
     8
 71
     3
 72
    10
 73
     6
 74
     0
 42
0.000000001
 43
0.0000000001
 40
0.0
 40
0.0
 40
0.0
 40
0.0
 40
0.0465942661816516
 40
0.0465942661816516
 40
0.0930348185279361
 40
0.0930348185279361
 40
0.0930348185279361
 40
0.0930348185279361
 10
0.0857825162545725
 20
-75.00000000000006
 30
0.0
 10
0.0571361309712039
 20
-75.00000003762828
 30
0.0
 10
0.0356373599714156
 20
-74.99354914016712
 30
0.0
 10
0.007109277160842
 20
-74.96764762815231
 30
0.0
 10
0.0000000000000483
 20
-74.94866524737128
 30
0.0
 10
0.0000000000000488
 20
-74.92190008051536
 30
0.0
  0
SPLINE
  5
775
330
759
100
AcDbEntity
  8
0
100
AcDbSpline
210
0.0
220
0.0
230
1.0
 70
     8
 71
     3
 72
    10
 73
     6
 74
     0
 42
0.000000001
 43
0.0000000001
 40
0.0
 40
0.0
 40
0.0
 40
0.0
 40
0.0166450581660806
 40
0.0166450581660806
 40
0.0295787179716601
 40
0.0295787179716601
 40
0.0295787179716601
 40
0.0295787179716601
 10
2.500000000000046
 20
-74.92190008051534
 30
0.0
 10
2.500000000000046
 20
-74.93985521355579
 30
0.0
 10
2.501531051236571
 20
-74.96397307544895
 30
0.0
 10
2.517779874168671
 20
-74.99347867420985
 30
0.0
 10
2.528500089297049
 20
-75.0000000814743
 30
0.0
 10
2.542891258127307
 20
-75.00000000000006
 30
0.0
  0
LINE
  5
776
330
759
100
AcDbEntity
  8
0
100
AcDbLine
 10
1.660571139111585
 20
-74.92190008051536
 30
0.0
 11
2.500000000000042
 21
-74.92190008051536
 31
0.0
  0
LINE
  5
777
330
759
100
AcDbEntity
  8
0
100
AcDbLine
 10
0.0
 20
-74.92190008051536
 30
0.0
 11
1.660571139111585
 21
-74.92190008051536
 31
0.0
  0
SPLINE
  5
778
330
759
100
AcDbEntity
  8
0
100
AcDbSpline
210
0.0
220
0.0
230
1.0
 70
     8
 71
     3
 72
    10
 73
     6
 74
     0
 42
0.000000001
 43
0.0000000001
 40
0.0
 40
0.0
 40
0.0
 40
0.0
 40
0.0476451751897353
 40
0.0476451751897353
 40
0.0954480514041998
 40
0.0954480514041998
 40
0.0954480514041998
 40
0.0954480514041998
 10
0.0000000000000388
 20
-25.07809991948475
 30
0.0
 10
0.000000000000038
 20
-25.05133475262785
 30
0.0
 10
0.0071092771610665
 20
-25.0323523718476
 30
0.0
 10
0.0356373599714525
 20
-25.00645085983294
 30
0.0
 10
0.0571361309757642
 20
-24.99999996237157
 30
0.0
 10
0.085782516254568
 20
-25.00000000000005
 30
0.0
  0
LINE
  5
779
330
759
100
AcDbEntity
  8
0
100
AcDbLine
 10
1.66057113909728
 20
-25.07809991948477
 30
0.0
 11
0.0
 21
-25.07809991948477
 31
0.0
  0
LINE
  5
77A
330
759
100
AcDbEntity
  8
0
100
AcDbLine
 10
2.500000000000033
 20
-25.07809991948477
 30
0.0
 11
1.66057113909728
 21
-25.07809991948477
 31
0.0
  0
LINE
  5
77B
330
759
100
AcDbEntity
  8
0
100
AcDbLine
 10
5.000000000000035
 20
-25.00000000000007
 30
0.0
 11
0.0857825162545711
 21
-25.00000000000007
 31
0.0
  0
LINE
  5
77C
330
759
100
AcDbEntity
  8
0
100
AcDbLine
 10
0.0
 20
-70.00000000000006
 30
0.0
 11
0.0
 21
-74.92190008051536
 31
0.0
  0
LINE
  5
77D
330
759
100
AcDbEntity
  8
0
100
AcDbLine
 10
0.0
 20
-70.00000000000004
 30
0.0
 11
0.0
 21
-30.00000000000003
 31
0.0
  0
LINE
  5
77E
330
759
100
AcDbEntity
  8
0
100
AcDbLine
 10
0.0
 20
-25.07809991948477
 30
0.0
 11
0.0
 21
-30.00000000000007
 31
0.0
  0
LINE
  5
77F
330
759
100
AcDbEntity
  8
0
100
AcDbLine
 10
2.500000000000034
 20
-30.00000000000007
 30
0.0
 11
2.500000000000034
 21
-25.07809991948477
 31
0.0
  0
LINE
  5
780
330
759
100
AcDbEntity
  8
0
100
AcDbLine
 10
2.500000000000017
 20
-30.00000000000003
 30
0.0
 11
2.500000000000024
 21
-70.00000000000004
 31
0.0
  0
LINE
  5
781
330
759
100
AcDbEntity
  8
0
100
AcDbLine
 10
2.500000000000043
 20
-74.92190008051536
 30
0.0
 11
2.50000000000004
 21
-70.00000000000006
 31
0.0
  0
LINE
  5
782
330
759
100
AcDbEntity
  8
0
100
AcDbLine
 10
0.0
 20
-107.0
 30
0.0
 11
0.0
 21
-145.9999999999999
 31
0.0
  0
LINE
  5
783
330
759
100
AcDbEntity
  8
0
100
AcDbLine
 10
2.500000000000213
 20
-145.9999999999999
 30
0.0
 11
2.500000000000209
 21
-107.0
 31
0.0
  0
LINE
  5
784
330
759
100
AcDbEntity
  8
0
100
AcDbLine
 10
113.5
 20
-4.000000000000003
 30
0.0
 11
113.5
 21
-146.0
 31
0.0
  0
LINE
  5
785
330
759
100
AcDbEntity
  8
0
100
AcDbLine
 10
104.5698511713309
 20
0.0
 30
0.0
 11
109.5
 21
0.0
 31
0.0
  0
LINE
  5
786
330
759
100
AcDbEntity
  8
0
100
AcDbLine
 10
102.75
 20
-4.999999999999955
 30
0.0
 11
104.5698511713309
 21
0.0
 31
0.0
  0
LINE
  5
787
330
759
100
AcDbEntity
  8
0
100
AcDbLine
 10
102.75
 20
-10.25658350974739
 30
0.0
 11
102.75
 21
-4.999999999999955
 31
0.0
  0
ARC
  5
788
330
759
100
AcDbEntity
  8
0
100
AcDbCircle
 10
100.5
 20
-14.99999999999995
 30
0.0
 40
5.25
100
AcDbArc
 50
270.0
 51
64.6230664748478
  0
LINE
  5
789
330
759
100
AcDbEntity
  8
0
100
AcDbLine
 10
97.5
 20
-20.24999999999996
 30
0.0
 11
100.5
 21
-20.24999999999996
 31
0.0
  0
ARC
  5
78A
330
759
100
AcDbEntity
  8
0
100
AcDbCircle
 10
97.5
 20
-14.99999999999995
 30
0.0
 40
5.25
100
AcDbArc
 50
180.0
 51
270.0
  0
LINE
  5
78B
330
759
100
AcDbEntity
  8
0
100
AcDbLine
 10
92.24999999999999
 20
0.0
 30
0.0
 11
92.24999999999997
 21
-14.99999999999994
 31
0.0
  0
LINE
  5
78C
330
759
100
AcDbEntity
  8
0
100
AcDbLine
 10
5.000000000000035
 20
0.0
 30
0.0
 11
92.24999999999999
 21
0.0
 31
0.0
  0
LINE
  5
78D
330
759
100
AcDbEntity
  8
0
100
AcDbLine
 10
13.60000000000003
 20
-25.00000000000005
 30
0.0
 11
5.000000000000035
 21
-25.00000000000005
 31
0.0
  0
ARC
  5
78E
330
759
100
AcDbEntity
  8
0
100
AcDbCircle
 10
13.60000000000001
 20
-50.00000000000007
 30
0.0
 40
25.0
100
AcDbArc
 50
270.0
 51
89.99999999999992
  0
LINE
  5
78F
330
759
100
AcDbEntity
  8
0
100
AcDbLine
 10
5.000000000000035
 20
-75.00000000000006
 30
0.0
 11
13.60000000000001
 21
-75.00000000000006
 31
0.0
  0
LINE
  5
790
330
759
100
AcDbEntity
  8
0
100
AcDbLine
 10
9.700000000000041
 20
-97.99999999999998
 30
0.0
 11
5.000000000000035
 21
-97.99999999999998
 31
0.0
  0
ARC
  5
791
330
759
100
AcDbEntity
  8
0
100
AcDbCircle
 10
9.700000000000041
 20
-100.5
 30
0.0
 40
2.499999999999998
100
AcDbArc
 50
270.0
 51
90.0
  0
LINE
  5
792
330
759
100
AcDbEntity
  8
0
100
AcDbLine
 10
5.000000000000035
 20
-103.0
 30
0.0
 11
9.700000000000041
 21
-103.0
 31
0.0
  0
LINE
  5
793
330
759
100
AcDbEntity
  8
0
100
AcDbLine
 10
83.40236964090122
 20
-150.0
 30
0.0
 11
5.000000000000035
 21
-119.9041500333055
 31
0.0
  0
LINE
  5
794
330
759
100
AcDbEntity
  8
0
100
AcDbLine
 10
109.5
 20
-150.0
 30
0.0
 11
83.40236964090122
 21
-150.0
 31
0.0
  0
LINE
  5
795
330
759
100
AcDbEntity
  8
0
100
AcDbLine
 10
0.0
 20
-30.00000000000005
 30
0.0
 11
2.500000000000016
 21
-30.00000000000005
 31
0.0
  0
LINE
  5
796
330
759
100
AcDbEntity
  8
0
100
AcDbLine
 10
0.0
 20
-70.00000000000004
 30
0.0
 11
2.500000000000025
 21
-70.00000000000004
 31
0.0
  0
LINE
  5
797
330
759
100
AcDbEntity
  8
0
100
AcDbLine
 10
0.0
 20
-103.0
 30
0.0
 11
0.0
 21
-107.0
 31
0.0
  0
LINE
  5
798
330
759
100
AcDbEntity
  8
0
100
AcDbLine
 10
0.0
 20
-107.0
 30
0.0
 11
2.500000000000209
 21
-107.0
 31
0.0
  0
LINE
  5
799
330
759
100
AcDbEntity
  8
0
100
AcDbLine
 10
2.500000000000209
 20
-107.0
 30
0.0
 11
2.500000000000186
 21
-103.0
 31
0.0
  0
LINE
  5
79A
330
759
100
AcDbEntity
  8
0
100
AcDbLine
 10
2.500000000000186
 20
-103.0
 30
0.0
 11
0.0
 21
-103.0
 31
0.0
  0
LINE
  5
79B
330
759
100
AcDbEntity
  8
0
100
AcDbLine
 10
2.500000000000213
 20
-145.9999999999999
 30
0.0
 11
0.0
 21
-145.9999999999999
 31
0.0
  0
LINE
  5
79C
330
759
100
AcDbEntity
  8
0
100
AcDbLine
 10
0.0
 20
-145.9999999999999
 30
0.0
 11
0.0
 21
-150.0
 31
0.0
  0
LINE
  5
79D
330
759
100
AcDbEntity
  8
0
100
AcDbLine
 10
0.0
 20
-150.0
 30
0.0
 11
2.500000000000191
 21
-150.0
 31
0.0
  0
LINE
  5
79E
330
759
100
AcDbEntity
  8
0
100
AcDbLine
 10
2.500000000000191
 20
-150.0
 30
0.0
 11
2.500000000000213
 21
-145.9999999999999
 31
0.0
  0
LINE
  5
79F
330
759
100
AcDbEntity
  8
0
100
AcDbLine
 10
109.5
 20
0.0
 30
0.0
 11
113.5
 21
-4.000000000000003
 31
0.0
  0
LINE
  5
7A0
330
759
100
AcDbEntity
  8
0
100
AcDbLine
 10
113.5
 20
-146.0
 30
0.0
 11
109.5
 21
-150.0
 31
0.0
  0
CIRCLE
  5
7A1
330
759
100
AcDbEntity
  8
0
100
AcDbCircle
 10
97.50000000000001
 20
-135.0
 30
0.0
 40
5.249999999999999
  0
CIRCLE
  5
7A2
330
759
100
AcDbEntity
  8
0
100
AcDbCircle
 10
97.50000000000001
 20
-105.0
 30
0.0
 40
5.249999999999999
  0
CIRCLE
  5
7A3
330
759
100
AcDbEntity
  8
0
100
AcDbCircle
 10
97.50000000000001
 20
-75.0
 30
0.0
 40
5.249999999999999
  0
CIRCLE
  5
7A4
330
759
100
AcDbEntity
  8
0
100
AcDbCircle
 10
97.50000000000001
 20
-45.0
 30
0.0
 40
5.249999999999999
  0
SPLINE
  5
7A5
330
759
100
AcDbEntity
  8
0
100
AcDbSpline
210
0.0
220
0.0
230
1.0
 70
     8
 71
     3
 72
    16
 73
    12
 74
     0
 42
0.000000001
 43
0.0000000001
 40
0.0
 40
0.0
 40
0.0
 40
0.0
 40
0.0413665349789598
 40
0.0413665349789598
 40
0.0660460115638263
 40
0.0660460115638263
 40
0.0871387586838379
 40
0.0871387586838379
 40
0.1008593572467675
 40
0.1008593572467675
 40
0.1186575329330778
 40
0.1186575329330778
 40
0.1186575329330778
 40
0.1186575329330778
 10
2.500000000000059
 20
-119.7508124170649
 30
0.0
 10
2.500000000000058
 20
-119.6327622706715
 30
0.0
 10
2.497566515661497
 20
-119.3884607509832
 30
0.0
 10
2.576746698277769
 20
-119.055180877571
 30
0.0
 10
2.623549646815594
 20
-118.9565760011046
 30
0.0
 10
2.757362738734419
 20
-118.8387496667737
 30
0.0
 10
2.835515943688151
 20
-118.8120999571063
 30
0.0
 10
2.990768355159309
 20
-118.817807526691
 30
0.0
 10
3.057166269619306
 20
-118.832777705801
 30
0.0
 10
3.218257096955088
 20
-118.8950252725499
 30
0.0
 10
3.298002184091081
 20
-118.9440426218052
 30
0.0
 10
3.352856092063045
 20
-118.9813101355382
 30
0.0
  0
LINE
  5
7A6
330
759
100
AcDbEntity
  8
0
100
AcDbLine
 10
5.000000000000035
 20
-103.0
 30
0.0
 11
2.500000000000057
 21
-103.0
 31
0.0
  0
SPLINE
  5
7A7
330
759
100
AcDbEntity
  8
0
100
AcDbSpline
210
0.0
220
0.0
230
1.0
 70
     8
 71
     3
 72
    10
 73
     6
 74
     0
 42
0.000000001
 43
0.0000000001
 40
0.0
 40
0.0
 40
0.0
 40
0.0
 40
0.1861491823438742
 40
0.1861491823438742
 40
0.266928726871935
 40
0.266928726871935
 40
0.266928726871935
 40
0.266928726871935
 10
5.000000000000017
 20
-119.9041500333055
 30
0.0
 10
4.398973615748397
 20
-119.7499289158474
 30
0.0
 10
3.802842022474094
 20
-119.5969500564411
 30
0.0
 10
2.996139963194837
 20
-119.3758062423736
 30
0.0
 10
2.760056200878386
 20
-119.3091161153308
 30
0.0
 10
2.534060227258293
 20
-119.2424567682875
 30
0.0
  0
SPLINE
  5
7A8
330
759
100
AcDbEntity
  8
0
100
AcDbSpline
210
0.0
220
0.0
230
1.0
 70
     8
 71
     3
 72
    10
 73
     6
 74
     0
 42
0.000000001
 43
0.0000000001
 40
0.0
 40
0.0
 40
0.0
 40
0.0
 40
0.1013325825262294
 40
0.1013325825262294
 40
0.2026651653026372
 40
0.2026651653026372
 40
0.2026651653026372
 40
0.2026651653026372
 10
3.352856092063026
 20
-118.9813101355382
 30
0.0
 10
3.578922395487984
 20
-119.1355307966991
 30
0.0
 10
3.838847793597021
 20
-119.2885100675179
 30
0.0
 10
4.401421091401062
 20
-119.5969501005734
 30
0.0
 10
4.699486897827423
 20
-119.7499293717639
 30
0.0
 10
5.000000000000039
 20
-119.9041500333055
 30
0.0
  0
ENDBLK
  5
75B
330
759
100
AcDbEntity
  8
0
100
AcDbBlockEnd
  0
BLOCK
  5
7AA
330
7A9
100
AcDbEntity
  8
0
100
AcDbBlockBegin
  2
CBH150S-Right
 70
     0
 10
0.0
 20
0.0
 30
0.0
  3
CBH150S-Right
  1

  0
ARC
  5
7AC
330
7A9
100
AcDbEntity
  8
0
100
AcDbCircle
 10
-2.500000000000037
 20
-10.5
 30
0.0
 40
2.500000000000008
100
AcDbArc
 50
89.99999999999998
 51
180.0
  0
LINE
  5
7AD
330
7A9
100
AcDbEntity
  8
0
100
AcDbLine
 10
-2.500000000000035
 20
-15.99999999999999
 30
0.0
 11
-5.000000000000031
 21
-15.99999999999999
 31
0.0
  0
LINE
  5
7AE
330
7A9
100
AcDbEntity
  8
0
100
AcDbLine
 10
-5.000000000000036
 20
-13.5
 30
0.0
 11
-5.000000000000036
 21
-10.5
 31
0.0
  0
LINE
  5
7AF
330
7A9
100
AcDbEntity
  8
0
100
AcDbLine
 10
-5.000000000000031
 20
-15.99999999999999
 30
0.0
 11
-30.4
 21
-15.99999999999999
 31
0.0
  0
LINE
  5
7B0
330
7A9
100
AcDbEntity
  8
0
100
AcDbLine
 10
-30.4
 20
-8.000000000000007
 30
0.0
 11
-5.000000000000031
 21
-7.999999999999989
 31
0.0
  0
ARC
  5
7B1
330
7A9
100
AcDbEntity
  8
0
100
AcDbCircle
 10
-30.4
 20
-11.99999999999999
 30
0.0
 40
4.0
100
AcDbArc
 50
90.0
 51
270.0
  0
LINE
  5
7B2
330
7A9
100
AcDbEntity
  8
0
100
AcDbLine
 10
-72.25000000000007
 20
-125.0
 30
0.0
 11
-72.25000000000003
 21
-25.0
 31
0.0
  0
ARC
  5
7B3
330
7A9
100
AcDbEntity
  8
0
100
AcDbCircle
 10
-68.25000000000001
 20
-25.0
 30
0.0
 40
4.0
100
AcDbArc
 50
0.0
 51
180.0
  0
LINE
  5
7B4
330
7A9
100
AcDbEntity
  8
0
100
AcDbLine
 10
-64.25000000000003
 20
-25.0
 30
0.0
 11
-64.25000000000003
 21
-125.0
 31
0.0
  0
ARC
  5
7B5
330
7A9
100
AcDbEntity
  8
0
100
AcDbCircle
 10
-68.25000000000001
 20
-125.0
 30
0.0
 40
4.0
100
AcDbArc
 50
180.0
 51
0.0
  0
CIRCLE
  5
7B6
330
7A9
100
AcDbEntity
  8
0
100
AcDbCircle
 10
-97.50000000000001
 20
-135.0
 30
0.0
 40
5.249999999999999
  0
CIRCLE
  5
7B7
330
7A9
100
AcDbEntity
  8
0
100
AcDbCircle
 10
-97.50000000000001
 20
-105.0
 30
0.0
 40
5.249999999999999
  0
CIRCLE
  5
7B8
330
7A9
100
AcDbEntity
  8
0
100
AcDbCircle
 10
-97.50000000000001
 20
-75.0
 30
0.0
 40
5.249999999999999
  0
CIRCLE
  5
7B9
330
7A9
100
AcDbEntity
  8
0
100
AcDbCircle
 10
-97.50000000000001
 20
-45.0
 30
0.0
 40
5.249999999999999
  0
ARC
  5
7BA
330
7A9
100
AcDbEntity
  8
0
100
AcDbCircle
 10
-2.500000000000037
 20
-13.49999999999999
 30
0.0
 40
2.5
100
AcDbArc
 50
180.0
 51
270.0
  0
LINE
  5
7BB
330
7A9
100
AcDbEntity
  8
0
100
AcDbLine
 10
-5.000000000000031
 20
-7.999999999999998
 30
0.0
 11
-2.500000000000035
 21
-7.999999999999998
 31
0.0
  0
LINE
  5
7BC
330
7A9
100
AcDbEntity
  8
0
100
AcDbLine
 10
-2.500000000000059
 20
0.0
 30
0.0
 11
-2.500000000000066
 21
-4.000000000000012
 31
0.0
  0
LINE
  5
7BD
330
7A9
100
AcDbEntity
  8
0
100
AcDbLine
 10
-2.500000000000066
 20
-4.000000000000012
 30
0.0
 11
0.0
 21
-4.000000000000012
 31
0.0
  0
LINE
  5
7BE
330
7A9
100
AcDbEntity
  8
0
100
AcDbLine
 10
0.0
 20
-4.000000000000012
 30
0.0
 11
0.0
 21
0.0
 31
0.0
  0
LINE
  5
7BF
330
7A9
100
AcDbEntity
  8
0
100
AcDbLine
 10
0.0
 20
0.0
 30
0.0
 11
-2.500000000000059
 21
0.0
 31
0.0
  0
LINE
  5
7C0
330
7A9
100
AcDbEntity
  8
0
100
AcDbLine
 10
0.0
 20
-97.99999999999997
 30
0.0
 11
0.0
 21
-93.99999999999998
 31
0.0
  0
LINE
  5
7C1
330
7A9
100
AcDbEntity
  8
0
100
AcDbLine
 10
-2.500000000000082
 20
-93.99999999999998
 30
0.0
 11
-2.500000000000077
 21
-97.99999999999997
 31
0.0
  0
LINE
  5
7C2
330
7A9
100
AcDbEntity
  8
0
100
AcDbLine
 10
-2.500000000000077
 20
-97.99999999999997
 30
0.0
 11
0.0
 21
-97.99999999999997
 31
0.0
  0
LINE
  5
7C3
330
7A9
100
AcDbEntity
  8
0
100
AcDbLine
 10
0.0
 20
-93.99999999999998
 30
0.0
 11
-2.500000000000082
 21
-93.99999999999998
 31
0.0
  0
LINE
  5
7C4
330
7A9
100
AcDbEntity
  8
0
100
AcDbLine
 10
0.0
 20
-140.1999999999999
 30
0.0
 11
0.0
 21
-134.7665282018188
 31
0.0
  0
LINE
  5
7C5
330
7A9
100
AcDbEntity
  8
0
100
AcDbLine
 10
0.0
 20
-150.0
 30
0.0
 11
0.0
 21
-145.9999999999999
 31
0.0
  0
LINE
  5
7C6
330
7A9
100
AcDbEntity
  8
0
100
AcDbLine
 10
0.0
 20
-134.7665282018188
 30
0.0
 11
-2.499999999999883
 21
-134.7665282018188
 31
0.0
  0
LINE
  5
7C7
330
7A9
100
AcDbEntity
  8
0
100
AcDbLine
 10
-2.499999999999883
 20
-134.7665282018188
 30
0.0
 11
-2.499999999999861
 21
-140.1999999999999
 31
0.0
  0
LINE
  5
7C8
330
7A9
100
AcDbEntity
  8
0
100
AcDbLine
 10
-2.499999999999861
 20
-140.1999999999999
 30
0.0
 11
0.0
 21
-140.1999999999999
 31
0.0
  0
LINE
  5
7C9
330
7A9
100
AcDbEntity
  8
0
100
AcDbLine
 10
0.0
 20
-145.9999999999999
 30
0.0
 11
-2.499999999999862
 21
-145.9999999999999
 31
0.0
  0
LINE
  5
7CA
330
7A9
100
AcDbEntity
  8
0
100
AcDbLine
 10
-2.499999999999862
 20
-145.9999999999999
 30
0.0
 11
-2.499999999999886
 21
-150.0
 31
0.0
  0
LINE
  5
7CB
330
7A9
100
AcDbEntity
  8
0
100
AcDbLine
 10
-2.499999999999886
 20
-150.0
 30
0.0
 11
0.0
 21
-150.0
 31
0.0
  0
LINE
  5
7CC
330
7A9
100
AcDbEntity
  8
0
100
AcDbLine
 10
-113.5
 20
-4.000000000000003
 30
0.0
 11
-109.5
 21
0.0
 31
0.0
  0
LINE
  5
7CD
330
7A9
100
AcDbEntity
  8
0
100
AcDbLine
 10
-109.5
 20
-150.0
 30
0.0
 11
-113.5
 21
-146.0
 31
0.0
  0
LINE
  5
7CE
330
7A9
100
AcDbEntity
  8
0
100
AcDbLine
 10
0.0
 20
-93.99999999999998
 30
0.0
 11
0.0
 21
-4.000000000000021
 31
0.0
  0
LINE
  5
7CF
330
7A9
100
AcDbEntity
  8
0
100
AcDbLine
 10
-2.500000000000066
 20
-4.000000000000012
 30
0.0
 11
-2.500000000000082
 21
-93.99999999999998
 31
0.0
  0
LINE
  5
7D0
330
7A9
100
AcDbEntity
  8
0
100
AcDbLine
 10
0.0
 20
-123.6492122680242
 30
0.0
 11
0.0
 21
-119.7508124170649
 31
0.0
  0
LINE
  5
7D1
330
7A9
100
AcDbEntity
  8
0
100
AcDbLine
 10
0.0
 20
-134.7665282018188
 30
0.0
 11
0.0
 21
-123.6492122680242
 31
0.0
  0
LINE
  5
7D2
330
7A9
100
AcDbEntity
  8
0
100
AcDbLine
 10
0.0
 20
-145.9999999999999
 30
0.0
 11
0.0
 21
-140.1999999999999
 31
0.0
  0
LINE
  5
7D3
330
7A9
100
AcDbEntity
  8
0
100
AcDbLine
 10
-2.500000000000051
 20
-123.6492122680242
 30
0.0
 11
-2.499999999999883
 21
-134.7665282018188
 31
0.0
  0
LINE
  5
7D4
330
7A9
100
AcDbEntity
  8
0
100
AcDbLine
 10
-2.499999999999861
 20
-140.1999999999999
 30
0.0
 11
-2.499999999999862
 21
-145.9999999999999
 31
0.0
  0
LINE
  5
7D5
330
7A9
100
AcDbEntity
  8
0
100
AcDbLine
 10
-113.5
 20
-146.0
 30
0.0
 11
-113.5
 21
-4.000000000000003
 31
0.0
  0
LINE
  5
7D6
330
7A9
100
AcDbEntity
  8
0
100
AcDbLine
 10
-83.40236964090122
 20
-150.0
 30
0.0
 11
-109.5
 21
-150.0
 31
0.0
  0
LINE
  5
7D7
330
7A9
100
AcDbEntity
  8
0
100
AcDbLine
 10
-5.000000000000035
 20
-119.9041500333055
 30
0.0
 11
-83.40236964090122
 21
-150.0
 31
0.0
  0
LINE
  5
7D8
330
7A9
100
AcDbEntity
  8
0
100
AcDbLine
 10
-9.700000000000041
 20
-103.0
 30
0.0
 11
-5.000000000000035
 21
-103.0
 31
0.0
  0
ARC
  5
7D9
330
7A9
100
AcDbEntity
  8
0
100
AcDbCircle
 10
-9.700000000000041
 20
-100.5
 30
0.0
 40
2.499999999999998
100
AcDbArc
 50
90.0
 51
270.0
  0
LINE
  5
7DA
330
7A9
100
AcDbEntity
  8
0
100
AcDbLine
 10
-5.000000000000035
 20
-97.99999999999998
 30
0.0
 11
-9.700000000000041
 21
-97.99999999999998
 31
0.0
  0
LINE
  5
7DB
330
7A9
100
AcDbEntity
  8
0
100
AcDbLine
 10
-13.60000000000001
 20
-75.00000000000006
 30
0.0
 11
-5.000000000000035
 21
-75.00000000000006
 31
0.0
  0
ARC
  5
7DC
330
7A9
100
AcDbEntity
  8
0
100
AcDbCircle
 10
-13.60000000000001
 20
-50.00000000000007
 30
0.0
 40
25.0
100
AcDbArc
 50
90.00000000000005
 51
270.0
  0
LINE
  5
7DD
330
7A9
100
AcDbEntity
  8
0
100
AcDbLine
 10
-5.000000000000035
 20
-25.00000000000005
 30
0.0
 11
-13.60000000000003
 21
-25.00000000000005
 31
0.0
  0
LINE
  5
7DE
330
7A9
100
AcDbEntity
  8
0
100
AcDbLine
 10
-92.24999999999999
 20
0.0
 30
0.0
 11
-5.000000000000035
 21
0.0
 31
0.0
  0
LINE
  5
7DF
330
7A9
100
AcDbEntity
  8
0
100
AcDbLine
 10
-92.24999999999997
 20
-14.99999999999994
 30
0.0
 11
-92.24999999999999
 21
0.0
 31
0.0
  0
ARC
  5
7E0
330
7A9
100
AcDbEntity
  8
0
100
AcDbCircle
 10
-97.5
 20
-14.99999999999995
 30
0.0
 40
5.25
100
AcDbArc
 50
270.0
 51
0.0
  0
LINE
  5
7E1
330
7A9
100
AcDbEntity
  8
0
100
AcDbLine
 10
-100.5
 20
-20.24999999999996
 30
0.0
 11
-97.5
 21
-20.24999999999996
 31
0.0
  0
ARC
  5
7E2
330
7A9
100
AcDbEntity
  8
0
100
AcDbCircle
 10
-100.5
 20
-14.99999999999995
 30
0.0
 40
5.25
100
AcDbArc
 50
115.3769335251523
 51
270.0
  0
LINE
  5
7E3
330
7A9
100
AcDbEntity
  8
0
100
AcDbLine
 10
-102.75
 20
-4.999999999999955
 30
0.0
 11
-102.75
 21
-10.25658350974739
 31
0.0
  0
LINE
  5
7E4
330
7A9
100
AcDbEntity
  8
0
100
AcDbLine
 10
-104.5698511713309
 20
0.0
 30
0.0
 11
-102.75
 21
-4.999999999999955
 31
0.0
  0
LINE
  5
7E5
330
7A9
100
AcDbEntity
  8
0
100
AcDbLine
 10
-109.5
 20
0.0
 30
0.0
 11
-104.5698511713309
 21
0.0
 31
0.0
  0
LINE
  5
7E6
330
7A9
100
AcDbEntity
  8
0
100
AcDbLine
 10
-2.500000000000057
 20
-119.7508124170649
 30
0.0
 11
-2.500000000000051
 21
-123.6492122680242
 31
0.0
  0
LINE
  5
7E7
330
7A9
100
AcDbEntity
  8
0
100
AcDbLine
 10
0.0
 20
-103.0
 30
0.0
 11
0.0
 21
-119.7508124170649
 31
0.0
  0
SPLINE
  5
7E8
330
7A9
100
AcDbEntity
  8
0
100
AcDbSpline
210
0.0
220
0.0
230
1.0
 70
     8
 71
     3
 72
    16
 73
    12
 74
     0
 42
0.000000001
 43
0.0000000001
 40
0.0
 40
0.0
 40
0.0
 40
0.0
 40
0.0576743518933571
 40
0.0576743518933571
 40
0.17305816825879
 40
0.17305816825879
 40
0.2899987807519915
 40
0.2899987807519915
 40
0.3739899205678294
 40
0.3739899205678294
 40
0.4976769880291255
 40
0.4976769880291255
 40
0.4976769880291255
 40
0.4976769880291255
 10
-1.70571218412603
 20
-118.9813101355382
 30
0.0
 10
-1.565579833082447
 20
-118.9337808571231
 30
0.0
 10
-1.437390117214413
 20
-118.8983771849713
 30
0.0
 10
-1.062497179615898
 20
-118.8181997685147
 30
0.0
 10
-0.8405082269518709
 20
-118.8029061741964
 30
0.0
 10
-0.4681149036322014
 20
-118.8471749783068
 30
0.0
 10
-0.3206986210869877
 20
-118.9074552189439
 30
0.0
 10
-0.1389767355935368
 20
-119.0830047237231
 30
0.0
 10
-0.0849137676898349
 20
-119.1776952942812
 30
0.0
 10
0.0004983880300072
 20
-119.472416742953
 30
0.0
 10
-0.0000000000000594
 20
-119.6565172952428
 30
0.0
 10
-0.0000000000000605
 20
-119.7508124170649
 30
0.0
  0
SPLINE
  5
7E9
330
7A9
100
AcDbEntity
  8
0
100
AcDbSpline
210
0.0
220
0.0
230
1.0
 70
     8
 71
     3
 72
     8
 73
     4
 74
     0
 42
0.000000001
 43
0.0000000001
 40
0.0
 40
0.0
 40
0.0
 40
0.0
 40
0.0372775683456891
 40
0.0372775683456891
 40
0.0372775683456891
 40
0.0372775683456891
 10
-2.500000000000059
 20
-119.7508124170649
 30
0.0
 10
-2.500000000000058
 20
-119.644431198463
 30
0.0
 10
-2.498023824925072
 20
-119.4355242256844
 30
0.0
 10
-2.533925433392666
 20
-119.2425048659996
 30
0.0
  0
LINE
  5
7EA
330
7A9
100
AcDbEntity
  8
0
100
AcDbLine
 10
-1.685751087739003
 20
-119.7508124170649
 30
0.0
 11
-2.500000000000057
 21
-119.7508124170649
 31
0.0
  0
LINE
  5
7EB
330
7A9
100
AcDbEntity
  8
0
100
AcDbLine
 10
0.0
 20
-119.7508124170649
 30
0.0
 11
-1.685751087739003
 21
-119.7508124170649
 31
0.0
  0
LINE
  5
7EC
330
7A9
100
AcDbEntity
  8
0
100
AcDbLine
 10
-5.000000000000036
 20
-103.0
 30
0.0
 11
0.0
 21
-103.0
 31
0.0
  0
SPLINE
  5
7ED
330
7A9
100
AcDbEntity
  8
0
100
AcDbSpline
210
0.0
220
0.0
230
1.0
 70
     8
 71
     3
 72
    10
 73
     6
 74
     0
 42
0.000000001
 43
0.0000000001
 40
0.0
 40
0.0
 40
0.0
 40
0.0
 40
0.1861491823438742
 40
0.1861491823438742
 40
0.3722983665725988
 40
0.3722983665725988
 40
0.3722983665725988
 40
0.3722983665725988
 10
-5.000000000000017
 20
-119.9041500333055
 30
0.0
 10
-4.398973615748397
 20
-119.7499289158474
 30
0.0
 10
-3.802842022474094
 20
-119.5969500564411
 30
0.0
 10
-2.677695761522905
 20
-119.2885101154883
 30
0.0
 10
-2.157844932008066
 20
-119.1355312545578
 30
0.0
 10
-1.705712184126026
 20
-118.9813101355382
 30
0.0
  0
LINE
  5
7EE
330
7A9
100
AcDbEntity
  8
0
100
AcDbLine
 10
-5.000000000000036
 20
-25.00000000000007
 30
0.0
 11
-2.542891258127304
 21
-25.00000000000007
 31
0.0
  0
SPLINE
  5
7EF
330
7A9
100
AcDbEntity
  8
0
100
AcDbSpline
210
0.0
220
0.0
230
1.0
 70
     8
 71
     3
 72
    10
 73
     6
 74
     0
 42
0.000000001
 43
0.0000000001
 40
0.0
 40
0.0
 40
0.0
 40
0.0
 40
0.0234076985422105
 40
0.0234076985422105
 40
0.0535323894478778
 40
0.0535323894478778
 40
0.0535323894478778
 40
0.0535323894478778
 10
-2.542891258127303
 20
-25.00000000000005
 30
0.0
 10
-2.528500089299306
 20
-24.99999991852563
 30
0.0
 10
-2.51777987416922
 20
-25.00652132578962
 30
0.0
 10
-2.501531051232825
 20
-25.03602692455747
 30
0.0
 10
-2.500000000000039
 20
-25.0601447864652
 30
0.0
 10
-2.500000000000039
 20
-25.07809991948477
 30
0.0
  0
LINE
  5
7F0
330
7A9
100
AcDbEntity
  8
0
100
AcDbLine
 10
-2.500000000000034
 20
0.0
 30
0.0
 11
-5.000000000000035
 21
0.0
 31
0.0
  0
LINE
  5
7F1
330
7A9
100
AcDbEntity
  8
0
100
AcDbLine
 10
-5.000000000000036
 20
-98.0
 30
0.0
 11
-2.500000000000051
 21
-98.0
 31
0.0
  0
SPLINE
  5
7F2
330
7A9
100
AcDbEntity
  8
0
100
AcDbSpline
210
0.0
220
0.0
230
1.0
 70
     8
 71
     3
 72
    10
 73
     6
 74
     0
 42
0.000000001
 43
0.0000000001
 40
0.0
 40
0.0
 40
0.0
 40
0.0
 40
0.0166450581660806
 40
0.0166450581660806
 40
0.0295787179716601
 40
0.0295787179716601
 40
0.0295787179716601
 40
0.0295787179716601
 10
-2.500000000000046
 20
-74.92190008051534
 30
0.0
 10
-2.500000000000046
 20
-74.93985521355579
 30
0.0
 10
-2.501531051236571
 20
-74.96397307544895
 30
0.0
 10
-2.517779874168671
 20
-74.99347867420985
 30
0.0
 10
-2.528500089297049
 20
-75.0000000814743
 30
0.0
 10
-2.542891258127307
 20
-75.00000000000006
 30
0.0
  0
LINE
  5
7F3
330
7A9
100
AcDbEntity
  8
0
100
AcDbLine
 10
-2.542891258127307
 20
-75.00000000000006
 30
0.0
 11
-5.000000000000035
 21
-75.00000000000006
 31
0.0
  0
ENDBLK
  5
7AB
330
7A9
100
AcDbEntity
  8
0
100
AcDbBlockEnd
  0
BLOCK
  5
7F5
330
7F4
100
AcDbEntity
  8
0
100
AcDbBlockBegin
  2
CBH150S-Top
 70
     0
 10
0.0
 20
0.0
 30
0.0
  3
CBH150S-Top
  1

  0
LINE
  5
7F7
330
7F4
100
AcDbEntity
  8
0
100
AcDbLine
 10
3.749999999999987
 20
-5.000000000000034
 30
0.0
 11
8.000000000000031
 21
-5.000000000000035
 31
0.0
  0
LINE
  5
7F8
330
7F4
100
AcDbEntity
  8
0
100
AcDbLine
 10
9.500000000000033
 20
-5.000000000000037
 30
0.0
 11
8.000000000000031
 21
-5.000000000000036
 31
0.0
  0
LINE
  5
7F9
330
7F4
100
AcDbEntity
  8
0
100
AcDbLine
 10
3.749999999999987
 20
-30.4
 30
0.0
 11
3.749999999999987
 21
-5.000000000000035
 31
0.0
  0
LINE
  5
7FA
330
7F4
100
AcDbEntity
  8
0
100
AcDbLine
 10
3.749999999999987
 20
-30.4
 30
0.0
 11
3.749999999999987
 21
-31.9
 31
0.0
  0
LINE
  5
7FB
330
7F4
100
AcDbEntity
  8
0
100
AcDbLine
 10
-3.750000000000012
 20
-89.75000000000001
 30
0.0
 11
-3.750000000000012
 21
-105.25
 31
0.0
  0
ARC
  5
7FC
330
7F4
100
AcDbEntity
  8
0
100
AcDbCircle
 10
1.249999999999987
 20
-69.75000000000003
 30
0.0
 40
2.5
100
AcDbArc
 50
270.0
 51
0.0
  0
ARC
  5
7FD
330
7F4
100
AcDbEntity
  8
0
100
AcDbCircle
 10
1.249999999999987
 20
-66.75000000000003
 30
0.0
 40
2.5
100
AcDbArc
 50
0.0
 51
90.00000000000003
  0
LINE
  5
7FE
330
7F4
100
AcDbEntity
  8
0
100
AcDbLine
 10
3.749999999999987
 20
-66.75000000000001
 30
0.0
 11
3.749999999999987
 21
-69.75000000000003
 31
0.0
  0
ARC
  5
7FF
330
7F4
100
AcDbEntity
  8
0
100
AcDbCircle
 10
-3.750000000000012
 20
-107.75
 30
0.0
 40
2.5
100
AcDbArc
 50
0.0
 51
90.00000000000005
  0
ARC
  5
800
330
7F4
100
AcDbEntity
  8
0
100
AcDbCircle
 10
-3.750000000000012
 20
-87.25000000000001
 30
0.0
 40
2.5
100
AcDbArc
 50
270.0
 51
0.0
  0
ARC
  5
801
330
7F4
100
AcDbEntity
  8
0
100
AcDbCircle
 10
1.249999999999987
 20
-31.9
 30
0.0
 40
2.5
100
AcDbArc
 50
270.0
 51
0.0
  0
ARC
  5
802
330
7F4
100
AcDbEntity
  8
0
100
AcDbCircle
 10
9.500000000000035
 20
-2.500000000000037
 30
0.0
 40
2.5
100
AcDbArc
 50
270.0
 51
0.0
  0
LINE
  5
803
330
7F4
100
AcDbEntity
  8
0
100
AcDbLine
 10
25.99999999999998
 20
-2.50000000000006
 30
0.0
 11
29.99999999999999
 21
-2.500000000000066
 31
0.0
  0
LINE
  5
804
330
7F4
100
AcDbEntity
  8
0
100
AcDbLine
 10
29.99999999999999
 20
-2.500000000000066
 30
0.0
 11
29.99999999999999
 21
0.0
 31
0.0
  0
LINE
  5
805
330
7F4
100
AcDbEntity
  8
0
100
AcDbLine
 10
29.99999999999999
 20
0.0
 30
0.0
 11
25.99999999999999
 21
0.0
 31
0.0
  0
LINE
  5
806
330
7F4
100
AcDbEntity
  8
0
100
AcDbLine
 10
25.99999999999999
 20
0.0
 30
0.0
 11
25.99999999999998
 21
-2.500000000000059
 31
0.0
  0
LINE
  5
807
330
7F4
100
AcDbEntity
  8
0
100
AcDbLine
 10
-28.87
 20
0.0
 30
0.0
 11
-30.00000000000007
 21
0.0
 31
0.0
  0
LINE
  5
808
330
7F4
100
AcDbEntity
  8
0
100
AcDbLine
 10
-30.00000000000007
 20
0.0
 30
0.0
 11
-30.00000000000004
 21
-2.500000000000209
 31
0.0
  0
LINE
  5
809
330
7F4
100
AcDbEntity
  8
0
100
AcDbLine
 10
-30.00000000000004
 20
-2.500000000000209
 30
0.0
 11
-28.87000000000001
 21
-2.500000000000204
 31
0.0
  0
LINE
  5
80A
330
7F4
100
AcDbEntity
  8
0
100
AcDbLine
 10
1.249999999999987
 20
-113.5
 30
0.0
 11
1.249999999999987
 21
-109.5
 31
0.0
  0
LINE
  5
80B
330
7F4
100
AcDbEntity
  8
0
100
AcDbLine
 10
1.249999999999987
 20
-109.5
 30
0.0
 11
-1.250000000000012
 21
-109.5
 31
0.0
  0
LINE
  5
80C
330
7F4
100
AcDbEntity
  8
0
100
AcDbLine
 10
-1.250000000000012
 20
-109.5
 30
0.0
 11
-1.250000000000012
 21
-113.5
 31
0.0
  0
LINE
  5
80D
330
7F4
100
AcDbEntity
  8
0
100
AcDbLine
 10
-1.250000000000012
 20
-113.5
 30
0.0
 11
1.249999999999987
 21
-113.5
 31
0.0
  0
LINE
  5
80E
330
7F4
100
AcDbEntity
  8
0
100
AcDbLine
 10
25.99999999999999
 20
0.0
 30
0.0
 11
3.749999999999986
 21
0.0
 31
0.0
  0
LINE
  5
80F
330
7F4
100
AcDbEntity
  8
0
100
AcDbLine
 10
3.749999999999986
 20
-2.500000000000029
 30
0.0
 11
25.99999999999998
 21
-2.50000000000006
 31
0.0
  0
LINE
  5
810
330
7F4
100
AcDbEntity
  8
0
100
AcDbLine
 10
-28.87
 20
0.0
 30
0.0
 11
-8.870000000000013
 21
0.0
 31
0.0
  0
LINE
  5
811
330
7F4
100
AcDbEntity
  8
0
100
AcDbLine
 10
3.129999999999981
 20
0.0
 30
0.0
 11
-8.870000000000011
 21
0.0
 31
0.0
  0
LINE
  5
812
330
7F4
100
AcDbEntity
  8
0
100
AcDbLine
 10
3.749999999999972
 20
0.0
 30
0.0
 11
3.129999999999981
 21
0.0
 31
0.0
  0
LINE
  5
813
330
7F4
100
AcDbEntity
  8
0
100
AcDbLine
 10
-8.870000000000011
 20
-2.500000000000017
 30
0.0
 11
-0.5801270189222019
 21
-2.500000000000028
 31
0.0
  0
LINE
  5
814
330
7F4
100
AcDbEntity
  8
0
100
AcDbLine
 10
-8.870000000000011
 20
-2.500000000000017
 30
0.0
 11
-28.87000000000001
 21
-2.499999999999993
 31
0.0
  0
LINE
  5
815
330
7F4
100
AcDbEntity
  8
0
100
AcDbLine
 10
1.249999999999987
 20
-92.24999999999999
 30
0.0
 11
1.249999999999987
 21
-5.000000000000035
 31
0.0
  0
LINE
  5
816
330
7F4
100
AcDbEntity
  8
0
100
AcDbLine
 10
1.249999999999987
 20
-97.5
 30
0.0
 11
1.249999999999987
 21
-92.24999999999999
 31
0.0
  0
LINE
  5
817
330
7F4
100
AcDbEntity
  8
0
100
AcDbLine
 10
1.249999999999987
 20
-100.5
 30
0.0
 11
1.249999999999987
 21
-97.5
 31
0.0
  0
LINE
  5
818
330
7F4
100
AcDbEntity
  8
0
100
AcDbLine
 10
1.249999999999987
 20
-102.75
 30
0.0
 11
1.249999999999987
 21
-100.5
 31
0.0
  0
LINE
  5
819
330
7F4
100
AcDbEntity
  8
0
100
AcDbLine
 10
1.249999999999987
 20
-104.5698511713309
 30
0.0
 11
1.249999999999987
 21
-102.75
 31
0.0
  0
LINE
  5
81A
330
7F4
100
AcDbEntity
  8
0
100
AcDbLine
 10
1.249999999999987
 20
-109.5
 30
0.0
 11
1.249999999999987
 21
-104.5698511713309
 31
0.0
  0
LINE
  5
81B
330
7F4
100
AcDbEntity
  8
0
100
AcDbLine
 10
-1.250000000000012
 20
-104.5698511713309
 30
0.0
 11
-1.250000000000012
 21
-109.5
 31
0.0
  0
LINE
  5
81C
330
7F4
100
AcDbEntity
  8
0
100
AcDbLine
 10
-1.250000000000012
 20
-102.75
 30
0.0
 11
-1.250000000000012
 21
-104.5698511713309
 31
0.0
  0
LINE
  5
81D
330
7F4
100
AcDbEntity
  8
0
100
AcDbLine
 10
-1.250000000000012
 20
-100.5
 30
0.0
 11
-1.250000000000012
 21
-102.75
 31
0.0
  0
LINE
  5
81E
330
7F4
100
AcDbEntity
  8
0
100
AcDbLine
 10
-1.250000000000012
 20
-97.5
 30
0.0
 11
-1.250000000000012
 21
-100.5
 31
0.0
  0
LINE
  5
81F
330
7F4
100
AcDbEntity
  8
0
100
AcDbLine
 10
-1.250000000000012
 20
-92.24999999999999
 30
0.0
 11
-1.250000000000012
 21
-97.5
 31
0.0
  0
LINE
  5
820
330
7F4
100
AcDbEntity
  8
0
100
AcDbLine
 10
-1.250000000000012
 20
-5.000000000000035
 30
0.0
 11
-1.250000000000012
 21
-92.24999999999999
 31
0.0
  0
LINE
  5
821
330
7F4
100
AcDbEntity
  8
0
100
AcDbLine
 10
-1.250000000000012
 20
-104.5698511713309
 30
0.0
 11
1.249999999999987
 21
-104.5698511713309
 31
0.0
  0
LINE
  5
822
330
7F4
100
AcDbEntity
  8
0
100
AcDbLine
 10
-1.250000000000012
 20
-102.75
 30
0.0
 11
1.249999999999987
 21
-102.75
 31
0.0
  0
LINE
  5
823
330
7F4
100
AcDbEntity
  8
0
100
AcDbLine
 10
-1.250000000000012
 20
-92.24999999999999
 30
0.0
 11
1.249999999999987
 21
-92.24999999999999
 31
0.0
  0
LINE
  5
824
330
7F4
100
AcDbEntity
  8
0
100
AcDbLine
 10
-28.87
 20
0.0
 30
0.0
 11
-28.87
 21
-2.499999999999992
 31
0.0
  0
ARC
  5
825
330
7F4
100
AcDbEntity
  8
0
100
AcDbCircle
 10
3.749999999999987
 20
-5.000000000000034
 30
0.0
 40
5.0
100
AcDbArc
 50
90.0
 51
180.0
  0
ARC
  5
826
330
7F4
100
AcDbEntity
  8
0
100
AcDbCircle
 10
3.749999999999987
 20
-5.000000000000034
 30
0.0
 40
2.5
100
AcDbArc
 50
90.00000000000003
 51
180.0
  0
ARC
  5
827
330
7F4
100
AcDbEntity
  8
0
100
AcDbCircle
 10
-3.750000000000012
 20
-5.000000000000057
 30
0.0
 40
2.5
100
AcDbArc
 50
0.0
 51
90.00000000000047
  0
ENDBLK
  5
7F6
330
7F4
100
AcDbEntity
  8
0
100
AcDbBlockEnd
  0
BLOCK
  5
829
330
828
100
AcDbEntity
  8
0
100
AcDbBlockBegin
  2
CBH150S-Bottom
 70
     0
 10
0.0
 20
0.0
 30
0.0
  3
CBH150S-Bottom
  1

  0
LINE
  5
82B
330
828
100
AcDbEntity
  8
0
100
AcDbLine
 10
8.000000000000033
 20
5.000000000000036
 30
0.0
 11
3.749999999999987
 21
5.000000000000033
 31
0.0
  0
LINE
  5
82C
330
828
100
AcDbEntity
  8
0
100
AcDbLine
 10
8.000000000000033
 20
5.000000000000036
 30
0.0
 11
9.500000000000033
 21
5.000000000000037
 31
0.0
  0
LINE
  5
82D
330
828
100
AcDbEntity
  8
0
100
AcDbLine
 10
3.749999999999987
 20
5.000000000000033
 30
0.0
 11
3.749999999999987
 21
30.4
 31
0.0
  0
LINE
  5
82E
330
828
100
AcDbEntity
  8
0
100
AcDbLine
 10
3.749999999999987
 20
31.9
 30
0.0
 11
3.749999999999987
 21
30.4
 31
0.0
  0
LINE
  5
82F
330
828
100
AcDbEntity
  8
0
100
AcDbLine
 10
-3.750000000000012
 20
105.25
 30
0.0
 11
-3.750000000000012
 21
89.75000000000001
 31
0.0
  0
ARC
  5
830
330
828
100
AcDbEntity
  8
0
100
AcDbCircle
 10
1.249999999999987
 20
69.75000000000007
 30
0.0
 40
2.5
100
AcDbArc
 50
0.0
 51
90.00000000000003
  0
ARC
  5
831
330
828
100
AcDbEntity
  8
0
100
AcDbCircle
 10
1.249999999999987
 20
66.75000000000001
 30
0.0
 40
2.499999999999982
100
AcDbArc
 50
270.0
 51
0.0
  0
LINE
  5
832
330
828
100
AcDbEntity
  8
0
100
AcDbLine
 10
3.749999999999987
 20
69.75000000000003
 30
0.0
 11
3.749999999999987
 21
66.75000000000001
 31
0.0
  0
ARC
  5
833
330
828
100
AcDbEntity
  8
0
100
AcDbCircle
 10
-3.750000000000012
 20
87.25000000000001
 30
0.0
 40
2.5
100
AcDbArc
 50
0.0
 51
90.00000000000003
  0
ARC
  5
834
330
828
100
AcDbEntity
  8
0
100
AcDbCircle
 10
-3.750000000000012
 20
107.75
 30
0.0
 40
2.5
100
AcDbArc
 50
270.0
 51
0.0
  0
ARC
  5
835
330
828
100
AcDbEntity
  8
0
100
AcDbCircle
 10
1.249999999999987
 20
31.9
 30
0.0
 40
2.5
100
AcDbArc
 50
0.0
 51
90.00000000000003
  0
ARC
  5
836
330
828
100
AcDbEntity
  8
0
100
AcDbCircle
 10
9.500000000000035
 20
2.500000000000037
 30
0.0
 40
2.5
100
AcDbArc
 50
0.0
 51
90.00000000000005
  0
LINE
  5
837
330
828
100
AcDbEntity
  8
0
100
AcDbLine
 10
-30.00000000000003
 20
2.500000000000213
 30
0.0
 11
-30.00000000000007
 21
0.0
 31
0.0
  0
LINE
  5
838
330
828
100
AcDbEntity
  8
0
100
AcDbLine
 10
25.99999999999994
 20
0.0
 30
0.0
 11
29.99999999999995
 21
0.0
 31
0.0
  0
LINE
  5
839
330
828
100
AcDbEntity
  8
0
100
AcDbLine
 10
-30.00000000000007
 20
0.0
 30
0.0
 11
-26.00000000000004
 21
0.0
 31
0.0
  0
LINE
  5
83A
330
828
100
AcDbEntity
  8
0
100
AcDbLine
 10
-26.00000000000004
 20
0.0
 30
0.0
 11
-26.00000000000003
 21
2.50000000000019
 31
0.0
  0
LINE
  5
83B
330
828
100
AcDbEntity
  8
0
100
AcDbLine
 10
-26.00000000000003
 20
2.50000000000019
 30
0.0
 11
-30.00000000000003
 21
2.500000000000213
 31
0.0
  0
LINE
  5
83C
330
828
100
AcDbEntity
  8
0
100
AcDbLine
 10
29.99999999999995
 20
0.0
 30
0.0
 11
29.99999999999995
 21
2.499999999999862
 31
0.0
  0
LINE
  5
83D
330
828
100
AcDbEntity
  8
0
100
AcDbLine
 10
29.99999999999995
 20
2.499999999999862
 30
0.0
 11
25.99999999999994
 21
2.499999999999886
 31
0.0
  0
LINE
  5
83E
330
828
100
AcDbEntity
  8
0
100
AcDbLine
 10
25.99999999999994
 20
2.499999999999886
 30
0.0
 11
25.99999999999994
 21
0.0
 31
0.0
  0
LINE
  5
83F
330
828
100
AcDbEntity
  8
0
100
AcDbLine
 10
1.249999999999987
 20
109.5
 30
0.0
 11
1.249999999999987
 21
113.5
 31
0.0
  0
LINE
  5
840
330
828
100
AcDbEntity
  8
0
100
AcDbLine
 10
1.249999999999987
 20
113.5
 30
0.0
 11
-1.250000000000012
 21
113.5
 31
0.0
  0
LINE
  5
841
330
828
100
AcDbEntity
  8
0
100
AcDbLine
 10
-1.250000000000012
 20
113.5
 30
0.0
 11
-1.250000000000012
 21
109.5
 31
0.0
  0
LINE
  5
842
330
828
100
AcDbEntity
  8
0
100
AcDbLine
 10
-1.250000000000012
 20
109.5
 30
0.0
 11
1.249999999999987
 21
109.5
 31
0.0
  0
LINE
  5
843
330
828
100
AcDbEntity
  8
0
100
AcDbLine
 10
1.499999999999939
 20
0.0
 30
0.0
 11
25.99999999999994
 21
0.0
 31
0.0
  0
LINE
  5
844
330
828
100
AcDbEntity
  8
0
100
AcDbLine
 10
0.0
 20
0.0
 30
0.0
 11
1.499999999999939
 21
0.0
 31
0.0
  0
LINE
  5
845
330
828
100
AcDbEntity
  8
0
100
AcDbLine
 10
-1.500000000000049
 20
0.0
 30
0.0
 11
0.0
 21
0.0
 31
0.0
  0
LINE
  5
846
330
828
100
AcDbEntity
  8
0
100
AcDbLine
 10
-26.00000000000004
 20
0.0
 30
0.0
 11
-1.500000000000052
 21
0.0
 31
0.0
  0
LINE
  5
847
330
828
100
AcDbEntity
  8
0
100
AcDbLine
 10
-1.500000000000039
 20
2.500000000000047
 30
0.0
 11
-1.500000000000049
 21
0.0
 31
0.0
  0
LINE
  5
848
330
828
100
AcDbEntity
  8
0
100
AcDbLine
 10
-1.500000000000039
 20
2.500000000000047
 30
0.0
 11
-26.00000000000003
 21
2.50000000000019
 31
0.0
  0
LINE
  5
849
330
828
100
AcDbEntity
  8
0
100
AcDbLine
 10
1.249999999999987
 20
83.40236964090122
 30
0.0
 11
1.249999999999987
 21
109.5
 31
0.0
  0
LINE
  5
84A
330
828
100
AcDbEntity
  8
0
100
AcDbLine
 10
1.249999999999987
 20
5.000000000000035
 30
0.0
 11
1.249999999999987
 21
83.40236964090122
 31
0.0
  0
LINE
  5
84B
330
828
100
AcDbEntity
  8
0
100
AcDbLine
 10
-1.250000000000012
 20
83.40236964090122
 30
0.0
 11
-1.250000000000012
 21
5.000000000000035
 31
0.0
  0
LINE
  5
84C
330
828
100
AcDbEntity
  8
0
100
AcDbLine
 10
-1.250000000000012
 20
109.5
 30
0.0
 11
-1.250000000000012
 21
83.40236964090122
 31
0.0
  0
LINE
  5
84D
330
828
100
AcDbEntity
  8
0
100
AcDbLine
 10
-1.250000000000012
 20
83.40236964090122
 30
0.0
 11
1.249999999999987
 21
83.40236964090122
 31
0.0
  0
LINE
  5
84E
330
828
100
AcDbEntity
  8
0
100
AcDbLine
 10
25.99999999999994
 20
2.499999999999886
 30
0.0
 11
1.49999999999995
 21
2.500000000000029
 31
0.0
  0
LINE
  5
84F
330
828
100
AcDbEntity
  8
0
100
AcDbLine
 10
1.499999999999949
 20
2.500000000000029
 30
0.0
 11
1.499999999999939
 21
0.0
 31
0.0
  0
LINE
  5
850
330
828
100
AcDbEntity
  8
0
100
AcDbLine
 10
1.499999999999949
 20
2.500000000000029
 30
0.0
 11
0.0
 21
2.500000000000037
 31
0.0
  0
LINE
  5
851
330
828
100
AcDbEntity
  8
0
100
AcDbLine
 10
0.0
 20
2.500000000000037
 30
0.0
 11
0.0
 21
0.0
 31
0.0
  0
LINE
  5
852
330
828
100
AcDbEntity
  8
0
100
AcDbLine
 10
0.0
 20
2.500000000000037
 30
0.0
 11
-1.500000000000039
 21
2.500000000000047
 31
0.0
  0
ARC
  5
853
330
828
100
AcDbEntity
  8
0
100
AcDbCircle
 10
3.749999999999987
 20
5.000000000000051
 30
0.0
 40
2.5
100
AcDbArc
 50
180.0
 51
269.9999999999999
  0
SPLINE
  5
854
330
828
100
AcDbEntity
  8
0
100
AcDbSpline
210
0.0
220
0.0
230
1.0
 70
     8
 71
     3
 72
    16
 73
    12
 74
     0
 42
0.000000001
 43
0.0000000001
 40
0.0
 40
0.0
 40
0.0
 40
0.0
 40
0.0413665349789598
 40
0.0413665349789598
 40
0.0660460115638263
 40
0.0660460115638263
 40
0.0871387586838379
 40
0.0871387586838379
 40
0.1008593572467675
 40
0.1008593572467675
 40
0.1186575329330778
 40
0.1186575329330778
 40
0.1186575329330778
 40
0.1186575329330778
 10
-3.750000000000035
 20
2.500000000000059
 30
0.0
 10
-3.678744210336722
 20
2.500000000000058
 30
0.0
 10
-3.518402823032544
 20
2.497566515661497
 30
0.0
 10
-3.116542908424724
 20
2.576746698277769
 30
0.0
 10
-2.951822254011715
 20
2.623549646815594
 30
0.0
 10
-2.633821326895715
 20
2.757362738734419
 30
0.0
 10
-2.487789580592142
 20
2.835515943688151
 30
0.0
 10
-2.258387986254177
 20
2.990768355159309
 30
0.0
 10
-2.173103672865718
 20
3.057166269619306
 30
0.0
 10
-1.990952904449572
 20
3.218257096955088
 30
0.0
 10
-1.917373338829417
 20
3.298002184091081
 30
0.0
 10
-1.869330718455278
 20
3.352856092063045
 30
0.0
  0
SPLINE
  5
855
330
828
100
AcDbEntity
  8
0
100
AcDbSpline
210
0.0
220
0.0
230
1.0
 70
     8
 71
     3
 72
    10
 73
     6
 74
     0
 42
0.000000001
 43
0.0000000001
 40
0.0
 40
0.0
 40
0.0
 40
0.0
 40
0.1861491823438742
 40
0.1861491823438742
 40
0.2709959650926047
 40
0.2709959650926047
 40
0.2709959650926047
 40
0.2709959650926047
 10
1.249999999999987
 20
5.000000000000017
 30
0.0
 10
1.249999999999982
 20
4.398973615748397
 30
0.0
 10
1.141630183059458
 20
3.802842022474094
 30
0.0
 10
0.8336861809172603
 20
2.98384810728767
 30
0.0
 10
0.7165553866460308
 20
2.736303030627465
 30
0.0
 10
0.5801258788796032
 20
2.500000616487908
 30
0.0
  0
LINE
  5
856
330
828
100
AcDbEntity
  8
0
100
AcDbLine
 10
-0.4077204103771921
 20
5.000000000000035
 30
0.0
 11
1.249999999999987
 21
5.000000000000035
 31
0.0
  0
LINE
  5
857
330
828
100
AcDbEntity
  8
0
100
AcDbLine
 10
-1.250000000000012
 20
5.000000000000035
 30
0.0
 11
-0.4077204103771921
 21
5.000000000000035
 31
0.0
  0
SPLINE
  5
858
330
828
100
AcDbEntity
  8
0
100
AcDbSpline
210
0.0
220
0.0
230
1.0
 70
     8
 71
     3
 72
    10
 73
     6
 74
     0
 42
0.000000001
 43
0.0000000001
 40
0.0
 40
0.0
 40
0.0
 40
0.0
 40
0.1013325825262294
 40
0.1013325825262294
 40
0.2026651653026372
 40
0.2026651653026372
 40
0.2026651653026372
 40
0.2026651653026372
 10
-1.869330718455294
 20
3.352856092063026
 30
0.0
 10
-1.671335388744578
 20
3.578922395487984
 30
0.0
 10
-1.515714012066851
 20
3.838847793597021
 30
0.0
 10
-1.304184877605137
 20
4.401421091401062
 30
0.0
 10
-1.250000000000014
 20
4.699486897827423
 30
0.0
 10
-1.250000000000011
 20
5.000000000000039
 30
0.0
  0
ENDBLK
  5
82A
330
828
100
AcDbEntity
  8
0
100
AcDbBlockEnd
  0
BLOCK
  5
85A
330
859
100
AcDbEntity
  8
0
100
AcDbBlockBegin
  2
CBH150S-ISO
 70
     0
 10
0.0
 20
0.0
 30
0.0
  3
CBH150S-ISO
  1

  0
ELLIPSE
  5
85C
330
859
100
AcDbEntity
  8
0
100
AcDbEllipse
 10
41.01162045277766
 20
73.28023739967334
 30
0.0
 11
-1.249999999999871
 21
-2.16506350946117
 31
0.0
210
0.0
220
0.0
230
1.0
 40
0.5773502691896264
 41
3.926990816986998
 42
5.497787143781897
  0
LINE
  5
85D
330
859
100
AcDbEntity
  8
0
100
AcDbLine
 10
39.24385349981133
 20
72.25961667351367
 30
0.0
 11
42.24905731985418
 21
70.52456143904223
 31
0.0
  0
ELLIPSE
  5
85E
330
859
100
AcDbEntity
  8
0
100
AcDbEllipse
 10
44.01682427282056
 20
71.54518216520187
 30
0.0
 11
-1.249999999999874
 21
-2.165063509461178
 31
0.0
210
0.0
220
0.0
230
1.0
 40
0.577350269189626
 41
3.926990816987004
 42
5.497787143781894
  0
LINE
  5
85F
330
859
100
AcDbEntity
  8
0
100
AcDbLine
 10
41.01162045277769
 20
75.32147885199265
 30
0.0
 11
44.01682427282056
 21
73.58642361752121
 31
0.0
  0
ELLIPSE
  5
860
330
859
100
AcDbEntity
  8
0
100
AcDbEllipse
 10
37.47608654684495
 20
70.83074765689014
 30
0.0
 11
1.249999999999999
 21
-2.165063509461097
 31
0.0
210
0.0
220
0.0
230
0.9999999999999998
 40
0.5773502691896261
 41
0.0
 42
0.7853981633974474
  0
ELLIPSE
  5
861
330
859
100
AcDbEntity
  8
0
100
AcDbEllipse
 10
41.01162045277769
 20
70.83074765689014
 30
0.0
 11
-1.25
 21
-2.165063509461095
 31
0.0
210
0.0
220
0.0
230
1.0
 40
0.5773502691896261
 41
5.497787143782135
 42
6.283185307179585
  0
LINE
  5
862
330
859
100
AcDbEntity
  8
0
100
AcDbLine
 10
42.24905731985418
 20
68.07507169625904
 30
0.0
 11
39.24385349981133
 21
69.81012693073049
 31
0.0
  0
ELLIPSE
  5
863
330
859
100
AcDbEntity
  8
0
100
AcDbEllipse
 10
42.24905731985418
 20
69.29981656765064
 30
0.0
 11
0.7499999999999217
 21
-1.299038105676703
 31
0.0
210
0.0
220
0.0
230
0.9999999999999998
 40
0.5773502691896257
 41
5.497787143782377
 42
8.639379797372171
  0
LINE
  5
864
330
859
100
AcDbEntity
  8
0
100
AcDbLine
 10
39.24385349981133
 20
69.81012693073049
 30
0.0
 11
21.28334125767306
 21
59.44062035294837
 31
0.0
  0
ELLIPSE
  5
865
330
859
100
AcDbEntity
  8
0
100
AcDbEllipse
 10
19.51557430470668
 20
60.46124107910803
 30
0.0
 11
1.249999999999999
 21
-2.165063509461097
 31
0.0
210
0.0
220
0.0
230
0.9999999999999998
 40
0.5773502691896259
 41
0.000000000000005
 42
0.7853981633974536
  0
LINE
  5
866
330
859
100
AcDbEntity
  8
0
100
AcDbLine
 10
21.28334125767306
 20
61.89011009573157
 30
0.0
 11
39.24385349981133
 21
72.25961667351367
 31
0.0
  0
ELLIPSE
  5
867
330
859
100
AcDbEntity
  8
0
100
AcDbEllipse
 10
21.28334125767306
 20
60.66536522433998
 30
0.0
 11
-0.7499999999999996
 21
-1.299038105676658
 31
0.0
210
0.0
220
0.0
230
1.0
 40
0.5773502691896257
 41
3.92699081698724
 42
7.068583470577034
  0
ELLIPSE
  5
868
330
859
100
AcDbEntity
  8
0
100
AcDbEllipse
 10
37.47608654684493
 20
73.28023739967331
 30
0.0
 11
1.249999999999869
 21
-2.165063509461171
 31
0.0
210
0.0
220
0.0
230
1.0
 40
0.5773502691896258
 41
0.7853981633976908
 42
2.356194490192585
  0
LINE
  5
869
330
859
100
AcDbEntity
  8
0
100
AcDbLine
 10
19.51557430470668
 20
64.95197227421051
 30
0.0
 11
37.47608654684497
 21
75.32147885199264
 31
0.0
  0
ELLIPSE
  5
86A
330
859
100
AcDbEntity
  8
0
100
AcDbEllipse
 10
19.51557430470668
 20
62.91073082189122
 30
0.0
 11
-1.250000000000129
 21
2.165063509461021
 31
0.0
210
0.0
220
0.0
230
1.0
 40
0.577350269189626
 41
3.926990816986997
 42
5.497787143781895
  0
ELLIPSE
  5
86B
330
859
100
AcDbEntity
  8
0
100
AcDbEllipse
 10
44.01682427282056
 20
70.32043729381029
 30
0.0
 11
1.99999999999979
 21
-3.464101615137875
 31
0.0
210
0.0
220
0.0
230
1.0
 40
0.5773502691896258
 41
0.0
 42
2.356194490192587
  0
ELLIPSE
  5
86C
330
859
100
AcDbEntity
  8
0
100
AcDbEllipse
 10
-27.93129071291065
 20
-41.64165636590411
 30
0.0
 11
3.874999999999996
 21
6.711696879329401
 31
0.0
210
0.0
220
0.0
230
1.0
 40
0.5773502691896257
 41
0.0
 42
6.283185307179586
  0
ELLIPSE
  5
86D
330
859
100
AcDbEntity
  8
0
100
AcDbEllipse
 10
-27.93129071291065
 20
7.348138489759454
 30
0.0
 11
3.874999999999996
 21
6.711696879329401
 31
0.0
210
0.0
220
0.0
230
1.0
 40
0.5773502691896257
 41
0.0
 42
6.283185307179586
  0
ELLIPSE
  5
86E
330
859
100
AcDbEntity
  8
0
100
AcDbEllipse
 10
19.51557430470668
 20
61.68598595049963
 30
0.0
 11
-1.999999999999998
 21
-3.464101615137755
 31
0.0
210
0.0
220
0.0
230
1.0
 40
0.5773502691896259
 41
3.92699081698724
 42
6.283185307179586
  0
LINE
  5
86F
330
859
100
AcDbEntity
  8
0
100
AcDbLine
 10
-10.07684448795037
 20
-47.66331865024611
 30
0.0
 11
-10.07684448795034
 21
33.98633944252651
 31
0.0
  0
ELLIPSE
  5
870
330
859
100
AcDbEntity
  8
0
100
AcDbEllipse
 10
-7.24841736320414
 20
35.61933260438195
 30
0.0
 11
2.000000000000206
 21
3.464101615137634
 31
0.0
210
0.0
220
0.0
230
1.0
 40
0.5773502691896257
 41
0.0
 42
2.356194490192583
  0
ELLIPSE
  5
871
330
859
100
AcDbEntity
  8
0
100
AcDbEllipse
 10
-7.24841736320414
 20
-46.03032548839063
 30
0.0
 11
-2.000000000000003
 21
-3.464101615137753
 31
0.0
210
0.0
220
0.0
230
1.0
 40
0.5773502691896257
 41
5.497787143782145
 42
6.283185307179592
  0
ELLIPSE
  5
872
330
859
100
AcDbEntity
  8
0
100
AcDbEllipse
 10
-27.93129071291065
 20
-17.14675893807232
 30
0.0
 11
3.874999999999995
 21
6.711696879329397
 31
0.0
210
0.0
220
0.0
230
1.0
 40
0.5773502691896259
 41
0.0
 42
6.283185307179586
  0
ELLIPSE
  5
873
330
859
100
AcDbEntity
  8
0
100
AcDbEllipse
 10
-27.93129071291065
 20
-66.13655379373589
 30
0.0
 11
3.874999999999996
 21
6.711696879329401
 31
0.0
210
0.0
220
0.0
230
1.0
 40
0.5773502691896257
 41
0.0
 42
6.283185307179586
  0
ELLIPSE
  5
874
330
859
100
AcDbEntity
  8
0
100
AcDbEllipse
 10
-29.69905766587702
 20
-65.11593306757624
 30
0.0
 11
2.624999999999999
 21
4.546633369868302
 31
0.0
210
0.0
220
0.0
230
1.0
 40
0.5773502691896258
 41
3.141592653589795
 42
6.283185307179588
  0
ELLIPSE
  5
875
330
859
100
AcDbEntity
  8
0
100
AcDbEllipse
 10
-29.69905766587702
 20
-40.62103563974446
 30
0.0
 11
2.624999999999999
 21
4.546633369868302
 31
0.0
210
0.0
220
0.0
230
1.0
 40
0.5773502691896258
 41
3.141592653589795
 42
6.283185307179589
  0
ELLIPSE
  5
876
330
859
100
AcDbEntity
  8
0
100
AcDbEllipse
 10
-29.69905766587702
 20
-16.12613821191267
 30
0.0
 11
2.624999999999999
 21
4.546633369868302
 31
0.0
210
0.0
220
0.0
230
1.0
 40
0.5773502691896258
 41
3.141592653589794
 42
6.283185307179588
  0
ELLIPSE
  5
877
330
859
100
AcDbEntity
  8
0
100
AcDbEllipse
 10
-29.69905766587702
 20
8.368759215919112
 30
0.0
 11
2.624999999999999
 21
4.546633369868302
 31
0.0
210
0.0
220
0.0
230
1.0
 40
0.5773502691896258
 41
3.141592653589794
 42
6.283185307179588
  0
ELLIPSE
  5
878
330
859
100
AcDbEntity
  8
0
100
AcDbEllipse
 10
44.01682427282056
 20
69.09569242241871
 30
0.0
 11
-1.249999999999999
 21
-2.165063509461097
 31
0.0
210
0.0
220
0.0
230
0.9999999999999998
 40
0.5773502691896261
 41
5.497787143782131
 42
6.283185307179583
  0
ELLIPSE
  5
879
330
859
100
AcDbEntity
  8
0
100
AcDbEllipse
 10
39.24385349981133
 20
74.30085812583297
 30
0.0
 11
2.499999999999999
 21
-0.0000000000001496
 31
0.0
210
0.0
220
0.0
230
1.0
 40
0.5773502691896258
 41
0.7853981633976961
 42
2.356194490192585
  0
ELLIPSE
  5
87A
330
859
100
AcDbEntity
  8
0
100
AcDbEllipse
 10
-8.309077534983968
 20
35.00696016868616
 30
0.0
 11
-2.499999999999999
 21
0.0000000000001495
 31
0.0
210
0.0
220
0.0
230
1.0
 40
0.5773502691896259
 41
0.7853981633976908
 42
2.356194490192587
  0
ELLIPSE
  5
87B
330
859
100
AcDbEntity
  8
0
100
AcDbEllipse
 10
-8.309077534984004
 20
-46.64269792408646
 30
0.0
 11
2.499999999999999
 21
0.0000000000001486
 31
0.0
210
0.0
220
0.0
230
1.0
 40
0.5773502691896259
 41
3.926990816987
 42
5.497787143781897
  0
LINE
  5
87C
330
859
100
AcDbEntity
  8
0
100
AcDbLine
 10
-6.541310582017638
 20
-47.66331865024611
 30
0.0
 11
-6.541310582017603
 21
33.98633944252651
 31
0.0
  0
ELLIPSE
  5
87D
330
859
100
AcDbEntity
  8
0
100
AcDbEllipse
 10
-6.187757191424321
 20
-45.41795305269484
 30
0.0
 11
2.499999999999981
 21
-0.0000000000000071
 31
0.0
210
0.0
220
0.0
230
1.0
 40
0.5773502691896259
 41
5.497787143782151
 42
6.2831853071796
  0
ELLIPSE
  5
87E
330
859
100
AcDbEntity
  8
0
100
AcDbEllipse
 10
-5.480650410237775
 20
-47.05094621455028
 30
0.0
 11
-0.7500000000000771
 21
-1.299038105676612
 31
0.0
210
0.0
220
0.0
230
0.9999999999999998
 40
0.5773502691896259
 41
5.497787143782377
 42
8.639379797372171
  0
ELLIPSE
  5
87F
330
859
100
AcDbEntity
  8
0
100
AcDbEllipse
 10
-6.18775719142433
 20
36.23170504007776
 30
0.0
 11
2.499999999999999
 21
-0.0000000000000022
 31
0.0
210
0.0
220
0.0
230
1.0
 40
0.5773502691896259
 41
5.497787143782145
 42
6.283185307179594
  0
LINE
  5
880
330
859
100
AcDbEntity
  8
0
100
AcDbLine
 10
-4.419990238457964
 20
35.2110843139181
 30
0.0
 11
-4.419990238457955
 21
-46.43857377885448
 31
0.0
  0
ELLIPSE
  5
881
330
859
100
AcDbEntity
  8
0
100
AcDbEllipse
 10
-5.480650410237775
 20
34.5987118782223
 30
0.0
 11
0.7500000000000773
 21
1.299038105676613
 31
0.0
210
0.0
220
0.0
230
1.0
 40
0.5773502691896258
 41
5.497787143782385
 42
8.639379797372168
  0
SPLINE
  5
882
330
859
100
AcDbEntity
  8
0
100
AcDbSpline
210
0.0
220
0.0
230
1.0
 70
     8
 71
     3
 72
    28
 73
    24
 74
     0
 42
0.000000001
 43
0.0000000001
 40
3.20211592802413
 40
3.20211592802413
 40
3.20211592802413
 40
3.20211592802413
 40
3.29345845640394
 40
3.29345845640394
 40
3.43545401070712
 40
3.43545401070712
 40
3.577818157958983
 40
3.577818157958983
 40
3.725723663290823
 40
3.725723663290823
 40
3.880249013817451
 40
3.880249013817451
 40
4.038716437692185
 40
4.038716437692185
 40
4.196072480005941
 40
4.196072480005941
 40
4.347721259668271
 40
4.347721259668271
 40
4.492474312353999
 40
4.492474312353999
 40
4.633724411786464
 40
4.633724411786464
 40
4.651865705951936
 40
4.651865705951936
 40
4.651865705951936
 40
4.651865705951936
 10
38.7244948153973
 20
68.66476516084927
 30
0.0
 10
38.72612593185455
 20
68.66559927529724
 30
0.0
 10
38.73138188605202
 20
68.66819213701905
 30
0.0
 10
38.75323157294956
 20
68.67745828858118
 30
0.0
 10
38.77450374170644
 20
68.6855625041969
 30
0.0
 10
38.82990654259442
 20
68.70268709077016
 30
0.0
 10
38.86405840284308
 20
68.71172165135262
 30
0.0
 10
38.94311693743854
 20
68.72834039969889
 30
0.0
 10
38.98838534722512
 20
68.73586022966015
 30
0.0
 10
39.08686020592393
 20
68.74746022761545
 30
0.0
 10
39.14032888106203
 20
68.75137349562894
 30
0.0
 10
39.25011806622022
 20
68.75433846928979
 30
0.0
 10
39.30647524741489
 20
68.75326276202489
 30
0.0
 10
39.41512057970198
 20
68.74622530839072
 30
0.0
 10
39.46743274065426
 20
68.74029454395042
 30
0.0
 10
39.56159017954298
 20
68.72530319988611
 30
0.0
 10
39.60374235885815
 20
68.71635882417679
 30
0.0
 10
39.67385336202301
 20
68.69824671437993
 30
0.0
 10
39.70236238264046
 20
68.68910078208897
 30
0.0
 10
39.74380841299635
 20
68.67391516193031
 30
0.0
 10
39.7570883376481
 20
68.66779557570693
 30
0.0
 10
39.76242164048181
 20
68.66516636854675
 30
0.0
 10
39.76288823256797
 20
68.66493082207883
 30
0.0
 10
39.76321218422544
 20
68.66476516084921
 30
0.0
  0
LINE
  5
883
330
859
100
AcDbEntity
  8
0
100
AcDbLine
 10
20.76557430470669
 20
58.29617756964694
 30
0.0
 11
38.72608654684496
 21
68.66568414742904
 31
0.0
  0
SPLINE
  5
884
330
859
100
AcDbEntity
  8
0
100
AcDbSpline
210
0.0
220
0.0
230
1.0
 70
     8
 71
     3
 72
    30
 73
    26
 74
     0
 42
0.000000001
 43
0.0000000001
 40
2.356194490192344
 40
2.356194490192344
 40
2.356194490192344
 40
2.356194490192344
 40
2.670353755551324
 40
2.670353755551324
 40
2.97164101069275
 40
2.97164101069275
 40
3.216656691770962
 40
3.216656691770962
 40
3.470260289124841
 40
3.470260289124841
 40
3.736635563277971
 40
3.736635563277971
 40
4.011304785583482
 40
4.011304785583482
 40
4.287389518885
 40
4.287389518885
 40
4.557522071061921
 40
4.557522071061921
 40
4.815388296837168
 40
4.815388296837168
 40
5.061261598013408
 40
5.061261598013408
 40
5.320079977316968
 40
5.320079977316968
 40
5.497787143782137
 40
5.497787143782137
 40
5.497787143782137
 40
5.497787143782137
 10
-32.32405766587702
 20
-69.66256643744452
 30
0.0
 10
-32.33714763526697
 20
-69.65500894009355
 30
0.0
 10
-32.36410815881978
 20
-69.64645113383139
 30
0.0
 10
-32.49448097000801
 20
-69.42626747357977
 30
0.0
 10
-32.581360791185
 20
-69.21843809885416
 30
0.0
 10
-32.67422732851314
 20
-68.64717908794512
 30
0.0
 10
-32.69187201972493
 20
-68.32354750243979
 30
0.0
 10
-32.64454060448985
 20
-67.56949558606097
 30
0.0
 10
-32.57700997490963
 20
-67.13630676278587
 30
0.0
 10
-32.3407426435874
 20
-66.19993140702735
 30
0.0
 10
-32.16732724820564
 20
-65.69446913633871
 30
0.0
 10
-31.7203138467366
 20
-64.67382308252441
 30
0.0
 10
-31.44387659439323
 20
-64.15890969736508
 30
0.0
 10
-30.81930324422842
 20
-63.18951991377485
 30
0.0
 10
-30.47081935661648
 20
-62.73550090934627
 30
0.0
 10
-29.75457479454615
 20
-61.94766947257402
 30
0.0
 10
-29.38735608626265
 20
-61.61175004525695
 30
0.0
 10
-28.69796651440478
 20
-61.08945564605487
 30
0.0
 10
-28.37468317856404
 20
-60.89753976402388
 30
0.0
 10
-27.8275636823327
 20
-60.64696202851806
 30
0.0
 10
-27.60104843157217
 20
-60.58312908179431
 30
0.0
 10
-27.26476433400993
 20
-60.53022274547514
 30
0.0
 10
-27.1657228965709
 20
-60.54289839688468
 30
0.0
 10
-27.08953882062591
 20
-60.56009538937731
 30
0.0
 10
-27.0814621311464
 20
-60.56502472769142
 30
0.0
 10
-27.07405766587702
 20
-60.56929969770791
 30
0.0
  0
SPLINE
  5
885
330
859
100
AcDbEntity
  8
0
100
AcDbSpline
210
0.0
220
0.0
230
1.0
 70
     8
 71
     3
 72
    30
 73
    26
 74
     0
 42
0.000000001
 43
0.0000000001
 40
2.356194490192344
 40
2.356194490192344
 40
2.356194490192344
 40
2.356194490192344
 40
2.670353755551324
 40
2.670353755551324
 40
2.97164101069275
 40
2.97164101069275
 40
3.216656691770962
 40
3.216656691770962
 40
3.470260289124841
 40
3.470260289124841
 40
3.736635563277971
 40
3.736635563277971
 40
4.011304785583482
 40
4.011304785583482
 40
4.287389518885
 40
4.287389518885
 40
4.557522071061921
 40
4.557522071061921
 40
4.815388296837168
 40
4.815388296837168
 40
5.061261598013408
 40
5.061261598013408
 40
5.320079977316968
 40
5.320079977316968
 40
5.497787143782137
 40
5.497787143782137
 40
5.497787143782137
 40
5.497787143782137
 10
-32.32405766587702
 20
-45.16766900961275
 30
0.0
 10
-32.33714763526697
 20
-45.16011151226179
 30
0.0
 10
-32.36410815881978
 20
-45.15155370599959
 30
0.0
 10
-32.49448097000801
 20
-44.93137004574798
 30
0.0
 10
-32.581360791185
 20
-44.72354067102237
 30
0.0
 10
-32.67422732851314
 20
-44.15228166011335
 30
0.0
 10
-32.69187201972493
 20
-43.828650074608
 30
0.0
 10
-32.64454060448985
 20
-43.07459815822918
 30
0.0
 10
-32.57700997490963
 20
-42.64140933495411
 30
0.0
 10
-32.3407426435874
 20
-41.70503397919556
 30
0.0
 10
-32.16732724820564
 20
-41.19957170850693
 30
0.0
 10
-31.7203138467366
 20
-40.17892565469262
 30
0.0
 10
-31.44387659439323
 20
-39.66401226953329
 30
0.0
 10
-30.81930324422842
 20
-38.69462248594306
 30
0.0
 10
-30.47081935661648
 20
-38.24060348151448
 30
0.0
 10
-29.75457479454615
 20
-37.45277204474227
 30
0.0
 10
-29.38735608626265
 20
-37.11685261742517
 30
0.0
 10
-28.69796651440478
 20
-36.59455821822309
 30
0.0
 10
-28.37468317856404
 20
-36.40264233619209
 30
0.0
 10
-27.8275636823327
 20
-36.15206460068627
 30
0.0
 10
-27.60104843157217
 20
-36.08823165396252
 30
0.0
 10
-27.26476433400993
 20
-36.03532531764336
 30
0.0
 10
-27.1657228965709
 20
-36.0480009690529
 30
0.0
 10
-27.08953882062591
 20
-36.06519796154552
 30
0.0
 10
-27.0814621311464
 20
-36.07012729985968
 30
0.0
 10
-27.07405766587702
 20
-36.07440226987615
 30
0.0
  0
SPLINE
  5
886
330
859
100
AcDbEntity
  8
0
100
AcDbSpline
210
0.0
220
0.0
230
1.0
 70
     8
 71
     3
 72
    30
 73
    26
 74
     0
 42
0.000000001
 43
0.0000000001
 40
2.356194490192344
 40
2.356194490192344
 40
2.356194490192344
 40
2.356194490192344
 40
2.670353755551324
 40
2.670353755551324
 40
2.97164101069275
 40
2.97164101069275
 40
3.216656691770962
 40
3.216656691770962
 40
3.470260289124841
 40
3.470260289124841
 40
3.736635563277971
 40
3.736635563277971
 40
4.011304785583482
 40
4.011304785583482
 40
4.287389518885
 40
4.287389518885
 40
4.557522071061921
 40
4.557522071061921
 40
4.815388296837168
 40
4.815388296837168
 40
5.061261598013408
 40
5.061261598013408
 40
5.320079977316968
 40
5.320079977316968
 40
5.497787143782137
 40
5.497787143782137
 40
5.497787143782137
 40
5.497787143782137
 10
-32.32405766587702
 20
-20.67277158178097
 30
0.0
 10
-32.33714763526697
 20
-20.66521408443
 30
0.0
 10
-32.36410815881978
 20
-20.65665627816781
 30
0.0
 10
-32.49448097000801
 20
-20.43647261791619
 30
0.0
 10
-32.581360791185
 20
-20.22864324319061
 30
0.0
 10
-32.67422732851314
 20
-19.65738423228156
 30
0.0
 10
-32.69187201972493
 20
-19.33375264677622
 30
0.0
 10
-32.64454060448985
 20
-18.57970073039741
 30
0.0
 10
-32.57700997490963
 20
-18.14651190712233
 30
0.0
 10
-32.3407426435874
 20
-17.21013655136378
 30
0.0
 10
-32.16732724820564
 20
-16.70467428067516
 30
0.0
 10
-31.7203138467366
 20
-15.68402822686085
 30
0.0
 10
-31.44387659439323
 20
-15.16911484170151
 30
0.0
 10
-30.81930324422842
 20
-14.19972505811131
 30
0.0
 10
-30.47081935661648
 20
-13.74570605368273
 30
0.0
 10
-29.75457479454615
 20
-12.95787461691048
 30
0.0
 10
-29.38735608626265
 20
-12.62195518959339
 30
0.0
 10
-28.69796651440478
 20
-12.0996607903913
 30
0.0
 10
-28.37468317856404
 20
-11.9077449083603
 30
0.0
 10
-27.8275636823327
 20
-11.65716717285448
 30
0.0
 10
-27.60104843157217
 20
-11.59333422613077
 30
0.0
 10
-27.26476433400993
 20
-11.54042788981156
 30
0.0
 10
-27.1657228965709
 20
-11.55310354122111
 30
0.0
 10
-27.08953882062591
 20
-11.57030053371373
 30
0.0
 10
-27.0814621311464
 20
-11.57522987202789
 30
0.0
 10
-27.07405766587702
 20
-11.57950484204436
 30
0.0
  0
SPLINE
  5
887
330
859
100
AcDbEntity
  8
0
100
AcDbSpline
210
0.0
220
0.0
230
1.0
 70
     8
 71
     3
 72
    30
 73
    26
 74
     0
 42
0.000000001
 43
0.0000000001
 40
2.356194490192344
 40
2.356194490192344
 40
2.356194490192344
 40
2.356194490192344
 40
2.670353755551324
 40
2.670353755551324
 40
2.97164101069275
 40
2.97164101069275
 40
3.216656691770962
 40
3.216656691770962
 40
3.470260289124841
 40
3.470260289124841
 40
3.736635563277971
 40
3.736635563277971
 40
4.011304785583482
 40
4.011304785583482
 40
4.287389518885
 40
4.287389518885
 40
4.557522071061921
 40
4.557522071061921
 40
4.815388296837168
 40
4.815388296837168
 40
5.061261598013408
 40
5.061261598013408
 40
5.320079977316968
 40
5.320079977316968
 40
5.497787143782137
 40
5.497787143782137
 40
5.497787143782137
 40
5.497787143782137
 10
-32.32405766587702
 20
3.822125846050816
 30
0.0
 10
-32.33714763526697
 20
3.829683343401768
 30
0.0
 10
-32.36410815881978
 20
3.838241149663979
 30
0.0
 10
-32.49448097000801
 20
4.058424809915592
 30
0.0
 10
-32.581360791185
 20
4.266254184641162
 30
0.0
 10
-32.67422732851314
 20
4.837513195550204
 30
0.0
 10
-32.69187201972493
 20
5.161144781055551
 30
0.0
 10
-32.64454060448985
 20
5.915196697434375
 30
0.0
 10
-32.57700997490963
 20
6.348385520709456
 30
0.0
 10
-32.3407426435874
 20
7.284760876468006
 30
0.0
 10
-32.16732724820564
 20
7.790223147156618
 30
0.0
 10
-31.7203138467366
 20
8.810869200970934
 30
0.0
 10
-31.44387659439323
 20
9.325782586130264
 30
0.0
 10
-30.81930324422842
 20
10.29517236972047
 30
0.0
 10
-30.47081935661648
 20
10.74919137414906
 30
0.0
 10
-29.75457479454615
 20
11.5370228109213
 30
0.0
 10
-29.38735608626265
 20
11.87294223823837
 30
0.0
 10
-28.69796651440478
 20
12.39523663744046
 30
0.0
 10
-28.37468317856404
 20
12.58715251947148
 30
0.0
 10
-27.8275636823327
 20
12.83773025497728
 30
0.0
 10
-27.60104843157217
 20
12.90156320170101
 30
0.0
 10
-27.26476433400993
 20
12.95446953802021
 30
0.0
 10
-27.1657228965709
 20
12.94179388661067
 30
0.0
 10
-27.08953882062591
 20
12.92459689411804
 30
0.0
 10
-27.0814621311464
 20
12.91966755580389
 30
0.0
 10
-27.07405766587702
 20
12.91539258578741
 30
0.0
  0
SPLINE
  5
888
330
859
100
AcDbEntity
  8
0
100
AcDbSpline
210
0.0
220
0.0
230
1.0
 70
     8
 71
     3
 72
    16
 73
    12
 74
     0
 42
0.000000001
 43
0.0000000001
 40
3.926990816987241
 40
3.926990816987241
 40
3.926990816987241
 40
3.926990816987241
 40
4.084070449666731
 40
4.084070449666731
 40
4.24115008234622
 40
4.24115008234622
 40
4.39822971502571
 40
4.39822971502571
 40
4.5553093477052
 40
4.5553093477052
 40
4.712388980384689
 40
4.712388980384689
 40
4.712388980384689
 40
4.712388980384689
 10
17.51557430470668
 20
58.22188433536187
 30
0.0
 10
17.75119375372592
 20
58.08584938304431
 30
0.0
 10
18.0054112272737
 20
57.98303914358783
 30
0.0
 10
18.51349003362971
 20
57.85013142897016
 30
0.0
 10
18.76670937650912
 20
57.81950822439798
 30
0.0
 10
19.2463880680549
 20
57.81423221848648
 30
0.0
 10
19.47302345196223
 20
57.83903376071265
 30
0.0
 10
19.89338344006807
 20
57.92401597265179
 30
0.0
 10
20.08743916850915
 20
57.98408161752874
 30
0.0
 10
20.4465951606997
 20
58.1257556085535
 30
0.0
 10
20.61186349755503
 20
58.20743259376058
 30
0.0
 10
20.76557430470669
 20
58.29617756964694
 30
0.0
  0
LINE
  5
889
330
859
100
AcDbEntity
  8
0
100
AcDbLine
 10
39.76162045277769
 20
68.66568414742906
 30
0.0
 11
42.76682427282056
 21
66.93062891295761
 31
0.0
  0
SPLINE
  5
88A
330
859
100
AcDbEntity
  8
0
100
AcDbSpline
210
0.0
220
0.0
230
1.0
 70
     8
 71
     3
 72
    16
 73
    12
 74
     0
 42
0.000000001
 43
0.0000000001
 40
4.71238898038469
 40
4.71238898038469
 40
4.71238898038469
 40
4.71238898038469
 40
4.86946861306418
 40
4.86946861306418
 40
5.026548245743669
 40
5.026548245743669
 40
5.183627878423159
 40
5.183627878423159
 40
5.340707511102649
 40
5.340707511102649
 40
5.497787143782137
 40
5.497787143782137
 40
5.497787143782137
 40
5.497787143782137
 10
42.76682427282056
 20
66.9306289129576
 30
0.0
 10
42.92053507997223
 20
66.84188393707123
 30
0.0
 10
43.08580341682755
 20
66.76020695186415
 30
0.0
 10
43.4449594090181
 20
66.61853296083939
 30
0.0
 10
43.63901513745917
 20
66.55846731596245
 30
0.0
 10
44.05937512556501
 20
66.4734851040233
 30
0.0
 10
44.28601050947235
 20
66.44868356179715
 30
0.0
 10
44.76568920101811
 20
66.45395956770864
 30
0.0
 10
45.01890854389754
 20
66.48458277228082
 30
0.0
 10
45.52698735025353
 20
66.6174904868985
 30
0.0
 10
45.78120482380132
 20
66.72030072635497
 30
0.0
 10
46.01682427282056
 20
66.85633567867253
 30
0.0
  0
SPLINE
  5
88B
330
859
100
AcDbEntity
  8
0
100
AcDbSpline
210
0.0
220
0.0
230
1.0
 70
     8
 71
     3
 72
    22
 73
    18
 74
     0
 42
0.000000001
 43
0.0000000001
 40
3.926990816987239
 40
3.926990816987239
 40
3.926990816987239
 40
3.926990816987239
 40
4.116805541467796
 40
4.116805541467796
 40
4.320284866581095
 40
4.320284866581095
 40
4.566908685584335
 40
4.566908685584335
 40
4.894382107703334
 40
4.894382107703334
 40
5.316631577384133
 40
5.316631577384133
 40
5.766190867036893
 40
5.766190867036893
 40
6.215036425183772
 40
6.215036425183772
 40
6.283185307179586
 40
6.283185307179586
 40
6.283185307179586
 40
6.283185307179586
 10
-9.248417363204151
 20
-49.4944271035284
 30
0.0
 10
-8.963695276483312
 20
-49.65881147694091
 30
0.0
 10
-8.651971409836507
 20
-49.77392428081181
 30
0.0
 10
-8.0177345706179
 20
-49.90404344946277
 30
0.0
 10
-7.69768344836903
 20
-49.91295283994185
 30
0.0
 10
-7.050946001190618
 20
-49.84836813190089
 30
0.0
 10
-6.736080343160324
 20
-49.75925976992311
 30
0.0
 10
-6.087419769311548
 20
-49.49449672333145
 30
0.0
 10
-5.778187569542359
 20
-49.3001478183703
 30
0.0
 10
-5.157060612647326
 20
-48.80955123709224
 30
0.0
 10
-4.86922438175517
 20
-48.49782912796055
 30
0.0
 10
-4.363350464467217
 20
-47.80248710182934
 30
0.0
 10
-4.1518688573223
 20
-47.41512156752576
 30
0.0
 10
-3.832518724431075
 20
-46.58219005439068
 30
0.0
 10
-3.722408835219468
 20
-46.13732001682691
 30
0.0
 10
-3.690024436356456
 20
-45.57075805269622
 30
0.0
 10
-3.687757191424321
 20
-45.49495693647322
 30
0.0
 10
-3.687757191424321
 20
-45.41795305269483
 30
0.0
  0
LINE
  5
88C
330
859
100
AcDbEntity
  8
0
100
AcDbLine
 10
-3.687757191424338
 20
-45.41795305269484
 30
0.0
 11
-3.687757191424338
 21
36.23170504007774
 31
0.0
  0
SPLINE
  5
88D
330
859
100
AcDbEntity
  8
0
100
AcDbSpline
210
0.0
220
0.0
230
1.0
 70
     8
 71
     3
 72
    16
 73
    12
 74
     0
 42
0.000000001
 43
0.0000000001
 40
0.0000000000000027
 40
0.0000000000000027
 40
0.0000000000000027
 40
0.0000000000000027
 40
0.1570796326794917
 40
0.1570796326794917
 40
0.3141592653589806
 40
0.3141592653589806
 40
0.4712388980384697
 40
0.4712388980384697
 40
0.6283185307179587
 40
0.6283185307179587
 40
0.7853981633974475
 40
0.7853981633974475
 40
0.7853981633974475
 40
0.7853981633974475
 10
-3.687757191424321
 20
36.23170504007777
 30
0.0
 10
-3.68775719142433
 20
36.40919499185049
 30
0.0
 10
-3.69965701575813
 20
36.59316006261196
 30
0.0
 10
-3.756541736570433
 20
36.97503527128276
 30
0.0
 10
-3.801551226432859
 20
37.1731252843011
 30
0.0
 10
-3.938134466076661
 20
37.57965881870485
 30
0.0
 10
-4.029973392409447
 20
37.78833158967811
 30
0.0
 10
-4.274381893332215
 20
38.20110751925508
 30
0.0
 10
-4.427512037876715
 20
38.40509030063217
 30
0.0
 10
-4.796652898272553
 20
38.7786455967521
 30
0.0
 10
-5.012797914184909
 20
38.94739926720215
 30
0.0
 10
-5.248417363204138
 20
39.08343421951972
 30
0.0
  0
LINE
  5
88E
330
859
100
AcDbEntity
  8
0
100
AcDbLine
 10
39.24385349981133
 20
72.25961667351367
 30
0.0
 11
39.24385349981133
 21
69.81012693073049
 31
0.0
  0
LINE
  5
88F
330
859
100
AcDbEntity
  8
0
100
AcDbLine
 10
56.74474633417836
 20
72.76992703659347
 30
0.0
 11
59.57317345892455
 21
67.87094755102711
 31
0.0
  0
LINE
  5
890
330
859
100
AcDbEntity
  8
0
100
AcDbLine
 10
59.57317345892455
 20
67.87094755102711
 30
0.0
 11
61.34094041189091
 21
68.89156827718678
 31
0.0
  0
LINE
  5
891
330
859
100
AcDbEntity
  8
0
100
AcDbLine
 10
61.34094041189091
 20
68.89156827718678
 30
0.0
 11
58.51251328714472
 21
73.79054776275312
 31
0.0
  0
LINE
  5
892
330
859
100
AcDbEntity
  8
0
100
AcDbLine
 10
58.51251328714472
 20
73.79054776275312
 30
0.0
 11
56.74474633417836
 21
72.76992703659347
 31
0.0
  0
LINE
  5
893
330
859
100
AcDbEntity
  8
0
100
AcDbLine
 10
59.57317345892454
 20
-5.613744732468219
 30
0.0
 11
56.74474633417834
 21
-7.246737894323658
 31
0.0
  0
LINE
  5
894
330
859
100
AcDbEntity
  8
0
100
AcDbLine
 10
61.3409404118909
 20
-4.59312400630857
 30
0.0
 11
59.57317345892454
 21
-5.613744732468219
 31
0.0
  0
LINE
  5
895
330
859
100
AcDbEntity
  8
0
100
AcDbLine
 10
61.34094041189102
 20
-42.31526604516936
 30
0.0
 11
58.70037621045419
 21
-36.35432444687519
 31
0.0
  0
LINE
  5
896
330
859
100
AcDbEntity
  8
0
100
AcDbLine
 10
58.70037621045419
 20
-36.35432444687519
 30
0.0
 11
56.93260925748782
 21
-37.37494517303485
 31
0.0
  0
LINE
  5
897
330
859
100
AcDbEntity
  8
0
100
AcDbLine
 10
56.93260925748782
 20
-37.37494517303485
 30
0.0
 11
59.57317345892466
 21
-43.33588677132903
 31
0.0
  0
LINE
  5
898
330
859
100
AcDbEntity
  8
0
100
AcDbLine
 10
59.57317345892466
 20
-43.33588677132903
 30
0.0
 11
61.34094041189102
 21
-42.31526604516936
 31
0.0
  0
LINE
  5
899
330
859
100
AcDbEntity
  8
0
100
AcDbLine
 10
61.34094041189102
 20
-47.05094621455021
 30
0.0
 11
59.57317345892466
 21
-48.07156694070986
 31
0.0
  0
LINE
  5
89A
330
859
100
AcDbEntity
  8
0
100
AcDbLine
 10
59.57317345892466
 20
-48.07156694070986
 30
0.0
 11
56.74474633417844
 21
-49.70456010256532
 31
0.0
  0
LINE
  5
89B
330
859
100
AcDbEntity
  8
0
100
AcDbLine
 10
-39.24499921189543
 20
34.29252566037441
 30
0.0
 11
-36.41657208714923
 21
39.19150514594077
 31
0.0
  0
LINE
  5
89C
330
859
100
AcDbEntity
  8
0
100
AcDbLine
 10
-36.41657208714923
 20
39.19150514594077
 30
0.0
 11
-38.18433904011559
 21
40.21212587210043
 31
0.0
  0
LINE
  5
89D
330
859
100
AcDbEntity
  8
0
100
AcDbLine
 10
-38.18433904011559
 20
40.21212587210043
 30
0.0
 11
-41.0127661648618
 21
35.31314638653407
 31
0.0
  0
LINE
  5
89E
330
859
100
AcDbEntity
  8
0
100
AcDbLine
 10
-41.0127661648618
 20
35.31314638653407
 30
0.0
 11
-39.24499921189543
 21
34.29252566037441
 31
0.0
  0
LINE
  5
89F
330
859
100
AcDbEntity
  8
0
100
AcDbLine
 10
-36.41657208714923
 20
-83.28298199321814
 30
0.0
 11
-39.24499921189543
 21
-81.64998883136266
 31
0.0
  0
LINE
  5
8A0
330
859
100
AcDbEntity
  8
0
100
AcDbLine
 10
-39.24499921189543
 20
-81.64998883136266
 30
0.0
 11
-41.0127661648618
 21
-80.62936810520302
 31
0.0
  0
LINE
  5
8A1
330
859
100
AcDbEntity
  8
0
100
AcDbLine
 10
58.51251328714472
 20
73.79054776275312
 30
0.0
 11
42.77938740574406
 21
82.87407222557408
 31
0.0
  0
LINE
  5
8A2
330
859
100
AcDbEntity
  8
0
100
AcDbLine
 10
41.0116204527777
 20
81.85345149941442
 30
0.0
 11
56.74474633417836
 21
72.76992703659347
 31
0.0
  0
ELLIPSE
  5
8A3
330
859
100
AcDbEntity
  8
0
100
AcDbEllipse
 10
56.0376395529918
 20
69.09569242241871
 30
0.0
 11
1.250000000000125
 21
-2.165063509461023
 31
0.0
210
0.0
220
0.0
230
1.0
 40
0.5773502691896253
 41
3.926990816987
 42
5.497787143781896
  0
ELLIPSE
  5
8A4
330
859
100
AcDbEntity
  8
0
100
AcDbEllipse
 10
48.96657174112633
 20
65.01320951778009
 30
0.0
 11
1.250000000000125
 21
-2.165063509461023
 31
0.0
210
0.0
220
0.0
230
1.0
 40
0.5773502691896253
 41
3.926990816987
 42
5.497787143781896
  0
ELLIPSE
  5
8A5
330
859
100
AcDbEntity
  8
0
100
AcDbEllipse
 10
56.0376395529918
 20
52.76576080386418
 30
0.0
 11
1.250000000000125
 21
-2.165063509461023
 31
0.0
210
0.0
220
0.0
230
1.0
 40
0.5773502691896253
 41
3.926990816987
 42
5.497787143781896
  0
ELLIPSE
  5
8A6
330
859
100
AcDbEntity
  8
0
100
AcDbEllipse
 10
48.96657174112633
 20
48.68327789922554
 30
0.0
 11
1.250000000000125
 21
-2.165063509461023
 31
0.0
210
0.0
220
0.0
230
1.0
 40
0.5773502691896253
 41
3.926990816987
 42
5.497787143781896
  0
ELLIPSE
  5
8A7
330
859
100
AcDbEntity
  8
0
100
AcDbEllipse
 10
31.28890221146265
 20
58.68536101559022
 30
0.0
 11
1.249999999999996
 21
-2.165063509461098
 31
0.0
210
0.0
220
0.0
230
1.0
 40
0.5773502691896252
 41
5.009488633178055
 42
5.497787143782139
  0
ELLIPSE
  5
8A8
330
859
100
AcDbEntity
  8
0
100
AcDbEllipse
 10
24.21783439959719
 20
52.76576080386419
 30
0.0
 11
1.249999999999996
 21
-2.165063509461098
 31
0.0
210
0.0
220
0.0
230
1.0
 40
0.5773502691896252
 41
5.105012267981261
 42
5.497787143782138
  0
ELLIPSE
  5
8A9
330
859
100
AcDbEntity
  8
0
100
AcDbEllipse
 10
31.28890221146265
 20
38.68119478286093
 30
0.0
 11
1.250000000000125
 21
-2.165063509461023
 31
0.0
210
0.0
220
0.0
230
1.0
 40
0.5773502691896253
 41
3.926990816987
 42
5.497787143781896
  0
ELLIPSE
  5
8AA
330
859
100
AcDbEntity
  8
0
100
AcDbEllipse
 10
56.03763955299182
 20
17.65640782397195
 30
0.0
 11
1.250000000000125
 21
-2.165063509461023
 31
0.0
210
0.0
220
0.0
230
1.0
 40
0.5773502691896253
 41
3.926990816987
 42
5.497787143781896
  0
ELLIPSE
  5
8AB
330
859
100
AcDbEntity
  8
0
100
AcDbEllipse
 10
48.96657174112634
 20
13.57392491933331
 30
0.0
 11
1.250000000000125
 21
-2.165063509461023
 31
0.0
210
0.0
220
0.0
230
1.0
 40
0.5773502691896253
 41
3.926990816987
 42
5.497787143781896
  0
ELLIPSE
  5
8AC
330
859
100
AcDbEntity
  8
0
100
AcDbEllipse
 10
56.03763955299182
 20
1.326476205417428
 30
0.0
 11
1.250000000000125
 21
-2.165063509461023
 31
0.0
210
0.0
220
0.0
230
1.0
 40
0.5773502691896253
 41
3.926990816986998
 42
5.497787143781896
  0
ELLIPSE
  5
8AD
330
859
100
AcDbEntity
  8
0
100
AcDbEllipse
 10
40.12773697629452
 20
46.02966401121043
 30
0.0
 11
-2.749999999999993
 21
4.763139720814416
 31
0.0
210
0.0
220
0.0
230
1.0
 40
0.5773502691896252
 41
0.3272204132950679
 42
0.7853981633974502
  0
LINE
  5
8AE
330
859
100
AcDbEntity
  8
0
100
AcDbLine
 10
36.23864967976851
 20
48.27502960876168
 30
0.0
 11
36.23864967976851
 21
43.37605012319534
 31
0.0
  0
ELLIPSE
  5
8AF
330
859
100
AcDbEntity
  8
0
100
AcDbEllipse
 10
40.12773697629452
 20
41.13068452564408
 30
0.0
 11
2.750000000000277
 21
-4.763139720814255
 31
0.0
210
0.0
220
0.0
230
1.0
 40
0.577350269189625
 41
3.926990816987002
 42
5.497787143781899
  0
ELLIPSE
  5
8B0
330
859
100
AcDbEntity
  8
0
100
AcDbEllipse
 10
40.12773697629452
 20
4.388338383896428
 30
0.0
 11
19.7499999999979
 21
-34.20800344948653
 31
0.0
210
0.0
220
0.0
230
1.0
 40
0.5773502691896252
 41
2.051501836177109
 42
2.356194490192587
  0
ELLIPSE
  5
8B1
330
859
100
AcDbEntity
  8
0
100
AcDbEllipse
 10
49.6736785223129
 20
33.92695079927804
 30
0.0
 11
2.749999999999992
 21
-4.763139720814415
 31
0.0
210
0.0
220
0.0
230
0.9999999999999998
 40
0.5773502691896252
 41
5.193094489766739
 42
5.95596489388452
  0
LINE
  5
8B2
330
859
100
AcDbEntity
  8
0
100
AcDbLine
 10
61.3409404118909
 20
-4.59312400630857
 30
0.0
 11
61.34094041189091
 21
68.89156827718676
 31
0.0
  0
LINE
  5
8B3
330
859
100
AcDbEntity
  8
0
100
AcDbLine
 10
42.34098120140841
 20
58.63228873782986
 30
0.0
 11
37.47608654684497
 21
61.44103697622124
 31
0.0
  0
LINE
  5
8B4
330
859
100
AcDbEntity
  8
0
100
AcDbLine
 10
56.74474633417834
 20
-7.246737894323658
 30
0.0
 11
41.01162045277768
 21
1.836786568497306
 31
0.0
  0
ELLIPSE
  5
8B5
330
859
100
AcDbEntity
  8
0
100
AcDbEllipse
 10
40.57321424844203
 20
59.65290946398951
 30
0.0
 11
1.249999999999996
 21
-2.165063509461098
 31
0.0
210
0.0
220
0.0
230
1.0
 40
0.5773502691896252
 41
5.497787143782138
 42
8.388764584284221
  0
LINE
  5
8B6
330
859
100
AcDbEntity
  8
0
100
AcDbLine
 10
35.7083195938786
 20
60.42041625006159
 30
0.0
 11
40.57321424844203
 21
57.6116680116702
 31
0.0
  0
ELLIPSE
  5
8B7
330
859
100
AcDbEntity
  8
0
100
AcDbEllipse
 10
32.08793287420348
 20
46.18071587868207
 30
0.0
 11
-9.999999999998941
 21
17.32050807568939
 31
0.0
210
0.0
220
0.0
230
0.9999999999999998
 40
0.5773502691896251
 41
1.267498694982226
 42
2.356194490192585
  0
LINE
  5
8B8
330
859
100
AcDbEntity
  8
0
100
AcDbLine
 10
40.57321424844204
 20
24.95180477456117
 30
0.0
 11
32.0879328742035
 21
29.85078426012753
 31
0.0
  0
ELLIPSE
  5
8B9
330
859
100
AcDbEntity
  8
0
100
AcDbEllipse
 10
40.57321424844204
 20
22.91056332224184
 30
0.0
 11
1.249999999999996
 21
-2.165063509461098
 31
0.0
210
0.0
220
0.0
230
1.0
 40
0.5773502691896253
 41
5.748402356869846
 42
8.639379797371933
  0
LINE
  5
8BA
330
859
100
AcDbEntity
  8
0
100
AcDbLine
 10
59.57317345892455
 20
67.87094755102711
 30
0.0
 11
59.57317345892454
 21
-5.613744732468219
 31
0.0
  0
ELLIPSE
  5
8BB
330
859
100
AcDbEntity
  8
0
100
AcDbEllipse
 10
38.35997002332815
 20
45.00904328505078
 30
0.0
 11
-2.749999999999993
 21
4.763139720814418
 31
0.0
210
0.0
220
0.0
230
1.0
 40
0.5773502691896251
 41
3.926990816987243
 42
7.068583470577034
  0
LINE
  5
8BC
330
859
100
AcDbEntity
  8
0
100
AcDbLine
 10
42.24905731985415
 20
42.76367768749953
 30
0.0
 11
42.24905731985415
 21
42.11015512402392
 31
0.0
  0
ELLIPSE
  5
8BD
330
859
100
AcDbEntity
  8
0
100
AcDbEllipse
 10
38.35997002332815
 20
3.367717657736761
 30
0.0
 11
25.24999999999733
 21
-43.73428289111569
 31
0.0
210
0.0
220
0.0
230
1.0
 40
0.5773502691896252
 41
2.051501836177081
 42
2.247067132416468
  0
ELLIPSE
  5
8BE
330
859
100
AcDbEntity
  8
0
100
AcDbEllipse
 10
47.90591156934652
 20
32.90633007311838
 30
0.0
 11
2.749999999999708
 21
-4.763139720814581
 31
0.0
210
0.0
220
0.0
230
1.0
 40
0.5773502691896251
 41
5.193094489766822
 42
8.334687143356617
  0
ELLIPSE
  5
8BF
330
859
100
AcDbEntity
  8
0
100
AcDbEllipse
 10
38.35997002332815
 20
3.367717657736761
 30
0.0
 11
-19.74999999999995
 21
34.20800344948535
 31
0.0
210
0.0
220
0.0
230
0.9999999999999998
 40
0.5773502691896252
 41
5.193094489766741
 42
5.497787143782138
  0
ELLIPSE
  5
8C0
330
859
100
AcDbEntity
  8
0
100
AcDbEllipse
 10
38.35997002332815
 20
40.11006379948442
 30
0.0
 11
-2.749999999999708
 21
4.763139720814582
 31
0.0
210
0.0
220
0.0
230
1.0
 40
0.5773502691896251
 41
0.7853981633976899
 42
2.356194490192589
  0
LINE
  5
8C1
330
859
100
AcDbEntity
  8
0
100
AcDbLine
 10
34.47088272680215
 20
42.35542939703567
 30
0.0
 11
34.47088272680215
 21
47.25440888260203
 31
0.0
  0
ELLIPSE
  5
8C2
330
859
100
AcDbEntity
  8
0
100
AcDbEllipse
 10
54.26987260002544
 20
0.3058554792577794
 30
0.0
 11
1.249999999999996
 21
-2.165063509461098
 31
0.0
210
0.0
220
0.0
230
1.0
 40
0.5773502691896252
 41
0.0
 42
6.283185307179586
  0
ELLIPSE
  5
8C3
330
859
100
AcDbEntity
  8
0
100
AcDbEllipse
 10
47.19880478815998
 20
12.55330419317365
 30
0.0
 11
1.249999999999996
 21
-2.165063509461098
 31
0.0
210
0.0
220
0.0
230
1.0
 40
0.5773502691896252
 41
0.0
 42
6.283185307179586
  0
ELLIPSE
  5
8C4
330
859
100
AcDbEntity
  8
0
100
AcDbEllipse
 10
54.26987260002544
 20
16.6357870978123
 30
0.0
 11
1.249999999999996
 21
-2.165063509461098
 31
0.0
210
0.0
220
0.0
230
1.0
 40
0.5773502691896252
 41
0.0
 42
6.283185307179586
  0
ELLIPSE
  5
8C5
330
859
100
AcDbEntity
  8
0
100
AcDbEllipse
 10
29.52113525849629
 20
37.66057405670127
 30
0.0
 11
1.249999999999996
 21
-2.165063509461098
 31
0.0
210
0.0
220
0.0
230
1.0
 40
0.5773502691896252
 41
0.0
 42
6.283185307179586
  0
ELLIPSE
  5
8C6
330
859
100
AcDbEntity
  8
0
100
AcDbEllipse
 10
22.45006744663082
 20
51.74514007770454
 30
0.0
 11
1.249999999999996
 21
-2.165063509461098
 31
0.0
210
0.0
220
0.0
230
1.0
 40
0.5773502691896251
 41
5.420872521458218
 42
7.556830512676213
  0
ELLIPSE
  5
8C7
330
859
100
AcDbEntity
  8
0
100
AcDbEllipse
 10
29.52113525849629
 20
57.66474028943057
 30
0.0
 11
1.249999999999996
 21
-2.165063509461098
 31
0.0
210
0.0
220
0.0
230
1.0
 40
0.5773502691896252
 41
5.07983003176028
 42
7.56601465931605
  0
ELLIPSE
  5
8C8
330
859
100
AcDbEntity
  8
0
100
AcDbEllipse
 10
47.19880478815997
 20
47.66265717306589
 30
0.0
 11
1.249999999999996
 21
-2.165063509461098
 31
0.0
210
0.0
220
0.0
230
1.0
 40
0.5773502691896252
 41
0.0
 42
6.283185307179586
  0
ELLIPSE
  5
8C9
330
859
100
AcDbEntity
  8
0
100
AcDbEllipse
 10
54.26987260002544
 20
51.74514007770453
 30
0.0
 11
1.249999999999996
 21
-2.165063509461098
 31
0.0
210
0.0
220
0.0
230
1.0
 40
0.5773502691896252
 41
0.0
 42
6.283185307179586
  0
ELLIPSE
  5
8CA
330
859
100
AcDbEntity
  8
0
100
AcDbEllipse
 10
47.19880478815997
 20
63.99258879162042
 30
0.0
 11
1.249999999999996
 21
-2.165063509461098
 31
0.0
210
0.0
220
0.0
230
1.0
 40
0.5773502691896252
 41
0.0
 42
6.283185307179586
  0
ELLIPSE
  5
8CB
330
859
100
AcDbEntity
  8
0
100
AcDbEllipse
 10
54.26987260002544
 20
68.07507169625904
 30
0.0
 11
1.249999999999996
 21
-2.165063509461098
 31
0.0
210
0.0
220
0.0
230
1.0
 40
0.5773502691896252
 41
0.0
 42
6.283185307179586
  0
ELLIPSE
  5
8CC
330
859
100
AcDbEntity
  8
0
100
AcDbEllipse
 10
38.85494477015869
 20
-13.91364574795981
 30
0.0
 11
-1.249999999999881
 21
2.165063509461164
 31
0.0
210
0.0
220
0.0
230
1.0
 40
0.5773502691896292
 41
1.935642689616486
 42
1.989675347273591
  0
LINE
  5
8CD
330
859
100
AcDbEntity
  8
0
100
AcDbLine
 10
58.70037621045419
 20
-36.35432444687519
 30
0.0
 11
38.22143375195019
 21
-15.45355105670259
 31
0.0
  0
LINE
  5
8CE
330
859
100
AcDbEntity
  8
0
100
AcDbLine
 10
61.34094041189102
 20
-47.05094621455021
 30
0.0
 11
61.34094041189102
 21
-42.31526604516936
 31
0.0
  0
ELLIPSE
  5
8CF
330
859
100
AcDbEntity
  8
0
100
AcDbEllipse
 10
31.28890221146256
 20
-18.67769002731179
 30
0.0
 11
2.875000000000024
 21
-4.97964607176051
 31
0.0
210
0.0
220
0.0
230
1.0
 40
0.5773502691896293
 41
5.349694603266234
 42
5.970686130693668
  0
ELLIPSE
  5
8D0
330
859
100
AcDbEntity
  8
0
100
AcDbEllipse
 10
56.03763955299187
 20
-41.13134600282421
 30
0.0
 11
1.250000000000139
 21
-2.165063509461015
 31
0.0
210
0.0
220
0.0
230
1.0
 40
0.5773502691896293
 41
3.926990816986998
 42
5.497787143781907
  0
ELLIPSE
  5
8D1
330
859
100
AcDbEntity
  8
0
100
AcDbEllipse
 10
45.43103783519359
 20
-30.43524079267103
 30
0.0
 11
1.250000000000139
 21
-2.165063509461015
 31
0.0
210
0.0
220
0.0
230
1.0
 40
0.5773502691896293
 41
3.926990816986997
 42
5.497787143781912
  0
LINE
  5
8D2
330
859
100
AcDbEntity
  8
0
100
AcDbLine
 10
37.89166181314217
 20
-15.64394497434458
 30
0.0
 11
38.22143375195019
 21
-15.45355105670259
 31
0.0
  0
LINE
  5
8D3
330
859
100
AcDbEntity
  8
0
100
AcDbLine
 10
36.75603116014074
 20
-16.78276432891829
 30
0.0
 11
56.93260925748782
 21
-37.37494517303485
 31
0.0
  0
LINE
  5
8D4
330
859
100
AcDbEntity
  8
0
100
AcDbLine
 10
37.2993098515483
 20
-38.47773211480915
 30
0.0
 11
38.71352341392139
 21
-37.66123553388141
 31
0.0
  0
LINE
  5
8D5
330
859
100
AcDbEntity
  8
0
100
AcDbLine
 10
37.2993098515483
 20
-38.47773211480915
 30
0.0
 11
23.37555921898729
 21
-30.43885093897092
 31
0.0
  0
LINE
  5
8D6
330
859
100
AcDbEntity
  8
0
100
AcDbLine
 10
59.57317345892466
 20
-43.33588677132903
 30
0.0
 11
59.57317345892466
 21
-48.07156694070986
 31
0.0
  0
LINE
  5
8D7
330
859
100
AcDbEntity
  8
0
100
AcDbLine
 10
-39.24499921189543
 20
-81.64998883136266
 30
0.0
 11
-39.24499921189543
 21
34.29252566037441
 31
0.0
  0
LINE
  5
8D8
330
859
100
AcDbEntity
  8
0
100
AcDbLine
 10
-17.96276068733053
 20
-72.62866901395824
 30
0.0
 11
-36.41657208714923
 21
-83.28298199321814
 31
0.0
  0
LINE
  5
8D9
330
859
100
AcDbEntity
  8
0
100
AcDbLine
 10
37.47608654684496
 20
-16.0478770418246
 30
0.0
 11
-17.96276068733054
 21
-72.62866901395824
 31
0.0
  0
LINE
  5
8DA
330
859
100
AcDbEntity
  8
0
100
AcDbLine
 10
34.15268467526818
 20
-4.164463301321479
 30
0.0
 11
37.47608654684496
 21
-2.245696336141325
 31
0.0
  0
ELLIPSE
  5
8DB
330
859
100
AcDbEntity
  8
0
100
AcDbEllipse
 10
34.15268467526818
 20
-2.123221849002163
 30
0.0
 11
-1.249999999999868
 21
-2.16506350946117
 31
0.0
210
0.0
220
0.0
230
1.0
 40
0.5773502691896258
 41
3.926990816986997
 42
7.068583470576791
  0
LINE
  5
8DC
330
859
100
AcDbEntity
  8
0
100
AcDbLine
 10
37.47608654684496
 20
1.836786568497306
 30
0.0
 11
34.15268467526818
 21
-0.0819803966828481
 31
0.0
  0
LINE
  5
8DD
330
859
100
AcDbEntity
  8
0
100
AcDbLine
 10
31.39496822864067
 20
17.10527263184573
 30
0.0
 11
37.47608654684496
 21
20.61620792983494
 31
0.0
  0
ELLIPSE
  5
8DE
330
859
100
AcDbEntity
  8
0
100
AcDbEllipse
 10
31.39496822864067
 20
37.51768715503887
 30
0.0
 11
-12.4999999999987
 21
-21.65063509461172
 31
0.0
210
0.0
220
0.0
230
1.0
 40
0.5773502691896257
 41
3.926990816987
 42
7.068583470576792
  0
LINE
  5
8DF
330
859
100
AcDbEntity
  8
0
100
AcDbLine
 10
37.47608654684496
 20
61.44103697622124
 30
0.0
 11
31.39496822864066
 21
57.93010167823202
 31
0.0
  0
LINE
  5
8E0
330
859
100
AcDbEntity
  8
0
100
AcDbLine
 10
-24.21898011168126
 20
46.23378815644238
 30
0.0
 11
37.47608654684497
 21
81.85345149941442
 31
0.0
  0
LINE
  5
8E1
330
859
100
AcDbEntity
  8
0
100
AcDbLine
 10
-24.21898011168125
 20
33.98633944252657
 30
0.0
 11
-24.21898011168126
 21
46.23378815644238
 31
0.0
  0
ELLIPSE
  5
8E2
330
859
100
AcDbEntity
  8
0
100
AcDbEllipse
 10
-27.93129071291064
 20
31.84303591759127
 30
0.0
 11
2.624999999999725
 21
4.54663336986846
 31
0.0
210
0.0
220
0.0
230
1.0
 40
0.5773502691896258
 41
3.926990816986998
 42
5.497787143781895
  0
LINE
  5
8E3
330
859
100
AcDbEntity
  8
0
100
AcDbLine
 10
-30.05261105647029
 20
26.33168399632912
 30
0.0
 11
-27.93129071291064
 21
27.55642886772071
 31
0.0
  0
ELLIPSE
  5
8E4
330
859
100
AcDbEntity
  8
0
100
AcDbEllipse
 10
-30.05261105647029
 20
30.61829104619969
 30
0.0
 11
-2.624999999999997
 21
-4.546633369868303
 31
0.0
210
0.0
220
0.0
230
0.9999999999999998
 40
0.5773502691896258
 41
4.369901861060878
 42
7.068583470577034
  0
LINE
  5
8E5
330
859
100
AcDbEntity
  8
0
100
AcDbLine
 10
-31.64360131414002
 20
37.86469820193325
 30
0.0
 11
-31.64360131414002
 21
33.57271573886341
 31
0.0
  0
LINE
  5
8E6
330
859
100
AcDbEntity
  8
0
100
AcDbLine
 10
-32.93043041813843
 20
41.20422997697729
 30
0.0
 11
-31.64360131414002
 21
37.86469820193325
 31
0.0
  0
LINE
  5
8E7
330
859
100
AcDbEntity
  8
0
100
AcDbLine
 10
-36.41657208714923
 20
39.19150514594077
 30
0.0
 11
-32.93043041813843
 21
41.20422997697729
 31
0.0
  0
LINE
  5
8E8
330
859
100
AcDbEntity
  8
0
100
AcDbLine
 10
-41.0127661648618
 20
35.31314638653407
 30
0.0
 11
-41.0127661648618
 21
-80.62936810520302
 31
0.0
  0
LINE
  5
8E9
330
859
100
AcDbEntity
  8
0
100
AcDbLine
 10
-34.6981973711048
 20
42.22485070313694
 30
0.0
 11
-38.18433904011559
 21
40.21212587210043
 31
0.0
  0
ELLIPSE
  5
8EA
330
859
100
AcDbEntity
  8
0
100
AcDbEllipse
 10
-31.82037800943665
 20
31.63891177235934
 30
0.0
 11
-2.624999999999996
 21
-4.546633369868303
 31
0.0
210
0.0
220
0.0
230
1.0
 40
0.5773502691896258
 41
0.3434286642675204
 42
0.7853981633974474
  0
LINE
  5
8EB
330
859
100
AcDbEntity
  8
0
100
AcDbLine
 10
-29.69905766587701
 20
28.57704959388037
 30
0.0
 11
-31.82037800943665
 21
27.35230472248877
 31
0.0
  0
ELLIPSE
  5
8EC
330
859
100
AcDbEntity
  8
0
100
AcDbEllipse
 10
-29.69905766587701
 20
32.86365664375094
 30
0.0
 11
-2.625000000000268
 21
-4.546633369868145
 31
0.0
210
0.0
220
0.0
230
1.0
 40
0.5773502691896258
 41
0.7853981633976908
 42
2.356194490192585
  0
LINE
  5
8ED
330
859
100
AcDbEntity
  8
0
100
AcDbLine
 10
-25.98674706464763
 20
47.25440888260203
 30
0.0
 11
-25.98674706464763
 21
35.00696016868623
 31
0.0
  0
LINE
  5
8EE
330
859
100
AcDbEntity
  8
0
100
AcDbLine
 10
35.70831959387859
 20
82.87407222557408
 30
0.0
 11
-25.98674706464763
 21
47.25440888260203
 31
0.0
  0
ELLIPSE
  5
8EF
330
859
100
AcDbEntity
  8
0
100
AcDbEllipse
 10
29.6272012756743
 20
38.53830788119852
 30
0.0
 11
-12.49999999999999
 21
-21.65063509461097
 31
0.0
210
0.0
220
0.0
230
1.0
 40
0.5773502691896259
 41
0.0707697366622124
 42
0.7853981633974474
  0
LINE
  5
8F0
330
859
100
AcDbEntity
  8
0
100
AcDbLine
 10
35.70831959387859
 20
21.6368286559946
 30
0.0
 11
29.6272012756743
 21
18.12589335800538
 31
0.0
  0
LINE
  5
8F1
330
859
100
AcDbEntity
  8
0
100
AcDbLine
 10
35.70831959387859
 20
-1.225075609981676
 30
0.0
 11
32.38491772230182
 21
-3.14384257516183
 31
0.0
  0
LINE
  5
8F2
330
859
100
AcDbEntity
  8
0
100
AcDbLine
 10
32.38491772230182
 20
-3.14384257516183
 30
0.0
 11
34.15268467526818
 21
-4.164463301321479
 31
0.0
  0
LINE
  5
8F3
330
859
100
AcDbEntity
  8
0
100
AcDbLine
 10
-34.6981973711048
 20
42.22485070313694
 30
0.0
 11
-32.93043041813843
 21
41.20422997697729
 31
0.0
  0
LINE
  5
8F4
330
859
100
AcDbEntity
  8
0
100
AcDbLine
 10
-31.82037800943665
 20
27.35230472248877
 30
0.0
 11
-30.05261105647029
 21
26.33168399632912
 31
0.0
  0
LINE
  5
8F5
330
859
100
AcDbEntity
  8
0
100
AcDbLine
 10
-29.69905766587701
 20
28.57704959388037
 30
0.0
 11
-27.93129071291064
 21
27.55642886772071
 31
0.0
  0
LINE
  5
8F6
330
859
100
AcDbEntity
  8
0
100
AcDbLine
 10
-25.98674706464763
 20
35.00696016868623
 30
0.0
 11
-24.21898011168125
 21
33.98633944252657
 31
0.0
  0
LINE
  5
8F7
330
859
100
AcDbEntity
  8
0
100
AcDbLine
 10
-25.98674706464763
 20
47.25440888260203
 30
0.0
 11
-24.21898011168126
 21
46.23378815644238
 31
0.0
  0
LINE
  5
8F8
330
859
100
AcDbEntity
  8
0
100
AcDbLine
 10
29.6272012756743
 20
18.12589335800538
 30
0.0
 11
31.39496822864067
 21
17.10527263184573
 31
0.0
  0
LINE
  5
8F9
330
859
100
AcDbEntity
  8
0
100
AcDbLine
 10
56.74474633417844
 20
-49.70456010256532
 30
0.0
 11
39.42063019510794
 21
-39.70247698620072
 31
0.0
  0
LINE
  5
8FA
330
859
100
AcDbEntity
  8
0
100
AcDbLine
 10
39.42063019510794
 20
-39.70247698620072
 30
0.0
 11
38.35997002332812
 21
-36.64061480772178
 31
0.0
  0
LINE
  5
8FB
330
859
100
AcDbEntity
  8
0
100
AcDbLine
 10
38.35997002332812
 20
-36.64061480772178
 30
0.0
 11
37.2993098515483
 21
-38.47773211480915
 31
0.0
  0
ELLIPSE
  5
8FC
330
859
100
AcDbEntity
  8
0
100
AcDbEllipse
 10
43.66327088222725
 20
-31.45586151883069
 30
0.0
 11
-1.25000000000001
 21
2.16506350946109
 31
0.0
210
0.0
220
0.0
230
1.0
 40
0.5773502691896293
 41
0.0
 42
6.283185307179586
  0
ELLIPSE
  5
8FD
330
859
100
AcDbEntity
  8
0
100
AcDbEllipse
 10
54.26987260002551
 20
-42.15196672898386
 30
0.0
 11
-1.25000000000001
 21
2.16506350946109
 31
0.0
210
0.0
220
0.0
230
1.0
 40
0.5773502691896293
 41
0.0
 42
6.283185307179586
  0
ELLIPSE
  5
8FE
330
859
100
AcDbEntity
  8
0
100
AcDbEllipse
 10
29.5211352584962
 20
-19.69831075347146
 30
0.0
 11
2.875000000000024
 21
-4.979646071760511
 31
0.0
210
0.0
220
0.0
230
0.9999999999999998
 40
0.5773502691896292
 41
5.463349915398449
 42
7.422331637464447
  0
LINE
  5
8FF
330
859
100
AcDbEntity
  8
0
100
AcDbLine
 10
42.34098120140841
 20
58.63228873782986
 30
0.0
 11
40.57321424844203
 21
57.6116680116702
 31
0.0
  0
LINE
  5
900
330
859
100
AcDbEntity
  8
0
100
AcDbLine
 10
36.23864967976851
 20
43.37605012319534
 30
0.0
 11
34.47088272680215
 21
42.35542939703567
 31
0.0
  0
LINE
  5
901
330
859
100
AcDbEntity
  8
0
100
AcDbLine
 10
36.23864967976851
 20
48.27502960876168
 30
0.0
 11
34.47088272680215
 21
47.25440888260203
 31
0.0
  0
LINE
  5
902
330
859
100
AcDbEntity
  8
0
100
AcDbLine
 10
40.12773697629452
 20
36.63995333054159
 30
0.0
 11
38.35997002332815
 21
35.61933260438193
 31
0.0
  0
LINE
  5
903
330
859
100
AcDbEntity
  8
0
100
AcDbLine
 10
48.50695233335509
 20
30.31667594850917
 30
0.0
 11
46.73918538038871
 21
29.29605522234952
 31
0.0
  0
LINE
  5
904
330
859
100
AcDbEntity
  8
0
100
AcDbLine
 10
42.77938740574406
 20
82.87407222557408
 30
0.0
 11
41.0116204527777
 21
81.85345149941442
 31
0.0
  0
LINE
  5
905
330
859
100
AcDbEntity
  8
0
100
AcDbLine
 10
41.0116204527777
 20
81.85345149941442
 30
0.0
 11
41.01162045277769
 21
75.32147885199265
 31
0.0
  0
LINE
  5
906
330
859
100
AcDbEntity
  8
0
100
AcDbLine
 10
41.01162045277769
 20
67.94399631094202
 30
0.0
 11
41.01162045277768
 21
61.37726865899125
 31
0.0
  0
LINE
  5
907
330
859
100
AcDbEntity
  8
0
100
AcDbLine
 10
41.01162045277768
 20
20.67997624706493
 30
0.0
 11
41.01162045277768
 21
1.836786568497306
 31
0.0
  0
LINE
  5
908
330
859
100
AcDbEntity
  8
0
100
AcDbLine
 10
37.47608654684496
 20
1.836786568497306
 30
0.0
 11
37.47608654684496
 21
20.61620792983494
 31
0.0
  0
LINE
  5
909
330
859
100
AcDbEntity
  8
0
100
AcDbLine
 10
37.47608654684496
 20
61.44103697622124
 30
0.0
 11
37.47608654684497
 21
67.943996310942
 31
0.0
  0
LINE
  5
90A
330
859
100
AcDbEntity
  8
0
100
AcDbLine
 10
37.47608654684497
 20
75.32147885199264
 30
0.0
 11
37.47608654684497
 21
81.85345149941442
 31
0.0
  0
ELLIPSE
  5
90B
330
859
100
AcDbEntity
  8
0
100
AcDbEllipse
 10
39.24385349981133
 20
80.83283077325475
 30
0.0
 11
4.999999999999999
 21
-0.0000000000002989
 31
0.0
210
0.0
220
0.0
230
1.0
 40
0.5773502691896257
 41
0.7853981633976908
 42
2.356194490192585
  0
ELLIPSE
  5
90C
330
859
100
AcDbEntity
  8
0
100
AcDbEllipse
 10
39.24385349981132
 20
60.42041625006158
 30
0.0
 11
2.499999999999999
 21
-0.0000000000001503
 31
0.0
210
0.0
220
0.0
230
1.0
 40
0.5773502691896257
 41
0.9709017296096105
 42
2.356194490192589
  0
SPLINE
  5
90D
330
859
100
AcDbEntity
  8
0
100
AcDbSpline
210
0.0
220
0.0
230
1.0
 70
     8
 71
     3
 72
    10
 73
     6
 74
     0
 42
0.000000001
 43
0.0000000001
 40
0.0
 40
0.0
 40
0.0
 40
0.0
 40
0.0234076985422105
 40
0.0234076985422105
 40
0.0535323894478778
 40
0.0535323894478778
 40
0.0535323894478778
 40
0.0535323894478778
 10
40.65524219371618
 20
61.61177149441114
 30
0.0
 10
40.71964419461486
 20
61.58633938852313
 30
0.0
 10
40.78166938055368
 20
61.55395744299146
 30
0.0
 10
40.91709182044986
 20
61.46494714872257
 30
0.0
 10
40.97449879478742
 20
61.41336116294528
 30
0.0
 10
41.01162045277769
 20
61.37726865899125
 30
0.0
  0
ELLIPSE
  5
90E
330
859
100
AcDbEntity
  8
0
100
AcDbEllipse
 10
39.24385349981133
 20
80.83283077325475
 30
0.0
 11
-2.499999999999999
 21
-0.0000000000001493
 31
0.0
210
0.0
220
0.0
230
1.0
 40
0.5773502691896259
 41
3.926990816987007
 42
5.497787143781902
  0
ELLIPSE
  5
90F
330
859
100
AcDbEntity
  8
0
100
AcDbEllipse
 10
39.24385349981132
 20
19.59558720367528
 30
0.0
 11
4.999999999999999
 21
-0.0000000000003
 31
0.0
210
0.0
220
0.0
230
1.0
 40
0.5773502691896257
 41
0.9709017296096043
 42
2.356194490192581
  0
SPLINE
  5
910
330
859
100
AcDbEntity
  8
0
100
AcDbSpline
210
0.0
220
0.0
230
1.0
 70
     8
 71
     3
 72
     8
 73
     4
 74
     0
 42
0.000000001
 43
0.0000000001
 40
0.0
 40
0.0
 40
0.0
 40
0.0
 40
0.0340776145488728
 40
0.0340776145488728
 40
0.0340776145488728
 40
0.0340776145488728
 10
42.06663088762105
 20
21.97829769237438
 30
0.0
 10
42.16038921071482
 20
21.94127276687847
 30
0.0
 10
42.25190968690028
 20
21.90523559184887
 30
0.0
 10
42.34089845386766
 20
21.8703579921917
 30
0.0
  0
ELLIPSE
  5
911
330
859
100
AcDbEntity
  8
0
100
AcDbEllipse
 10
39.24385349981132
 20
0.8161658423376216
 30
0.0
 11
2.499999999999999
 21
-0.0000000000001497
 31
0.0
210
0.0
220
0.0
230
1.0
 40
0.5773502691896257
 41
0.7853981633976908
 42
2.35619449019258
  0
SPLINE
  5
912
330
859
100
AcDbEntity
  8
0
100
AcDbSpline
210
0.0
220
0.0
230
1.0
 70
     8
 71
     3
 72
    10
 73
     6
 74
     0
 42
0.000000001
 43
0.0000000001
 40
0.0
 40
0.0
 40
0.0
 40
0.0
 40
0.0166450581660806
 40
0.0166450581660806
 40
0.0295787179716601
 40
0.0295787179716601
 40
0.0295787179716601
 40
0.0295787179716601
 10
41.01162045277769
 20
20.67997624706493
 30
0.0
 10
40.97449879474425
 20
20.68674814158568
 30
0.0
 10
40.91709182041951
 20
20.69894982379052
 30
0.0
 10
40.78166938055768
 20
20.73977767702441
 30
0.0
 10
40.71964419462498
 20
20.76151020908581
 30
0.0
 10
40.65524219371618
 20
20.78694244802483
 30
0.0
  0
ELLIPSE
  5
913
330
859
100
AcDbEntity
  8
0
100
AcDbEllipse
 10
39.24385349981132
 20
19.59558720367528
 30
0.0
 11
-2.5
 21
-0.000000000000149
 31
0.0
210
0.0
220
0.0
230
1.0
 40
0.577350269189626
 41
4.112494383199063
 42
5.497787143781941
  0
LINE
  5
914
330
859
100
AcDbEntity
  8
0
100
AcDbLine
 10
41.60518629263562
 20
21.02267164448866
 30
0.0
 11
41.01162045277768
 21
20.67997624706493
 31
0.0
  0
LINE
  5
915
330
859
100
AcDbEntity
  8
0
100
AcDbLine
 10
42.28575621873066
 20
21.41559887452201
 30
0.0
 11
41.60518629263562
 21
21.02267164448866
 31
0.0
  0
LINE
  5
916
330
859
100
AcDbEntity
  8
0
100
AcDbLine
 10
40.65524219371618
 20
20.78694244802483
 30
0.0
 11
42.06663088762105
 21
21.97829769237438
 31
0.0
  0
LINE
  5
917
330
859
100
AcDbEntity
  8
0
100
AcDbLine
 10
37.47608654684496
 20
20.61620792983494
 30
0.0
 11
35.70831959387859
 21
21.6368286559946
 31
0.0
  0
LINE
  5
918
330
859
100
AcDbEntity
  8
0
100
AcDbLine
 10
37.47608654684497
 20
81.85345149941442
 30
0.0
 11
35.70831959387859
 21
82.87407222557408
 31
0.0
  0
LINE
  5
919
330
859
100
AcDbEntity
  8
0
100
AcDbLine
 10
37.47608654684496
 20
-16.0478770418246
 30
0.0
 11
37.47608654684496
 21
-2.245696336141325
 31
0.0
  0
SPLINE
  5
91A
330
859
100
AcDbEntity
  8
0
100
AcDbSpline
210
0.0
220
0.0
230
1.0
 70
     8
 71
     3
 72
     8
 73
     4
 74
     0
 42
0.000000001
 43
0.0000000001
 40
0.0
 40
0.0
 40
0.0
 40
0.0
 40
0.0346169213444073
 40
0.0346169213444073
 40
0.0346169213444073
 40
0.0346169213444073
 10
38.92963389899597
 20
-13.44381263734515
 30
0.0
 10
38.93701890365317
 20
-13.35610861959921
 30
0.0
 10
38.94066080125077
 20
-13.27332314155791
 30
0.0
 10
38.94063375695419
 20
-13.19335671172886
 30
0.0
  0
ELLIPSE
  5
91B
330
859
100
AcDbEntity
  8
0
100
AcDbEllipse
 10
33.94055264091221
 20
-0.2044548838220273
 30
0.0
 11
4.999999999999999
 21
-0.0000000000000008
 31
0.0
210
0.0
220
0.0
230
1.0
 40
0.5773502691896259
 41
5.497787143782142
 42
7.06858347057704
  0
ELLIPSE
  5
91C
330
859
100
AcDbEntity
  8
0
100
AcDbEllipse
 10
33.94055264091221
 20
-0.2044548838220273
 30
0.0
 11
2.499999999999999
 21
-0.0000000000000006
 31
0.0
210
0.0
220
0.0
230
1.0
 40
0.5773502691896258
 41
5.497787143782146
 42
7.068583470577041
  0
LINE
  5
91D
330
859
100
AcDbEntity
  8
0
100
AcDbLine
 10
37.47608654684496
 20
-2.245696336141325
 30
0.0
 11
35.70831959387859
 21
-1.225075609981676
 31
0.0
  0
SPLINE
  5
91E
330
859
100
AcDbEntity
  8
0
100
AcDbSpline
210
0.0
220
0.0
230
1.0
 70
     8
 71
     3
 72
    10
 73
     6
 74
     0
 42
0.000000001
 43
0.0000000001
 40
0.0
 40
0.0
 40
0.0
 40
0.0
 40
0.1861491823438742
 40
0.1861491823438742
 40
0.3722983665725988
 40
0.3722983665725988
 40
0.3722983665725988
 40
0.3722983665725988
 10
37.47608654684498
 20
-16.0478770418246
 30
0.0
 10
37.90107637882132
 20
-15.67658803281883
 30
0.0
 10
38.24597603847053
 20
-15.26406982080974
 30
0.0
 10
38.7424273096453
 20
-14.3801778635423
 30
0.0
 10
38.8899355348773
 20
-13.91597863529236
 30
0.0
 10
38.92963389899597
 20
-13.44381263734519
 30
0.0
  0
LINE
  5
91F
330
859
100
AcDbEntity
  8
0
100
AcDbLine
 10
35.70831959387856
 20
-1.225075609981676
 30
0.0
 11
35.70831959387856
 21
0.8161658423376394
 31
0.0
  0
LINE
  5
920
330
859
100
AcDbEntity
  8
0
100
AcDbLine
 10
38.94055264091223
 20
-13.19337419965984
 30
0.0
 11
38.94055264091223
 21
-0.2044548838220273
 31
0.0
  0
ELLIPSE
  5
921
330
859
100
AcDbEntity
  8
0
100
AcDbEllipse
 10
-31.46682461884338
 20
-64.09531234141656
 30
0.0
 11
2.624999999999725
 21
4.54663336986846
 31
0.0
210
0.0
220
0.0
230
1.0
 40
0.5773502691896258
 41
3.604827272817605
 42
5.819950687950958
  0
ELLIPSE
  5
922
330
859
100
AcDbEntity
  8
0
100
AcDbEllipse
 10
-31.46682461884338
 20
-39.6004149135848
 30
0.0
 11
2.624999999999725
 21
4.54663336986846
 31
0.0
210
0.0
220
0.0
230
1.0
 40
0.5773502691896258
 41
3.604827272817605
 42
5.819950687950958
  0
ELLIPSE
  5
923
330
859
100
AcDbEntity
  8
0
100
AcDbEllipse
 10
-31.46682461884338
 20
-15.10551748575301
 30
0.0
 11
2.624999999999727
 21
4.54663336986846
 31
0.0
210
0.0
220
0.0
230
0.9999999999999998
 40
0.5773502691896257
 41
3.604827272817605
 42
5.819950687950959
  0
ELLIPSE
  5
924
330
859
100
AcDbEntity
  8
0
100
AcDbEllipse
 10
-31.46682461884338
 20
9.389379942078761
 30
0.0
 11
2.624999999999727
 21
4.54663336986846
 31
0.0
210
0.0
220
0.0
230
0.9999999999999998
 40
0.5773502691896257
 41
3.604827272817605
 42
5.819950687950959
  0
ENDBLK
  5
85B
330
859
100
AcDbEntity
  8
0
100
AcDbBlockEnd
  0
ENDSEC
  0
SECTION
  2
ENTITIES
  0
INSERT
  5
925
330
1F
100
AcDbEntity
  8
0
100
AcDbBlockReference
  2
CBH150S-Front
 10
0.0
 20
0.0
 30
0.0
  0
INSERT
  5
926
330
1F
100
AcDbEntity
  8
0
100
AcDbBlockReference
  2
CBH150S-Left
 10
75.0
 20
0.0
 30
0.0
  0
INSERT
  5
927
330
1F
100
AcDbEntity
  8
0
100
AcDbBlockReference
  2
CBH150S-Right
 10
-75.00049838803005
 20
0.0
 30
0.0
  0
INSERT
  5
928
330
1F
100
AcDbEntity
  8
0
100
AcDbBlockReference
  2
CBH150S-Top
 10
0.0
 20
-195.0
 30
0.0
  0
INSERT
  5
929
330
1F
100
AcDbEntity
  8
0
100
AcDbBlockReference
  2
CBH150S-Bottom
 10
0.0
 20
45.0
 30
0.0
  0
INSERT
  5
92A
330
1F
100
AcDbEntity
  8
0
100
AcDbBlockReference
  2
CBH150S-ISO
 10
116.0127661648618
 20
-278.7195821192029
 30
0.0
  0
MTEXT
  5
92B
330
1F
100
AcDbEntity
  8
0
100
AcDbMText
 10
0.0
 20
-353.5
 30
0.0
 40
9.375000000000001
 41
0.0
 71
     5
 72
     5
  1
CBH150/2.5S
 73
     1
 44
1.0
1001
ACAD
1000
MTEXTBEGIN
1070
    73
1070
     1
1070
    44
1040
1.0
1070
    74
1070
     0
1000
MTEXTEND
  0
ENDSEC
  0
SECTION
  2
OBJECTS
  0
DICTIONARY
  5
C
330
0
100
AcDbDictionary
281
     1
  3
ACAD_CIP_PREVIOUS_PRODUCT_INFO
350
216
  3
ACAD_COLOR
350
6B
  3
ACAD_DETAILVIEWSTYLE
350
21B
  3
ACAD_GROUP
350
D
  3
ACAD_LAYOUT
350
1A
  3
ACAD_MATERIAL
350
6A
  3
ACAD_MLEADERSTYLE
350
12D
  3
ACAD_MLINESTYLE
350
17
  3
ACAD_PLOTSETTINGS
350
19
  3
ACAD_PLOTSTYLENAME
350
E
  3
ACAD_SCALELIST
350
10C
  3
ACAD_SECTIONVIEWSTYLE
350
219
  3
ACAD_TABLESTYLE
350
7E
  3
ACAD_VISUALSTYLE
350
EF
  3
ACDB_RECOMPOSE_DATA
350
A2C
  3
AcDbVariableDictionary
350
5E
  3
DWGPROPS
350
A2D
  0
DICTIONARY
  5
97C
330
8
100
AcDbDictionary
280
     1
281
     1
  0
DICTIONARY
  5
1FF
330
2
100
AcDbDictionary
280
     1
281
     1
  3
ACAD_LAYERSTATES
360
200
  0
DICTIONARY
  5
13C
330
10
100
AcDbDictionary
280
     1
281
     1
  0
DICTIONARY
  5
1CE
330
1F
100
AcDbDictionary
280
     1
281
     1
  3
ACAD_LAYOUTSELFREF
360
984
  0
DICTIONARY
  5
92F
330
D2
100
AcDbDictionary
280
     1
281
     1
  3
ACAD_LAYOUTSELFREF
360
98D
  0
DICTIONARY
  5
931
330
D6
100
AcDbDictionary
280
     1
281
     1
  3
ACAD_LAYOUTSELFREF
360
990
  0
XRECORD
  5
216
102
{ACAD_REACTORS
330
C
102
}
330
C
100
AcDbXrecord
280
     1
300
ACD
300
2021
300

  0
DICTIONARY
  5
6B
102
{ACAD_REACTORS
330
C
102
}
330
C
100
AcDbDictionary
281
     1
  0
DICTIONARY
  5
21B
102
{ACAD_REACTORS
330
C
102
}
330
C
100
AcDbDictionary
281
     1
  3
Metric50
350
21C
  0
DICTIONARY
  5
D
102
{ACAD_REACTORS
330
C
102
}
330
C
100
AcDbDictionary
281
     1
  0
DICTIONARY
  5
1A
102
{ACAD_REACTORS
330
C
102
}
330
C
100
AcDbDictionary
281
     1
  3
Layout1
350
D3
  3
Layout2
350
D7
  3
Model
350
22
  0
DICTIONARY
  5
6A
102
{ACAD_REACTORS
330
C
102
}
330
C
100
AcDbDictionary
281
     1
  3
ByBlock
350
ED
  3
ByLayer
350
EC
  3
Global
350
EE
  0
DICTIONARY
  5
12D
102
{ACAD_REACTORS
330
C
102
}
330
C
100
AcDbDictionary
281
     1
  3
Standard
350
12E
  0
DICTIONARY
  5
17
102
{ACAD_REACTORS
330
C
102
}
330
C
100
AcDbDictionary
281
     1
  3
Standard
350
18
  0
DICTIONARY
  5
19
102
{ACAD_REACTORS
330
C
102
}
330
C
100
AcDbDictionary
281
     1
  0
ACDBDICTIONARYWDFLT
  5
E
102
{ACAD_REACTORS
330
C
102
}
330
C
100
AcDbDictionary
281
     1
  3
Normal
350
F
100
AcDbDictionaryWithDefault
340
F
  0
DICTIONARY
  5
10C
102
{ACAD_REACTORS
330
C
102
}
330
C
100
AcDbDictionary
281
     1
  3
A0
350
10D
  3
A1
350
1BE
  3
A2
350
1BF
  3
A3
350
1C0
  3
A4
350
1C1
  3
A5
350
1C2
  3
A6
350
1C3
  3
A7
350
1C4
  3
A8
350
1C5
  3
A9
350
1C6
  3
B0
350
1C7
  3
B1
350
1C8
  3
B2
350
1C9
  3
B3
350
1CA
  3
B4
350
1CB
  3
B5
350
1CC
  3
B6
350
1CD
  0
DICTIONARY
  5
219
102
{ACAD_REACTORS
330
C
102
}
330
C
100
AcDbDictionary
281
     1
  3
Metric50
350
21A
  0
DICTIONARY
  5
7E
102
{ACAD_REACTORS
330
C
102
}
330
C
100
AcDbDictionary
281
     1
  3
Standard
350
7F
  0
DICTIONARY
  5
EF
102
{ACAD_REACTORS
330
C
102
}
330
C
100
AcDbDictionary
281
     1
  3
2dWireframe
350
F5
  3
Basic
350
F4
  3
Brighten
350
FB
  3
ColorChange
350
FF
  3
Conceptual
350
F8
  3
Dim
350
FA
  3
EdgeColorOff
350
1E6
  3
Facepattern
350
FE
  3
Flat
350
F0
  3
FlatWithEdges
350
F1
  3
Gouraud
350
F2
  3
GouraudWithEdges
350
F3
  3
Hidden
350
F7
  3
JitterOff
350
1E4
  3
Linepattern
350
FD
  3
OverhangOff
350
1E5
  3
Realistic
350
F9
  3
Shaded
350
1F3
  3
Shaded with edges
350
1F2
  3
Shades of Gray
350
1EF
  3
Sketchy
350
1F0
  3
Thicken
350
FC
  3
Wireframe
350
F6
  3
X-Ray
350
1F1
  0
XRECORD
  5
A2C
102
{ACAD_REACTORS
330
C
102
}
330
C
100
AcDbXrecord
280
     1
 90
        1
330
7F
  0
DICTIONARY
  5
5E
102
{ACAD_REACTORS
330
C
102
}
330
C
100
AcDbDictionary
281
     1
  3
CANNOSCALE
350
146
  3
CENTEREXE
350
259
  3
CENTERLTYPEFILE
350
25A
  3
CMLEADERSTYLE
350
145
  3
CTABLESTYLE
350
84
  3
CVIEWDETAILSTYLE
350
227
  3
CVIEWSECTIONSTYLE
350
228
  3
DIMASSOC
350
5F
  3
HIDETEXT
350
63
  3
INDEXCTL
350
9D9
  3
LAYEREVAL
350
1AE
  3
LAYERNOTIFY
350
1AF
  3
LIGHTINGUNITS
350
9D7
  3
MSLTSCALE
350
9D6
  3
PSOLHEIGHT
350
A29
  3
PSOLWIDTH
350
A28
  3
SORTENTS
350
9D8
  3
XCLIPFRAME
350
A2A
  0
XRECORD
  5
A2D
102
{ACAD_REACTORS
330
C
102
}
330
C
100
AcDbXrecord
280
     1
  1
DWGPROPS COOKIE
  2

  3

  4

  6

  7

  8
tronnguyen
  9

300
=
301
=
302
=
303
=
304
=
305
=
306
=
307
=
308
=
309
=
 40
0.003287037037037
 41
2460286.6225
 42
2460286.631516204
  1

 90
        0
  0
DICTIONARY
  5
200
102
{ACAD_REACTORS
330
1FF
102
}
330
1FF
100
AcDbDictionary
281
     1
  0
XRECORD
  5
984
102
{ACAD_REACTORS
330
1CE
102
}
330
1CE
100
AcDbXrecord
280
     1
340
1F
  0
XRECORD
  5
98D
102
{ACAD_REACTORS
330
92F
102
}
330
92F
100
AcDbXrecord
280
     1
340
D2
  0
XRECORD
  5
990
102
{ACAD_REACTORS
330
931
102
}
330
931
100
AcDbXrecord
280
     1
340
D6
  0
ACDBDETAILVIEWSTYLE
  5
21C
102
{ACAD_XDICTIONARY
360
A6C
102
}
102
{ACAD_REACTORS
330
21B
102
}
330
21B
100
AcDbModelDocViewStyle
 70
     0
  3
Metric50
290
     0
100
AcDbDetailViewStyle
 70
     0
 71
     0
 90
        3
 71
     1
340
11
 40
5.0
340
0
 40
5.0
300

 40
0.0
280
     1
 71
     2
340
16
 90
       25
 71
     3
340
11
 40
5.0
 90
        0
 40
15.0
 90
        1
300
%<\AcVar ViewDetailId>% (%<\AcVar ViewScale \f "%sn">%)
 71
     4
340
16
 90
       25
340
16
 90
       25
280
     0
  0
LAYOUT
  5
D3
102
{ACAD_XDICTIONARY
360
A31
102
}
102
{ACAD_REACTORS
330
1A
102
}
330
1A
100
AcDbPlotSettings
  1

  2
C:\Documents and Settings\basas\Application Data\Autodesk\AutoCAD 2005\R16.1\enu\plotters\Default Windows System Printer.pc3
  4

  6

 40
0.0
 41
0.0
 42
0.0
 43
0.0
 44
0.0
 45
0.0
 46
0.0
 47
0.0
 48
0.0
 49
0.0
140
0.0
141
0.0
142
1.0
143
1.0
 70
   688
 72
     0
 73
     0
 74
     5
  7

 75
    16
147
1.0
148
0.0
149
0.0
100
AcDbLayout
  1
Layout1
 70
     1
 71
     1
 10
0.0
 20
0.0
 11
12.0
 21
9.0
 12
0.0
 22
0.0
 32
0.0
 14
0.0
 24
0.0
 34
0.0
 15
0.0
 25
0.0
 35
0.0
146
0.0
 13
0.0
 23
0.0
 33
0.0
 16
1.0
 26
0.0
 36
0.0
 17
0.0
 27
1.0
 37
0.0
 76
     0
330
D2
  0
LAYOUT
  5
D7
102
{ACAD_XDICTIONARY
360
A33
102
}
102
{ACAD_REACTORS
330
1A
102
}
330
1A
100
AcDbPlotSettings
  1

  2
C:\Documents and Settings\basas\Application Data\Autodesk\AutoCAD 2005\R16.1\enu\plotters\Default Windows System Printer.pc3
  4

  6

 40
0.0
 41
0.0
 42
0.0
 43
0.0
 44
0.0
 45
0.0
 46
0.0
 47
0.0
 48
0.0
 49
0.0
140
0.0
141
0.0
142
1.0
143
1.0
 70
   688
 72
     0
 73
     0
 74
     5
  7

 75
    16
147
1.0
148
0.0
149
0.0
100
AcDbLayout
  1
Layout2
 70
     1
 71
     2
 10
0.0
 20
0.0
 11
12.0
 21
9.0
 12
0.0
 22
0.0
 32
0.0
 14
0.0
 24
0.0
 34
0.0
 15
0.0
 25
0.0
 35
0.0
146
0.0
 13
0.0
 23
0.0
 33
0.0
 16
1.0
 26
0.0
 36
0.0
 17
0.0
 27
1.0
 37
0.0
 76
     0
330
D6
  0
LAYOUT
  5
22
102
{ACAD_XDICTIONARY
360
A2E
102
}
102
{ACAD_REACTORS
330
1A
102
}
330
1A
100
AcDbPlotSettings
  1

  2
none_device
  4
ISO_A4_(210.00_x_297.00_MM)
  6

 40
7.5
 41
20.0
 42
7.5
 43
20.0
 44
210.0
 45
297.0
 46
11.54999923706054
 47
-13.65000009536743
 48
0.0
 49
0.0
140
0.0
141
0.0
142
1.0
143
8.704084754739808
 70
 11952
 72
     1
 73
     0
 74
     0
  7

 75
     0
147
0.1148885871608098
148
0.0
149
0.0
100
AcDbLayout
  1
Model
 70
     1
 71
     0
 10
0.0
 20
0.0
 11
12.0
 21
9.0
 12
0.0
 22
0.0
 32
0.0
 14
0.0
 24
0.0
 34
0.0
 15
0.0
 25
0.0
 35
0.0
146
0.0
 13
0.0
 23
0.0
 33
0.0
 16
1.0
 26
0.0
 36
0.0
 17
0.0
 27
1.0
 37
0.0
 76
     0
330
1F
331
EA
1001
ACAD_PSEXT
1000
None
1000
None
1000
Not applicable
1000
The layout will not be plotted unless a new plotter configuration name is selected.
1070
     0
  0
MATERIAL
  5
ED
102
{ACAD_XDICTIONARY
360
1F9
102
}
102
{ACAD_REACTORS
330
6A
102
}
330
6A
100
AcDbMaterial
  1
ByBlock
  0
MATERIAL
  5
EC
102
{ACAD_XDICTIONARY
360
1F7
102
}
102
{ACAD_REACTORS
330
6A
102
}
330
6A
100
AcDbMaterial
  1
ByLayer
  0
MATERIAL
  5
EE
102
{ACAD_XDICTIONARY
360
173
102
}
102
{ACAD_REACTORS
330
6A
102
}
330
6A
100
AcDbMaterial
  1
Global
 43
0.0007999999797903
 43
0.0
 43
0.0
 43
0.0
 43
0.0
 43
0.0007999999797903
 43
0.0
 43
0.0
 43
0.0
 43
0.0
 43
1.0
 43
0.0
 43
0.0
 43
0.0
 43
0.0
 43
1.0
 49
0.0007999999797903
 49
0.0
 49
0.0
 49
0.0
 49
0.0
 49
0.0007999999797903
 49
0.0
 49
0.0
 49
0.0
 49
0.0
 49
1.0
 49
0.0
 49
0.0
 49
0.0
 49
0.0
 49
1.0
142
0.0007999999797903
142
0.0
142
0.0
142
0.0
142
0.0
142
0.0007999999797903
142
0.0
142
0.0
142
0.0
142
0.0
142
1.0
142
0.0
142
0.0
142
0.0
142
0.0
142
1.0
144
0.0007999999797903
144
0.0
144
0.0
144
0.0
144
0.0
144
0.0007999999797903
144
0.0
144
0.0
144
0.0
144
0.0
144
1.0
144
0.0
144
0.0
144
0.0
144
0.0
144
1.0
1001
ACAD
1070
    -1
1070
     3
1070
     0
1000

1071
        0
1070
     0
  0
MLEADERSTYLE
  5
12E
102
{ACAD_XDICTIONARY
360
A58
102
}
102
{ACAD_REACTORS
330
12D
102
}
330
12D
100
AcDbMLeaderStyle
170
     2
171
     1
172
     0
 90
        2
 40
0.0
 41
0.0
173
     1
 91
-1056964608
340
14
 92
       -2
290
     1
 42
2.0
291
     1
 43
8.0
  3
Standard
 44
4.0
300

342
11
174
     1
178
     1
175
     1
176
     0
 93
-1056964608
 45
4.0
292
     0
297
     0
 46
4.0
 94
-1056964608
 47
1.0
 49
1.0
140
1.0
293
     1
141
0.0
294
     1
177
     0
142
1.0
295
     0
296
     0
143
3.75
1001
ACAD_MLEADERVER
1070
     2
  0
MLINESTYLE
  5
18
102
{ACAD_REACTORS
330
17
102
}
330
17
100
AcDbMlineStyle
  2
STANDARD
 70
     0
  3

 62
   256
 51
90.0
 52
90.0
 71
     2
 49
0.5
 62
   256
  6
BYLAYER
 49
-0.5
 62
   256
  6
BYLAYER
  0
ACDBPLACEHOLDER
  5
F
102
{ACAD_REACTORS
330
E
102
}
330
E
  0
SCALE
  5
10D
102
{ACAD_REACTORS
330
10C
102
}
330
10C
100
AcDbScale
 70
     0
300
1:1
140
1.0
141
1.0
290
     1
  0
SCALE
  5
1BE
102
{ACAD_REACTORS
330
10C
102
}
330
10C
100
AcDbScale
 70
     0
300
1:2
140
1.0
141
2.0
290
     0
  0
SCALE
  5
1BF
102
{ACAD_REACTORS
330
10C
102
}
330
10C
100
AcDbScale
 70
     0
300
1:4
140
1.0
141
4.0
290
     0
  0
SCALE
  5
1C0
102
{ACAD_REACTORS
330
10C
102
}
330
10C
100
AcDbScale
 70
     0
300
1:5
140
1.0
141
5.0
290
     0
  0
SCALE
  5
1C1
102
{ACAD_REACTORS
330
10C
102
}
330
10C
100
AcDbScale
 70
     0
300
1:8
140
1.0
141
8.0
290
     0
  0
SCALE
  5
1C2
102
{ACAD_REACTORS
330
10C
102
}
330
10C
100
AcDbScale
 70
     0
300
1:10
140
1.0
141
10.0
290
     0
  0
SCALE
  5
1C3
102
{ACAD_REACTORS
330
10C
102
}
330
10C
100
AcDbScale
 70
     0
300
1:16
140
1.0
141
16.0
290
     0
  0
SCALE
  5
1C4
102
{ACAD_REACTORS
330
10C
102
}
330
10C
100
AcDbScale
 70
     0
300
1:20
140
1.0
141
20.0
290
     0
  0
SCALE
  5
1C5
102
{ACAD_REACTORS
330
10C
102
}
330
10C
100
AcDbScale
 70
     0
300
1:30
140
1.0
141
30.0
290
     0
  0
SCALE
  5
1C6
102
{ACAD_REACTORS
330
10C
102
}
330
10C
100
AcDbScale
 70
     0
300
1:40
140
1.0
141
40.0
290
     0
  0
SCALE
  5
1C7
102
{ACAD_REACTORS
330
10C
102
}
330
10C
100
AcDbScale
 70
     0
300
1:50
140
1.0
141
50.0
290
     0
  0
SCALE
  5
1C8
102
{ACAD_REACTORS
330
10C
102
}
330
10C
100
AcDbScale
 70
     0
300
1:100
140
1.0
141
100.0
290
     0
  0
SCALE
  5
1C9
102
{ACAD_REACTORS
330
10C
102
}
330
10C
100
AcDbScale
 70
     0
300
2:1
140
2.0
141
1.0
290
     0
  0
SCALE
  5
1CA
102
{ACAD_REACTORS
330
10C
102
}
330
10C
100
AcDbScale
 70
     0
300
4:1
140
4.0
141
1.0
290
     0
  0
SCALE
  5
1CB
102
{ACAD_REACTORS
330
10C
102
}
330
10C
100
AcDbScale
 70
     0
300
8:1
140
8.0
141
1.0
290
     0
  0
SCALE
  5
1CC
102
{ACAD_REACTORS
330
10C
102
}
330
10C
100
AcDbScale
 70
     0
300
10:1
140
10.0
141
1.0
290
     0
  0
SCALE
  5
1CD
102
{ACAD_REACTORS
330
10C
102
}
330
10C
100
AcDbScale
 70
     0
300
100:1
140
100.0
141
1.0
290
     0
  0
ACDBSECTIONVIEWSTYLE
  5
21A
102
{ACAD_XDICTIONARY
360
A6A
102
}
102
{ACAD_REACTORS
330
219
102
}
330
219
100
AcDbModelDocViewStyle
 70
     0
  3
Metric50
290
     0
100
AcDbSectionViewStyle
 70
     0
 71
     0
 90
      102
 71
     1
340
11
 40
5.0
340
0
340
0
 40
5.0
300
I, O, Q, S, X, Z
 40
10.0
 90
        0
 40
2.5
 90
        0
 71
     2
340
16
 90
       25
340
16
 90
       50
 40
5.0
 40
2.5
 40
5.0
 71
     3
340
11
 40
5.0
 90
        0
 40
15.0
 90
        1
300
%<\AcVar ViewSectionStartId>%-%<\AcVar ViewSectionEndId>% (%<\AcVar ViewScale \f "%sn">%)
 71
     4
300
ANSI31
 40
1.0
 90
        0
290
     0
290
     0
 90
        6
 40
0.0
 40
1.570796326794896
 40
0.2617993877991494
 40
1.308996938995747
 40
-0.2617993877991494
 40
1.832595714594046
  0
TABLESTYLE
  5
7F
102
{ACAD_XDICTIONARY
360
162
102
}
102
{ACAD_REACTORS
330
7E
102
}
330
7E
100
AcDbTableStyle
  3
Standard
 70
     0
 71
     0
 40
1.5
 41
1.5
280
     0
281
     0
  7
Standard
140
4.5
170
     2
 62
     0
 63
     7
283
     0
274
    -2
284
     1
 64
     0
275
    -2
285
     1
 65
     0
276
    -2
286
     1
 66
     0
277
    -2
287
     1
 67
     0
278
    -2
288
     1
 68
     0
279
    -2
289
     1
 69
     0
  7
Standard
140
6.0
170
     5
 62
     0
 63
     7
283
     0
274
    -2
284
     1
 64
     0
275
    -2
285
     1
 65
     0
276
    -2
286
     1
 66
     0
277
    -2
287
     1
 67
     0
278
    -2
288
     1
 68
     0
279
    -2
289
     1
 69
     0
  7
Standard
140
4.5
170
     5
 62
     0
 63
     7
283
     0
274
    -2
284
     1
 64
     0
275
    -2
285
     1
 65
     0
276
    -2
286
     1
 66
     0
277
    -2
287
     1
 67
     0
278
    -2
288
     1
 68
     0
279
    -2
289
     1
 69
     0
  0
VISUALSTYLE
  5
F5
102
{ACAD_XDICTIONARY
360
A42
102
}
102
{ACAD_REACTORS
330
EF
102
}
330
EF
100
AcDbVisualStyle
  2
2dWireframe
 70
     4
 71
     0
 72
     2
 73
     1
 90
        0
 40
-0.6
 41
-30.0
 62
     5
 63
     7
 74
     1
 91
        4
 64
     7
 65
   257
 75
     1
175
     1
 42
1.0
 92
        0
 66
   257
 43
1.0
 76
     1
 77
     6
 78
     2
 67
     7
 79
     5
170
     0
171
     0
290
     0
174
     0
 93
        1
 44
0.0
173
     0
291
     0
 45
0.0
1001
ACAD
1000
AcDbSavedByObjectVersion
1070
     0
  0
VISUALSTYLE
  5
F4
102
{ACAD_XDICTIONARY
360
A40
102
}
102
{ACAD_REACTORS
330
EF
102
}
330
EF
100
AcDbVisualStyle
  2
Basic
 70
     7
 71
     1
 72
     0
 73
     1
 90
        0
 40
-0.6
 41
-30.0
 62
     5
 63
     7
 74
     0
 91
        4
 64
     7
 65
   257
 75
     1
175
     1
 42
1.0
 92
        8
 66
     7
 43
1.0
 76
     1
 77
     6
 78
     2
 67
     7
 79
     5
170
     0
171
     0
290
     0
174
     0
 93
        1
 44
0.0
173
     0
291
     1
 45
0.0
1001
ACAD
1000
AcDbSavedByObjectVersion
1070
     0
  0
VISUALSTYLE
  5
FB
102
{ACAD_XDICTIONARY
360
A4E
102
}
102
{ACAD_REACTORS
330
EF
102
}
330
EF
100
AcDbVisualStyle
  2
Brighten
 70
    12
 71
     2
 72
     2
 73
     1
 90
        0
 40
-0.6
 41
-30.0
 62
     5
 63
     7
 74
     1
 91
        4
 64
     7
 65
   257
 75
     1
175
     1
 42
1.0
 92
        8
 66
     7
 43
1.0
 76
     1
 77
     6
 78
     2
 67
     7
 79
     5
170
     0
171
     0
290
     0
174
     0
 93
        1
 44
50.0
173
     0
291
     1
 45
0.0
1001
ACAD
1000
AcDbSavedByObjectVersion
1070
     0
  0
VISUALSTYLE
  5
FF
102
{ACAD_XDICTIONARY
360
A56
102
}
102
{ACAD_REACTORS
330
EF
102
}
330
EF
100
AcDbVisualStyle
  2
ColorChange
 70
    16
 71
     2
 72
     2
 73
     3
 90
        0
 40
-0.6
 41
-30.0
 62
     5
 63
     8
 74
     1
 91
        4
 64
     7
 65
   257
 75
     1
175
     1
 42
1.0
 92
        8
 66
     8
 43
1.0
 76
     1
 77
     6
 78
     2
 67
     7
 79
     5
170
     0
171
     0
290
     0
174
     0
 93
        1
 44
0.0
173
     0
291
     1
 45
0.0
1001
ACAD
1000
AcDbSavedByObjectVersion
1070
     0
  0
VISUALSTYLE
  5
F8
102
{ACAD_XDICTIONARY
360
A48
102
}
102
{ACAD_REACTORS
330
EF
102
}
330
EF
100
AcDbVisualStyle
  2
Conceptual
 70
     9
 71
     3
 72
     2
 73
     1
 90
        0
 40
-0.6
 41
-30.0
 62
     5
 63
     7
 74
     2
 91
        2
 64
     7
 65
   257
 75
     1
175
     1
 42
40.0
 92
        8
 66
     7
 43
1.0
 76
     1
 77
     6
 78
     2
 67
     7
 79
     3
170
     0
171
     0
290
     0
174
     0
 93
        1
 44
0.0
173
     0
291
     0
 45
0.0
1001
ACAD
1000
AcDbSavedByObjectVersion
1070
     0
  0
VISUALSTYLE
  5
FA
102
{ACAD_XDICTIONARY
360
A4C
102
}
102
{ACAD_REACTORS
330
EF
102
}
330
EF
100
AcDbVisualStyle
  2
Dim
 70
    11
 71
     2
 72
     2
 73
     1
 90
        0
 40
-0.6
 41
-30.0
 62
     5
 63
     7
 74
     1
 91
        4
 64
     7
 65
   257
 75
     1
175
     1
 42
1.0
 92
        8
 66
     7
 43
1.0
 76
     1
 77
     6
 78
     2
 67
     7
 79
     5
170
     0
171
     0
290
     0
174
     0
 93
        1
 44
-50.0
173
     0
291
     1
 45
0.0
1001
ACAD
1000
AcDbSavedByObjectVersion
1070
     0
  0
VISUALSTYLE
  5
1E6
102
{ACAD_XDICTIONARY
360
A5E
102
}
102
{ACAD_REACTORS
330
EF
102
}
330
EF
100
AcDbVisualStyle
  2
EdgeColorOff
 70
    22
 71
     2
 72
     2
 73
     0
 90
        0
 40
-0.6
 41
-30.0
 62
     5
 63
     7
 74
     1
 91
        4
 64
     7
 65
   257
 75
     1
175
     1
 42
1.0
 92
        8
 66
     7
 43
1.0
 76
     1
 77
     6
 78
     2
 67
     7
 79
     5
170
     0
171
     0
290
     0
174
     0
 93
        1
 44
0.0
173
     0
291
     1
 45
0.0
1001
ACAD
1000
AcDbSavedByObjectVersion
1070
     0
  0
VISUALSTYLE
  5
FE
102
{ACAD_XDICTIONARY
360
A54
102
}
102
{ACAD_REACTORS
330
EF
102
}
330
EF
100
AcDbVisualStyle
  2
Facepattern
 70
    15
 71
     2
 72
     2
 73
     1
 90
        0
 40
-0.6
 41
-30.0
 62
     5
 63
     7
 74
     1
 91
        4
 64
     7
 65
   257
 75
     1
175
     1
 42
1.0
 92
        8
 66
     7
 43
1.0
 76
     1
 77
     6
 78
     2
 67
     7
 79
     5
170
     0
171
     0
290
     0
174
     0
 93
        1
 44
0.0
173
     0
291
     1
 45
0.0
1001
ACAD
1000
AcDbSavedByObjectVersion
1070
     0
  0
VISUALSTYLE
  5
F0
102
{ACAD_XDICTIONARY
360
A38
102
}
102
{ACAD_REACTORS
330
EF
102
}
330
EF
100
AcDbVisualStyle
  2
Flat
 70
     0
 71
     2
 72
     1
 73
     1
 90
        2
 40
-0.6
 41
30.0
 62
     5
 63
     7
 74
     0
 91
        0
 64
     7
 65
   257
 75
     1
175
     1
 42
1.0
 92
        8
 66
     7
 43
1.0
 76
     1
 77
     6
 78
     2
 67
     7
 79
     5
170
     0
171
     0
290
     0
174
     0
 93
       13
 44
0.0
173
     0
291
     1
 45
0.0
1001
ACAD
1000
AcDbSavedByObjectVersion
1070
     0
  0
VISUALSTYLE
  5
F1
102
{ACAD_XDICTIONARY
360
A3A
102
}
102
{ACAD_REACTORS
330
EF
102
}
330
EF
100
AcDbVisualStyle
  2
FlatWithEdges
 70
     1
 71
     2
 72
     1
 73
     1
 90
        2
 40
-0.6
 41
30.0
 62
     5
 63
     7
 74
     1
 91
        0
 64
     7
 65
   257
 75
     1
175
     1
 42
1.0
 92
        0
 66
   257
 43
1.0
 76
     1
 77
     6
 78
     2
 67
     7
 79
     5
170
     0
171
     0
290
     0
174
     0
 93
       13
 44
0.0
173
     0
291
     1
 45
0.0
1001
ACAD
1000
AcDbSavedByObjectVersion
1070
     0
  0
VISUALSTYLE
  5
F2
102
{ACAD_XDICTIONARY
360
A3C
102
}
102
{ACAD_REACTORS
330
EF
102
}
330
EF
100
AcDbVisualStyle
  2
Gouraud
 70
     2
 71
     2
 72
     2
 73
     1
 90
        2
 40
-0.6
 41
30.0
 62
     5
 63
     7
 74
     0
 91
        0
 64
     7
 65
   257
 75
     1
175
     1
 42
1.0
 92
        0
 66
     7
 43
1.0
 76
     1
 77
     6
 78
     2
 67
     7
 79
     5
170
     0
171
     0
290
     0
174
     0
 93
       13
 44
0.0
173
     0
291
     1
 45
0.0
1001
ACAD
1000
AcDbSavedByObjectVersion
1070
     0
  0
VISUALSTYLE
  5
F3
102
{ACAD_XDICTIONARY
360
A3E
102
}
102
{ACAD_REACTORS
330
EF
102
}
330
EF
100
AcDbVisualStyle
  2
GouraudWithEdges
 70
     3
 71
     2
 72
     2
 73
     1
 90
        2
 40
-0.6
 41
30.0
 62
     5
 63
     7
 74
     1
 91
        0
 64
     7
 65
   257
 75
     1
175
     1
 42
1.0
 92
        0
 66
   257
 43
1.0
 76
     1
 77
     6
 78
     2
 67
     7
 79
     5
170
     0
171
     0
290
     0
174
     0
 93
       13
 44
0.0
173
     0
291
     1
 45
0.0
1001
ACAD
1000
AcDbSavedByObjectVersion
1070
     0
  0
VISUALSTYLE
  5
F7
102
{ACAD_XDICTIONARY
360
A46
102
}
102
{ACAD_REACTORS
330
EF
102
}
330
EF
100
AcDbVisualStyle
  2
Hidden
 70
     6
 71
     1
 72
     2
 73
     2
 90
        0
 40
-0.6
 41
-30.0
 62
     5
 63
     7
 74
     2
 91
        2
 64
     7
 65
   257
 75
     2
175
     1
 42
40.0
 92
        0
 66
   257
 43
1.0
 76
     1
 77
     6
 78
     2
 67
     7
 79
     3
170
     0
171
     0
290
     0
174
     0
 93
        1
 44
0.0
173
     0
291
     0
 45
0.0
1001
ACAD
1000
AcDbSavedByObjectVersion
1070
     0
  0
VISUALSTYLE
  5
1E4
102
{ACAD_XDICTIONARY
360
A5A
102
}
102
{ACAD_REACTORS
330
EF
102
}
330
EF
100
AcDbVisualStyle
  2
JitterOff
 70
    20
 71
     2
 72
     2
 73
     0
 90
        0
 40
-0.6
 41
-30.0
 62
     5
 63
     7
 74
     1
 91
        4
 64
     7
 65
   257
 75
     1
175
     1
 42
1.0
 92
       10
 66
     7
 43
1.0
 76
     1
 77
     6
 78
     2
 67
     7
 79
     5
170
     0
171
     0
290
     0
174
     0
 93
        1
 44
0.0
173
     0
291
     1
 45
0.0
1001
ACAD
1000
AcDbSavedByObjectVersion
1070
     0
  0
VISUALSTYLE
  5
FD
102
{ACAD_XDICTIONARY
360
A52
102
}
102
{ACAD_REACTORS
330
EF
102
}
330
EF
100
AcDbVisualStyle
  2
Linepattern
 70
    14
 71
     2
 72
     2
 73
     1
 90
        0
 40
-0.6
 41
-30.0
 62
     5
 63
     7
 74
     1
 91
        4
 64
     7
 65
   257
 75
     7
175
     7
 42
1.0
 92
        8
 66
     7
 43
1.0
 76
     1
 77
     6
 78
     2
 67
     7
 79
     5
170
     0
171
     0
290
     0
174
     0
 93
        1
 44
0.0
173
     0
291
     1
 45
0.0
1001
ACAD
1000
AcDbSavedByObjectVersion
1070
     0
  0
VISUALSTYLE
  5
1E5
102
{ACAD_XDICTIONARY
360
A5C
102
}
102
{ACAD_REACTORS
330
EF
102
}
330
EF
100
AcDbVisualStyle
  2
OverhangOff
 70
    21
 71
     2
 72
     2
 73
     0
 90
        0
 40
-0.6
 41
-30.0
 62
     5
 63
     7
 74
     1
 91
        4
 64
     7
 65
   257
 75
     1
175
     1
 42
1.0
 92
        9
 66
     7
 43
1.0
 76
     1
 77
     6
 78
     2
 67
     7
 79
     5
170
     0
171
     0
290
     0
174
     0
 93
        1
 44
0.0
173
     0
291
     1
 45
0.0
1001
ACAD
1000
AcDbSavedByObjectVersion
1070
     0
  0
VISUALSTYLE
  5
F9
102
{ACAD_XDICTIONARY
360
A4A
102
}
102
{ACAD_REACTORS
330
EF
102
}
330
EF
100
AcDbVisualStyle
  2
Realistic
 70
     8
 71
     2
 72
     2
 73
     0
 90
        2
 40
-0.6
 41
30.0
 62
     5
 63
     7
 74
     0
 91
        0
 64
     7
 65
   257
 75
     1
175
     1
 42
1.0
 92
        8
 66
   257
 43
1.0
 76
     1
 77
     6
 78
     2
 67
     7
 79
     3
170
     0
171
     0
290
     0
174
     0
 93
       13
 44
0.0
173
     0
291
     0
 45
0.0
1001
ACAD
1000
AcDbSavedByObjectVersion
1070
     0
  0
VISUALSTYLE
  5
1F3
102
{ACAD_XDICTIONARY
360
A68
102
}
102
{ACAD_REACTORS
330
EF
102
}
330
EF
100
AcDbVisualStyle
  2
Shaded
 70
    27
 71
     2
 72
     2
 73
     1
 90
        2
 40
-0.6
 41
30.0
 62
     5
 63
     7
 74
     0
 91
        4
 64
     7
 65
   257
 75
     1
175
     1
 42
1.0
 92
        8
 66
   257
 43
1.0
 76
     1
 77
     6
 78
     2
 67
     8
 79
     3
170
     0
171
     0
290
     0
174
     0
 93
        5
 44
0.0
173
     0
291
     0
 45
0.0
1001
ACAD
1000
AcDbSavedByObjectVersion
1070
     0
  0
VISUALSTYLE
  5
1F2
102
{ACAD_XDICTIONARY
360
A66
102
}
102
{ACAD_REACTORS
330
EF
102
}
330
EF
100
AcDbVisualStyle
  2
Shaded with edges
 70
    26
 71
     2
 72
     2
 73
     1
 90
        2
 40
-0.6
 41
30.0
 62
     5
 63
     7
 74
     1
 91
        2
 64
     7
 65
   257
 75
     2
175
     1
 42
1.0
 92
        8
 66
   257
 43
1.0
 76
     1
 77
     6
 78
     2
 67
     7
 79
     3
170
     0
171
     0
290
     0
174
     0
 93
        5
 44
0.0
173
     0
291
     0
 45
0.0
1001
ACAD
1000
AcDbSavedByObjectVersion
1070
     0
  0
VISUALSTYLE
  5
1EF
102
{ACAD_XDICTIONARY
360
A60
102
}
102
{ACAD_REACTORS
330
EF
102
}
330
EF
100
AcDbVisualStyle
  2
Shades of Gray
 70
    23
 71
     2
 72
     2
 73
     3
 90
        0
 40
-0.6
 41
-30.0
 62
     5
 63
     7
 74
     2
 91
        2
 64
     7
 65
     7
 75
     1
175
     1
 42
40.0
 92
        8
 66
     7
 43
1.0
 76
     1
 77
     6
 78
     2
 67
     7
 79
     3
170
     0
171
     0
290
     0
174
     0
 93
        1
 44
0.0
173
     0
291
     0
 45
0.0
1001
ACAD
1000
AcDbSavedByObjectVersion
1070
     0
  0
VISUALSTYLE
  5
1F0
102
{ACAD_XDICTIONARY
360
A62
102
}
102
{ACAD_REACTORS
330
EF
102
}
330
EF
100
AcDbVisualStyle
  2
Sketchy
 70
    24
 71
     1
 72
     2
 73
     2
 90
        0
 40
-0.6
 41
-30.0
 62
     5
 63
     7
 74
     2
 91
        2
 64
     7
 65
     7
 75
     1
175
     1
 42
40.0
 92
       11
 66
     7
 43
1.0
 76
     1
 77
     6
 78
     2
 67
     7
 79
     6
170
     0
171
     0
290
     0
174
     0
 93
        1
 44
0.0
173
     0
291
     0
 45
0.0
1001
ACAD
1000
AcDbSavedByObjectVersion
1070
     0
  0
VISUALSTYLE
  5
FC
102
{ACAD_XDICTIONARY
360
A50
102
}
102
{ACAD_REACTORS
330
EF
102
}
330
EF
100
AcDbVisualStyle
  2
Thicken
 70
    13
 71
     2
 72
     2
 73
     1
 90
        0
 40
-0.6
 41
-30.0
 62
     5
 63
     7
 74
     1
 91
        4
 64
     7
 65
   257
 75
     1
175
     1
 42
1.0
 92
       12
 66
     7
 43
1.0
 76
     1
 77
     6
 78
     2
 67
     7
 79
     5
170
     0
171
     0
290
     0
174
     0
 93
        1
 44
0.0
173
     0
291
     1
 45
0.0
1001
ACAD
1000
AcDbSavedByObjectVersion
1070
     0
  0
VISUALSTYLE
  5
F6
102
{ACAD_XDICTIONARY
360
A44
102
}
102
{ACAD_REACTORS
330
EF
102
}
330
EF
100
AcDbVisualStyle
  2
Wireframe
 70
     5
 71
     0
 72
     2
 73
     0
 90
        0
 40
-0.6
 41
-30.0
 62
     5
 63
     7
 74
     1
 91
        4
 64
     7
 65
   257
 75
     1
175
     1
 42
1.0
 92
        0
 66
   257
 43
1.0
 76
     1
 77
     6
 78
     2
 67
     7
 79
     3
170
     0
171
     0
290
     0
174
     0
 93
        1
 44
0.0
173
     0
291
     0
 45
0.0
1001
ACAD
1000
AcDbSavedByObjectVersion
1070
     0
  0
VISUALSTYLE
  5
1F1
102
{ACAD_XDICTIONARY
360
A64
102
}
102
{ACAD_REACTORS
330
EF
102
}
330
EF
100
AcDbVisualStyle
  2
X-Ray
 70
    25
 71
     2
 72
     2
 73
     1
 90
        1
 40
0.5
 41
-30.0
 62
     5
 63
     7
 74
     1
 91
        0
 64
     7
 65
   257
 75
     1
175
     1
 42
1.0
 92
        8
 66
     7
 43
1.0
 76
     1
 77
     6
 78
     2
 67
     7
 79
     3
170
     0
171
     0
290
     0
174
     0
 93
       13
 44
0.0
173
     0
291
     0
 45
0.0
1001
ACAD
1000
AcDbSavedByObjectVersion
1070
     0
  0
DICTIONARYVAR
  5
146
102
{ACAD_REACTORS
330
5E
102
}
330
5E
100
DictionaryVariables
280
     0
  1
1:1
  0
DICTIONARYVAR
  5
259
102
{ACAD_REACTORS
330
5E
102
}
330
5E
100
DictionaryVariables
280
     0
  1
3.500000
  0
DICTIONARYVAR
  5
25A
102
{ACAD_REACTORS
330
5E
102
}
330
5E
100
DictionaryVariables
280
     0
  1
acadiso.lin
  0
DICTIONARYVAR
  5
145
102
{ACAD_REACTORS
330
5E
102
}
330
5E
100
DictionaryVariables
280
     0
  1
STANDARD
  0
DICTIONARYVAR
  5
84
102
{ACAD_REACTORS
330
5E
102
}
330
5E
100
DictionaryVariables
280
     0
  1
STANDARD
  0
DICTIONARYVAR
  5
227
102
{ACAD_REACTORS
330
5E
102
}
330
5E
100
DictionaryVariables
280
     0
  1
Metric50
  0
DICTIONARYVAR
  5
228
102
{ACAD_REACTORS
330
5E
102
}
330
5E
100
DictionaryVariables
280
     0
  1
Metric50
  0
DICTIONARYVAR
  5
5F
102
{ACAD_REACTORS
330
5E
102
}
330
5E
100
DictionaryVariables
280
     0
  1
2
  0
DICTIONARYVAR
  5
63
102
{ACAD_REACTORS
330
5E
102
}
330
5E
100
DictionaryVariables
280
     0
  1
1
  0
DICTIONARYVAR
  5
9D9
102
{ACAD_REACTORS
330
5E
102
}
330
5E
100
DictionaryVariables
280
     0
  1
0
  0
DICTIONARYVAR
  5
1AE
102
{ACAD_REACTORS
330
5E
102
}
330
5E
100
DictionaryVariables
280
     0
  1
0
  0
DICTIONARYVAR
  5
1AF
102
{ACAD_REACTORS
330
5E
102
}
330
5E
100
DictionaryVariables
280
     0
  1
0
  0
DICTIONARYVAR
  5
9D7
102
{ACAD_REACTORS
330
5E
102
}
330
5E
100
DictionaryVariables
280
     0
  1
2
  0
DICTIONARYVAR
  5
9D6
102
{ACAD_REACTORS
330
5E
102
}
330
5E
100
DictionaryVariables
280
     0
  1
1
  0
DICTIONARYVAR
  5
A29
102
{ACAD_REACTORS
330
5E
102
}
330
5E
100
DictionaryVariables
280
     0
  1
80.000000
  0
DICTIONARYVAR
  5
A28
102
{ACAD_REACTORS
330
5E
102
}
330
5E
100
DictionaryVariables
280
     0
  1
5.000000
  0
DICTIONARYVAR
  5
9D8
102
{ACAD_REACTORS
330
5E
102
}
330
5E
100
DictionaryVariables
280
     0
  1
127
  0
DICTIONARYVAR
  5
A2A
102
{ACAD_REACTORS
330
5E
102
}
330
5E
100
DictionaryVariables
280
     0
  1
2
  0
DICTIONARY
  5
A6C
330
21C
100
AcDbDictionary
280
     1
281
     1
  3
ACAD_XREC_ROUNDTRIP
360
A6D
  0
DICTIONARY
  5
A31
330
D3
100
AcDbDictionary
280
     1
281
     1
  3
ACAD_XREC_ROUNDTRIP
360
A32
  0
DICTIONARY
  5
A33
330
D7
100
AcDbDictionary
280
     1
281
     1
  3
ACAD_XREC_ROUNDTRIP
360
A34
  0
DICTIONARY
  5
A2E
330
22
100
AcDbDictionary
280
     1
281
     1
  3
ACAD_XREC_ROUNDTRIP
360
A2F
  0
DICTIONARY
  5
1F9
330
ED
100
AcDbDictionary
280
     1
281
     1
  3
ACAD_XREC_ROUNDTRIP
360
A36
  3
FBXASSET
360
1FA
  0
DICTIONARY
  5
1F7
330
EC
100
AcDbDictionary
280
     1
281
     1
  3
ACAD_XREC_ROUNDTRIP
360
A35
  3
FBXASSET
360
1F8
  0
DICTIONARY
  5
173
330
EE
100
AcDbDictionary
280
     1
281
     1
  3
ACAD_XREC_ROUNDTRIP
360
A37
  3
BUMPTILE
360
175
  3
DIFFUSETILE
360
174
  3
FBXASSET
360
1FB
  3
OPACITYTILE
360
176
  3
REFLECTIONTILE
360
177
  0
DICTIONARY
  5
A58
330
12E
100
AcDbDictionary
280
     1
281
     1
  3
ACAD_XREC_ROUNDTRIP
360
A59
  0
DICTIONARY
  5
A6A
330
21A
100
AcDbDictionary
280
     1
281
     1
  3
ACAD_XREC_ROUNDTRIP
360
A6B
  0
DICTIONARY
  5
162
330
7F
100
AcDbDictionary
280
     1
281
     1
  3
ACAD_ROUNDTRIP_2008_TABLESTYLE_CELLSTYLEMAP
360
A2B
  3
ACAD_XREC_ROUNDTRIP
360
A30
  0
DICTIONARY
  5
A42
330
F5
100
AcDbDictionary
280
     1
281
     1
  3
ACAD_XREC_ROUNDTRIP
360
A43
  0
DICTIONARY
  5
A40
330
F4
100
AcDbDictionary
280
     1
281
     1
  3
ACAD_XREC_ROUNDTRIP
360
A41
  0
DICTIONARY
  5
A4E
330
FB
100
AcDbDictionary
280
     1
281
     1
  3
ACAD_XREC_ROUNDTRIP
360
A4F
  0
DICTIONARY
  5
A56
330
FF
100
AcDbDictionary
280
     1
281
     1
  3
ACAD_XREC_ROUNDTRIP
360
A57
  0
DICTIONARY
  5
A48
330
F8
100
AcDbDictionary
280
     1
281
     1
  3
ACAD_XREC_ROUNDTRIP
360
A49
  0
DICTIONARY
  5
A4C
330
FA
100
AcDbDictionary
280
     1
281
     1
  3
ACAD_XREC_ROUNDTRIP
360
A4D
  0
DICTIONARY
  5
A5E
330
1E6
100
AcDbDictionary
280
     1
281
     1
  3
ACAD_XREC_ROUNDTRIP
360
A5F
  0
DICTIONARY
  5
A54
330
FE
100
AcDbDictionary
280
     1
281
     1
  3
ACAD_XREC_ROUNDTRIP
360
A55
  0
DICTIONARY
  5
A38
330
F0
100
AcDbDictionary
280
     1
281
     1
  3
ACAD_XREC_ROUNDTRIP
360
A39
  0
DICTIONARY
  5
A3A
330
F1
100
AcDbDictionary
280
     1
281
     1
  3
ACAD_XREC_ROUNDTRIP
360
A3B
  0
DICTIONARY
  5
A3C
330
F2
100
AcDbDictionary
280
     1
281
     1
  3
ACAD_XREC_ROUNDTRIP
360
A3D
  0
DICTIONARY
  5
A3E
330
F3
100
AcDbDictionary
280
     1
281
     1
  3
ACAD_XREC_ROUNDTRIP
360
A3F
  0
DICTIONARY
  5
A46
330
F7
100
AcDbDictionary
280
     1
281
     1
  3
ACAD_XREC_ROUNDTRIP
360
A47
  0
DICTIONARY
  5
A5A
330
1E4
100
AcDbDictionary
280
     1
281
     1
  3
ACAD_XREC_ROUNDTRIP
360
A5B
  0
DICTIONARY
  5
A52
330
FD
100
AcDbDictionary
280
     1
281
     1
  3
ACAD_XREC_ROUNDTRIP
360
A53
  0
DICTIONARY
  5
A5C
330
1E5
100
AcDbDictionary
280
     1
281
     1
  3
ACAD_XREC_ROUNDTRIP
360
A5D
  0
DICTIONARY
  5
A4A
330
F9
100
AcDbDictionary
280
     1
281
     1
  3
ACAD_XREC_ROUNDTRIP
360
A4B
  0
DICTIONARY
  5
A68
330
1F3
100
AcDbDictionary
280
     1
281
     1
  3
ACAD_XREC_ROUNDTRIP
360
A69
  0
DICTIONARY
  5
A66
330
1F2
100
AcDbDictionary
280
     1
281
     1
  3
ACAD_XREC_ROUNDTRIP
360
A67
  0
DICTIONARY
  5
A60
330
1EF
100
AcDbDictionary
280
     1
281
     1
  3
ACAD_XREC_ROUNDTRIP
360
A61
  0
DICTIONARY
  5
A62
330
1F0
100
AcDbDictionary
280
     1
281
     1
  3
ACAD_XREC_ROUNDTRIP
360
A63
  0
DICTIONARY
  5
A50
330
FC
100
AcDbDictionary
280
     1
281
     1
  3
ACAD_XREC_ROUNDTRIP
360
A51
  0
DICTIONARY
  5
A44
330
F6
100
AcDbDictionary
280
     1
281
     1
  3
ACAD_XREC_ROUNDTRIP
360
A45
  0
DICTIONARY
  5
A64
330
1F1
100
AcDbDictionary
280
     1
281
     1
  3
ACAD_XREC_ROUNDTRIP
360
A65
  0
XRECORD
  5
A6D
102
{ACAD_REACTORS
330
A6C
102
}
330
A6C
100
AcDbXrecord
280
     1
102
DISPLAYNAME
  1
Metric50
102
FLAGS
 90
        0
  0
XRECORD
  5
A32
102
{ACAD_REACTORS
330
A31
102
}
330
A31
100
AcDbXrecord
280
     1
102
SHADEPLOT
 70
     0
102
SHADEPLOTRESLEVEL
 70
     2
102
SHADEPLOTCUSTOMDPI
 70
   300
  0
XRECORD
  5
A34
102
{ACAD_REACTORS
330
A33
102
}
330
A33
100
AcDbXrecord
280
     1
102
SHADEPLOT
 70
     0
102
SHADEPLOTRESLEVEL
 70
     2
102
SHADEPLOTCUSTOMDPI
 70
   300
  0
XRECORD
  5
A2F
102
{ACAD_REACTORS
330
A2E
102
}
330
A2E
100
AcDbXrecord
280
     1
102
SHADEPLOT
 70
     0
102
SHADEPLOTRESLEVEL
 70
     2
102
SHADEPLOTCUSTOMDPI
 70
   300
  0
XRECORD
  5
A36
102
{ACAD_REACTORS
330
1F9
102
}
330
1F9
100
AcDbXrecord
280
     1
102
MATERIAL
148
0.0
149
0.0
149
0.0
 93
        0
 94
       63
282
     0
 72
     1
 77
     1
171
     1
175
     1
179
     1
273
     0
  0
XRECORD
  5
1FA
102
{ACAD_REACTORS
330
1F9
102
}
330
1F9
100
AcDbXrecord
280
     1
 70
     1
 90
429727718
  1
D62C5603-E3A1-4AEA-B7FB-FE5D8D0755AF
310
504B03040A0000080000CC70623B3DEE336E79000000790000001B0000006175746F6465736B2D64657369676E2D7061636B6167652E786D6C3C3F786D6C2076657273696F6E3D22312E302220656E636F64696E673D227574662D3822203F3E3C666F726D6174733E3C666F726D61743E687474703A2F2F736368656D612E
310
6175746F6465736B2E636F6D2F64657369676E2D7061636B6167652F323030393C2F666F726D61743E3C2F666F726D6174733E504B0304140006080800CC70623BD486FD9CA0000000F4000000130000005B436F6E74656E745F54797065735D2E786D6C7D8EC10E82300C865F65E91D8A1E8C310C0EEA1BF002731658846E
310
D98AC1B77784ABF1D8FE5FBFBF75BBCE937A534CCEB38643598122B6FEE978D0B0485F9C41B54DDD7D022595594E1A469170414C76A4D9A4D207E29CF43ECE46F218070CC6BECC4078ACAA135ACF422C856C0E68EA1BF5669944DDD7BCDE7B1F8E415D77AECB980613C2E4AC91FC167A2B244592486606FC29C8FD7F045B9A
310
EF7053A7E60B504B0304140006080800CC70623B853B8169EB0000007C01000008000000636F72652E786D6C8D90416EC3201045AF62CDB6C206821CC7C244919D9CA01740401C94182C03558F5F9C3852BBEB6A467FFE9B197D7EFC9E1EC5975982F5AE035262288C535E5B377690E21535501C055FBC8FBF6C503839990E
310
5619041F179FE64D52DE45E362569DD7661365082642A11EB9E920A89B99642953CC8E702F67A9EE7234257977194EC9EAE275C4EABCCF5EAD5940D4AC6F0E35A568B8F43562CD7046CD199FD07E60174276A7BE677B5EADB0E0D14EEFFB6A31321A0D82627C4084204C3F096B71DD52F6819B16635EADF63F509AF53FA164
310
5DDCD1EDDD17164090FCC8732078B56691CB33A85CD7DCC40F504B0304140006080800CC70623B55019EA25F0000007C00000007000000636E782E786D6C4DCB3B0E80201045D1AD90E915ED2CF8AC45050C11660C8261F98AB1B07AC9C97D42D718D865D3E909258CFD00CCE24AC6E326A164D74DC0B4128928FF32603847
310
2BA13128B1252AC747C6BAB984FC68F0B87FE8960A5C09FE86CFB69FBA01504B0304140006080800CC70623BDBABAAF470010000D40300000C0000006662782F636F72652E786D6CC553D16E823014FD95A6AF4B694182CC941A83FA05FB810A9511A125A5257EFE2E82712ECEB8A7F100CD39F7F69E734AF9FADC366850B6
310
AF8DCE7018308C942E4C59EB2AC3DE1D498AD15A706B8CFB56869196ADCAF00863C12B6B7C374385D14E6907A836A59A41D9F7CA615434B0C8705F7CAA5606D23BA8E84F41278B93AC54100640439DE0BDB320004D43C63716C7C399D30917DCFBBA9CD9BA8469F5B156168B24CED3F7248AC8769F27244EB73B92EED8862C
310
B7F13E0C179B3C8F979C8ECD82BBBABDAA2BAC924E9558448CBD9330242CFA08E3154B5651FCC6D215639C8EE5774DBE2B5F6CF2B5768B68963BB5F5588420E442FC700B1139D4CB01F450C1E918227C2E09DF070D8140C84E1E9AAB8F1340832A9CB13130A5F1376A908D57309505ECF2A0DF179C4E9D30F5B239B87E3823
310
7A79C6F31DE1A8A5AEC08474B03C7837EAE4938639B44E5932B833D2C6B6B279CDC613877FA26EE21F4A2A4C63EC7F29A2F301D1F9F7A0E37D145F504B0304140006080800CC70623B9C113CC27E0000009D0000000B0000006662782F636E782E786D6C4DCCDF0A83201C86E15B91DFB94BFB330DD428C8FB886521330DA7
310
6397BF1A1DECE883878F57749FCDA1B7892F1BBC047A23808C7F84D9FA55424E0BE6803A256208E9EF06C84F9B91703228B1C690F78B66B34CD9A5439DF5CF0BFBF65E35BCA1B8D6A5C6F540381E886698B5741C695F9503EBA150A2F8958E3DC3EA0B504B0304140006080800CC70623B7DF2F77C2A010000120200003100
310
00006662782F41393633353835312D344632462D344230382D423046372D3739314545314133324237412F636F72652E786D6C8D51DB8EC22014FC15C2939B0D2DB4B45643319AE817EC0F6041255A68B86CFCFC856D4D76DF7CE190393373060EDB3DC707F856CE6B6B7A480A0C81328395DA5C7B18C3057510EC3873D686
310
3F34088C18550F330C39BB3A1BA7051AAC09CA84841A2BD5020AEF55806078A44B0FFD7053A328440C89E1EFC52486BBB8AA8214A99D789CF9E05200300FC927E4FB4D5B375D43103D5527440FB843077C5AA3F5861C8F645F5787F59E95B390B318B55CE45AA638FAA2957BD7248B390B7A7CC51F9C124149C82B8C378810
310
84AB2F42B7B8DD56F413775B8C5999E9FF4471926F8AA236A1AE96B8B3CC434E5839373893369E1FAF30EA395917409EB7F26AF8801C171837A4A6AC9C89E9F9C9B1A58BA30FD6A5EF5DDDCF894B9AD9B6A59C957943A9FCAE2FD5BC4DFE03504B0304140006080800CC70623BAD7543B64E01000033030000300000006662
310
782F41393633353835312D344632462D344230382D423046372D3739314545314133324237412F636E782E786D6CD593CD6EC32010845F0571AD6CE3D48AD20813A9873E410FBD12D82434182C7EAAE6EDBB2424CD25871E7B41D6EC30B3FA84F9E67BB2E40B4234DE8DB46F1925E094D7C6ED479AD3AE5951B2113C789FEE
310
6C943839C1488B4C05DF079FE72A69D8C96C13AAD6B8631503449F83828872B949AC57D26200B826A308D316B4064D6E46FCDA41C05550DC9E483A00797BFD207EFB092A45DE9514C1BBD22178396BD39D891265658C238DEA00936C654E5E433CB65A26D9F6EDB5EBC14EBF49A45CB856E66048291F6939A9A81BB5C89177
310
38143CA680F4AA299D66A042CEB3354A2684DC9D8D178FE0D9B8B41CAAD720F880EE7EF93C0C18769E099ECC04D5A102C8049A8A05632F4DDF376CF1DE0F6BB65C2F8627B65A33C6BB62177CEBBDAD973006829F89F22E814B54F4BC2BE347F8AA8F681390B50FA73F804400B5F542E796F19FF974E7F78DB802FE05E20750
310
4B0304140006080800CC70623BE75B7789680500003C100000340000006662782F41393633353835312D344632462D344230382D423046372D3739314545314133324237412F6F626A656374732E786D6CAD575B8F9B3818FD2B887D06C22499CB8AA1CA655245D5B455A356FB305264C061D8018C6C3393D95FBFC7600890
310
A4CD5EF210B0B1BFEBF98E3F7B1FF6596ABC522E1296DF9BAE3D320D9A872C4AF2F8DE2CE5CEBA358D0FBEC719939D65A691938CDE9B6ADAF4BD98B3B2D05311DD91329583D9D5FC0F438434A7A611A644887B5384CF34233629258BA878B12322891DEFF6B66BD70BFB62634E8AE781D082709A4B588AF91C528CDA28B73F
310
1C998EEF39EABBEFA97FBD6A7C7E9553F9D3D79FE442923C3C523610337627CB87ABE99D359D4CC6D6E4FACAB5E6ABF9D2726FC6A3C5F56271377BB88362213924694B38DD99FE47C48627A1E7D49F5A8BB5E1A74C0A599ED3B0F21F1E56366B89112D681E218F0915D0D6F17AD41FBA2A369DCF6335D62ABBD39779D5DDD1
310
11D4D8DE3CBB96B2E04FB8202E41051754A1AA8E8F76B4C6DFE810B580B1547F4B84911149794252234D024EF8BBE963A95AE27B3D310A9D5C215C7960FAEE415ED75694C6AFB17BCACA5D99A60A9AA65F217B0BFC53292ACB92BF283FAD0D3621576592CB5BED907C2FA8E9DF794E35E97BEA31BED21FEB401ABB94C44839
310
DCACBF0E1C5DA8DA5B2F4DFFD32AD86F543D9E565E7056502E157C00AD2671CD534549AB752FCA9CDA00677A313F04E51B22FF19E57B300579E3C97EB29F682D92935CEC18CF901B7B54FD8C51F362B56FC72FE0B3C1EAE335EDCCBF5AEC39ADB17DC238973F804BA5E6F6BFE7AF1FB32E523BE9F3BD571418E3631DCA4D48
310
5250CF639223210A9446CA30052EDF057BD35F8329C1ECD84552BF0DC8D18BE7BCE23BFE6BD960AB4A7DE79923A103BEBD80F911CBAA2C60DB19B01CF164A5583B772EE6D3FFA56666CBCDA74DC97724A48F9A58967497E489C4D979006FD7A05E227A1EBDD0F737C623387A9C844D3709995625106D157315F8B8392CD4E0
310
A0B9A720C4BE9829CEF37EA1E13111214D53925356365ADA634861B52519DD27A00AEB808EAF0628E6F435519D446F45CF2C9CF5214F0A15B2F6D06B79DA3EE3CBF7F56780D2F4E7EF73A0F5E5B02A38D07DC852C6B7C1FBB6664213E0C39E3EBA7FF4E1AD23EA2829407C85E586727488B751B2DB9502BC7B228A3FD68B6E
310
A65A22397E690AA8D158D7E404EC8CDA235CC3B7D1898680131CEC2CDF2638C65196279577750F15884AEE19F94199155B92B13297978469D4F8D358DF0AEF7631E28DC8F0D9F437D5D39A83B2231A1D52D543813A824EF8D44BCFF2FA6A31BD1E8DAD87F1CCB526B3879935BF59CDADD5C37479BB1CDD4CA7B3556B516589
310
EF352754B706114D9C885EC9131DE6EFEB43D99AFE2391C2F958179413D7CFEF6B1B6DB1E7600F00DE6E5C67454A339A4BA2E0FBA85ED26F045D454F463DBFCE484C2F90F2E5E3666003662ED8F755951A7D1BECD5B30B550B2785C8E7320B7292A4838DDA71BBC863ED7613CAF659337A3354231D4FF4A182A54904C2898C
310
98B28C4AD0CE056CCF332A80986E571EE9DBC305BB5FEB7E509220A58D25CF042D712A806AC0AD0C657FDEF80D2D9CEAA2EE4D1C76F60BFE74219A06527D6F82DF6412526107381E55E353090704D085B52408A8913C4ED159D79BDA71BB4BC506F4831350EB6F975CD22D69BF7AC49B91A2C0A9DDA3D5CA36AD20FC478E37
310
E61844E2352865EBCB61A275A65283CAAA9DD27703B4102F5AF51EF5F573B75CBB5AD38BC845F7A49F82A0966A49C2E3EA5EA0ECD326CD965F1DB402C6FA8B51A4658C5C5E2EC9E214602E55810345408596591009A82E7E7FFACA19EEA299B14A0081A705CB3296EBC14CDF658DCD336EA6D1136881AAEB87B81AB9EE53D5
310
F5EB8BC8362082DA24122F98680A4E7930C01A0079749CEA14382A0783E5EBA5A10F8C098456A03D6A4AEB6BB881E2513747552A5DB22C7EDAF83BD5528081A365F7FF06504B0304140006080000CC70623B000000000000000000000000350000006662782F41393633353835312D344632462D344230382D423046372D37
310
39314545314133324237412F76657274696365732E62696E504B0304140006080800CC70623BF270F1330600000004000000360000006662782F41393633353835312D344632462D344230382D423046372D3739314545314133324237412F747269616E676C65732E62696E636660600000504B0304140006080000CC7062
310
3B000000000000000000000000370000006662782F41393633353835312D344632462D344230382D423046372D3739314545314133324237412F617474726962757465732E62696E504B0304140006080800CC70623B08DA0BD19000000041010000360000006662782F41393633353835312D344632462D344230382D4230
310
46372D3739314545314133324237412F6469726563746F72792E786D6C858F410AC3201045AF22B36F53E9A60B35CBEEBAE80D244E44489C6234F4F835464A48035D0DF398FF9F8AF63D0E6CC63039F212F8F9020C7D47C6792B21C5FE7403D62A1188E2E60C98D7234A5830286103A55745067B9D86B8A3CF9C7F90C11DE6
310
07FB144396D7B6A82D282E9A152AD114D5EF2CB866EEE831B8EEA07A7BB5A8D7D61A2BAAEB7FD5F70921FF497D00504B0304140006080800CC70623BEDD1DC58FD000000A00100003B0000006662782F41393633353835312D344632462D344230382D423046372D3739314545314133324237412F7265736F75726365732F
310
636F72652E786D6C8D504B6E833010BD0A9A6D65B00922041947112427E8052C33A156828DFCA97AFC9A40A576D7CDCCE87D344F8F9FBFE667F689CE6B6B3A6039850C8DB2A336530731DC4903D95970676DF82583CCC8193B5861107C72362E3BA4AC096842428D1D7107A5F7182053CF7474E0D507CE32973124857FE48B
310
540F3961CEF244279DE03EB81420DB9EAC1384436FA353E879B1B182C7A8C75DA3C7F453DF353A1075D537A7BA6464B8F535A99AE14A9A2BBD90E350DD183B5CFABE3AF262350B1EF4FC9351399401471025A527C218A1E53BAB5A5AB765F5469B96525EACF23FA6B88CFF34456DC2A1DCE36E360F82A5202F42F062ED2BAD
310
579969AFDD8A6F504B010214000A0000080000CC70623B3DEE336E79000000790000001B00000000000000000000000000000000006175746F6465736B2D64657369676E2D7061636B6167652E786D6C504B01021400140006080800CC70623BD486FD9CA0000000F40000001300000000000000000000000000B20000005B
310
436F6E74656E745F54797065735D2E786D6C504B01021400140006080800CC70623B853B8169EB0000007C010000080000000000000000000000000083010000636F72652E786D6C504B01021400140006080800CC70623B55019EA25F0000007C000000070000000000000000000000000094020000636E782E786D6C504B
310
01021400140006080800CC70623BDBABAAF470010000D40300000C00000000000000000000000000180300006662782F636F72652E786D6C504B01021400140006080800CC70623B9C113CC27E0000009D0000000B00000000000000000000000000B20400006662782F636E782E786D6C504B01021400140006080800CC70
310
623B7DF2F77C2A010000120200003100000000000000000000000000590500006662782F41393633353835312D344632462D344230382D423046372D3739314545314133324237412F636F72652E786D6C504B01021400140006080800CC70623BAD7543B64E010000330300003000000000000000000000000000D2060000
310
6662782F41393633353835312D344632462D344230382D423046372D3739314545314133324237412F636E782E786D6C504B01021400140006080800CC70623BE75B7789680500003C10000034000000000000000000000000006E0800006662782F41393633353835312D344632462D344230382D423046372D3739314545
310
314133324237412F6F626A656374732E786D6C504B01021400140006080000CC70623B0000000000000000000000003500000000000000000000000000280E00006662782F41393633353835312D344632462D344230382D423046372D3739314545314133324237412F76657274696365732E62696E504B01021400140006
310
080800CC70623BF270F133060000000400000036000000000000000000000000007B0E00006662782F41393633353835312D344632462D344230382D423046372D3739314545314133324237412F747269616E676C65732E62696E504B01021400140006080000CC70623B0000000000000000000000003700000000000000
310
000000000000D50E00006662782F41393633353835312D344632462D344230382D423046372D3739314545314133324237412F617474726962757465732E62696E504B01021400140006080800CC70623B08DA0BD1900000004101000036000000000000000000000000002A0F00006662782F41393633353835312D344632
310
462D344230382D423046372D3739314545314133324237412F6469726563746F72792E786D6C504B01021400140006080800CC70623BEDD1DC58FD000000A00100003B000000000000000000000000000E1000006662782F41393633353835312D344632462D344230382D423046372D3739314545314133324237412F7265
310
736F75726365732F636F72652E786D6C504B0506000000000E000E0080040000641100000000
  0
XRECORD
  5
A35
102
{ACAD_REACTORS
330
1F7
102
}
330
1F7
100
AcDbXrecord
280
     1
102
MATERIAL
148
0.0
149
0.0
149
0.0
 93
        0
 94
       63
282
     0
 72
     1
 77
     1
171
     1
175
     1
179
     1
273
     0
  0
XRECORD
  5
1F8
102
{ACAD_REACTORS
330
1F7
102
}
330
1F7
100
AcDbXrecord
280
     1
 70
     1
 90
429727718
  1
30362254-06B7-45E0-A893-8CFA70E3D6BC
310
504B03040A0000080000CC70623B3DEE336E79000000790000001B0000006175746F6465736B2D64657369676E2D7061636B6167652E786D6C3C3F786D6C2076657273696F6E3D22312E302220656E636F64696E673D227574662D3822203F3E3C666F726D6174733E3C666F726D61743E687474703A2F2F736368656D612E
310
6175746F6465736B2E636F6D2F64657369676E2D7061636B6167652F323030393C2F666F726D61743E3C2F666F726D6174733E504B0304140006080800CC70623BD486FD9CA0000000F4000000130000005B436F6E74656E745F54797065735D2E786D6C7D8EC10E82300C865F65E91D8A1E8C310C0EEA1BF002731658846E
310
D98AC1B77784ABF1D8FE5FBFBF75BBCE937A534CCEB38643598122B6FEE978D0B0485F9C41B54DDD7D022595594E1A469170414C76A4D9A4D207E29CF43ECE46F218070CC6BECC4078ACAA135ACF422C856C0E68EA1BF5669944DDD7BCDE7B1F8E415D77AECB980613C2E4AC91FC167A2B244592486606FC29C8FD7F045B9A
310
EF7053A7E60B504B0304140006080800CC70623B1EC5D7A3EB0000007C01000008000000636F72652E786D6C8D90416EC3201045AF82665B6103C6756C6122AB4D4ED00B204C5C94182C03558F5F9C3852BBEB6A467FFE9B197D71FC9E6FE8CBACC17AD7032D0820E3B41FAD9B7A48F1820F808E52ACDEC75F36404ECDA687
310
4D0629A6D5A76597B477D1B89855E747B38B2A041301E95B6E7A08FAD3CCAA50296647B8168BD2573599823EBB0CA76447F43862C7BCCF5EAC59410E4DDD9C7973C2755553CCCFA4C603E3040F1565ED3B1FDE4E432BCA0D9622DAF9795FAF464533826484B498524CD807E51D79ED187F21878E10516EF63F505AC67F42C9
310
BA58B1FDDD071640D2FCC87D2045B96591CB3DA85CB7DCE40F504B0304140006080800CC70623B55019EA25F0000007C00000007000000636E782E786D6C4DCB3B0E80201045D1AD90E915ED2CF8AC45050C11660C8261F98AB1B07AC9C97D42D718D865D3E909258CFD00CCE24AC6E326A164D74DC0B4128928FF32603847
310
2BA13128B1252AC747C6BAB984FC68F0B87FE8960A5C09FE86CFB69FBA01504B0304140006080800CC70623B8C9102E971010000D40300000C0000006662782F636F72652E786D6CC5535B6E833010BC8AE5DF0A6C08340F1947A84D4ED00B38C6A128602363A31CBFCB234A53A551FA553EC09AD9F5CE8C31DB9E9B1AF5CA
310
7695D1198E428A91D2D214952E33ECDD315861B4E5CC1AE3BE9561A445A3323CC098B3D21ADFCE9034DA29ED00D5A6503328BA4E398C640D8B0C77F253352214DE4145770A5B214FA2546114020D759C75CE8200340D19DE981F0F6746269C33EFAB6266AB02A655C74A59CCF365BADC27CB5D902ED22848F6340DF238A141
310
BE88E2F57B92BFEDF23523433367AE6A2EEAA455C2A902F398D2751045018D3FA264435F3771F242571B4A1919CA6F9A7C5B3CD9E42BED16F12C776AEB308F40C848FC700B1139D4891EF410CEC810227CC6846F8386402064270EF5C5C709A05E49676C024C61FC95EA45ED154CA5211D1FF4FB8291A913A68E9B83EBBB33
310
E2A7673CDE118E5AE8124C0807CB8377834E366998436B950D7A7746DAD846D4CFD978E0F04FD455FC5D49D2D4C6FE9722321F10997F0F32DC47FE05504B0304140006080800CC70623BFFEA85907E0000009D0000000B0000006662782F636E782E786D6C4DCCD10A83201886E15B91FFDC95D95A811AB6F23E625948A6C3
310
E9D8E5AF46073BFAE0E1E365ED67B3E8ADC3CB78C7815C7240DA3DFC64DCC221C519D7805AC182F7F1EF06C88D9BE6703008B6049F9E274D7A1E938DBB5AE3D6131B2589BA0D3D965551E0B2EA732C9B9A624AAEB41E3A557677029960D9AFB4EF11165F504B0304140006080800CC70623B4FEEA4082C0100001202000031
310
0000006662782F39464131463745442D413632322D343644302D413938332D3331353338454246344243312F636F72652E786D6C8D515B6EC32010BC0AE2AB55850DD871ED0813254D72825EC00192A2C460F1A872FC42ED48ED5F7E00CDCECCCEB26C731F6FE05B39AFADE921293004CA082BB5B9F43086336A21D870E6AC
310
0D7F68109861543DCC30E4ECE26C9C164858139409093556AA051CBC570102714B8F1E7AF1A5C6A11862480C7F2DA6415C878B2A4891CA89C7990F2E050073937C42DE1DB7E4F87ED8A36D4329AA9B3D46DBAEAD504556557BD81DEBDD0761E52CE42C462D17B996298E3E6BE59E35C962CE821E1FF18553435012728A7187
310
0841987E927A8D9B35ADDF70BBC6989599FE4F1427F9A4286A132ABAC49D651EF234CD5CE04CDA78BA3DC2A8FB645D00B9DF8B57E215725C60BCA2A463E54C4CE327C7A65E1C7DB02E7DEFCBF594B864C5CA6CDBD49C957943E9FA5D5FBAF336F90F504B0304140006080800CC70623BAD7543B64E01000033030000300000
310
006662782F39464131463745442D413632322D343644302D413938332D3331353338454246344243312F636E782E786D6CD593CD6EC32010845F0571AD6CE3D48AD20813A9873E410FBD12D82434182C7EAAE6EDBB2424CD25871E7B41D6EC30B3FA84F9E67BB2E40B4234DE8DB46F1925E094D7C6ED479AD3AE5951B2113C
310
789FEE6C943839C1488B4C05DF079FE72A69D8C96C13AAD6B8631503449F83828872B949AC57D26200B826A308D316B4064D6E46FCDA41C05550DC9E483A00797BFD207EFB092A45DE9514C1BBD22178396BD39D891265658C238DEA00936C654E5E433CB65A26D9F6EDB5EBC14EBF49A45CB856E66048291F6939A9A81BB5
310
C8917738143CA680F4AA299D66A042CEB3354A2684DC9D8D178FE0D9B8B41CAAD720F880EE7EF93C0C18769E099ECC04D5A102C8049A8A05632F4DDF376CF1DE0F6BB65C2F8627B65A33C6BB62177CEBBDAD973006829F89F22E814B54F4BC2BE347F8AA8F681390B50FA73F804400B5F542E796F19FF974E7F78DB802FE05
310
E207504B0304140006080800CC70623B16AB87BA640500003C100000340000006662782F39464131463745442D413632322D343644302D413938332D3331353338454246344243312F6F626A656374732E786D6CAD575B6FA33818FD2B887DE6924B3BED8A326A92B68A663B534DD4D13E548A0C38942D60649B369D5FBFC7
310
600890A493BDE42160637FD7F31D7FF63E6FB3D478A55C242CBF3247B66B1A340F5994E4F19559CA8D75611A9F7D8F33263BCB4C232719BD32D5B4E97B316765A1A722BA21652A07B3B7B33F0D11D29C9A46981221AE4C113ED38CD8A4942CA2E2C58E882476BCD9DA23BB5ED8171B73523C0F841684D35CC252CCE79062D4
310
468DFA43D7747CCF51DF7D4FFDEB5593E3AB9CCA9FBEFE241792E4E19EB28198C968BAB8199F5D5A67D3E9C49A9E8F47D6EC76B6B0469F26EEFC7C3EBFBCBEB98462213924694B38DD98FE1D62C393D073EA4FADC5DAF04326852CCF6958F90F0F2B9BB5C48816348F90C7840A68EB78EDF68723159BCEE7891A6B95DDE9D3
310
BCEAEEE8086A6C6F9E5D4B59F0175C10A7A0820BAA5055C7473B5AE3CFDD452D602CD5DF12616444529E90D448938013FE6EFA58AA96F85E4F8C42275708571E98FE6827AF6B2B4AE3D7D83D64E5A64C53054DD3AF90BD06FEA9149565C94FCA0F6B834DC85599E4F2423B24DF0B6AFA979E534DFA9E7A4CC6FA631D486393
310
921829879BF5D781A373557BCB85E97FB90DB62B558F8795179C15944B051F40AB495CF35451D26A4727654E6D8033BD98EF82F21D91FF8AF2DD9982BCF1643BDD4EB516C9492E368C67C88DED563FC36D5EACF66DFF057C3658BDBFA69DF9578B3DA735B64F18C7F20770A9D45CFCF7FCF563D6456A277DBEF78A02637CA2
310
43B90A490AEAB94F72244481D24819A6C0E59B606BFA4B3025981DBB48EAB701D97BF19C577CC77F2D1B6C55A9EF3C732474C0B727303F625995056C3B02963D9EAC146BE78EC5FCEC7FA999EBC5EACBAAE41B12D27B4D2C0BBA49F244E2ECDC81B76B502F113D8F5EE8FB1BE3111CDD4FC2AA9B844CAB1288B68AB90A7CDC
310
1C166AB0D3DC5310625FCC14E779BFD0709F8890A629C9292B1B2DED31A4B0DA928CEE135085754027E3018A397D4D5427D15BD1330B677DC8934285AC3DF45A9EB68FF8F2B8FC0A509AFEECFD0FF2DE25CC6047F7214B195F07EFEB9A094D800F7BFAE8FED187B78EA8A3A400F115961BCAD1215E47C966530AF0EE8128FE
310
58CEBB996A8964FFA529A046635D9353B0336A8F700DDF46271A024E70B0B37C9DE01847591E54DED53D54202AB947E4076556AC49C6CA5C9E1226B7F1A7B1BE15DEED62C41B91E1B3E9AFAAA735036547343A925075041DF0A9979E893B391F8FCFA6967B3EFB644DCF6E5CEBFAE272625DCC6FAF3FB93793C5F90CE1EF57
310
407342756B10D1C489E8953CD1617E5CEECAD6F4EF8914CE5D5D504E5C3F1F9736DA62CFC11E00BCDDB8CC8A9466349744C1F75EBDA4DF09BA8A9E8C7A7E9991989E20E5DBDD6A6003664ED8F7A04A8DBE0DF6EAD9B9AA858342E47399053949D2C146EDB85DE4B176BB0965FBAC19BD19AA918E27FA50C1D22402E144464C
310
59462568E704B6E71915404CB72B8FF4EDE184DDAF753F284990D2C6926782963815403548A70C657FDEF80D2D9CEAA2AE4C1C76F60BFE74219A06527D6582DF6412526107381E55E353090704D085B52408D0933C4ED159D79BDA71BB4BC506F4831350EB6F979CD22D69BF7AC49B91A2C0A9DDA3D5CA36AD20FC478E37E6
310
1844E2352865EBCB6EA275A652E3836BE04EFB400BF1A2556F515F1FBB35B2AB35BD889C744FFA1004B5544B121E57F70215746DD2F5E2C1412B602CBF19455AC6C8E5E9922C4E01E65215385004546899059180EAFCF7A707CE7017CD8CDB0410789AB32C63B91E5CEBBBACB17AC6CD347A022D5075FD106377347AAABA7E
310
7D11590744509B44E205134DC1290F06580320F78E537D3D73540E06CB970B431F185308AD40BBD794D6D77003C5A36E8EAA54BA64597CD8F83BD552A080A365F7FF06504B0304140006080000CC70623B000000000000000000000000350000006662782F39464131463745442D413632322D343644302D413938332D3331
310
353338454246344243312F76657274696365732E62696E504B0304140006080800CC70623BF270F1330600000004000000360000006662782F39464131463745442D413632322D343644302D413938332D3331353338454246344243312F747269616E676C65732E62696E636660600000504B0304140006080000CC70623B
310
000000000000000000000000370000006662782F39464131463745442D413632322D343644302D413938332D3331353338454246344243312F617474726962757465732E62696E504B0304140006080800CC70623B08DA0BD19000000041010000360000006662782F39464131463745442D413632322D343644302D413938
310
332D3331353338454246344243312F6469726563746F72792E786D6C858F410AC3201045AF22B36F53E9A60B35CBEEBAE80D244E44489C6234F4F835464A48035D0DF398FF9F8AF63D0E6CC63039F212F8F9020C7D47C6792B21C5FE7403D62A1188E2E60C98D7234A5830286103A55745067B9D86B8A3CF9C7F90C11DE607
310
FB144396D7B6A82D282E9A152AD114D5EF2CB866EEE831B8EEA07A7BB5A8D7D61A2BAAEB7FD5F70921FF497D00504B0304140006080800CC70623B0D6EF93BFE000000A00100003B0000006662782F39464131463745442D413632322D343644302D413938332D3331353338454246344243312F7265736F75726365732F63
310
6F72652E786D6C8D50596E833010BD0A9ADFCA60B334011947A8694ED00B586642AC041B79A97AFC9A40A5F6AF3F33A3B7689E1E3F7DCD8FEC139DD7D6F4C0720A191A65476DA61E62B892236427C19DB5E1970C322367EC618541F0C9D9B8EC90B226A009093576C41D94DE63804C3DD2D18357379C652E63480A7FCF17A9
310
EE72C29CE5894E3AC17D702940B63D59270887DE46A7D0F36263058F518FBB468FE9A7BE6A7420864373B8D4873369AA8691FA421B3294352543C5CAF65C0F6FEF43CB8BD52C78D0F34F46E550061C419494B6843142CB0F5677F4B52BEB177AEC28E5C52AFF638ACBF84F53D42654E51E77B379102C05791282176B5F693D
310
CB4C7BED567C03504B010214000A0000080000CC70623B3DEE336E79000000790000001B00000000000000000000000000000000006175746F6465736B2D64657369676E2D7061636B6167652E786D6C504B01021400140006080800CC70623BD486FD9CA0000000F40000001300000000000000000000000000B20000005B
310
436F6E74656E745F54797065735D2E786D6C504B01021400140006080800CC70623B1EC5D7A3EB0000007C010000080000000000000000000000000083010000636F72652E786D6C504B01021400140006080800CC70623B55019EA25F0000007C000000070000000000000000000000000094020000636E782E786D6C504B
310
01021400140006080800CC70623B8C9102E971010000D40300000C00000000000000000000000000180300006662782F636F72652E786D6C504B01021400140006080800CC70623BFFEA85907E0000009D0000000B00000000000000000000000000B30400006662782F636E782E786D6C504B01021400140006080800CC70
310
623B4FEEA4082C0100001202000031000000000000000000000000005A0500006662782F39464131463745442D413632322D343644302D413938332D3331353338454246344243312F636F72652E786D6C504B01021400140006080800CC70623BAD7543B64E010000330300003000000000000000000000000000D5060000
310
6662782F39464131463745442D413632322D343644302D413938332D3331353338454246344243312F636E782E786D6C504B01021400140006080800CC70623B16AB87BA640500003C1000003400000000000000000000000000710800006662782F39464131463745442D413632322D343644302D413938332D3331353338
310
454246344243312F6F626A656374732E786D6C504B01021400140006080000CC70623B0000000000000000000000003500000000000000000000000000270E00006662782F39464131463745442D413632322D343644302D413938332D3331353338454246344243312F76657274696365732E62696E504B01021400140006
310
080800CC70623BF270F133060000000400000036000000000000000000000000007A0E00006662782F39464131463745442D413632322D343644302D413938332D3331353338454246344243312F747269616E676C65732E62696E504B01021400140006080000CC70623B0000000000000000000000003700000000000000
310
000000000000D40E00006662782F39464131463745442D413632322D343644302D413938332D3331353338454246344243312F617474726962757465732E62696E504B01021400140006080800CC70623B08DA0BD190000000410100003600000000000000000000000000290F00006662782F39464131463745442D413632
310
322D343644302D413938332D3331353338454246344243312F6469726563746F72792E786D6C504B01021400140006080800CC70623B0D6EF93BFE000000A00100003B000000000000000000000000000D1000006662782F39464131463745442D413632322D343644302D413938332D3331353338454246344243312F7265
310
736F75726365732F636F72652E786D6C504B0506000000000E000E0080040000641100000000
  0
XRECORD
  5
A37
102
{ACAD_REACTORS
330
173
102
}
330
173
100
AcDbXrecord
280
     1
102
MATERIAL
148
0.0
149
0.0
149
0.0
 93
        0
 94
       63
282
     0
 72
     1
 77
     1
171
     1
175
     1
179
     1
273
     0
  0
XRECORD
  5
175
102
{ACAD_REACTORS
330
173
102
}
330
173
100
AcDbXrecord
280
     1
270
     1
271
     1
  0
XRECORD
  5
174
102
{ACAD_REACTORS
330
173
102
}
330
173
100
AcDbXrecord
280
     1
270
     1
271
     1
  0
XRECORD
  5
1FB
102
{ACAD_REACTORS
330
173
102
}
330
173
100
AcDbXrecord
280
     1
 70
     0
 90
1673772943
  1
ECE7A1D2-D628-4531-984C-D00F80459256
310
504B03040A0000080000CC70623B3DEE336E79000000790000001B0000006175746F6465736B2D64657369676E2D7061636B6167652E786D6C3C3F786D6C2076657273696F6E3D22312E302220656E636F64696E673D227574662D3822203F3E3C666F726D6174733E3C666F726D61743E687474703A2F2F736368656D612E
310
6175746F6465736B2E636F6D2F64657369676E2D7061636B6167652F323030393C2F666F726D61743E3C2F666F726D6174733E504B0304140006080800CC70623BD486FD9CA0000000F4000000130000005B436F6E74656E745F54797065735D2E786D6C7D8EC10E82300C865F65E91D8A1E8C310C0EEA1BF002731658846E
310
D98AC1B77784ABF1D8FE5FBFBF75BBCE937A534CCEB38643598122B6FEE978D0B0485F9C41B54DDD7D022595594E1A469170414C76A4D9A4D207E29CF43ECE46F218070CC6BECC4078ACAA135ACF422C856C0E68EA1BF5669944DDD7BCDE7B1F8E415D77AECB980613C2E4AC91FC167A2B244592486606FC29C8FD7F045B9A
310
EF7053A7E60B504B0304140006080800CC70623BD9DDAED0EC0000007C01000008000000636F72652E786D6C8D90416EC3201045AF82665B61836D9CD8C2444DD39CA01740405C94182C03558F5F9C3852BBEB6A467FFE9B197D7EF89E6EE8CB2CC17A37002D0820E394D7D68D03A478C17B4007C117EFE32F1B20272733C0
310
2A83E0E3E2D3BC49CABB685CCCAAF3DA6CA20CC14440EA969B0182FA34932C648AD911AEC52CD5558EA6A0CF2EC329598D1E47ACCEFBECC59A050463A7EA5833865FEBDD0E37353BE3EE8DBDE3F6786A48D375FBF6CC78B9C282473B3DEFABC5C86834888A900E538A49F5419B9EB47DD5BC907D4F082F57FB1F28CDFA9F50
310
B22ED6D5F6EE030B20687EE43E10BC5CB3C8E51E54AE6B6EE207504B0304140006080800CC70623B55019EA25F0000007C00000007000000636E782E786D6C4DCB3B0E80201045D1AD90E915ED2CF8AC45050C11660C8261F98AB1B07AC9C97D42D718D865D3E909258CFD00CCE24AC6E326A164D74DC0B4128928FF326038
310
472BA13128B1252AC747C6BAB984FC68F0B87FE8960A5C09FE86CFB69FBA01504B0304140006080800CC70623BA24EB22D72010000D40300000C0000006662782F636F72652E786D6CC5535B6E833010BC8AE5DF0A6C5E49888CA3A6694ED00B38E05014B091B1518EDFE511A5A9D228FD2A1F60CDEC7A67C6986DCE4D8D7A
310
69BA4AAB0C073EC548AA5C17952A33ECECD15B61B4E1CC686DBF9561A44423333CC098B3D268D7CE50AE9595CA02AA74216750749DB418E5352C32DCE59FB211BE70162ABA93DF8AFC244AE9073ED050C759670D0840D390E18DF9F1706664C23973AE2A66B62A605A75ACA4C13C4976E1364A12EF355A2EBD384AF65EFA96
310
BC7B8BED2EA6719AAE16FB8491A199335B351775B991C2CA02F390D2D40B028F861F41BCA68B7518BFD0D59A524686F29B26D7164F36B94AD9289CE54E6D1DE6010819891F6E21228B3AD1831EC219194284CF98F06DD01008846CC5A1BEF83801D4CBDC6A1303536877A57A513B0953A94FC707FDBE6064EA84A9E3E6E0FA
310
EE8CF0E9198F7784A316AA0413C2C2F2E0ECA0934D1AE6D05A69BCDE9E91D2A611F573361E38FC1375157F5752AE6B6DFE4B11990F88CCBF0719EE23FF02504B0304140006080800CC70623B408A7D3B7C0000009D0000000B0000006662782F636E782E786D6C4DCCD10A83201886E15B91FFDC552A92A0064DBC8F581632
310
D3703A76F9ABD1C18E3E78F878E5F0D9027ABBFCF2292AE86E2D20171F69F6715550CB827B40839639A5F2770314A7CD293819B45C73AAFB45B35BA61ACAA1C1C7E7855C58C15BC331339661262CC762340413D68D77DA5B42298546CBE6573AF60CEB2F504B0304140006080800CC70623B449FB9BD290100001202000031
310
0000006662782F36394639363044362D344446342D343946362D394244322D3234314243333846323333332F636F72652E786D6C8D515B6EC32010BC0AE22B55850D98B871848994463E412FE002495162B07854397EA176A4F62F3F2C9A9D991D587EB84F37F0AD7D30CEF6905418026DA553C65E7A98E219ED203808EE9D
310
8B7F6810D871D23D2C3014FCE25D9A57483A1BB58D19B54EE9151C43D0110279CB971E06F9A5A7B11A53CC8C70ADE6515EC78BAE4895DB992778883E0700CB907242D17643D7E2538BD869608875438BBAE38922CAC8F1BDD90DB4691A5E2F42C153326A951B95E398B3D1FE599322163C9AE9115F7A3D46ADA0A018778810
310
84E907617BDCEE297BC5BB3DC6BC2EF47FA234AB2745C9D8D8D035EE220B50105E2F0DC1954B9FB747187D9F9D8FA0CCDB042D5FA0C015C65B42DF78BD10F3F3B363CB56C7109DCFDFBBB97E662ED92EB62D13BC2E1BCAE5777DB9966D8A1F504B0304140006080800CC70623BAD7543B64E01000033030000300000006662
310
782F36394639363044362D344446342D343946362D394244322D3234314243333846323333332F636E782E786D6CD593CD6EC32010845F0571AD6CE3D48AD20813A9873E410FBD12D82434182C7EAAE6EDBB2424CD25871E7B41D6EC30B3FA84F9E67BB2E40B4234DE8DB46F1925E094D7C6ED479AD3AE5951B2113C789FEE
310
6C943839C1488B4C05DF079FE72A69D8C96C13AAD6B8631503449F83828872B949AC57D26200B826A308D316B4064D6E46FCDA41C05550DC9E483A00797BFD207EFB092A45DE9514C1BBD22178396BD39D891265658C238DEA00936C654E5E433CB65A26D9F6EDB5EBC14EBF49A45CB856E66048291F6939A9A81BB5C89177
310
38143CA680F4AA299D66A042CEB3354A2684DC9D8D178FE0D9B8B41CAAD720F880EE7EF93C0C18769E099ECC04D5A102C8049A8A05632F4DDF376CF1DE0F6BB65C2F8627B65A33C6BB62177CEBBDAD973006829F89F22E814B54F4BC2BE347F8AA8F681390B50FA73F804400B5F542E796F19FF974E7F78DB802FE05E20750
310
4B0304140006080800CC70623B8D05915C650500003B100000340000006662782F36394639363044362D344446342D343946362D394244322D3234314243333846323333332F6F626A656374732E786D6CAD575B6FA33814FE2B887D06429276DA1565D4266D158D3A339A6846FB502932E050B66023DB74D2FDF5FB190C01
310
9276B2973C046C8ECFF53B17071F77456EBD502133CEAE6CDF9DD81665314F32965ED995DA3A17B6F5310C04E7AA47665B8C14F4CAD6DB7618A48257A5D94AE89654B91AEDDEDDFC61C998326A5B714EA4BCB265FC440BE2924AF184CA6737218AB8E976E7FA6E4338649B0A523E8D98964450A6A029F619B8588D52FE7039
310
B1BD30F0F4F730D0FF866AF6369557DB33949F31A9088B0F848DD8CCFCF9F2767A76E99CCDE733677E3EF59D9BBB9BA5E37F984D16E78BC5E5F5ED25044B25C0C96822E8D60EEFE11B91C581D77CEA34368A1F5329E68CD1B8B61F16D63A1B8E092D294B10C78C4A48EB593D192E7DED9BDEE7995E1B91FDEDD3ACEA9FE831
310
6A756F9F7D4D79F4274C90A7A04248AA51D5F8C718DAE06FB2F75AC4796EBE65D22A88A22223B995679120E2D50E41AA49C260C046A35368846B0BECD0DFF3EBEB8AD4F835768F69B9ADF25C43D30E6B646F807FAA64AD59F61715C7A54127C4AACA98BA3006A9D792DAE165E0D59B61A01FB3A9F9D838D2DAE62445C86166
310
F37564E842E7DE6A69879FEEA2DD5AE7E371E1A5E025154AC307D06A03D73EB5978C58FFA4C8E9033066E0F3BD53BEC1F39F91BE7B55103791EDE6BBB991A2046172CB4581D8B893FA674DDA17A77B3B7C413D1B511FD2743BFF8A38F03A658705E3ADF8015C3A3417FF3D7E439FF591DA0B5F18BC20C1B8981957AE6392A3
310
F43C640C01D1A0B4728E2DD4F26DB4B3C3152A252A3B4E913CEC1C72F012782FF88EFF8637AA552DBEF76408E8A8DE9E50F9E1CB3A2DA0DB1B6039A893B56063DC5B3E3FFB5F72E67AB9FEB4AEC496C4F4C1149625DD662C53E89D7BF0F6151A046260D1337DFDC94502430F83B0EE07A130A224BCAD7DAE1D9FB6CD422FF6
310
920702629C4BB9AE79C12F243C6432A6794E18E5552BA56B431AAB5D91317302B2B071E86C3A42B1A02F999E24061403B5D0EB639195DA655DD3EBEAB4FB862DDF579F014AD0E73C22F99E28DA57FB98E75C6CA2D74D53086D600F4786E0FE3144B771A8A7B900F03594DB8A633CBC49B2EDB69228BB479CF863B5E807AAAB
310
23872F6DFEB4129B949CA33823F58830E86D65621E10047D9DB34D862E8EAC3C2ABC2F7B2C40D67CDFE01F5545B92105AF983AC54D93D69E56FB8E797F88913F898A9FEC705D3F9D1B54EC8426FB500D40A03BD0119B06E1B95DDC7EB8F6975367793EBD70E66733DFB9BC982F9CE564727731999F5D4ECFCE3B8D6A4DC2A0
310
6D50FD148437D110834A64C6CDDF57FBACB5C307A2A477DFE4939736CFEF2B175371E0E10CF0DD1D5C15654E0BCA14D1E87DD02FF93782A162C0A3D95F1524A52770F972BF1EE9809D13CE7DD599467F8ECE9ADD85CE85A34CD45355448C64F9E8A031DC2D596ACC6E5DD93D9B82DE2EF5CAF81363A8E47996A0DE24564A79
310
4115AACE09C55E14540231FDA13C319787134EBF34E3A022514E5B4D9E0826E25C02D5805B15ABE1BEF51B26383D445DD9E875EE33FE4C22DA16427D65A3BCA92CA6D28DD01DF5DC53330704308475351050232CCD31583787BA75774AFB06E5070DD0C8EF484E19968C5D83BA5B90B244D31E54D55A372320FE4786B7EA58
310
44E135AA5467CB7EA333A61683CC6A8C3257034C10CF46F40EF9F5BE59BE5BD30C3C72D235E95D10345C1D45445A5F0BB47E46A5EBE5570F9380B5FA629579952296A773720405982B9DE04011506178964401AA8BDF1FBF0A8EAB6861DD6580C0E38217056766716DAEB2D6FA0917D3E4116581EADB879C4E7CFFB11EFACD
310
3D641311495D92C8676CB409A72D18610D803CE8A626049E8EC1887CB5B44CC39883690DDA8399B4B9855B481E7D71D4A9D22F96E5BB73BF5793020C02137BF837504B0304140006080000CC70623B000000000000000000000000350000006662782F36394639363044362D344446342D343946362D394244322D32343142
310
43333846323333332F76657274696365732E62696E504B0304140006080800CC70623BF270F1330600000004000000360000006662782F36394639363044362D344446342D343946362D394244322D3234314243333846323333332F747269616E676C65732E62696E636660600000504B0304140006080000CC70623B0000
310
00000000000000000000370000006662782F36394639363044362D344446342D343946362D394244322D3234314243333846323333332F617474726962757465732E62696E504B0304140006080800CC70623B08DA0BD19000000041010000360000006662782F36394639363044362D344446342D343946362D394244322D
310
3234314243333846323333332F6469726563746F72792E786D6C858F410AC3201045AF22B36F53E9A60B35CBEEBAE80D244E44489C6234F4F835464A48035D0DF398FF9F8AF63D0E6CC63039F212F8F9020C7D47C6792B21C5FE7403D62A1188E2E60C98D7234A5830286103A55745067B9D86B8A3CF9C7F90C11DE607FB14
310
4396D7B6A82D282E9A152AD114D5EF2CB866EEE831B8EEA07A7BB5A8D7D61A2BAAEB7FD5F70921FF497D00504B0304140006080800CC70623BCA768048FE000000A00100003B0000006662782F36394639363044362D344446342D343946362D394244322D3234314243333846323333332F7265736F75726365732F636F72
310
652E786D6C8D50596E833010BD0A9ADFCA60D600328E9AA639412F609909B1126CE4A5EAF16B0295DABFFECC8CDEA2797AECF8353F924FB44E193D409E5248504B332A3D0D10FC95B4901C39B3C6F85F3248B49871801506CE266BC2B243D2688FDA47549B11775038871E12F988C7004EDE7016A9083E2ADC3D5D84BC8B09
310
D33C8D74D471E6BC8D0192EDC93A815B742658898E651BCB59086ADC356A8C3FD555A1055ED7E7E254D615792D0F075295F585746FF53B694EE78A565DD736979A65AB9933AFE69F8CD2A2F038022F28ED489E135A7CE4554F9BBEA85E68DB53CAB255FEC71496F19FA6A0B42F8B3DEE6673C0F318E4497096AD7DC5F52C33
310
EEB55BFE0D504B010214000A0000080000CC70623B3DEE336E79000000790000001B00000000000000000000000000000000006175746F6465736B2D64657369676E2D7061636B6167652E786D6C504B01021400140006080800CC70623BD486FD9CA0000000F40000001300000000000000000000000000B20000005B436F
310
6E74656E745F54797065735D2E786D6C504B01021400140006080800CC70623BD9DDAED0EC0000007C010000080000000000000000000000000083010000636F72652E786D6C504B01021400140006080800CC70623B55019EA25F0000007C000000070000000000000000000000000095020000636E782E786D6C504B0102
310
1400140006080800CC70623BA24EB22D72010000D40300000C00000000000000000000000000190300006662782F636F72652E786D6C504B01021400140006080800CC70623B408A7D3B7C0000009D0000000B00000000000000000000000000B50400006662782F636E782E786D6C504B01021400140006080800CC70623B
310
449FB9BD290100001202000031000000000000000000000000005A0500006662782F36394639363044362D344446342D343946362D394244322D3234314243333846323333332F636F72652E786D6C504B01021400140006080800CC70623BAD7543B64E010000330300003000000000000000000000000000D20600006662
310
782F36394639363044362D344446342D343946362D394244322D3234314243333846323333332F636E782E786D6C504B01021400140006080800CC70623B8D05915C650500003B10000034000000000000000000000000006E0800006662782F36394639363044362D344446342D343946362D394244322D32343142433338
310
46323333332F6F626A656374732E786D6C504B01021400140006080000CC70623B0000000000000000000000003500000000000000000000000000250E00006662782F36394639363044362D344446342D343946362D394244322D3234314243333846323333332F76657274696365732E62696E504B010214001400060808
310
00CC70623BF270F13306000000040000003600000000000000000000000000780E00006662782F36394639363044362D344446342D343946362D394244322D3234314243333846323333332F747269616E676C65732E62696E504B01021400140006080000CC70623B00000000000000000000000037000000000000000000
310
00000000D20E00006662782F36394639363044362D344446342D343946362D394244322D3234314243333846323333332F617474726962757465732E62696E504B01021400140006080800CC70623B08DA0BD190000000410100003600000000000000000000000000270F00006662782F36394639363044362D344446342D
310
343946362D394244322D3234314243333846323333332F6469726563746F72792E786D6C504B01021400140006080800CC70623BCA768048FE000000A00100003B000000000000000000000000000B1000006662782F36394639363044362D344446342D343946362D394244322D3234314243333846323333332F7265736F
310
75726365732F636F72652E786D6C504B0506000000000E000E0080040000621100000000
  0
XRECORD
  5
176
102
{ACAD_REACTORS
330
173
102
}
330
173
100
AcDbXrecord
280
     1
270
     1
271
     1
  0
XRECORD
  5
177
102
{ACAD_REACTORS
330
173
102
}
330
173
100
AcDbXrecord
280
     1
270
     1
271
     1
  0
XRECORD
  5
A59
102
{ACAD_REACTORS
330
A58
102
}
330
A58
100
AcDbXrecord
280
     1
102
ACAD_ROUNDTRIP_2012_MLEADER_STYLE
298
     1
  0
XRECORD
  5
A6B
102
{ACAD_REACTORS
330
A6A
102
}
330
A6A
100
AcDbXrecord
280
     1
102
DISPLAYNAME
  1
Metric50
102
FLAGS
 90
        0
  0
CELLSTYLEMAP
  5
A2B
102
{ACAD_REACTORS
330
162
102
}
330
162
100
AcDbCellStyleMap
 90
        3
300
CELLSTYLE
  1
TABLEFORMAT_BEGIN
 90
        5
170
     1
 91
        0
 92
    32768
 62
   257
 93
        1
300
CONTENTFORMAT
  1
CONTENTFORMAT_BEGIN
 90
        0
 91
        0
 92
      512
 93
        0
300

 40
0.0
140
1.0
 94
        5
 62
     0
340
11
144
6.0
309
CONTENTFORMAT_END
171
     1
301
MARGIN
  1
CELLMARGIN_BEGIN
 40
1.5
 40
1.5
 40
1.5
 40
1.5
 40
4.5
 40
4.5
309
CELLMARGIN_END
 94
        6
 95
        1
302
GRIDFORMAT
  1
GRIDFORMAT_BEGIN
 90
        0
 91
        1
 62
     0
 92
       -2
340
14
 93
        0
 40
1.125
309
GRIDFORMAT_END
 95
        2
302
GRIDFORMAT
  1
GRIDFORMAT_BEGIN
 90
        0
 91
        1
 62
     0
 92
       -2
340
14
 93
        0
 40
1.125
309
GRIDFORMAT_END
 95
        4
302
GRIDFORMAT
  1
GRIDFORMAT_BEGIN
 90
        0
 91
        1
 62
     0
 92
       -2
340
14
 93
        0
 40
1.125
309
GRIDFORMAT_END
 95
        8
302
GRIDFORMAT
  1
GRIDFORMAT_BEGIN
 90
        0
 91
        1
 62
     0
 92
       -2
340
14
 93
        0
 40
1.125
309
GRIDFORMAT_END
 95
       16
302
GRIDFORMAT
  1
GRIDFORMAT_BEGIN
 90
        0
 91
        1
 62
     0
 92
       -2
340
14
 93
        0
 40
1.125
309
GRIDFORMAT_END
 95
       32
302
GRIDFORMAT
  1
GRIDFORMAT_BEGIN
 90
        0
 91
        1
 62
     0
 92
       -2
340
14
 93
        0
 40
1.125
309
GRIDFORMAT_END
309
TABLEFORMAT_END
  1
CELLSTYLE_BEGIN
 90
        1
 91
        1
300
_TITLE
309
CELLSTYLE_END
300
CELLSTYLE
  1
TABLEFORMAT_BEGIN
 90
        5
170
     1
 91
        0
 92
        0
 62
   257
 93
        1
300
CONTENTFORMAT
  1
CONTENTFORMAT_BEGIN
 90
        0
 91
        0
 92
      512
 93
        0
300

 40
0.0
140
1.0
 94
        5
 62
     0
340
11
144
4.5
309
CONTENTFORMAT_END
171
     1
301
MARGIN
  1
CELLMARGIN_BEGIN
 40
1.5
 40
1.5
 40
1.5
 40
1.5
 40
4.5
 40
4.5
309
CELLMARGIN_END
 94
        6
 95
        1
302
GRIDFORMAT
  1
GRIDFORMAT_BEGIN
 90
        0
 91
        1
 62
     0
 92
       -2
340
14
 93
        0
 40
1.125
309
GRIDFORMAT_END
 95
        2
302
GRIDFORMAT
  1
GRIDFORMAT_BEGIN
 90
        0
 91
        1
 62
     0
 92
       -2
340
14
 93
        0
 40
1.125
309
GRIDFORMAT_END
 95
        4
302
GRIDFORMAT
  1
GRIDFORMAT_BEGIN
 90
        0
 91
        1
 62
     0
 92
       -2
340
14
 93
        0
 40
1.125
309
GRIDFORMAT_END
 95
        8
302
GRIDFORMAT
  1
GRIDFORMAT_BEGIN
 90
        0
 91
        1
 62
     0
 92
       -2
340
14
 93
        0
 40
1.125
309
GRIDFORMAT_END
 95
       16
302
GRIDFORMAT
  1
GRIDFORMAT_BEGIN
 90
        0
 91
        1
 62
     0
 92
       -2
340
14
 93
        0
 40
1.125
309
GRIDFORMAT_END
 95
       32
302
GRIDFORMAT
  1
GRIDFORMAT_BEGIN
 90
        0
 91
        1
 62
     0
 92
       -2
340
14
 93
        0
 40
1.125
309
GRIDFORMAT_END
309
TABLEFORMAT_END
  1
CELLSTYLE_BEGIN
 90
        2
 91
        1
300
_HEADER
309
CELLSTYLE_END
300
CELLSTYLE
  1
TABLEFORMAT_BEGIN
 90
        5
170
     1
 91
        0
 92
        0
 62
   257
 93
        1
300
CONTENTFORMAT
  1
CONTENTFORMAT_BEGIN
 90
        0
 91
        0
 92
      512
 93
        0
300

 40
0.0
140
1.0
 94
        2
 62
     0
340
11
144
4.5
309
CONTENTFORMAT_END
171
     1
301
MARGIN
  1
CELLMARGIN_BEGIN
 40
1.5
 40
1.5
 40
1.5
 40
1.5
 40
4.5
 40
4.5
309
CELLMARGIN_END
 94
        6
 95
        1
302
GRIDFORMAT
  1
GRIDFORMAT_BEGIN
 90
        0
 91
        1
 62
     0
 92
       -2
340
14
 93
        0
 40
1.125
309
GRIDFORMAT_END
 95
        2
302
GRIDFORMAT
  1
GRIDFORMAT_BEGIN
 90
        0
 91
        1
 62
     0
 92
       -2
340
14
 93
        0
 40
1.125
309
GRIDFORMAT_END
 95
        4
302
GRIDFORMAT
  1
GRIDFORMAT_BEGIN
 90
        0
 91
        1
 62
     0
 92
       -2
340
14
 93
        0
 40
1.125
309
GRIDFORMAT_END
 95
        8
302
GRIDFORMAT
  1
GRIDFORMAT_BEGIN
 90
        0
 91
        1
 62
     0
 92
       -2
340
14
 93
        0
 40
1.125
309
GRIDFORMAT_END
 95
       16
302
GRIDFORMAT
  1
GRIDFORMAT_BEGIN
 90
        0
 91
        1
 62
     0
 92
       -2
340
14
 93
        0
 40
1.125
309
GRIDFORMAT_END
 95
       32
302
GRIDFORMAT
  1
GRIDFORMAT_BEGIN
 90
        0
 91
        1
 62
     0
 92
       -2
340
14
 93
        0
 40
1.125
309
GRIDFORMAT_END
309
TABLEFORMAT_END
  1
CELLSTYLE_BEGIN
 90
        3
 91
        2
300
_DATA
309
CELLSTYLE_END
  0
XRECORD
  5
A30
102
{ACAD_REACTORS
330
162
102
}
330
162
100
AcDbXrecord
280
     1
102
ACAD_ROUNDTRIP_PRE2007_TABLESTYLE
 90
      512
 91
        0
  1

 92
      512
 93
        0
  2

 94
      512
 95
        0
  3

  0
XRECORD
  5
A43
102
{ACAD_REACTORS
330
A42
102
}
330
A42
100
AcDbXrecord
280
     1
102
RTVSPost2010Prop28
280
     1
102
RTVSPost2010PropOp28
 70
     1
102
RTVSPost2010Prop29
280
     1
102
RTVSPost2010PropOp29
 70
     1
102
RTVSPost2010Prop30
280
     0
102
RTVSPost2010PropOp30
 70
     1
102
RTVSPost2010Prop31
280
     0
102
RTVSPost2010PropOp31
 70
     1
102
RTVSPost2010Prop32
280
     0
102
RTVSPost2010PropOp32
 70
     1
102
RTVSPost2010Prop33
280
     0
102
RTVSPost2010PropOp33
 70
     1
102
RTVSPost2010Prop34
280
     0
102
RTVSPost2010PropOp34
 70
     1
102
RTVSPost2010Prop35
280
     0
102
RTVSPost2010PropOp35
 70
     1
102
RTVSPost2010Prop36
280
     0
102
RTVSPost2010PropOp36
 70
     1
102
RTVSPost2010Prop37
 90
       50
102
RTVSPost2010PropOp37
 70
     1
102
RTVSPost2010Prop38
140
0.0
102
RTVSPost2010PropOp38
 70
     1
102
RTVSPost2010Prop39
140
1.0
102
RTVSPost2010PropOp39
 70
     1
102
RTVSPost2010Prop40
 90
        0
102
RTVSPost2010PropOp40
 70
     1
102
RTVSPost2010Prop41ColorIndex
 90
       18
102
RTVSPost2010Prop41ColorRGB
 90
        0
102
RTVSPost2010PropOp41
 70
     1
102
RTVSPost2010Prop42
 90
       50
102
RTVSPost2010PropOp42
 70
     1
102
RTVSPost2010Prop43
 90
        3
102
RTVSPost2010PropOp43
 70
     1
102
RTVSPost2010Prop44ColorIndex
 90
        5
102
RTVSPost2010Prop44ColorRGB
 90
      255
102
RTVSPost2010PropOp44
 70
     1
102
RTVSPost2010Prop45
280
     0
102
RTVSPost2010PropOp45
 70
     1
102
RTVSPost2010Prop46
 90
       50
102
RTVSPost2010PropOp46
 70
     1
102
RTVSPost2010Prop47
 90
       50
102
RTVSPost2010PropOp47
 70
     1
102
RTVSPost2010Prop48
 90
       50
102
RTVSPost2010PropOp48
 70
     1
102
RTVSPost2010Prop49
280
     0
102
RTVSPost2010PropOp49
 70
     1
102
RTVSPost2010Prop50
 90
       50
102
RTVSPost2010PropOp50
 70
     1
102
RTVSPost2010Prop51ColorIndex
 90
      256
102
RTVSPost2010Prop51ColorRGB
 90
-16777216
102
RTVSPost2010PropOp51
 70
     0
102
RTVSPost2010Prop52
140
1.0
102
RTVSPost2010PropOp52
 70
     0
102
RTVSPost2010Prop53
 90
        2
102
RTVSPost2010PropOp53
 70
     1
102
RTVSPost2010Prop54
  1
strokes_ogs.tif
102
RTVSPost2010PropOp54
 70
     1
102
RTVSPost2010Prop55
280
     0
102
RTVSPost2010PropOp55
 70
     1
102
RTVSPost2010Prop56
140
1.0
102
RTVSPost2010PropOp56
 70
     1
102
RTVSPost2010Prop57
140
1.0
102
RTVSPost2010PropOp57
 70
     1
102
RTVSPropertyOp0
 70
     1
102
RTVSPropertyOp1
 70
     1
102
RTVSPropertyOp2
 70
     1
102
RTVSPropertyOp3
 70
     1
102
RTVSPropertyOp4
 70
     1
102
RTVSPropertyOp5
 70
     1
102
RTVSPropertyOp6
 70
     1
102
RTVSPropertyOp7
 70
     1
102
RTVSPropertyOp8
 70
     1
102
RTVSPropertyOp9
 70
     1
102
RTVSPropertyOp10
 70
     1
102
RTVSPropertyOp11
 70
     1
102
RTVSPropertyOp12
 70
     1
102
RTVSPropertyOp13
 70
     1
102
RTVSPropertyOp14
 70
     1
102
RTVSPropertyOp15
 70
     1
102
RTVSPropertyOp16
 70
     1
102
RTVSPropertyOp17
 70
     1
102
RTVSPropertyOp18
 70
     1
102
RTVSPropertyOp19
 70
     1
102
RTVSPropertyOp20
 70
     1
102
RTVSPropertyOp21
 70
     1
102
RTVSPropertyOp22
 70
     1
102
RTVSPropertyOp23
 70
     1
102
RTVSPropertyOp24
 70
     1
102
RTVSPropertyOp25
 70
     1
102
RTVSPropertyOp26
 70
     1
102
RTVSPropertyOp27
 70
     1
102
RTVSPropertyOp28
 70
     1
102
RTVSPropertyOp29
 70
     1
102
RTVSPropertyOp30
 70
     1
102
RTVSPropertyOp31
 70
     1
102
RTVSPropertyOp32
 70
     1
102
RTVSPropertyOp33
 70
     1
102
RTVSPropertyOp34
 70
     1
102
RTVSPropertyOp35
 70
     1
102
RTVSPropertyOp36
 70
     1
102
RTVSPropertyOp37
 70
     1
102
RTVSPropertyOp38
 70
     1
102
RTVSPropertyOp39
 70
     1
102
RTVSPropertyOp40
 70
     1
102
RTVSPropertyOp41
 70
     1
102
RTVSPropertyOp42
 70
     1
102
RTVSPropertyOp43
 70
     1
102
RTVSPropertyOp44
 70
     1
102
RTVSPropertyOp45
 70
     1
102
RTVSPropertyOp46
 70
     1
102
RTVSPropertyOp47
 70
     1
102
RTVSPropertyOp48
 70
     1
102
RTVSPropertyOp49
 70
     1
102
RTVSPropertyOp50
 70
     1
102
RTVSPropertyOp51
 70
     0
102
RTVSPropertyOp52
 70
     0
102
RTVSPropertyOp53
 70
     1
102
RTVSPropertyOp54
 70
     1
102
RTVSPropertyOp55
 70
     1
102
RTVSPropertyOp56
 70
     1
102
RTVSPropertyOp57
 70
     1
102
RTVSPropertyOp58
 70
     1
102
RTVSPropertyOp59
 70
     1
102
RTVSPropertyOp60
 70
     1
102
RTVSPropertyOp61
 70
     1
102
RTVSPropertyOp62
 70
     1
  0
XRECORD
  5
A41
102
{ACAD_REACTORS
330
A40
102
}
330
A40
100
AcDbXrecord
280
     1
102
RTVSPost2010Prop28
280
     0
102
RTVSPost2010PropOp28
 70
     1
102
RTVSPost2010Prop29
280
     1
102
RTVSPost2010PropOp29
 70
     1
102
RTVSPost2010Prop30
280
     1
102
RTVSPost2010PropOp30
 70
     1
102
RTVSPost2010Prop31
280
     0
102
RTVSPost2010PropOp31
 70
     1
102
RTVSPost2010Prop32
280
     0
102
RTVSPost2010PropOp32
 70
     1
102
RTVSPost2010Prop33
280
     0
102
RTVSPost2010PropOp33
 70
     1
102
RTVSPost2010Prop34
280
     0
102
RTVSPost2010PropOp34
 70
     1
102
RTVSPost2010Prop35
280
     0
102
RTVSPost2010PropOp35
 70
     1
102
RTVSPost2010Prop36
280
     0
102
RTVSPost2010PropOp36
 70
     1
102
RTVSPost2010Prop37
 90
       50
102
RTVSPost2010PropOp37
 70
     1
102
RTVSPost2010Prop38
140
0.0
102
RTVSPost2010PropOp38
 70
     1
102
RTVSPost2010Prop39
140
1.0
102
RTVSPost2010PropOp39
 70
     1
102
RTVSPost2010Prop40
 90
        0
102
RTVSPost2010PropOp40
 70
     1
102
RTVSPost2010Prop41ColorIndex
 90
       18
102
RTVSPost2010Prop41ColorRGB
 90
        0
102
RTVSPost2010PropOp41
 70
     1
102
RTVSPost2010Prop42
 90
       50
102
RTVSPost2010PropOp42
 70
     1
102
RTVSPost2010Prop43
 90
        3
102
RTVSPost2010PropOp43
 70
     1
102
RTVSPost2010Prop44ColorIndex
 90
        5
102
RTVSPost2010Prop44ColorRGB
 90
      255
102
RTVSPost2010PropOp44
 70
     1
102
RTVSPost2010Prop45
280
     0
102
RTVSPost2010PropOp45
 70
     1
102
RTVSPost2010Prop46
 90
       50
102
RTVSPost2010PropOp46
 70
     1
102
RTVSPost2010Prop47
 90
       50
102
RTVSPost2010PropOp47
 70
     1
102
RTVSPost2010Prop48
 90
       50
102
RTVSPost2010PropOp48
 70
     1
102
RTVSPost2010Prop49
280
     0
102
RTVSPost2010PropOp49
 70
     1
102
RTVSPost2010Prop50
 90
       50
102
RTVSPost2010PropOp50
 70
     1
102
RTVSPost2010Prop51ColorIndex
 90
      256
102
RTVSPost2010Prop51ColorRGB
 90
-16777216
102
RTVSPost2010PropOp51
 70
     0
102
RTVSPost2010Prop52
140
1.0
102
RTVSPost2010PropOp52
 70
     0
102
RTVSPost2010Prop53
 90
        2
102
RTVSPost2010PropOp53
 70
     1
102
RTVSPost2010Prop54
  1
strokes_ogs.tif
102
RTVSPost2010PropOp54
 70
     1
102
RTVSPost2010Prop55
280
     0
102
RTVSPost2010PropOp55
 70
     1
102
RTVSPost2010Prop56
140
1.0
102
RTVSPost2010PropOp56
 70
     1
102
RTVSPost2010Prop57
140
1.0
102
RTVSPost2010PropOp57
 70
     1
102
RTVSPropertyOp0
 70
     1
102
RTVSPropertyOp1
 70
     1
102
RTVSPropertyOp2
 70
     1
102
RTVSPropertyOp3
 70
     1
102
RTVSPropertyOp4
 70
     1
102
RTVSPropertyOp5
 70
     1
102
RTVSPropertyOp6
 70
     1
102
RTVSPropertyOp7
 70
     1
102
RTVSPropertyOp8
 70
     1
102
RTVSPropertyOp9
 70
     1
102
RTVSPropertyOp10
 70
     1
102
RTVSPropertyOp11
 70
     1
102
RTVSPropertyOp12
 70
     1
102
RTVSPropertyOp13
 70
     1
102
RTVSPropertyOp14
 70
     1
102
RTVSPropertyOp15
 70
     1
102
RTVSPropertyOp16
 70
     1
102
RTVSPropertyOp17
 70
     1
102
RTVSPropertyOp18
 70
     1
102
RTVSPropertyOp19
 70
     1
102
RTVSPropertyOp20
 70
     1
102
RTVSPropertyOp21
 70
     1
102
RTVSPropertyOp22
 70
     1
102
RTVSPropertyOp23
 70
     1
102
RTVSPropertyOp24
 70
     1
102
RTVSPropertyOp25
 70
     1
102
RTVSPropertyOp26
 70
     1
102
RTVSPropertyOp27
 70
     1
102
RTVSPropertyOp28
 70
     1
102
RTVSPropertyOp29
 70
     1
102
RTVSPropertyOp30
 70
     1
102
RTVSPropertyOp31
 70
     1
102
RTVSPropertyOp32
 70
     1
102
RTVSPropertyOp33
 70
     1
102
RTVSPropertyOp34
 70
     1
102
RTVSPropertyOp35
 70
     1
102
RTVSPropertyOp36
 70
     1
102
RTVSPropertyOp37
 70
     1
102
RTVSPropertyOp38
 70
     1
102
RTVSPropertyOp39
 70
     1
102
RTVSPropertyOp40
 70
     1
102
RTVSPropertyOp41
 70
     1
102
RTVSPropertyOp42
 70
     1
102
RTVSPropertyOp43
 70
     1
102
RTVSPropertyOp44
 70
     1
102
RTVSPropertyOp45
 70
     1
102
RTVSPropertyOp46
 70
     1
102
RTVSPropertyOp47
 70
     1
102
RTVSPropertyOp48
 70
     1
102
RTVSPropertyOp49
 70
     1
102
RTVSPropertyOp50
 70
     1
102
RTVSPropertyOp51
 70
     0
102
RTVSPropertyOp52
 70
     0
102
RTVSPropertyOp53
 70
     1
102
RTVSPropertyOp54
 70
     1
102
RTVSPropertyOp55
 70
     1
102
RTVSPropertyOp56
 70
     1
102
RTVSPropertyOp57
 70
     1
102
RTVSPropertyOp58
 70
     1
102
RTVSPropertyOp59
 70
     1
102
RTVSPropertyOp60
 70
     1
102
RTVSPropertyOp61
 70
     1
102
RTVSPropertyOp62
 70
     1
  0
XRECORD
  5
A4F
102
{ACAD_REACTORS
330
A4E
102
}
330
A4E
100
AcDbXrecord
280
     1
102
RTVSPost2010Prop28
280
     0
102
RTVSPost2010PropOp28
 70
     1
102
RTVSPost2010Prop29
280
     1
102
RTVSPost2010PropOp29
 70
     1
102
RTVSPost2010Prop30
280
     1
102
RTVSPost2010PropOp30
 70
     1
102
RTVSPost2010Prop31
280
     0
102
RTVSPost2010PropOp31
 70
     1
102
RTVSPost2010Prop32
280
     0
102
RTVSPost2010PropOp32
 70
     1
102
RTVSPost2010Prop33
280
     0
102
RTVSPost2010PropOp33
 70
     1
102
RTVSPost2010Prop34
280
     0
102
RTVSPost2010PropOp34
 70
     1
102
RTVSPost2010Prop35
280
     0
102
RTVSPost2010PropOp35
 70
     1
102
RTVSPost2010Prop36
280
     0
102
RTVSPost2010PropOp36
 70
     1
102
RTVSPost2010Prop37
 90
       50
102
RTVSPost2010PropOp37
 70
     1
102
RTVSPost2010Prop38
140
0.0
102
RTVSPost2010PropOp38
 70
     1
102
RTVSPost2010Prop39
140
1.0
102
RTVSPost2010PropOp39
 70
     1
102
RTVSPost2010Prop40
 90
        0
102
RTVSPost2010PropOp40
 70
     1
102
RTVSPost2010Prop41ColorIndex
 90
       18
102
RTVSPost2010Prop41ColorRGB
 90
        0
102
RTVSPost2010PropOp41
 70
     1
102
RTVSPost2010Prop42
 90
       50
102
RTVSPost2010PropOp42
 70
     1
102
RTVSPost2010Prop43
 90
        3
102
RTVSPost2010PropOp43
 70
     1
102
RTVSPost2010Prop44ColorIndex
 90
        5
102
RTVSPost2010Prop44ColorRGB
 90
      255
102
RTVSPost2010PropOp44
 70
     1
102
RTVSPost2010Prop45
280
     0
102
RTVSPost2010PropOp45
 70
     1
102
RTVSPost2010Prop46
 90
       50
102
RTVSPost2010PropOp46
 70
     1
102
RTVSPost2010Prop47
 90
       50
102
RTVSPost2010PropOp47
 70
     1
102
RTVSPost2010Prop48
 90
       50
102
RTVSPost2010PropOp48
 70
     1
102
RTVSPost2010Prop49
280
     0
102
RTVSPost2010PropOp49
 70
     1
102
RTVSPost2010Prop50
 90
       50
102
RTVSPost2010PropOp50
 70
     1
102
RTVSPost2010Prop51ColorIndex
 90
      256
102
RTVSPost2010Prop51ColorRGB
 90
-16777216
102
RTVSPost2010PropOp51
 70
     0
102
RTVSPost2010Prop52
140
1.0
102
RTVSPost2010PropOp52
 70
     0
102
RTVSPost2010Prop53
 90
        2
102
RTVSPost2010PropOp53
 70
     1
102
RTVSPost2010Prop54
  1
strokes_ogs.tif
102
RTVSPost2010PropOp54
 70
     1
102
RTVSPost2010Prop55
280
     0
102
RTVSPost2010PropOp55
 70
     1
102
RTVSPost2010Prop56
140
1.0
102
RTVSPost2010PropOp56
 70
     1
102
RTVSPost2010Prop57
140
1.0
102
RTVSPost2010PropOp57
 70
     1
102
RTVSPropertyOp0
 70
     1
102
RTVSPropertyOp1
 70
     1
102
RTVSPropertyOp2
 70
     1
102
RTVSPropertyOp3
 70
     1
102
RTVSPropertyOp4
 70
     1
102
RTVSPropertyOp5
 70
     1
102
RTVSPropertyOp6
 70
     1
102
RTVSPropertyOp7
 70
     1
102
RTVSPropertyOp8
 70
     1
102
RTVSPropertyOp9
 70
     1
102
RTVSPropertyOp10
 70
     1
102
RTVSPropertyOp11
 70
     1
102
RTVSPropertyOp12
 70
     1
102
RTVSPropertyOp13
 70
     1
102
RTVSPropertyOp14
 70
     1
102
RTVSPropertyOp15
 70
     1
102
RTVSPropertyOp16
 70
     1
102
RTVSPropertyOp17
 70
     1
102
RTVSPropertyOp18
 70
     1
102
RTVSPropertyOp19
 70
     1
102
RTVSPropertyOp20
 70
     1
102
RTVSPropertyOp21
 70
     1
102
RTVSPropertyOp22
 70
     1
102
RTVSPropertyOp23
 70
     1
102
RTVSPropertyOp24
 70
     1
102
RTVSPropertyOp25
 70
     1
102
RTVSPropertyOp26
 70
     1
102
RTVSPropertyOp27
 70
     1
102
RTVSPropertyOp28
 70
     1
102
RTVSPropertyOp29
 70
     1
102
RTVSPropertyOp30
 70
     1
102
RTVSPropertyOp31
 70
     1
102
RTVSPropertyOp32
 70
     1
102
RTVSPropertyOp33
 70
     1
102
RTVSPropertyOp34
 70
     1
102
RTVSPropertyOp35
 70
     1
102
RTVSPropertyOp36
 70
     1
102
RTVSPropertyOp37
 70
     1
102
RTVSPropertyOp38
 70
     1
102
RTVSPropertyOp39
 70
     1
102
RTVSPropertyOp40
 70
     1
102
RTVSPropertyOp41
 70
     1
102
RTVSPropertyOp42
 70
     1
102
RTVSPropertyOp43
 70
     1
102
RTVSPropertyOp44
 70
     1
102
RTVSPropertyOp45
 70
     1
102
RTVSPropertyOp46
 70
     1
102
RTVSPropertyOp47
 70
     1
102
RTVSPropertyOp48
 70
     1
102
RTVSPropertyOp49
 70
     1
102
RTVSPropertyOp50
 70
     1
102
RTVSPropertyOp51
 70
     0
102
RTVSPropertyOp52
 70
     0
102
RTVSPropertyOp53
 70
     1
102
RTVSPropertyOp54
 70
     1
102
RTVSPropertyOp55
 70
     1
102
RTVSPropertyOp56
 70
     1
102
RTVSPropertyOp57
 70
     1
102
RTVSPropertyOp58
 70
     1
102
RTVSPropertyOp59
 70
     1
102
RTVSPropertyOp60
 70
     1
102
RTVSPropertyOp61
 70
     1
102
RTVSPropertyOp62
 70
     1
  0
XRECORD
  5
A57
102
{ACAD_REACTORS
330
A56
102
}
330
A56
100
AcDbXrecord
280
     1
102
RTVSPost2010Prop28
280
     0
102
RTVSPost2010PropOp28
 70
     1
102
RTVSPost2010Prop29
280
     1
102
RTVSPost2010PropOp29
 70
     1
102
RTVSPost2010Prop30
280
     1
102
RTVSPost2010PropOp30
 70
     1
102
RTVSPost2010Prop31
280
     0
102
RTVSPost2010PropOp31
 70
     1
102
RTVSPost2010Prop32
280
     0
102
RTVSPost2010PropOp32
 70
     1
102
RTVSPost2010Prop33
280
     0
102
RTVSPost2010PropOp33
 70
     1
102
RTVSPost2010Prop34
280
     0
102
RTVSPost2010PropOp34
 70
     1
102
RTVSPost2010Prop35
280
     0
102
RTVSPost2010PropOp35
 70
     1
102
RTVSPost2010Prop36
280
     0
102
RTVSPost2010PropOp36
 70
     1
102
RTVSPost2010Prop37
 90
       50
102
RTVSPost2010PropOp37
 70
     1
102
RTVSPost2010Prop38
140
0.0
102
RTVSPost2010PropOp38
 70
     1
102
RTVSPost2010Prop39
140
1.0
102
RTVSPost2010PropOp39
 70
     1
102
RTVSPost2010Prop40
 90
        0
102
RTVSPost2010PropOp40
 70
     1
102
RTVSPost2010Prop41ColorIndex
 90
       18
102
RTVSPost2010Prop41ColorRGB
 90
        0
102
RTVSPost2010PropOp41
 70
     1
102
RTVSPost2010Prop42
 90
       50
102
RTVSPost2010PropOp42
 70
     1
102
RTVSPost2010Prop43
 90
        3
102
RTVSPost2010PropOp43
 70
     1
102
RTVSPost2010Prop44ColorIndex
 90
        5
102
RTVSPost2010Prop44ColorRGB
 90
      255
102
RTVSPost2010PropOp44
 70
     1
102
RTVSPost2010Prop45
280
     0
102
RTVSPost2010PropOp45
 70
     1
102
RTVSPost2010Prop46
 90
       50
102
RTVSPost2010PropOp46
 70
     1
102
RTVSPost2010Prop47
 90
       50
102
RTVSPost2010PropOp47
 70
     1
102
RTVSPost2010Prop48
 90
       50
102
RTVSPost2010PropOp48
 70
     1
102
RTVSPost2010Prop49
280
     0
102
RTVSPost2010PropOp49
 70
     1
102
RTVSPost2010Prop50
 90
       50
102
RTVSPost2010PropOp50
 70
     1
102
RTVSPost2010Prop51ColorIndex
 90
      256
102
RTVSPost2010Prop51ColorRGB
 90
-16777216
102
RTVSPost2010PropOp51
 70
     0
102
RTVSPost2010Prop52
140
1.0
102
RTVSPost2010PropOp52
 70
     0
102
RTVSPost2010Prop53
 90
        2
102
RTVSPost2010PropOp53
 70
     1
102
RTVSPost2010Prop54
  1
strokes_ogs.tif
102
RTVSPost2010PropOp54
 70
     1
102
RTVSPost2010Prop55
280
     0
102
RTVSPost2010PropOp55
 70
     1
102
RTVSPost2010Prop56
140
1.0
102
RTVSPost2010PropOp56
 70
     1
102
RTVSPost2010Prop57
140
1.0
102
RTVSPost2010PropOp57
 70
     1
102
RTVSPropertyOp0
 70
     1
102
RTVSPropertyOp1
 70
     1
102
RTVSPropertyOp2
 70
     1
102
RTVSPropertyOp3
 70
     1
102
RTVSPropertyOp4
 70
     1
102
RTVSPropertyOp5
 70
     1
102
RTVSPropertyOp6
 70
     1
102
RTVSPropertyOp7
 70
     1
102
RTVSPropertyOp8
 70
     1
102
RTVSPropertyOp9
 70
     1
102
RTVSPropertyOp10
 70
     1
102
RTVSPropertyOp11
 70
     1
102
RTVSPropertyOp12
 70
     1
102
RTVSPropertyOp13
 70
     1
102
RTVSPropertyOp14
 70
     1
102
RTVSPropertyOp15
 70
     1
102
RTVSPropertyOp16
 70
     1
102
RTVSPropertyOp17
 70
     1
102
RTVSPropertyOp18
 70
     1
102
RTVSPropertyOp19
 70
     1
102
RTVSPropertyOp20
 70
     1
102
RTVSPropertyOp21
 70
     1
102
RTVSPropertyOp22
 70
     1
102
RTVSPropertyOp23
 70
     1
102
RTVSPropertyOp24
 70
     1
102
RTVSPropertyOp25
 70
     1
102
RTVSPropertyOp26
 70
     1
102
RTVSPropertyOp27
 70
     1
102
RTVSPropertyOp28
 70
     1
102
RTVSPropertyOp29
 70
     1
102
RTVSPropertyOp30
 70
     1
102
RTVSPropertyOp31
 70
     1
102
RTVSPropertyOp32
 70
     1
102
RTVSPropertyOp33
 70
     1
102
RTVSPropertyOp34
 70
     1
102
RTVSPropertyOp35
 70
     1
102
RTVSPropertyOp36
 70
     1
102
RTVSPropertyOp37
 70
     1
102
RTVSPropertyOp38
 70
     1
102
RTVSPropertyOp39
 70
     1
102
RTVSPropertyOp40
 70
     1
102
RTVSPropertyOp41
 70
     1
102
RTVSPropertyOp42
 70
     1
102
RTVSPropertyOp43
 70
     1
102
RTVSPropertyOp44
 70
     1
102
RTVSPropertyOp45
 70
     1
102
RTVSPropertyOp46
 70
     1
102
RTVSPropertyOp47
 70
     1
102
RTVSPropertyOp48
 70
     1
102
RTVSPropertyOp49
 70
     1
102
RTVSPropertyOp50
 70
     1
102
RTVSPropertyOp51
 70
     0
102
RTVSPropertyOp52
 70
     0
102
RTVSPropertyOp53
 70
     1
102
RTVSPropertyOp54
 70
     1
102
RTVSPropertyOp55
 70
     1
102
RTVSPropertyOp56
 70
     1
102
RTVSPropertyOp57
 70
     1
102
RTVSPropertyOp58
 70
     1
102
RTVSPropertyOp59
 70
     1
102
RTVSPropertyOp60
 70
     1
102
RTVSPropertyOp61
 70
     1
102
RTVSPropertyOp62
 70
     1
  0
XRECORD
  5
A49
102
{ACAD_REACTORS
330
A48
102
}
330
A48
100
AcDbXrecord
280
     1
102
RTVSPost2010Prop28
280
     0
102
RTVSPost2010PropOp28
 70
     1
102
RTVSPost2010Prop29
280
     1
102
RTVSPost2010PropOp29
 70
     1
102
RTVSPost2010Prop30
280
     1
102
RTVSPost2010PropOp30
 70
     1
102
RTVSPost2010Prop31
280
     0
102
RTVSPost2010PropOp31
 70
     1
102
RTVSPost2010Prop32
280
     0
102
RTVSPost2010PropOp32
 70
     1
102
RTVSPost2010Prop33
280
     0
102
RTVSPost2010PropOp33
 70
     1
102
RTVSPost2010Prop34
280
     0
102
RTVSPost2010PropOp34
 70
     1
102
RTVSPost2010Prop35
280
     0
102
RTVSPost2010PropOp35
 70
     1
102
RTVSPost2010Prop36
280
     0
102
RTVSPost2010PropOp36
 70
     1
102
RTVSPost2010Prop37
 90
       50
102
RTVSPost2010PropOp37
 70
     1
102
RTVSPost2010Prop38
140
0.0
102
RTVSPost2010PropOp38
 70
     1
102
RTVSPost2010Prop39
140
1.0
102
RTVSPost2010PropOp39
 70
     1
102
RTVSPost2010Prop40
 90
        0
102
RTVSPost2010PropOp40
 70
     1
102
RTVSPost2010Prop41ColorIndex
 90
       18
102
RTVSPost2010Prop41ColorRGB
 90
        0
102
RTVSPost2010PropOp41
 70
     1
102
RTVSPost2010Prop42
 90
       50
102
RTVSPost2010PropOp42
 70
     1
102
RTVSPost2010Prop43
 90
        3
102
RTVSPost2010PropOp43
 70
     1
102
RTVSPost2010Prop44ColorIndex
 90
        5
102
RTVSPost2010Prop44ColorRGB
 90
      255
102
RTVSPost2010PropOp44
 70
     1
102
RTVSPost2010Prop45
280
     0
102
RTVSPost2010PropOp45
 70
     1
102
RTVSPost2010Prop46
 90
       50
102
RTVSPost2010PropOp46
 70
     1
102
RTVSPost2010Prop47
 90
       50
102
RTVSPost2010PropOp47
 70
     1
102
RTVSPost2010Prop48
 90
       50
102
RTVSPost2010PropOp48
 70
     1
102
RTVSPost2010Prop49
280
     0
102
RTVSPost2010PropOp49
 70
     1
102
RTVSPost2010Prop50
 90
       50
102
RTVSPost2010PropOp50
 70
     1
102
RTVSPost2010Prop51ColorIndex
 90
      256
102
RTVSPost2010Prop51ColorRGB
 90
-16777216
102
RTVSPost2010PropOp51
 70
     0
102
RTVSPost2010Prop52
140
1.0
102
RTVSPost2010PropOp52
 70
     0
102
RTVSPost2010Prop53
 90
        2
102
RTVSPost2010PropOp53
 70
     1
102
RTVSPost2010Prop54
  1
strokes_ogs.tif
102
RTVSPost2010PropOp54
 70
     1
102
RTVSPost2010Prop55
280
     0
102
RTVSPost2010PropOp55
 70
     1
102
RTVSPost2010Prop56
140
1.0
102
RTVSPost2010PropOp56
 70
     1
102
RTVSPost2010Prop57
140
1.0
102
RTVSPost2010PropOp57
 70
     1
102
RTVSPropertyOp0
 70
     1
102
RTVSPropertyOp1
 70
     1
102
RTVSPropertyOp2
 70
     1
102
RTVSPropertyOp3
 70
     1
102
RTVSPropertyOp4
 70
     1
102
RTVSPropertyOp5
 70
     1
102
RTVSPropertyOp6
 70
     1
102
RTVSPropertyOp7
 70
     1
102
RTVSPropertyOp8
 70
     1
102
RTVSPropertyOp9
 70
     1
102
RTVSPropertyOp10
 70
     1
102
RTVSPropertyOp11
 70
     1
102
RTVSPropertyOp12
 70
     1
102
RTVSPropertyOp13
 70
     1
102
RTVSPropertyOp14
 70
     1
102
RTVSPropertyOp15
 70
     1
102
RTVSPropertyOp16
 70
     1
102
RTVSPropertyOp17
 70
     1
102
RTVSPropertyOp18
 70
     1
102
RTVSPropertyOp19
 70
     1
102
RTVSPropertyOp20
 70
     1
102
RTVSPropertyOp21
 70
     1
102
RTVSPropertyOp22
 70
     1
102
RTVSPropertyOp23
 70
     1
102
RTVSPropertyOp24
 70
     1
102
RTVSPropertyOp25
 70
     1
102
RTVSPropertyOp26
 70
     1
102
RTVSPropertyOp27
 70
     1
102
RTVSPropertyOp28
 70
     1
102
RTVSPropertyOp29
 70
     1
102
RTVSPropertyOp30
 70
     1
102
RTVSPropertyOp31
 70
     1
102
RTVSPropertyOp32
 70
     1
102
RTVSPropertyOp33
 70
     1
102
RTVSPropertyOp34
 70
     1
102
RTVSPropertyOp35
 70
     1
102
RTVSPropertyOp36
 70
     1
102
RTVSPropertyOp37
 70
     1
102
RTVSPropertyOp38
 70
     1
102
RTVSPropertyOp39
 70
     1
102
RTVSPropertyOp40
 70
     1
102
RTVSPropertyOp41
 70
     1
102
RTVSPropertyOp42
 70
     1
102
RTVSPropertyOp43
 70
     1
102
RTVSPropertyOp44
 70
     1
102
RTVSPropertyOp45
 70
     1
102
RTVSPropertyOp46
 70
     1
102
RTVSPropertyOp47
 70
     1
102
RTVSPropertyOp48
 70
     1
102
RTVSPropertyOp49
 70
     1
102
RTVSPropertyOp50
 70
     1
102
RTVSPropertyOp51
 70
     0
102
RTVSPropertyOp52
 70
     0
102
RTVSPropertyOp53
 70
     1
102
RTVSPropertyOp54
 70
     1
102
RTVSPropertyOp55
 70
     1
102
RTVSPropertyOp56
 70
     1
102
RTVSPropertyOp57
 70
     1
102
RTVSPropertyOp58
 70
     1
102
RTVSPropertyOp59
 70
     1
102
RTVSPropertyOp60
 70
     1
102
RTVSPropertyOp61
 70
     1
102
RTVSPropertyOp62
 70
     1
  0
XRECORD
  5
A4D
102
{ACAD_REACTORS
330
A4C
102
}
330
A4C
100
AcDbXrecord
280
     1
102
RTVSPost2010Prop28
280
     0
102
RTVSPost2010PropOp28
 70
     1
102
RTVSPost2010Prop29
280
     1
102
RTVSPost2010PropOp29
 70
     1
102
RTVSPost2010Prop30
280
     1
102
RTVSPost2010PropOp30
 70
     1
102
RTVSPost2010Prop31
280
     0
102
RTVSPost2010PropOp31
 70
     1
102
RTVSPost2010Prop32
280
     0
102
RTVSPost2010PropOp32
 70
     1
102
RTVSPost2010Prop33
280
     0
102
RTVSPost2010PropOp33
 70
     1
102
RTVSPost2010Prop34
280
     0
102
RTVSPost2010PropOp34
 70
     1
102
RTVSPost2010Prop35
280
     0
102
RTVSPost2010PropOp35
 70
     1
102
RTVSPost2010Prop36
280
     0
102
RTVSPost2010PropOp36
 70
     1
102
RTVSPost2010Prop37
 90
       50
102
RTVSPost2010PropOp37
 70
     1
102
RTVSPost2010Prop38
140
0.0
102
RTVSPost2010PropOp38
 70
     1
102
RTVSPost2010Prop39
140
1.0
102
RTVSPost2010PropOp39
 70
     1
102
RTVSPost2010Prop40
 90
        0
102
RTVSPost2010PropOp40
 70
     1
102
RTVSPost2010Prop41ColorIndex
 90
       18
102
RTVSPost2010Prop41ColorRGB
 90
        0
102
RTVSPost2010PropOp41
 70
     1
102
RTVSPost2010Prop42
 90
       50
102
RTVSPost2010PropOp42
 70
     1
102
RTVSPost2010Prop43
 90
        3
102
RTVSPost2010PropOp43
 70
     1
102
RTVSPost2010Prop44ColorIndex
 90
        5
102
RTVSPost2010Prop44ColorRGB
 90
      255
102
RTVSPost2010PropOp44
 70
     1
102
RTVSPost2010Prop45
280
     0
102
RTVSPost2010PropOp45
 70
     1
102
RTVSPost2010Prop46
 90
       50
102
RTVSPost2010PropOp46
 70
     1
102
RTVSPost2010Prop47
 90
       50
102
RTVSPost2010PropOp47
 70
     1
102
RTVSPost2010Prop48
 90
       50
102
RTVSPost2010PropOp48
 70
     1
102
RTVSPost2010Prop49
280
     0
102
RTVSPost2010PropOp49
 70
     1
102
RTVSPost2010Prop50
 90
       50
102
RTVSPost2010PropOp50
 70
     1
102
RTVSPost2010Prop51ColorIndex
 90
      256
102
RTVSPost2010Prop51ColorRGB
 90
-16777216
102
RTVSPost2010PropOp51
 70
     0
102
RTVSPost2010Prop52
140
1.0
102
RTVSPost2010PropOp52
 70
     0
102
RTVSPost2010Prop53
 90
        2
102
RTVSPost2010PropOp53
 70
     1
102
RTVSPost2010Prop54
  1
strokes_ogs.tif
102
RTVSPost2010PropOp54
 70
     1
102
RTVSPost2010Prop55
280
     0
102
RTVSPost2010PropOp55
 70
     1
102
RTVSPost2010Prop56
140
1.0
102
RTVSPost2010PropOp56
 70
     1
102
RTVSPost2010Prop57
140
1.0
102
RTVSPost2010PropOp57
 70
     1
102
RTVSPropertyOp0
 70
     1
102
RTVSPropertyOp1
 70
     1
102
RTVSPropertyOp2
 70
     1
102
RTVSPropertyOp3
 70
     1
102
RTVSPropertyOp4
 70
     1
102
RTVSPropertyOp5
 70
     1
102
RTVSPropertyOp6
 70
     1
102
RTVSPropertyOp7
 70
     1
102
RTVSPropertyOp8
 70
     1
102
RTVSPropertyOp9
 70
     1
102
RTVSPropertyOp10
 70
     1
102
RTVSPropertyOp11
 70
     1
102
RTVSPropertyOp12
 70
     1
102
RTVSPropertyOp13
 70
     1
102
RTVSPropertyOp14
 70
     1
102
RTVSPropertyOp15
 70
     1
102
RTVSPropertyOp16
 70
     1
102
RTVSPropertyOp17
 70
     1
102
RTVSPropertyOp18
 70
     1
102
RTVSPropertyOp19
 70
     1
102
RTVSPropertyOp20
 70
     1
102
RTVSPropertyOp21
 70
     1
102
RTVSPropertyOp22
 70
     1
102
RTVSPropertyOp23
 70
     1
102
RTVSPropertyOp24
 70
     1
102
RTVSPropertyOp25
 70
     1
102
RTVSPropertyOp26
 70
     1
102
RTVSPropertyOp27
 70
     1
102
RTVSPropertyOp28
 70
     1
102
RTVSPropertyOp29
 70
     1
102
RTVSPropertyOp30
 70
     1
102
RTVSPropertyOp31
 70
     1
102
RTVSPropertyOp32
 70
     1
102
RTVSPropertyOp33
 70
     1
102
RTVSPropertyOp34
 70
     1
102
RTVSPropertyOp35
 70
     1
102
RTVSPropertyOp36
 70
     1
102
RTVSPropertyOp37
 70
     1
102
RTVSPropertyOp38
 70
     1
102
RTVSPropertyOp39
 70
     1
102
RTVSPropertyOp40
 70
     1
102
RTVSPropertyOp41
 70
     1
102
RTVSPropertyOp42
 70
     1
102
RTVSPropertyOp43
 70
     1
102
RTVSPropertyOp44
 70
     1
102
RTVSPropertyOp45
 70
     1
102
RTVSPropertyOp46
 70
     1
102
RTVSPropertyOp47
 70
     1
102
RTVSPropertyOp48
 70
     1
102
RTVSPropertyOp49
 70
     1
102
RTVSPropertyOp50
 70
     1
102
RTVSPropertyOp51
 70
     0
102
RTVSPropertyOp52
 70
     0
102
RTVSPropertyOp53
 70
     1
102
RTVSPropertyOp54
 70
     1
102
RTVSPropertyOp55
 70
     1
102
RTVSPropertyOp56
 70
     1
102
RTVSPropertyOp57
 70
     1
102
RTVSPropertyOp58
 70
     1
102
RTVSPropertyOp59
 70
     1
102
RTVSPropertyOp60
 70
     1
102
RTVSPropertyOp61
 70
     1
102
RTVSPropertyOp62
 70
     1
  0
XRECORD
  5
A5F
102
{ACAD_REACTORS
330
A5E
102
}
330
A5E
100
AcDbXrecord
280
     1
102
RTVSPost2010Prop28
280
     0
102
RTVSPost2010PropOp28
 70
     1
102
RTVSPost2010Prop29
280
     1
102
RTVSPost2010PropOp29
 70
     1
102
RTVSPost2010Prop30
280
     1
102
RTVSPost2010PropOp30
 70
     1
102
RTVSPost2010Prop31
280
     0
102
RTVSPost2010PropOp31
 70
     1
102
RTVSPost2010Prop32
280
     0
102
RTVSPost2010PropOp32
 70
     1
102
RTVSPost2010Prop33
280
     0
102
RTVSPost2010PropOp33
 70
     1
102
RTVSPost2010Prop34
280
     0
102
RTVSPost2010PropOp34
 70
     1
102
RTVSPost2010Prop35
280
     0
102
RTVSPost2010PropOp35
 70
     1
102
RTVSPost2010Prop36
280
     0
102
RTVSPost2010PropOp36
 70
     1
102
RTVSPost2010Prop37
 90
       50
102
RTVSPost2010PropOp37
 70
     1
102
RTVSPost2010Prop38
140
0.0
102
RTVSPost2010PropOp38
 70
     1
102
RTVSPost2010Prop39
140
1.0
102
RTVSPost2010PropOp39
 70
     1
102
RTVSPost2010Prop40
 90
        0
102
RTVSPost2010PropOp40
 70
     1
102
RTVSPost2010Prop41ColorIndex
 90
       18
102
RTVSPost2010Prop41ColorRGB
 90
        0
102
RTVSPost2010PropOp41
 70
     1
102
RTVSPost2010Prop42
 90
       50
102
RTVSPost2010PropOp42
 70
     1
102
RTVSPost2010Prop43
 90
        3
102
RTVSPost2010PropOp43
 70
     1
102
RTVSPost2010Prop44ColorIndex
 90
        5
102
RTVSPost2010Prop44ColorRGB
 90
      255
102
RTVSPost2010PropOp44
 70
     1
102
RTVSPost2010Prop45
280
     0
102
RTVSPost2010PropOp45
 70
     1
102
RTVSPost2010Prop46
 90
       50
102
RTVSPost2010PropOp46
 70
     1
102
RTVSPost2010Prop47
 90
       50
102
RTVSPost2010PropOp47
 70
     1
102
RTVSPost2010Prop48
 90
       50
102
RTVSPost2010PropOp48
 70
     1
102
RTVSPost2010Prop49
280
     0
102
RTVSPost2010PropOp49
 70
     1
102
RTVSPost2010Prop50
 90
       50
102
RTVSPost2010PropOp50
 70
     1
102
RTVSPost2010Prop51ColorIndex
 90
      256
102
RTVSPost2010Prop51ColorRGB
 90
-16777216
102
RTVSPost2010PropOp51
 70
     0
102
RTVSPost2010Prop52
140
1.0
102
RTVSPost2010PropOp52
 70
     0
102
RTVSPost2010Prop53
 90
        2
102
RTVSPost2010PropOp53
 70
     1
102
RTVSPost2010Prop54
  1
strokes_ogs.tif
102
RTVSPost2010PropOp54
 70
     1
102
RTVSPost2010Prop55
280
     0
102
RTVSPost2010PropOp55
 70
     1
102
RTVSPost2010Prop56
140
1.0
102
RTVSPost2010PropOp56
 70
     1
102
RTVSPost2010Prop57
140
1.0
102
RTVSPost2010PropOp57
 70
     1
102
RTVSPropertyOp0
 70
     0
102
RTVSPropertyOp1
 70
     0
102
RTVSPropertyOp2
 70
     0
102
RTVSPropertyOp3
 70
     0
102
RTVSPropertyOp4
 70
     0
102
RTVSPropertyOp5
 70
     0
102
RTVSPropertyOp6
 70
     0
102
RTVSPropertyOp7
 70
     0
102
RTVSPropertyOp8
 70
     0
102
RTVSPropertyOp9
 70
     0
102
RTVSPropertyOp10
 70
     0
102
RTVSPropertyOp11
 70
     0
102
RTVSPropertyOp12
 70
     0
102
RTVSPropertyOp13
 70
     0
102
RTVSPropertyOp14
 70
     2
102
RTVSPropertyOp15
 70
     0
102
RTVSPropertyOp16
 70
     0
102
RTVSPropertyOp17
 70
     0
102
RTVSPropertyOp18
 70
     0
102
RTVSPropertyOp19
 70
     0
102
RTVSPropertyOp20
 70
     0
102
RTVSPropertyOp21
 70
     0
102
RTVSPropertyOp22
 70
     0
102
RTVSPropertyOp23
 70
     0
102
RTVSPropertyOp24
 70
     0
102
RTVSPropertyOp25
 70
     0
102
RTVSPropertyOp26
 70
     0
102
RTVSPropertyOp27
 70
     0
102
RTVSPropertyOp28
 70
     1
102
RTVSPropertyOp29
 70
     1
102
RTVSPropertyOp30
 70
     1
102
RTVSPropertyOp31
 70
     1
102
RTVSPropertyOp32
 70
     1
102
RTVSPropertyOp33
 70
     1
102
RTVSPropertyOp34
 70
     1
102
RTVSPropertyOp35
 70
     1
102
RTVSPropertyOp36
 70
     1
102
RTVSPropertyOp37
 70
     1
102
RTVSPropertyOp38
 70
     1
102
RTVSPropertyOp39
 70
     1
102
RTVSPropertyOp40
 70
     1
102
RTVSPropertyOp41
 70
     1
102
RTVSPropertyOp42
 70
     1
102
RTVSPropertyOp43
 70
     1
102
RTVSPropertyOp44
 70
     1
102
RTVSPropertyOp45
 70
     1
102
RTVSPropertyOp46
 70
     1
102
RTVSPropertyOp47
 70
     1
102
RTVSPropertyOp48
 70
     1
102
RTVSPropertyOp49
 70
     1
102
RTVSPropertyOp50
 70
     1
102
RTVSPropertyOp51
 70
     0
102
RTVSPropertyOp52
 70
     0
102
RTVSPropertyOp53
 70
     1
102
RTVSPropertyOp54
 70
     1
102
RTVSPropertyOp55
 70
     1
102
RTVSPropertyOp56
 70
     1
102
RTVSPropertyOp57
 70
     1
102
RTVSPropertyOp58
 70
     1
102
RTVSPropertyOp59
 70
     1
102
RTVSPropertyOp60
 70
     1
102
RTVSPropertyOp61
 70
     1
102
RTVSPropertyOp62
 70
     1
  0
XRECORD
  5
A55
102
{ACAD_REACTORS
330
A54
102
}
330
A54
100
AcDbXrecord
280
     1
102
RTVSPost2010Prop28
280
     0
102
RTVSPost2010PropOp28
 70
     1
102
RTVSPost2010Prop29
280
     1
102
RTVSPost2010PropOp29
 70
     1
102
RTVSPost2010Prop30
280
     1
102
RTVSPost2010PropOp30
 70
     1
102
RTVSPost2010Prop31
280
     0
102
RTVSPost2010PropOp31
 70
     1
102
RTVSPost2010Prop32
280
     0
102
RTVSPost2010PropOp32
 70
     1
102
RTVSPost2010Prop33
280
     0
102
RTVSPost2010PropOp33
 70
     1
102
RTVSPost2010Prop34
280
     0
102
RTVSPost2010PropOp34
 70
     1
102
RTVSPost2010Prop35
280
     0
102
RTVSPost2010PropOp35
 70
     1
102
RTVSPost2010Prop36
280
     0
102
RTVSPost2010PropOp36
 70
     1
102
RTVSPost2010Prop37
 90
       50
102
RTVSPost2010PropOp37
 70
     1
102
RTVSPost2010Prop38
140
0.0
102
RTVSPost2010PropOp38
 70
     1
102
RTVSPost2010Prop39
140
1.0
102
RTVSPost2010PropOp39
 70
     1
102
RTVSPost2010Prop40
 90
        0
102
RTVSPost2010PropOp40
 70
     1
102
RTVSPost2010Prop41ColorIndex
 90
       18
102
RTVSPost2010Prop41ColorRGB
 90
        0
102
RTVSPost2010PropOp41
 70
     1
102
RTVSPost2010Prop42
 90
       50
102
RTVSPost2010PropOp42
 70
     1
102
RTVSPost2010Prop43
 90
        3
102
RTVSPost2010PropOp43
 70
     1
102
RTVSPost2010Prop44ColorIndex
 90
        5
102
RTVSPost2010Prop44ColorRGB
 90
      255
102
RTVSPost2010PropOp44
 70
     1
102
RTVSPost2010Prop45
280
     0
102
RTVSPost2010PropOp45
 70
     1
102
RTVSPost2010Prop46
 90
       50
102
RTVSPost2010PropOp46
 70
     1
102
RTVSPost2010Prop47
 90
       50
102
RTVSPost2010PropOp47
 70
     1
102
RTVSPost2010Prop48
 90
       50
102
RTVSPost2010PropOp48
 70
     1
102
RTVSPost2010Prop49
280
     0
102
RTVSPost2010PropOp49
 70
     1
102
RTVSPost2010Prop50
 90
       50
102
RTVSPost2010PropOp50
 70
     1
102
RTVSPost2010Prop51ColorIndex
 90
      256
102
RTVSPost2010Prop51ColorRGB
 90
-16777216
102
RTVSPost2010PropOp51
 70
     0
102
RTVSPost2010Prop52
140
1.0
102
RTVSPost2010PropOp52
 70
     0
102
RTVSPost2010Prop53
 90
        2
102
RTVSPost2010PropOp53
 70
     1
102
RTVSPost2010Prop54
  1
strokes_ogs.tif
102
RTVSPost2010PropOp54
 70
     1
102
RTVSPost2010Prop55
280
     0
102
RTVSPost2010PropOp55
 70
     1
102
RTVSPost2010Prop56
140
1.0
102
RTVSPost2010PropOp56
 70
     1
102
RTVSPost2010Prop57
140
1.0
102
RTVSPost2010PropOp57
 70
     1
102
RTVSPropertyOp0
 70
     1
102
RTVSPropertyOp1
 70
     1
102
RTVSPropertyOp2
 70
     1
102
RTVSPropertyOp3
 70
     1
102
RTVSPropertyOp4
 70
     1
102
RTVSPropertyOp5
 70
     1
102
RTVSPropertyOp6
 70
     1
102
RTVSPropertyOp7
 70
     1
102
RTVSPropertyOp8
 70
     1
102
RTVSPropertyOp9
 70
     1
102
RTVSPropertyOp10
 70
     1
102
RTVSPropertyOp11
 70
     1
102
RTVSPropertyOp12
 70
     1
102
RTVSPropertyOp13
 70
     1
102
RTVSPropertyOp14
 70
     1
102
RTVSPropertyOp15
 70
     1
102
RTVSPropertyOp16
 70
     1
102
RTVSPropertyOp17
 70
     1
102
RTVSPropertyOp18
 70
     1
102
RTVSPropertyOp19
 70
     1
102
RTVSPropertyOp20
 70
     1
102
RTVSPropertyOp21
 70
     1
102
RTVSPropertyOp22
 70
     1
102
RTVSPropertyOp23
 70
     1
102
RTVSPropertyOp24
 70
     1
102
RTVSPropertyOp25
 70
     1
102
RTVSPropertyOp26
 70
     1
102
RTVSPropertyOp27
 70
     1
102
RTVSPropertyOp28
 70
     1
102
RTVSPropertyOp29
 70
     1
102
RTVSPropertyOp30
 70
     1
102
RTVSPropertyOp31
 70
     1
102
RTVSPropertyOp32
 70
     1
102
RTVSPropertyOp33
 70
     1
102
RTVSPropertyOp34
 70
     1
102
RTVSPropertyOp35
 70
     1
102
RTVSPropertyOp36
 70
     1
102
RTVSPropertyOp37
 70
     1
102
RTVSPropertyOp38
 70
     1
102
RTVSPropertyOp39
 70
     1
102
RTVSPropertyOp40
 70
     1
102
RTVSPropertyOp41
 70
     1
102
RTVSPropertyOp42
 70
     1
102
RTVSPropertyOp43
 70
     1
102
RTVSPropertyOp44
 70
     1
102
RTVSPropertyOp45
 70
     1
102
RTVSPropertyOp46
 70
     1
102
RTVSPropertyOp47
 70
     1
102
RTVSPropertyOp48
 70
     1
102
RTVSPropertyOp49
 70
     1
102
RTVSPropertyOp50
 70
     1
102
RTVSPropertyOp51
 70
     0
102
RTVSPropertyOp52
 70
     0
102
RTVSPropertyOp53
 70
     1
102
RTVSPropertyOp54
 70
     1
102
RTVSPropertyOp55
 70
     1
102
RTVSPropertyOp56
 70
     1
102
RTVSPropertyOp57
 70
     1
102
RTVSPropertyOp58
 70
     1
102
RTVSPropertyOp59
 70
     1
102
RTVSPropertyOp60
 70
     1
102
RTVSPropertyOp61
 70
     1
102
RTVSPropertyOp62
 70
     1
  0
XRECORD
  5
A39
102
{ACAD_REACTORS
330
A38
102
}
330
A38
100
AcDbXrecord
280
     1
102
RTVSPost2010Prop28
280
     0
102
RTVSPost2010PropOp28
 70
     1
102
RTVSPost2010Prop29
280
     1
102
RTVSPost2010PropOp29
 70
     1
102
RTVSPost2010Prop30
280
     1
102
RTVSPost2010PropOp30
 70
     1
102
RTVSPost2010Prop31
280
     0
102
RTVSPost2010PropOp31
 70
     1
102
RTVSPost2010Prop32
280
     0
102
RTVSPost2010PropOp32
 70
     1
102
RTVSPost2010Prop33
280
     0
102
RTVSPost2010PropOp33
 70
     1
102
RTVSPost2010Prop34
280
     0
102
RTVSPost2010PropOp34
 70
     1
102
RTVSPost2010Prop35
280
     0
102
RTVSPost2010PropOp35
 70
     1
102
RTVSPost2010Prop36
280
     0
102
RTVSPost2010PropOp36
 70
     1
102
RTVSPost2010Prop37
 90
       50
102
RTVSPost2010PropOp37
 70
     1
102
RTVSPost2010Prop38
140
0.0
102
RTVSPost2010PropOp38
 70
     1
102
RTVSPost2010Prop39
140
1.0
102
RTVSPost2010PropOp39
 70
     1
102
RTVSPost2010Prop40
 90
        0
102
RTVSPost2010PropOp40
 70
     1
102
RTVSPost2010Prop41ColorIndex
 90
       18
102
RTVSPost2010Prop41ColorRGB
 90
        0
102
RTVSPost2010PropOp41
 70
     1
102
RTVSPost2010Prop42
 90
       50
102
RTVSPost2010PropOp42
 70
     1
102
RTVSPost2010Prop43
 90
        3
102
RTVSPost2010PropOp43
 70
     1
102
RTVSPost2010Prop44ColorIndex
 90
        5
102
RTVSPost2010Prop44ColorRGB
 90
      255
102
RTVSPost2010PropOp44
 70
     1
102
RTVSPost2010Prop45
280
     0
102
RTVSPost2010PropOp45
 70
     1
102
RTVSPost2010Prop46
 90
       50
102
RTVSPost2010PropOp46
 70
     1
102
RTVSPost2010Prop47
 90
       50
102
RTVSPost2010PropOp47
 70
     1
102
RTVSPost2010Prop48
 90
       50
102
RTVSPost2010PropOp48
 70
     1
102
RTVSPost2010Prop49
280
     0
102
RTVSPost2010PropOp49
 70
     1
102
RTVSPost2010Prop50
 90
       50
102
RTVSPost2010PropOp50
 70
     1
102
RTVSPost2010Prop51ColorIndex
 90
      256
102
RTVSPost2010Prop51ColorRGB
 90
-16777216
102
RTVSPost2010PropOp51
 70
     0
102
RTVSPost2010Prop52
140
1.0
102
RTVSPost2010PropOp52
 70
     0
102
RTVSPost2010Prop53
 90
        2
102
RTVSPost2010PropOp53
 70
     1
102
RTVSPost2010Prop54
  1
strokes_ogs.tif
102
RTVSPost2010PropOp54
 70
     1
102
RTVSPost2010Prop55
280
     0
102
RTVSPost2010PropOp55
 70
     1
102
RTVSPost2010Prop56
140
1.0
102
RTVSPost2010PropOp56
 70
     1
102
RTVSPost2010Prop57
140
1.0
102
RTVSPost2010PropOp57
 70
     1
102
RTVSPropertyOp0
 70
     1
102
RTVSPropertyOp1
 70
     1
102
RTVSPropertyOp2
 70
     1
102
RTVSPropertyOp3
 70
     1
102
RTVSPropertyOp4
 70
     1
102
RTVSPropertyOp5
 70
     1
102
RTVSPropertyOp6
 70
     1
102
RTVSPropertyOp7
 70
     1
102
RTVSPropertyOp8
 70
     1
102
RTVSPropertyOp9
 70
     1
102
RTVSPropertyOp10
 70
     1
102
RTVSPropertyOp11
 70
     1
102
RTVSPropertyOp12
 70
     1
102
RTVSPropertyOp13
 70
     1
102
RTVSPropertyOp14
 70
     1
102
RTVSPropertyOp15
 70
     1
102
RTVSPropertyOp16
 70
     1
102
RTVSPropertyOp17
 70
     1
102
RTVSPropertyOp18
 70
     1
102
RTVSPropertyOp19
 70
     1
102
RTVSPropertyOp20
 70
     1
102
RTVSPropertyOp21
 70
     1
102
RTVSPropertyOp22
 70
     1
102
RTVSPropertyOp23
 70
     1
102
RTVSPropertyOp24
 70
     1
102
RTVSPropertyOp25
 70
     1
102
RTVSPropertyOp26
 70
     1
102
RTVSPropertyOp27
 70
     1
102
RTVSPropertyOp28
 70
     1
102
RTVSPropertyOp29
 70
     1
102
RTVSPropertyOp30
 70
     1
102
RTVSPropertyOp31
 70
     1
102
RTVSPropertyOp32
 70
     1
102
RTVSPropertyOp33
 70
     1
102
RTVSPropertyOp34
 70
     1
102
RTVSPropertyOp35
 70
     1
102
RTVSPropertyOp36
 70
     1
102
RTVSPropertyOp37
 70
     1
102
RTVSPropertyOp38
 70
     1
102
RTVSPropertyOp39
 70
     1
102
RTVSPropertyOp40
 70
     1
102
RTVSPropertyOp41
 70
     1
102
RTVSPropertyOp42
 70
     1
102
RTVSPropertyOp43
 70
     1
102
RTVSPropertyOp44
 70
     1
102
RTVSPropertyOp45
 70
     1
102
RTVSPropertyOp46
 70
     1
102
RTVSPropertyOp47
 70
     1
102
RTVSPropertyOp48
 70
     1
102
RTVSPropertyOp49
 70
     1
102
RTVSPropertyOp50
 70
     1
102
RTVSPropertyOp51
 70
     0
102
RTVSPropertyOp52
 70
     0
102
RTVSPropertyOp53
 70
     1
102
RTVSPropertyOp54
 70
     1
102
RTVSPropertyOp55
 70
     1
102
RTVSPropertyOp56
 70
     1
102
RTVSPropertyOp57
 70
     1
102
RTVSPropertyOp58
 70
     1
102
RTVSPropertyOp59
 70
     1
102
RTVSPropertyOp60
 70
     1
102
RTVSPropertyOp61
 70
     1
102
RTVSPropertyOp62
 70
     1
  0
XRECORD
  5
A3B
102
{ACAD_REACTORS
330
A3A
102
}
330
A3A
100
AcDbXrecord
280
     1
102
RTVSPost2010Prop28
280
     0
102
RTVSPost2010PropOp28
 70
     1
102
RTVSPost2010Prop29
280
     1
102
RTVSPost2010PropOp29
 70
     1
102
RTVSPost2010Prop30
280
     1
102
RTVSPost2010PropOp30
 70
     1
102
RTVSPost2010Prop31
280
     0
102
RTVSPost2010PropOp31
 70
     1
102
RTVSPost2010Prop32
280
     0
102
RTVSPost2010PropOp32
 70
     1
102
RTVSPost2010Prop33
280
     0
102
RTVSPost2010PropOp33
 70
     1
102
RTVSPost2010Prop34
280
     0
102
RTVSPost2010PropOp34
 70
     1
102
RTVSPost2010Prop35
280
     0
102
RTVSPost2010PropOp35
 70
     1
102
RTVSPost2010Prop36
280
     0
102
RTVSPost2010PropOp36
 70
     1
102
RTVSPost2010Prop37
 90
       50
102
RTVSPost2010PropOp37
 70
     1
102
RTVSPost2010Prop38
140
0.0
102
RTVSPost2010PropOp38
 70
     1
102
RTVSPost2010Prop39
140
1.0
102
RTVSPost2010PropOp39
 70
     1
102
RTVSPost2010Prop40
 90
        0
102
RTVSPost2010PropOp40
 70
     1
102
RTVSPost2010Prop41ColorIndex
 90
       18
102
RTVSPost2010Prop41ColorRGB
 90
        0
102
RTVSPost2010PropOp41
 70
     1
102
RTVSPost2010Prop42
 90
       50
102
RTVSPost2010PropOp42
 70
     1
102
RTVSPost2010Prop43
 90
        3
102
RTVSPost2010PropOp43
 70
     1
102
RTVSPost2010Prop44ColorIndex
 90
        5
102
RTVSPost2010Prop44ColorRGB
 90
      255
102
RTVSPost2010PropOp44
 70
     1
102
RTVSPost2010Prop45
280
     0
102
RTVSPost2010PropOp45
 70
     1
102
RTVSPost2010Prop46
 90
       50
102
RTVSPost2010PropOp46
 70
     1
102
RTVSPost2010Prop47
 90
       50
102
RTVSPost2010PropOp47
 70
     1
102
RTVSPost2010Prop48
 90
       50
102
RTVSPost2010PropOp48
 70
     1
102
RTVSPost2010Prop49
280
     0
102
RTVSPost2010PropOp49
 70
     1
102
RTVSPost2010Prop50
 90
       50
102
RTVSPost2010PropOp50
 70
     1
102
RTVSPost2010Prop51ColorIndex
 90
      256
102
RTVSPost2010Prop51ColorRGB
 90
-16777216
102
RTVSPost2010PropOp51
 70
     0
102
RTVSPost2010Prop52
140
1.0
102
RTVSPost2010PropOp52
 70
     0
102
RTVSPost2010Prop53
 90
        2
102
RTVSPost2010PropOp53
 70
     1
102
RTVSPost2010Prop54
  1
strokes_ogs.tif
102
RTVSPost2010PropOp54
 70
     1
102
RTVSPost2010Prop55
280
     0
102
RTVSPost2010PropOp55
 70
     1
102
RTVSPost2010Prop56
140
1.0
102
RTVSPost2010PropOp56
 70
     1
102
RTVSPost2010Prop57
140
1.0
102
RTVSPost2010PropOp57
 70
     1
102
RTVSPropertyOp0
 70
     1
102
RTVSPropertyOp1
 70
     1
102
RTVSPropertyOp2
 70
     1
102
RTVSPropertyOp3
 70
     1
102
RTVSPropertyOp4
 70
     1
102
RTVSPropertyOp5
 70
     1
102
RTVSPropertyOp6
 70
     1
102
RTVSPropertyOp7
 70
     1
102
RTVSPropertyOp8
 70
     1
102
RTVSPropertyOp9
 70
     1
102
RTVSPropertyOp10
 70
     1
102
RTVSPropertyOp11
 70
     1
102
RTVSPropertyOp12
 70
     1
102
RTVSPropertyOp13
 70
     1
102
RTVSPropertyOp14
 70
     1
102
RTVSPropertyOp15
 70
     1
102
RTVSPropertyOp16
 70
     1
102
RTVSPropertyOp17
 70
     1
102
RTVSPropertyOp18
 70
     1
102
RTVSPropertyOp19
 70
     1
102
RTVSPropertyOp20
 70
     1
102
RTVSPropertyOp21
 70
     1
102
RTVSPropertyOp22
 70
     1
102
RTVSPropertyOp23
 70
     1
102
RTVSPropertyOp24
 70
     1
102
RTVSPropertyOp25
 70
     1
102
RTVSPropertyOp26
 70
     1
102
RTVSPropertyOp27
 70
     1
102
RTVSPropertyOp28
 70
     1
102
RTVSPropertyOp29
 70
     1
102
RTVSPropertyOp30
 70
     1
102
RTVSPropertyOp31
 70
     1
102
RTVSPropertyOp32
 70
     1
102
RTVSPropertyOp33
 70
     1
102
RTVSPropertyOp34
 70
     1
102
RTVSPropertyOp35
 70
     1
102
RTVSPropertyOp36
 70
     1
102
RTVSPropertyOp37
 70
     1
102
RTVSPropertyOp38
 70
     1
102
RTVSPropertyOp39
 70
     1
102
RTVSPropertyOp40
 70
     1
102
RTVSPropertyOp41
 70
     1
102
RTVSPropertyOp42
 70
     1
102
RTVSPropertyOp43
 70
     1
102
RTVSPropertyOp44
 70
     1
102
RTVSPropertyOp45
 70
     1
102
RTVSPropertyOp46
 70
     1
102
RTVSPropertyOp47
 70
     1
102
RTVSPropertyOp48
 70
     1
102
RTVSPropertyOp49
 70
     1
102
RTVSPropertyOp50
 70
     1
102
RTVSPropertyOp51
 70
     0
102
RTVSPropertyOp52
 70
     0
102
RTVSPropertyOp53
 70
     1
102
RTVSPropertyOp54
 70
     1
102
RTVSPropertyOp55
 70
     1
102
RTVSPropertyOp56
 70
     1
102
RTVSPropertyOp57
 70
     1
102
RTVSPropertyOp58
 70
     1
102
RTVSPropertyOp59
 70
     1
102
RTVSPropertyOp60
 70
     1
102
RTVSPropertyOp61
 70
     1
102
RTVSPropertyOp62
 70
     1
  0
XRECORD
  5
A3D
102
{ACAD_REACTORS
330
A3C
102
}
330
A3C
100
AcDbXrecord
280
     1
102
RTVSPost2010Prop28
280
     0
102
RTVSPost2010PropOp28
 70
     1
102
RTVSPost2010Prop29
280
     1
102
RTVSPost2010PropOp29
 70
     1
102
RTVSPost2010Prop30
280
     1
102
RTVSPost2010PropOp30
 70
     1
102
RTVSPost2010Prop31
280
     0
102
RTVSPost2010PropOp31
 70
     1
102
RTVSPost2010Prop32
280
     0
102
RTVSPost2010PropOp32
 70
     1
102
RTVSPost2010Prop33
280
     0
102
RTVSPost2010PropOp33
 70
     1
102
RTVSPost2010Prop34
280
     0
102
RTVSPost2010PropOp34
 70
     1
102
RTVSPost2010Prop35
280
     0
102
RTVSPost2010PropOp35
 70
     1
102
RTVSPost2010Prop36
280
     0
102
RTVSPost2010PropOp36
 70
     1
102
RTVSPost2010Prop37
 90
       50
102
RTVSPost2010PropOp37
 70
     1
102
RTVSPost2010Prop38
140
0.0
102
RTVSPost2010PropOp38
 70
     1
102
RTVSPost2010Prop39
140
1.0
102
RTVSPost2010PropOp39
 70
     1
102
RTVSPost2010Prop40
 90
        0
102
RTVSPost2010PropOp40
 70
     1
102
RTVSPost2010Prop41ColorIndex
 90
       18
102
RTVSPost2010Prop41ColorRGB
 90
        0
102
RTVSPost2010PropOp41
 70
     1
102
RTVSPost2010Prop42
 90
       50
102
RTVSPost2010PropOp42
 70
     1
102
RTVSPost2010Prop43
 90
        3
102
RTVSPost2010PropOp43
 70
     1
102
RTVSPost2010Prop44ColorIndex
 90
        5
102
RTVSPost2010Prop44ColorRGB
 90
      255
102
RTVSPost2010PropOp44
 70
     1
102
RTVSPost2010Prop45
280
     0
102
RTVSPost2010PropOp45
 70
     1
102
RTVSPost2010Prop46
 90
       50
102
RTVSPost2010PropOp46
 70
     1
102
RTVSPost2010Prop47
 90
       50
102
RTVSPost2010PropOp47
 70
     1
102
RTVSPost2010Prop48
 90
       50
102
RTVSPost2010PropOp48
 70
     1
102
RTVSPost2010Prop49
280
     0
102
RTVSPost2010PropOp49
 70
     1
102
RTVSPost2010Prop50
 90
       50
102
RTVSPost2010PropOp50
 70
     1
102
RTVSPost2010Prop51ColorIndex
 90
      256
102
RTVSPost2010Prop51ColorRGB
 90
-16777216
102
RTVSPost2010PropOp51
 70
     0
102
RTVSPost2010Prop52
140
1.0
102
RTVSPost2010PropOp52
 70
     0
102
RTVSPost2010Prop53
 90
        2
102
RTVSPost2010PropOp53
 70
     1
102
RTVSPost2010Prop54
  1
strokes_ogs.tif
102
RTVSPost2010PropOp54
 70
     1
102
RTVSPost2010Prop55
280
     0
102
RTVSPost2010PropOp55
 70
     1
102
RTVSPost2010Prop56
140
1.0
102
RTVSPost2010PropOp56
 70
     1
102
RTVSPost2010Prop57
140
1.0
102
RTVSPost2010PropOp57
 70
     1
102
RTVSPropertyOp0
 70
     1
102
RTVSPropertyOp1
 70
     1
102
RTVSPropertyOp2
 70
     1
102
RTVSPropertyOp3
 70
     1
102
RTVSPropertyOp4
 70
     1
102
RTVSPropertyOp5
 70
     1
102
RTVSPropertyOp6
 70
     1
102
RTVSPropertyOp7
 70
     1
102
RTVSPropertyOp8
 70
     1
102
RTVSPropertyOp9
 70
     1
102
RTVSPropertyOp10
 70
     1
102
RTVSPropertyOp11
 70
     1
102
RTVSPropertyOp12
 70
     1
102
RTVSPropertyOp13
 70
     1
102
RTVSPropertyOp14
 70
     1
102
RTVSPropertyOp15
 70
     1
102
RTVSPropertyOp16
 70
     1
102
RTVSPropertyOp17
 70
     1
102
RTVSPropertyOp18
 70
     1
102
RTVSPropertyOp19
 70
     1
102
RTVSPropertyOp20
 70
     1
102
RTVSPropertyOp21
 70
     1
102
RTVSPropertyOp22
 70
     1
102
RTVSPropertyOp23
 70
     1
102
RTVSPropertyOp24
 70
     1
102
RTVSPropertyOp25
 70
     1
102
RTVSPropertyOp26
 70
     1
102
RTVSPropertyOp27
 70
     1
102
RTVSPropertyOp28
 70
     1
102
RTVSPropertyOp29
 70
     1
102
RTVSPropertyOp30
 70
     1
102
RTVSPropertyOp31
 70
     1
102
RTVSPropertyOp32
 70
     1
102
RTVSPropertyOp33
 70
     1
102
RTVSPropertyOp34
 70
     1
102
RTVSPropertyOp35
 70
     1
102
RTVSPropertyOp36
 70
     1
102
RTVSPropertyOp37
 70
     1
102
RTVSPropertyOp38
 70
     1
102
RTVSPropertyOp39
 70
     1
102
RTVSPropertyOp40
 70
     1
102
RTVSPropertyOp41
 70
     1
102
RTVSPropertyOp42
 70
     1
102
RTVSPropertyOp43
 70
     1
102
RTVSPropertyOp44
 70
     1
102
RTVSPropertyOp45
 70
     1
102
RTVSPropertyOp46
 70
     1
102
RTVSPropertyOp47
 70
     1
102
RTVSPropertyOp48
 70
     1
102
RTVSPropertyOp49
 70
     1
102
RTVSPropertyOp50
 70
     1
102
RTVSPropertyOp51
 70
     0
102
RTVSPropertyOp52
 70
     0
102
RTVSPropertyOp53
 70
     1
102
RTVSPropertyOp54
 70
     1
102
RTVSPropertyOp55
 70
     1
102
RTVSPropertyOp56
 70
     1
102
RTVSPropertyOp57
 70
     1
102
RTVSPropertyOp58
 70
     1
102
RTVSPropertyOp59
 70
     1
102
RTVSPropertyOp60
 70
     1
102
RTVSPropertyOp61
 70
     1
102
RTVSPropertyOp62
 70
     1
  0
XRECORD
  5
A3F
102
{ACAD_REACTORS
330
A3E
102
}
330
A3E
100
AcDbXrecord
280
     1
102
RTVSPost2010Prop28
280
     0
102
RTVSPost2010PropOp28
 70
     1
102
RTVSPost2010Prop29
280
     1
102
RTVSPost2010PropOp29
 70
     1
102
RTVSPost2010Prop30
280
     1
102
RTVSPost2010PropOp30
 70
     1
102
RTVSPost2010Prop31
280
     0
102
RTVSPost2010PropOp31
 70
     1
102
RTVSPost2010Prop32
280
     0
102
RTVSPost2010PropOp32
 70
     1
102
RTVSPost2010Prop33
280
     0
102
RTVSPost2010PropOp33
 70
     1
102
RTVSPost2010Prop34
280
     0
102
RTVSPost2010PropOp34
 70
     1
102
RTVSPost2010Prop35
280
     0
102
RTVSPost2010PropOp35
 70
     1
102
RTVSPost2010Prop36
280
     0
102
RTVSPost2010PropOp36
 70
     1
102
RTVSPost2010Prop37
 90
       50
102
RTVSPost2010PropOp37
 70
     1
102
RTVSPost2010Prop38
140
0.0
102
RTVSPost2010PropOp38
 70
     1
102
RTVSPost2010Prop39
140
1.0
102
RTVSPost2010PropOp39
 70
     1
102
RTVSPost2010Prop40
 90
        0
102
RTVSPost2010PropOp40
 70
     1
102
RTVSPost2010Prop41ColorIndex
 90
       18
102
RTVSPost2010Prop41ColorRGB
 90
        0
102
RTVSPost2010PropOp41
 70
     1
102
RTVSPost2010Prop42
 90
       50
102
RTVSPost2010PropOp42
 70
     1
102
RTVSPost2010Prop43
 90
        3
102
RTVSPost2010PropOp43
 70
     1
102
RTVSPost2010Prop44ColorIndex
 90
        5
102
RTVSPost2010Prop44ColorRGB
 90
      255
102
RTVSPost2010PropOp44
 70
     1
102
RTVSPost2010Prop45
280
     0
102
RTVSPost2010PropOp45
 70
     1
102
RTVSPost2010Prop46
 90
       50
102
RTVSPost2010PropOp46
 70
     1
102
RTVSPost2010Prop47
 90
       50
102
RTVSPost2010PropOp47
 70
     1
102
RTVSPost2010Prop48
 90
       50
102
RTVSPost2010PropOp48
 70
     1
102
RTVSPost2010Prop49
280
     0
102
RTVSPost2010PropOp49
 70
     1
102
RTVSPost2010Prop50
 90
       50
102
RTVSPost2010PropOp50
 70
     1
102
RTVSPost2010Prop51ColorIndex
 90
      256
102
RTVSPost2010Prop51ColorRGB
 90
-16777216
102
RTVSPost2010PropOp51
 70
     0
102
RTVSPost2010Prop52
140
1.0
102
RTVSPost2010PropOp52
 70
     0
102
RTVSPost2010Prop53
 90
        2
102
RTVSPost2010PropOp53
 70
     1
102
RTVSPost2010Prop54
  1
strokes_ogs.tif
102
RTVSPost2010PropOp54
 70
     1
102
RTVSPost2010Prop55
280
     0
102
RTVSPost2010PropOp55
 70
     1
102
RTVSPost2010Prop56
140
1.0
102
RTVSPost2010PropOp56
 70
     1
102
RTVSPost2010Prop57
140
1.0
102
RTVSPost2010PropOp57
 70
     1
102
RTVSPropertyOp0
 70
     1
102
RTVSPropertyOp1
 70
     1
102
RTVSPropertyOp2
 70
     1
102
RTVSPropertyOp3
 70
     1
102
RTVSPropertyOp4
 70
     1
102
RTVSPropertyOp5
 70
     1
102
RTVSPropertyOp6
 70
     1
102
RTVSPropertyOp7
 70
     1
102
RTVSPropertyOp8
 70
     1
102
RTVSPropertyOp9
 70
     1
102
RTVSPropertyOp10
 70
     1
102
RTVSPropertyOp11
 70
     1
102
RTVSPropertyOp12
 70
     1
102
RTVSPropertyOp13
 70
     1
102
RTVSPropertyOp14
 70
     1
102
RTVSPropertyOp15
 70
     1
102
RTVSPropertyOp16
 70
     1
102
RTVSPropertyOp17
 70
     1
102
RTVSPropertyOp18
 70
     1
102
RTVSPropertyOp19
 70
     1
102
RTVSPropertyOp20
 70
     1
102
RTVSPropertyOp21
 70
     1
102
RTVSPropertyOp22
 70
     1
102
RTVSPropertyOp23
 70
     1
102
RTVSPropertyOp24
 70
     1
102
RTVSPropertyOp25
 70
     1
102
RTVSPropertyOp26
 70
     1
102
RTVSPropertyOp27
 70
     1
102
RTVSPropertyOp28
 70
     1
102
RTVSPropertyOp29
 70
     1
102
RTVSPropertyOp30
 70
     1
102
RTVSPropertyOp31
 70
     1
102
RTVSPropertyOp32
 70
     1
102
RTVSPropertyOp33
 70
     1
102
RTVSPropertyOp34
 70
     1
102
RTVSPropertyOp35
 70
     1
102
RTVSPropertyOp36
 70
     1
102
RTVSPropertyOp37
 70
     1
102
RTVSPropertyOp38
 70
     1
102
RTVSPropertyOp39
 70
     1
102
RTVSPropertyOp40
 70
     1
102
RTVSPropertyOp41
 70
     1
102
RTVSPropertyOp42
 70
     1
102
RTVSPropertyOp43
 70
     1
102
RTVSPropertyOp44
 70
     1
102
RTVSPropertyOp45
 70
     1
102
RTVSPropertyOp46
 70
     1
102
RTVSPropertyOp47
 70
     1
102
RTVSPropertyOp48
 70
     1
102
RTVSPropertyOp49
 70
     1
102
RTVSPropertyOp50
 70
     1
102
RTVSPropertyOp51
 70
     0
102
RTVSPropertyOp52
 70
     0
102
RTVSPropertyOp53
 70
     1
102
RTVSPropertyOp54
 70
     1
102
RTVSPropertyOp55
 70
     1
102
RTVSPropertyOp56
 70
     1
102
RTVSPropertyOp57
 70
     1
102
RTVSPropertyOp58
 70
     1
102
RTVSPropertyOp59
 70
     1
102
RTVSPropertyOp60
 70
     1
102
RTVSPropertyOp61
 70
     1
102
RTVSPropertyOp62
 70
     1
  0
XRECORD
  5
A47
102
{ACAD_REACTORS
330
A46
102
}
330
A46
100
AcDbXrecord
280
     1
102
RTVSPost2010Prop28
280
     0
102
RTVSPost2010PropOp28
 70
     1
102
RTVSPost2010Prop29
280
     1
102
RTVSPost2010PropOp29
 70
     1
102
RTVSPost2010Prop30
280
     1
102
RTVSPost2010PropOp30
 70
     1
102
RTVSPost2010Prop31
280
     0
102
RTVSPost2010PropOp31
 70
     1
102
RTVSPost2010Prop32
280
     0
102
RTVSPost2010PropOp32
 70
     1
102
RTVSPost2010Prop33
280
     0
102
RTVSPost2010PropOp33
 70
     1
102
RTVSPost2010Prop34
280
     0
102
RTVSPost2010PropOp34
 70
     1
102
RTVSPost2010Prop35
280
     0
102
RTVSPost2010PropOp35
 70
     1
102
RTVSPost2010Prop36
280
     0
102
RTVSPost2010PropOp36
 70
     1
102
RTVSPost2010Prop37
 90
       50
102
RTVSPost2010PropOp37
 70
     1
102
RTVSPost2010Prop38
140
0.0
102
RTVSPost2010PropOp38
 70
     1
102
RTVSPost2010Prop39
140
1.0
102
RTVSPost2010PropOp39
 70
     1
102
RTVSPost2010Prop40
 90
        0
102
RTVSPost2010PropOp40
 70
     1
102
RTVSPost2010Prop41ColorIndex
 90
       18
102
RTVSPost2010Prop41ColorRGB
 90
        0
102
RTVSPost2010PropOp41
 70
     1
102
RTVSPost2010Prop42
 90
       50
102
RTVSPost2010PropOp42
 70
     1
102
RTVSPost2010Prop43
 90
        3
102
RTVSPost2010PropOp43
 70
     1
102
RTVSPost2010Prop44ColorIndex
 90
        5
102
RTVSPost2010Prop44ColorRGB
 90
      255
102
RTVSPost2010PropOp44
 70
     1
102
RTVSPost2010Prop45
280
     0
102
RTVSPost2010PropOp45
 70
     1
102
RTVSPost2010Prop46
 90
       50
102
RTVSPost2010PropOp46
 70
     1
102
RTVSPost2010Prop47
 90
       50
102
RTVSPost2010PropOp47
 70
     1
102
RTVSPost2010Prop48
 90
       50
102
RTVSPost2010PropOp48
 70
     1
102
RTVSPost2010Prop49
280
     0
102
RTVSPost2010PropOp49
 70
     1
102
RTVSPost2010Prop50
 90
       50
102
RTVSPost2010PropOp50
 70
     1
102
RTVSPost2010Prop51ColorIndex
 90
      256
102
RTVSPost2010Prop51ColorRGB
 90
-16777216
102
RTVSPost2010PropOp51
 70
     0
102
RTVSPost2010Prop52
140
1.0
102
RTVSPost2010PropOp52
 70
     0
102
RTVSPost2010Prop53
 90
        2
102
RTVSPost2010PropOp53
 70
     1
102
RTVSPost2010Prop54
  1
strokes_ogs.tif
102
RTVSPost2010PropOp54
 70
     1
102
RTVSPost2010Prop55
280
     0
102
RTVSPost2010PropOp55
 70
     1
102
RTVSPost2010Prop56
140
1.0
102
RTVSPost2010PropOp56
 70
     1
102
RTVSPost2010Prop57
140
1.0
102
RTVSPost2010PropOp57
 70
     1
102
RTVSPropertyOp0
 70
     1
102
RTVSPropertyOp1
 70
     1
102
RTVSPropertyOp2
 70
     1
102
RTVSPropertyOp3
 70
     1
102
RTVSPropertyOp4
 70
     1
102
RTVSPropertyOp5
 70
     1
102
RTVSPropertyOp6
 70
     1
102
RTVSPropertyOp7
 70
     1
102
RTVSPropertyOp8
 70
     1
102
RTVSPropertyOp9
 70
     1
102
RTVSPropertyOp10
 70
     1
102
RTVSPropertyOp11
 70
     1
102
RTVSPropertyOp12
 70
     1
102
RTVSPropertyOp13
 70
     1
102
RTVSPropertyOp14
 70
     1
102
RTVSPropertyOp15
 70
     1
102
RTVSPropertyOp16
 70
     1
102
RTVSPropertyOp17
 70
     1
102
RTVSPropertyOp18
 70
     1
102
RTVSPropertyOp19
 70
     1
102
RTVSPropertyOp20
 70
     1
102
RTVSPropertyOp21
 70
     1
102
RTVSPropertyOp22
 70
     1
102
RTVSPropertyOp23
 70
     1
102
RTVSPropertyOp24
 70
     1
102
RTVSPropertyOp25
 70
     1
102
RTVSPropertyOp26
 70
     1
102
RTVSPropertyOp27
 70
     1
102
RTVSPropertyOp28
 70
     1
102
RTVSPropertyOp29
 70
     1
102
RTVSPropertyOp30
 70
     1
102
RTVSPropertyOp31
 70
     1
102
RTVSPropertyOp32
 70
     1
102
RTVSPropertyOp33
 70
     1
102
RTVSPropertyOp34
 70
     1
102
RTVSPropertyOp35
 70
     1
102
RTVSPropertyOp36
 70
     1
102
RTVSPropertyOp37
 70
     1
102
RTVSPropertyOp38
 70
     1
102
RTVSPropertyOp39
 70
     1
102
RTVSPropertyOp40
 70
     1
102
RTVSPropertyOp41
 70
     1
102
RTVSPropertyOp42
 70
     1
102
RTVSPropertyOp43
 70
     1
102
RTVSPropertyOp44
 70
     1
102
RTVSPropertyOp45
 70
     1
102
RTVSPropertyOp46
 70
     1
102
RTVSPropertyOp47
 70
     1
102
RTVSPropertyOp48
 70
     1
102
RTVSPropertyOp49
 70
     1
102
RTVSPropertyOp50
 70
     1
102
RTVSPropertyOp51
 70
     0
102
RTVSPropertyOp52
 70
     0
102
RTVSPropertyOp53
 70
     1
102
RTVSPropertyOp54
 70
     1
102
RTVSPropertyOp55
 70
     1
102
RTVSPropertyOp56
 70
     1
102
RTVSPropertyOp57
 70
     1
102
RTVSPropertyOp58
 70
     1
102
RTVSPropertyOp59
 70
     1
102
RTVSPropertyOp60
 70
     1
102
RTVSPropertyOp61
 70
     1
102
RTVSPropertyOp62
 70
     1
  0
XRECORD
  5
A5B
102
{ACAD_REACTORS
330
A5A
102
}
330
A5A
100
AcDbXrecord
280
     1
102
RTVSPost2010Prop28
280
     0
102
RTVSPost2010PropOp28
 70
     1
102
RTVSPost2010Prop29
280
     1
102
RTVSPost2010PropOp29
 70
     1
102
RTVSPost2010Prop30
280
     1
102
RTVSPost2010PropOp30
 70
     1
102
RTVSPost2010Prop31
280
     0
102
RTVSPost2010PropOp31
 70
     1
102
RTVSPost2010Prop32
280
     0
102
RTVSPost2010PropOp32
 70
     1
102
RTVSPost2010Prop33
280
     0
102
RTVSPost2010PropOp33
 70
     1
102
RTVSPost2010Prop34
280
     0
102
RTVSPost2010PropOp34
 70
     1
102
RTVSPost2010Prop35
280
     0
102
RTVSPost2010PropOp35
 70
     1
102
RTVSPost2010Prop36
280
     0
102
RTVSPost2010PropOp36
 70
     1
102
RTVSPost2010Prop37
 90
       50
102
RTVSPost2010PropOp37
 70
     1
102
RTVSPost2010Prop38
140
0.0
102
RTVSPost2010PropOp38
 70
     1
102
RTVSPost2010Prop39
140
1.0
102
RTVSPost2010PropOp39
 70
     1
102
RTVSPost2010Prop40
 90
        0
102
RTVSPost2010PropOp40
 70
     1
102
RTVSPost2010Prop41ColorIndex
 90
       18
102
RTVSPost2010Prop41ColorRGB
 90
        0
102
RTVSPost2010PropOp41
 70
     1
102
RTVSPost2010Prop42
 90
       50
102
RTVSPost2010PropOp42
 70
     1
102
RTVSPost2010Prop43
 90
        3
102
RTVSPost2010PropOp43
 70
     1
102
RTVSPost2010Prop44ColorIndex
 90
        5
102
RTVSPost2010Prop44ColorRGB
 90
      255
102
RTVSPost2010PropOp44
 70
     1
102
RTVSPost2010Prop45
280
     0
102
RTVSPost2010PropOp45
 70
     1
102
RTVSPost2010Prop46
 90
       50
102
RTVSPost2010PropOp46
 70
     1
102
RTVSPost2010Prop47
 90
       50
102
RTVSPost2010PropOp47
 70
     1
102
RTVSPost2010Prop48
 90
       50
102
RTVSPost2010PropOp48
 70
     1
102
RTVSPost2010Prop49
280
     0
102
RTVSPost2010PropOp49
 70
     1
102
RTVSPost2010Prop50
 90
       50
102
RTVSPost2010PropOp50
 70
     1
102
RTVSPost2010Prop51ColorIndex
 90
      256
102
RTVSPost2010Prop51ColorRGB
 90
-16777216
102
RTVSPost2010PropOp51
 70
     0
102
RTVSPost2010Prop52
140
1.0
102
RTVSPost2010PropOp52
 70
     0
102
RTVSPost2010Prop53
 90
        2
102
RTVSPost2010PropOp53
 70
     1
102
RTVSPost2010Prop54
  1
strokes_ogs.tif
102
RTVSPost2010PropOp54
 70
     1
102
RTVSPost2010Prop55
280
     0
102
RTVSPost2010PropOp55
 70
     1
102
RTVSPost2010Prop56
140
1.0
102
RTVSPost2010PropOp56
 70
     1
102
RTVSPost2010Prop57
140
1.0
102
RTVSPost2010PropOp57
 70
     1
102
RTVSPropertyOp0
 70
     0
102
RTVSPropertyOp1
 70
     0
102
RTVSPropertyOp2
 70
     0
102
RTVSPropertyOp3
 70
     0
102
RTVSPropertyOp4
 70
     0
102
RTVSPropertyOp5
 70
     0
102
RTVSPropertyOp6
 70
     0
102
RTVSPropertyOp7
 70
     0
102
RTVSPropertyOp8
 70
     0
102
RTVSPropertyOp9
 70
     0
102
RTVSPropertyOp10
 70
     0
102
RTVSPropertyOp11
 70
     0
102
RTVSPropertyOp12
 70
     0
102
RTVSPropertyOp13
 70
     0
102
RTVSPropertyOp14
 70
     2
102
RTVSPropertyOp15
 70
     0
102
RTVSPropertyOp16
 70
     0
102
RTVSPropertyOp17
 70
     0
102
RTVSPropertyOp18
 70
     0
102
RTVSPropertyOp19
 70
     0
102
RTVSPropertyOp20
 70
     0
102
RTVSPropertyOp21
 70
     0
102
RTVSPropertyOp22
 70
     0
102
RTVSPropertyOp23
 70
     0
102
RTVSPropertyOp24
 70
     0
102
RTVSPropertyOp25
 70
     0
102
RTVSPropertyOp26
 70
     0
102
RTVSPropertyOp27
 70
     0
102
RTVSPropertyOp28
 70
     1
102
RTVSPropertyOp29
 70
     1
102
RTVSPropertyOp30
 70
     1
102
RTVSPropertyOp31
 70
     1
102
RTVSPropertyOp32
 70
     1
102
RTVSPropertyOp33
 70
     1
102
RTVSPropertyOp34
 70
     1
102
RTVSPropertyOp35
 70
     1
102
RTVSPropertyOp36
 70
     1
102
RTVSPropertyOp37
 70
     1
102
RTVSPropertyOp38
 70
     1
102
RTVSPropertyOp39
 70
     1
102
RTVSPropertyOp40
 70
     1
102
RTVSPropertyOp41
 70
     1
102
RTVSPropertyOp42
 70
     1
102
RTVSPropertyOp43
 70
     1
102
RTVSPropertyOp44
 70
     1
102
RTVSPropertyOp45
 70
     1
102
RTVSPropertyOp46
 70
     1
102
RTVSPropertyOp47
 70
     1
102
RTVSPropertyOp48
 70
     1
102
RTVSPropertyOp49
 70
     1
102
RTVSPropertyOp50
 70
     1
102
RTVSPropertyOp51
 70
     0
102
RTVSPropertyOp52
 70
     0
102
RTVSPropertyOp53
 70
     1
102
RTVSPropertyOp54
 70
     1
102
RTVSPropertyOp55
 70
     1
102
RTVSPropertyOp56
 70
     1
102
RTVSPropertyOp57
 70
     1
102
RTVSPropertyOp58
 70
     1
102
RTVSPropertyOp59
 70
     1
102
RTVSPropertyOp60
 70
     1
102
RTVSPropertyOp61
 70
     1
102
RTVSPropertyOp62
 70
     1
  0
XRECORD
  5
A53
102
{ACAD_REACTORS
330
A52
102
}
330
A52
100
AcDbXrecord
280
     1
102
RTVSPost2010Prop28
280
     0
102
RTVSPost2010PropOp28
 70
     1
102
RTVSPost2010Prop29
280
     1
102
RTVSPost2010PropOp29
 70
     1
102
RTVSPost2010Prop30
280
     1
102
RTVSPost2010PropOp30
 70
     1
102
RTVSPost2010Prop31
280
     0
102
RTVSPost2010PropOp31
 70
     1
102
RTVSPost2010Prop32
280
     0
102
RTVSPost2010PropOp32
 70
     1
102
RTVSPost2010Prop33
280
     0
102
RTVSPost2010PropOp33
 70
     1
102
RTVSPost2010Prop34
280
     0
102
RTVSPost2010PropOp34
 70
     1
102
RTVSPost2010Prop35
280
     0
102
RTVSPost2010PropOp35
 70
     1
102
RTVSPost2010Prop36
280
     0
102
RTVSPost2010PropOp36
 70
     1
102
RTVSPost2010Prop37
 90
       50
102
RTVSPost2010PropOp37
 70
     1
102
RTVSPost2010Prop38
140
0.0
102
RTVSPost2010PropOp38
 70
     1
102
RTVSPost2010Prop39
140
1.0
102
RTVSPost2010PropOp39
 70
     1
102
RTVSPost2010Prop40
 90
        0
102
RTVSPost2010PropOp40
 70
     1
102
RTVSPost2010Prop41ColorIndex
 90
       18
102
RTVSPost2010Prop41ColorRGB
 90
        0
102
RTVSPost2010PropOp41
 70
     1
102
RTVSPost2010Prop42
 90
       50
102
RTVSPost2010PropOp42
 70
     1
102
RTVSPost2010Prop43
 90
        3
102
RTVSPost2010PropOp43
 70
     1
102
RTVSPost2010Prop44ColorIndex
 90
        5
102
RTVSPost2010Prop44ColorRGB
 90
      255
102
RTVSPost2010PropOp44
 70
     1
102
RTVSPost2010Prop45
280
     0
102
RTVSPost2010PropOp45
 70
     1
102
RTVSPost2010Prop46
 90
       50
102
RTVSPost2010PropOp46
 70
     1
102
RTVSPost2010Prop47
 90
       50
102
RTVSPost2010PropOp47
 70
     1
102
RTVSPost2010Prop48
 90
       50
102
RTVSPost2010PropOp48
 70
     1
102
RTVSPost2010Prop49
280
     0
102
RTVSPost2010PropOp49
 70
     1
102
RTVSPost2010Prop50
 90
       50
102
RTVSPost2010PropOp50
 70
     1
102
RTVSPost2010Prop51ColorIndex
 90
      256
102
RTVSPost2010Prop51ColorRGB
 90
-16777216
102
RTVSPost2010PropOp51
 70
     0
102
RTVSPost2010Prop52
140
1.0
102
RTVSPost2010PropOp52
 70
     0
102
RTVSPost2010Prop53
 90
        2
102
RTVSPost2010PropOp53
 70
     1
102
RTVSPost2010Prop54
  1
strokes_ogs.tif
102
RTVSPost2010PropOp54
 70
     1
102
RTVSPost2010Prop55
280
     0
102
RTVSPost2010PropOp55
 70
     1
102
RTVSPost2010Prop56
140
1.0
102
RTVSPost2010PropOp56
 70
     1
102
RTVSPost2010Prop57
140
1.0
102
RTVSPost2010PropOp57
 70
     1
102
RTVSPropertyOp0
 70
     1
102
RTVSPropertyOp1
 70
     1
102
RTVSPropertyOp2
 70
     1
102
RTVSPropertyOp3
 70
     1
102
RTVSPropertyOp4
 70
     1
102
RTVSPropertyOp5
 70
     1
102
RTVSPropertyOp6
 70
     1
102
RTVSPropertyOp7
 70
     1
102
RTVSPropertyOp8
 70
     1
102
RTVSPropertyOp9
 70
     1
102
RTVSPropertyOp10
 70
     1
102
RTVSPropertyOp11
 70
     1
102
RTVSPropertyOp12
 70
     1
102
RTVSPropertyOp13
 70
     1
102
RTVSPropertyOp14
 70
     1
102
RTVSPropertyOp15
 70
     1
102
RTVSPropertyOp16
 70
     1
102
RTVSPropertyOp17
 70
     1
102
RTVSPropertyOp18
 70
     1
102
RTVSPropertyOp19
 70
     1
102
RTVSPropertyOp20
 70
     1
102
RTVSPropertyOp21
 70
     1
102
RTVSPropertyOp22
 70
     1
102
RTVSPropertyOp23
 70
     1
102
RTVSPropertyOp24
 70
     1
102
RTVSPropertyOp25
 70
     1
102
RTVSPropertyOp26
 70
     1
102
RTVSPropertyOp27
 70
     1
102
RTVSPropertyOp28
 70
     1
102
RTVSPropertyOp29
 70
     1
102
RTVSPropertyOp30
 70
     1
102
RTVSPropertyOp31
 70
     1
102
RTVSPropertyOp32
 70
     1
102
RTVSPropertyOp33
 70
     1
102
RTVSPropertyOp34
 70
     1
102
RTVSPropertyOp35
 70
     1
102
RTVSPropertyOp36
 70
     1
102
RTVSPropertyOp37
 70
     1
102
RTVSPropertyOp38
 70
     1
102
RTVSPropertyOp39
 70
     1
102
RTVSPropertyOp40
 70
     1
102
RTVSPropertyOp41
 70
     1
102
RTVSPropertyOp42
 70
     1
102
RTVSPropertyOp43
 70
     1
102
RTVSPropertyOp44
 70
     1
102
RTVSPropertyOp45
 70
     1
102
RTVSPropertyOp46
 70
     1
102
RTVSPropertyOp47
 70
     1
102
RTVSPropertyOp48
 70
     1
102
RTVSPropertyOp49
 70
     1
102
RTVSPropertyOp50
 70
     1
102
RTVSPropertyOp51
 70
     0
102
RTVSPropertyOp52
 70
     0
102
RTVSPropertyOp53
 70
     1
102
RTVSPropertyOp54
 70
     1
102
RTVSPropertyOp55
 70
     1
102
RTVSPropertyOp56
 70
     1
102
RTVSPropertyOp57
 70
     1
102
RTVSPropertyOp58
 70
     1
102
RTVSPropertyOp59
 70
     1
102
RTVSPropertyOp60
 70
     1
102
RTVSPropertyOp61
 70
     1
102
RTVSPropertyOp62
 70
     1
  0
XRECORD
  5
A5D
102
{ACAD_REACTORS
330
A5C
102
}
330
A5C
100
AcDbXrecord
280
     1
102
RTVSPost2010Prop28
280
     0
102
RTVSPost2010PropOp28
 70
     1
102
RTVSPost2010Prop29
280
     1
102
RTVSPost2010PropOp29
 70
     1
102
RTVSPost2010Prop30
280
     1
102
RTVSPost2010PropOp30
 70
     1
102
RTVSPost2010Prop31
280
     0
102
RTVSPost2010PropOp31
 70
     1
102
RTVSPost2010Prop32
280
     0
102
RTVSPost2010PropOp32
 70
     1
102
RTVSPost2010Prop33
280
     0
102
RTVSPost2010PropOp33
 70
     1
102
RTVSPost2010Prop34
280
     0
102
RTVSPost2010PropOp34
 70
     1
102
RTVSPost2010Prop35
280
     0
102
RTVSPost2010PropOp35
 70
     1
102
RTVSPost2010Prop36
280
     0
102
RTVSPost2010PropOp36
 70
     1
102
RTVSPost2010Prop37
 90
       50
102
RTVSPost2010PropOp37
 70
     1
102
RTVSPost2010Prop38
140
0.0
102
RTVSPost2010PropOp38
 70
     1
102
RTVSPost2010Prop39
140
1.0
102
RTVSPost2010PropOp39
 70
     1
102
RTVSPost2010Prop40
 90
        0
102
RTVSPost2010PropOp40
 70
     1
102
RTVSPost2010Prop41ColorIndex
 90
       18
102
RTVSPost2010Prop41ColorRGB
 90
        0
102
RTVSPost2010PropOp41
 70
     1
102
RTVSPost2010Prop42
 90
       50
102
RTVSPost2010PropOp42
 70
     1
102
RTVSPost2010Prop43
 90
        3
102
RTVSPost2010PropOp43
 70
     1
102
RTVSPost2010Prop44ColorIndex
 90
        5
102
RTVSPost2010Prop44ColorRGB
 90
      255
102
RTVSPost2010PropOp44
 70
     1
102
RTVSPost2010Prop45
280
     0
102
RTVSPost2010PropOp45
 70
     1
102
RTVSPost2010Prop46
 90
       50
102
RTVSPost2010PropOp46
 70
     1
102
RTVSPost2010Prop47
 90
       50
102
RTVSPost2010PropOp47
 70
     1
102
RTVSPost2010Prop48
 90
       50
102
RTVSPost2010PropOp48
 70
     1
102
RTVSPost2010Prop49
280
     0
102
RTVSPost2010PropOp49
 70
     1
102
RTVSPost2010Prop50
 90
       50
102
RTVSPost2010PropOp50
 70
     1
102
RTVSPost2010Prop51ColorIndex
 90
      256
102
RTVSPost2010Prop51ColorRGB
 90
-16777216
102
RTVSPost2010PropOp51
 70
     0
102
RTVSPost2010Prop52
140
1.0
102
RTVSPost2010PropOp52
 70
     0
102
RTVSPost2010Prop53
 90
        2
102
RTVSPost2010PropOp53
 70
     1
102
RTVSPost2010Prop54
  1
strokes_ogs.tif
102
RTVSPost2010PropOp54
 70
     1
102
RTVSPost2010Prop55
280
     0
102
RTVSPost2010PropOp55
 70
     1
102
RTVSPost2010Prop56
140
1.0
102
RTVSPost2010PropOp56
 70
     1
102
RTVSPost2010Prop57
140
1.0
102
RTVSPost2010PropOp57
 70
     1
102
RTVSPropertyOp0
 70
     0
102
RTVSPropertyOp1
 70
     0
102
RTVSPropertyOp2
 70
     0
102
RTVSPropertyOp3
 70
     0
102
RTVSPropertyOp4
 70
     0
102
RTVSPropertyOp5
 70
     0
102
RTVSPropertyOp6
 70
     0
102
RTVSPropertyOp7
 70
     0
102
RTVSPropertyOp8
 70
     0
102
RTVSPropertyOp9
 70
     0
102
RTVSPropertyOp10
 70
     0
102
RTVSPropertyOp11
 70
     0
102
RTVSPropertyOp12
 70
     0
102
RTVSPropertyOp13
 70
     0
102
RTVSPropertyOp14
 70
     2
102
RTVSPropertyOp15
 70
     0
102
RTVSPropertyOp16
 70
     0
102
RTVSPropertyOp17
 70
     0
102
RTVSPropertyOp18
 70
     0
102
RTVSPropertyOp19
 70
     0
102
RTVSPropertyOp20
 70
     0
102
RTVSPropertyOp21
 70
     0
102
RTVSPropertyOp22
 70
     0
102
RTVSPropertyOp23
 70
     0
102
RTVSPropertyOp24
 70
     0
102
RTVSPropertyOp25
 70
     0
102
RTVSPropertyOp26
 70
     0
102
RTVSPropertyOp27
 70
     0
102
RTVSPropertyOp28
 70
     1
102
RTVSPropertyOp29
 70
     1
102
RTVSPropertyOp30
 70
     1
102
RTVSPropertyOp31
 70
     1
102
RTVSPropertyOp32
 70
     1
102
RTVSPropertyOp33
 70
     1
102
RTVSPropertyOp34
 70
     1
102
RTVSPropertyOp35
 70
     1
102
RTVSPropertyOp36
 70
     1
102
RTVSPropertyOp37
 70
     1
102
RTVSPropertyOp38
 70
     1
102
RTVSPropertyOp39
 70
     1
102
RTVSPropertyOp40
 70
     1
102
RTVSPropertyOp41
 70
     1
102
RTVSPropertyOp42
 70
     1
102
RTVSPropertyOp43
 70
     1
102
RTVSPropertyOp44
 70
     1
102
RTVSPropertyOp45
 70
     1
102
RTVSPropertyOp46
 70
     1
102
RTVSPropertyOp47
 70
     1
102
RTVSPropertyOp48
 70
     1
102
RTVSPropertyOp49
 70
     1
102
RTVSPropertyOp50
 70
     1
102
RTVSPropertyOp51
 70
     0
102
RTVSPropertyOp52
 70
     0
102
RTVSPropertyOp53
 70
     1
102
RTVSPropertyOp54
 70
     1
102
RTVSPropertyOp55
 70
     1
102
RTVSPropertyOp56
 70
     1
102
RTVSPropertyOp57
 70
     1
102
RTVSPropertyOp58
 70
     1
102
RTVSPropertyOp59
 70
     1
102
RTVSPropertyOp60
 70
     1
102
RTVSPropertyOp61
 70
     1
102
RTVSPropertyOp62
 70
     1
  0
XRECORD
  5
A4B
102
{ACAD_REACTORS
330
A4A
102
}
330
A4A
100
AcDbXrecord
280
     1
102
RTVSPost2010Prop28
280
     0
102
RTVSPost2010PropOp28
 70
     1
102
RTVSPost2010Prop29
280
     1
102
RTVSPost2010PropOp29
 70
     1
102
RTVSPost2010Prop30
280
     1
102
RTVSPost2010PropOp30
 70
     1
102
RTVSPost2010Prop31
280
     0
102
RTVSPost2010PropOp31
 70
     1
102
RTVSPost2010Prop32
280
     0
102
RTVSPost2010PropOp32
 70
     1
102
RTVSPost2010Prop33
280
     0
102
RTVSPost2010PropOp33
 70
     1
102
RTVSPost2010Prop34
280
     0
102
RTVSPost2010PropOp34
 70
     1
102
RTVSPost2010Prop35
280
     0
102
RTVSPost2010PropOp35
 70
     1
102
RTVSPost2010Prop36
280
     0
102
RTVSPost2010PropOp36
 70
     1
102
RTVSPost2010Prop37
 90
       50
102
RTVSPost2010PropOp37
 70
     1
102
RTVSPost2010Prop38
140
0.0
102
RTVSPost2010PropOp38
 70
     1
102
RTVSPost2010Prop39
140
1.0
102
RTVSPost2010PropOp39
 70
     1
102
RTVSPost2010Prop40
 90
        0
102
RTVSPost2010PropOp40
 70
     1
102
RTVSPost2010Prop41ColorIndex
 90
       18
102
RTVSPost2010Prop41ColorRGB
 90
        0
102
RTVSPost2010PropOp41
 70
     1
102
RTVSPost2010Prop42
 90
       50
102
RTVSPost2010PropOp42
 70
     1
102
RTVSPost2010Prop43
 90
        3
102
RTVSPost2010PropOp43
 70
     1
102
RTVSPost2010Prop44ColorIndex
 90
        5
102
RTVSPost2010Prop44ColorRGB
 90
      255
102
RTVSPost2010PropOp44
 70
     1
102
RTVSPost2010Prop45
280
     0
102
RTVSPost2010PropOp45
 70
     1
102
RTVSPost2010Prop46
 90
       50
102
RTVSPost2010PropOp46
 70
     1
102
RTVSPost2010Prop47
 90
       50
102
RTVSPost2010PropOp47
 70
     1
102
RTVSPost2010Prop48
 90
       50
102
RTVSPost2010PropOp48
 70
     1
102
RTVSPost2010Prop49
280
     0
102
RTVSPost2010PropOp49
 70
     1
102
RTVSPost2010Prop50
 90
       50
102
RTVSPost2010PropOp50
 70
     1
102
RTVSPost2010Prop51ColorIndex
 90
      256
102
RTVSPost2010Prop51ColorRGB
 90
-16777216
102
RTVSPost2010PropOp51
 70
     0
102
RTVSPost2010Prop52
140
1.0
102
RTVSPost2010PropOp52
 70
     0
102
RTVSPost2010Prop53
 90
        2
102
RTVSPost2010PropOp53
 70
     1
102
RTVSPost2010Prop54
  1
strokes_ogs.tif
102
RTVSPost2010PropOp54
 70
     1
102
RTVSPost2010Prop55
280
     0
102
RTVSPost2010PropOp55
 70
     1
102
RTVSPost2010Prop56
140
1.0
102
RTVSPost2010PropOp56
 70
     1
102
RTVSPost2010Prop57
140
1.0
102
RTVSPost2010PropOp57
 70
     1
102
RTVSPropertyOp0
 70
     1
102
RTVSPropertyOp1
 70
     1
102
RTVSPropertyOp2
 70
     1
102
RTVSPropertyOp3
 70
     1
102
RTVSPropertyOp4
 70
     1
102
RTVSPropertyOp5
 70
     1
102
RTVSPropertyOp6
 70
     1
102
RTVSPropertyOp7
 70
     1
102
RTVSPropertyOp8
 70
     1
102
RTVSPropertyOp9
 70
     1
102
RTVSPropertyOp10
 70
     1
102
RTVSPropertyOp11
 70
     1
102
RTVSPropertyOp12
 70
     1
102
RTVSPropertyOp13
 70
     1
102
RTVSPropertyOp14
 70
     1
102
RTVSPropertyOp15
 70
     1
102
RTVSPropertyOp16
 70
     1
102
RTVSPropertyOp17
 70
     1
102
RTVSPropertyOp18
 70
     1
102
RTVSPropertyOp19
 70
     1
102
RTVSPropertyOp20
 70
     1
102
RTVSPropertyOp21
 70
     1
102
RTVSPropertyOp22
 70
     1
102
RTVSPropertyOp23
 70
     1
102
RTVSPropertyOp24
 70
     1
102
RTVSPropertyOp25
 70
     1
102
RTVSPropertyOp26
 70
     1
102
RTVSPropertyOp27
 70
     1
102
RTVSPropertyOp28
 70
     1
102
RTVSPropertyOp29
 70
     1
102
RTVSPropertyOp30
 70
     1
102
RTVSPropertyOp31
 70
     1
102
RTVSPropertyOp32
 70
     1
102
RTVSPropertyOp33
 70
     1
102
RTVSPropertyOp34
 70
     1
102
RTVSPropertyOp35
 70
     1
102
RTVSPropertyOp36
 70
     1
102
RTVSPropertyOp37
 70
     1
102
RTVSPropertyOp38
 70
     1
102
RTVSPropertyOp39
 70
     1
102
RTVSPropertyOp40
 70
     1
102
RTVSPropertyOp41
 70
     1
102
RTVSPropertyOp42
 70
     1
102
RTVSPropertyOp43
 70
     1
102
RTVSPropertyOp44
 70
     1
102
RTVSPropertyOp45
 70
     1
102
RTVSPropertyOp46
 70
     1
102
RTVSPropertyOp47
 70
     1
102
RTVSPropertyOp48
 70
     1
102
RTVSPropertyOp49
 70
     1
102
RTVSPropertyOp50
 70
     1
102
RTVSPropertyOp51
 70
     0
102
RTVSPropertyOp52
 70
     0
102
RTVSPropertyOp53
 70
     1
102
RTVSPropertyOp54
 70
     1
102
RTVSPropertyOp55
 70
     1
102
RTVSPropertyOp56
 70
     1
102
RTVSPropertyOp57
 70
     1
102
RTVSPropertyOp58
 70
     1
102
RTVSPropertyOp59
 70
     1
102
RTVSPropertyOp60
 70
     1
102
RTVSPropertyOp61
 70
     1
102
RTVSPropertyOp62
 70
     1
  0
XRECORD
  5
A69
102
{ACAD_REACTORS
330
A68
102
}
330
A68
100
AcDbXrecord
280
     1
102
RTVSPost2010Prop28
280
     0
102
RTVSPost2010PropOp28
 70
     1
102
RTVSPost2010Prop29
280
     1
102
RTVSPost2010PropOp29
 70
     1
102
RTVSPost2010Prop30
280
     1
102
RTVSPost2010PropOp30
 70
     1
102
RTVSPost2010Prop31
280
     0
102
RTVSPost2010PropOp31
 70
     1
102
RTVSPost2010Prop32
280
     0
102
RTVSPost2010PropOp32
 70
     1
102
RTVSPost2010Prop33
280
     0
102
RTVSPost2010PropOp33
 70
     1
102
RTVSPost2010Prop34
280
     0
102
RTVSPost2010PropOp34
 70
     1
102
RTVSPost2010Prop35
280
     0
102
RTVSPost2010PropOp35
 70
     1
102
RTVSPost2010Prop36
280
     0
102
RTVSPost2010PropOp36
 70
     1
102
RTVSPost2010Prop37
 90
       50
102
RTVSPost2010PropOp37
 70
     1
102
RTVSPost2010Prop38
140
0.0
102
RTVSPost2010PropOp38
 70
     1
102
RTVSPost2010Prop39
140
1.0
102
RTVSPost2010PropOp39
 70
     1
102
RTVSPost2010Prop40
 90
        0
102
RTVSPost2010PropOp40
 70
     1
102
RTVSPost2010Prop41ColorIndex
 90
       18
102
RTVSPost2010Prop41ColorRGB
 90
        0
102
RTVSPost2010PropOp41
 70
     1
102
RTVSPost2010Prop42
 90
       50
102
RTVSPost2010PropOp42
 70
     1
102
RTVSPost2010Prop43
 90
        3
102
RTVSPost2010PropOp43
 70
     1
102
RTVSPost2010Prop44ColorIndex
 90
        5
102
RTVSPost2010Prop44ColorRGB
 90
      255
102
RTVSPost2010PropOp44
 70
     1
102
RTVSPost2010Prop45
280
     0
102
RTVSPost2010PropOp45
 70
     1
102
RTVSPost2010Prop46
 90
       50
102
RTVSPost2010PropOp46
 70
     1
102
RTVSPost2010Prop47
 90
       50
102
RTVSPost2010PropOp47
 70
     1
102
RTVSPost2010Prop48
 90
       50
102
RTVSPost2010PropOp48
 70
     1
102
RTVSPost2010Prop49
280
     0
102
RTVSPost2010PropOp49
 70
     1
102
RTVSPost2010Prop50
 90
       50
102
RTVSPost2010PropOp50
 70
     1
102
RTVSPost2010Prop51ColorIndex
 90
      256
102
RTVSPost2010Prop51ColorRGB
 90
-16777216
102
RTVSPost2010PropOp51
 70
     0
102
RTVSPost2010Prop52
140
1.0
102
RTVSPost2010PropOp52
 70
     0
102
RTVSPost2010Prop53
 90
        2
102
RTVSPost2010PropOp53
 70
     1
102
RTVSPost2010Prop54
  1
strokes_ogs.tif
102
RTVSPost2010PropOp54
 70
     1
102
RTVSPost2010Prop55
280
     0
102
RTVSPost2010PropOp55
 70
     1
102
RTVSPost2010Prop56
140
1.0
102
RTVSPost2010PropOp56
 70
     1
102
RTVSPost2010Prop57
140
1.0
102
RTVSPost2010PropOp57
 70
     1
102
RTVSPropertyOp0
 70
     1
102
RTVSPropertyOp1
 70
     1
102
RTVSPropertyOp2
 70
     1
102
RTVSPropertyOp3
 70
     1
102
RTVSPropertyOp4
 70
     1
102
RTVSPropertyOp5
 70
     1
102
RTVSPropertyOp6
 70
     1
102
RTVSPropertyOp7
 70
     1
102
RTVSPropertyOp8
 70
     1
102
RTVSPropertyOp9
 70
     1
102
RTVSPropertyOp10
 70
     1
102
RTVSPropertyOp11
 70
     1
102
RTVSPropertyOp12
 70
     1
102
RTVSPropertyOp13
 70
     1
102
RTVSPropertyOp14
 70
     1
102
RTVSPropertyOp15
 70
     1
102
RTVSPropertyOp16
 70
     1
102
RTVSPropertyOp17
 70
     1
102
RTVSPropertyOp18
 70
     1
102
RTVSPropertyOp19
 70
     1
102
RTVSPropertyOp20
 70
     1
102
RTVSPropertyOp21
 70
     1
102
RTVSPropertyOp22
 70
     1
102
RTVSPropertyOp23
 70
     1
102
RTVSPropertyOp24
 70
     1
102
RTVSPropertyOp25
 70
     1
102
RTVSPropertyOp26
 70
     1
102
RTVSPropertyOp27
 70
     1
102
RTVSPropertyOp28
 70
     1
102
RTVSPropertyOp29
 70
     1
102
RTVSPropertyOp30
 70
     1
102
RTVSPropertyOp31
 70
     1
102
RTVSPropertyOp32
 70
     1
102
RTVSPropertyOp33
 70
     1
102
RTVSPropertyOp34
 70
     1
102
RTVSPropertyOp35
 70
     1
102
RTVSPropertyOp36
 70
     1
102
RTVSPropertyOp37
 70
     1
102
RTVSPropertyOp38
 70
     1
102
RTVSPropertyOp39
 70
     1
102
RTVSPropertyOp40
 70
     1
102
RTVSPropertyOp41
 70
     1
102
RTVSPropertyOp42
 70
     1
102
RTVSPropertyOp43
 70
     1
102
RTVSPropertyOp44
 70
     1
102
RTVSPropertyOp45
 70
     1
102
RTVSPropertyOp46
 70
     1
102
RTVSPropertyOp47
 70
     1
102
RTVSPropertyOp48
 70
     1
102
RTVSPropertyOp49
 70
     1
102
RTVSPropertyOp50
 70
     1
102
RTVSPropertyOp51
 70
     0
102
RTVSPropertyOp52
 70
     0
102
RTVSPropertyOp53
 70
     1
102
RTVSPropertyOp54
 70
     1
102
RTVSPropertyOp55
 70
     1
102
RTVSPropertyOp56
 70
     1
102
RTVSPropertyOp57
 70
     1
102
RTVSPropertyOp58
 70
     1
102
RTVSPropertyOp59
 70
     1
102
RTVSPropertyOp60
 70
     1
102
RTVSPropertyOp61
 70
     1
102
RTVSPropertyOp62
 70
     1
  0
XRECORD
  5
A67
102
{ACAD_REACTORS
330
A66
102
}
330
A66
100
AcDbXrecord
280
     1
102
RTVSPost2010Prop28
280
     0
102
RTVSPost2010PropOp28
 70
     1
102
RTVSPost2010Prop29
280
     1
102
RTVSPost2010PropOp29
 70
     1
102
RTVSPost2010Prop30
280
     1
102
RTVSPost2010PropOp30
 70
     1
102
RTVSPost2010Prop31
280
     0
102
RTVSPost2010PropOp31
 70
     1
102
RTVSPost2010Prop32
280
     0
102
RTVSPost2010PropOp32
 70
     1
102
RTVSPost2010Prop33
280
     0
102
RTVSPost2010PropOp33
 70
     1
102
RTVSPost2010Prop34
280
     0
102
RTVSPost2010PropOp34
 70
     1
102
RTVSPost2010Prop35
280
     0
102
RTVSPost2010PropOp35
 70
     1
102
RTVSPost2010Prop36
280
     0
102
RTVSPost2010PropOp36
 70
     1
102
RTVSPost2010Prop37
 90
       50
102
RTVSPost2010PropOp37
 70
     1
102
RTVSPost2010Prop38
140
0.0
102
RTVSPost2010PropOp38
 70
     1
102
RTVSPost2010Prop39
140
1.0
102
RTVSPost2010PropOp39
 70
     1
102
RTVSPost2010Prop40
 90
        0
102
RTVSPost2010PropOp40
 70
     1
102
RTVSPost2010Prop41ColorIndex
 90
       18
102
RTVSPost2010Prop41ColorRGB
 90
        0
102
RTVSPost2010PropOp41
 70
     1
102
RTVSPost2010Prop42
 90
       50
102
RTVSPost2010PropOp42
 70
     1
102
RTVSPost2010Prop43
 90
        3
102
RTVSPost2010PropOp43
 70
     1
102
RTVSPost2010Prop44ColorIndex
 90
        5
102
RTVSPost2010Prop44ColorRGB
 90
      255
102
RTVSPost2010PropOp44
 70
     1
102
RTVSPost2010Prop45
280
     0
102
RTVSPost2010PropOp45
 70
     1
102
RTVSPost2010Prop46
 90
       50
102
RTVSPost2010PropOp46
 70
     1
102
RTVSPost2010Prop47
 90
       50
102
RTVSPost2010PropOp47
 70
     1
102
RTVSPost2010Prop48
 90
       50
102
RTVSPost2010PropOp48
 70
     1
102
RTVSPost2010Prop49
280
     0
102
RTVSPost2010PropOp49
 70
     1
102
RTVSPost2010Prop50
 90
       50
102
RTVSPost2010PropOp50
 70
     1
102
RTVSPost2010Prop51ColorIndex
 90
      256
102
RTVSPost2010Prop51ColorRGB
 90
-16777216
102
RTVSPost2010PropOp51
 70
     0
102
RTVSPost2010Prop52
140
1.0
102
RTVSPost2010PropOp52
 70
     0
102
RTVSPost2010Prop53
 90
        2
102
RTVSPost2010PropOp53
 70
     1
102
RTVSPost2010Prop54
  1
strokes_ogs.tif
102
RTVSPost2010PropOp54
 70
     1
102
RTVSPost2010Prop55
280
     0
102
RTVSPost2010PropOp55
 70
     1
102
RTVSPost2010Prop56
140
1.0
102
RTVSPost2010PropOp56
 70
     1
102
RTVSPost2010Prop57
140
1.0
102
RTVSPost2010PropOp57
 70
     1
102
RTVSPropertyOp0
 70
     1
102
RTVSPropertyOp1
 70
     1
102
RTVSPropertyOp2
 70
     1
102
RTVSPropertyOp3
 70
     1
102
RTVSPropertyOp4
 70
     1
102
RTVSPropertyOp5
 70
     1
102
RTVSPropertyOp6
 70
     1
102
RTVSPropertyOp7
 70
     1
102
RTVSPropertyOp8
 70
     1
102
RTVSPropertyOp9
 70
     1
102
RTVSPropertyOp10
 70
     1
102
RTVSPropertyOp11
 70
     1
102
RTVSPropertyOp12
 70
     1
102
RTVSPropertyOp13
 70
     1
102
RTVSPropertyOp14
 70
     1
102
RTVSPropertyOp15
 70
     1
102
RTVSPropertyOp16
 70
     1
102
RTVSPropertyOp17
 70
     1
102
RTVSPropertyOp18
 70
     1
102
RTVSPropertyOp19
 70
     1
102
RTVSPropertyOp20
 70
     1
102
RTVSPropertyOp21
 70
     1
102
RTVSPropertyOp22
 70
     1
102
RTVSPropertyOp23
 70
     1
102
RTVSPropertyOp24
 70
     1
102
RTVSPropertyOp25
 70
     1
102
RTVSPropertyOp26
 70
     1
102
RTVSPropertyOp27
 70
     1
102
RTVSPropertyOp28
 70
     1
102
RTVSPropertyOp29
 70
     1
102
RTVSPropertyOp30
 70
     1
102
RTVSPropertyOp31
 70
     1
102
RTVSPropertyOp32
 70
     1
102
RTVSPropertyOp33
 70
     1
102
RTVSPropertyOp34
 70
     1
102
RTVSPropertyOp35
 70
     1
102
RTVSPropertyOp36
 70
     1
102
RTVSPropertyOp37
 70
     1
102
RTVSPropertyOp38
 70
     1
102
RTVSPropertyOp39
 70
     1
102
RTVSPropertyOp40
 70
     1
102
RTVSPropertyOp41
 70
     1
102
RTVSPropertyOp42
 70
     1
102
RTVSPropertyOp43
 70
     1
102
RTVSPropertyOp44
 70
     1
102
RTVSPropertyOp45
 70
     1
102
RTVSPropertyOp46
 70
     1
102
RTVSPropertyOp47
 70
     1
102
RTVSPropertyOp48
 70
     1
102
RTVSPropertyOp49
 70
     1
102
RTVSPropertyOp50
 70
     1
102
RTVSPropertyOp51
 70
     0
102
RTVSPropertyOp52
 70
     0
102
RTVSPropertyOp53
 70
     1
102
RTVSPropertyOp54
 70
     1
102
RTVSPropertyOp55
 70
     1
102
RTVSPropertyOp56
 70
     1
102
RTVSPropertyOp57
 70
     1
102
RTVSPropertyOp58
 70
     1
102
RTVSPropertyOp59
 70
     1
102
RTVSPropertyOp60
 70
     1
102
RTVSPropertyOp61
 70
     1
102
RTVSPropertyOp62
 70
     1
  0
XRECORD
  5
A61
102
{ACAD_REACTORS
330
A60
102
}
330
A60
100
AcDbXrecord
280
     1
102
RTVSPost2010Prop28
280
     0
102
RTVSPost2010PropOp28
 70
     1
102
RTVSPost2010Prop29
280
     1
102
RTVSPost2010PropOp29
 70
     1
102
RTVSPost2010Prop30
280
     1
102
RTVSPost2010PropOp30
 70
     1
102
RTVSPost2010Prop31
280
     0
102
RTVSPost2010PropOp31
 70
     1
102
RTVSPost2010Prop32
280
     0
102
RTVSPost2010PropOp32
 70
     1
102
RTVSPost2010Prop33
280
     0
102
RTVSPost2010PropOp33
 70
     1
102
RTVSPost2010Prop34
280
     0
102
RTVSPost2010PropOp34
 70
     1
102
RTVSPost2010Prop35
280
     0
102
RTVSPost2010PropOp35
 70
     1
102
RTVSPost2010Prop36
280
     0
102
RTVSPost2010PropOp36
 70
     1
102
RTVSPost2010Prop37
 90
       50
102
RTVSPost2010PropOp37
 70
     1
102
RTVSPost2010Prop38
140
0.0
102
RTVSPost2010PropOp38
 70
     1
102
RTVSPost2010Prop39
140
1.0
102
RTVSPost2010PropOp39
 70
     1
102
RTVSPost2010Prop40
 90
        0
102
RTVSPost2010PropOp40
 70
     1
102
RTVSPost2010Prop41ColorIndex
 90
       18
102
RTVSPost2010Prop41ColorRGB
 90
        0
102
RTVSPost2010PropOp41
 70
     1
102
RTVSPost2010Prop42
 90
       50
102
RTVSPost2010PropOp42
 70
     1
102
RTVSPost2010Prop43
 90
        3
102
RTVSPost2010PropOp43
 70
     1
102
RTVSPost2010Prop44ColorIndex
 90
        5
102
RTVSPost2010Prop44ColorRGB
 90
      255
102
RTVSPost2010PropOp44
 70
     1
102
RTVSPost2010Prop45
280
     0
102
RTVSPost2010PropOp45
 70
     1
102
RTVSPost2010Prop46
 90
       50
102
RTVSPost2010PropOp46
 70
     1
102
RTVSPost2010Prop47
 90
       50
102
RTVSPost2010PropOp47
 70
     1
102
RTVSPost2010Prop48
 90
       50
102
RTVSPost2010PropOp48
 70
     1
102
RTVSPost2010Prop49
280
     0
102
RTVSPost2010PropOp49
 70
     1
102
RTVSPost2010Prop50
 90
       50
102
RTVSPost2010PropOp50
 70
     1
102
RTVSPost2010Prop51ColorIndex
 90
      256
102
RTVSPost2010Prop51ColorRGB
 90
-16777216
102
RTVSPost2010PropOp51
 70
     0
102
RTVSPost2010Prop52
140
1.0
102
RTVSPost2010PropOp52
 70
     0
102
RTVSPost2010Prop53
 90
        2
102
RTVSPost2010PropOp53
 70
     1
102
RTVSPost2010Prop54
  1
strokes_ogs.tif
102
RTVSPost2010PropOp54
 70
     1
102
RTVSPost2010Prop55
280
     0
102
RTVSPost2010PropOp55
 70
     1
102
RTVSPost2010Prop56
140
1.0
102
RTVSPost2010PropOp56
 70
     1
102
RTVSPost2010Prop57
140
1.0
102
RTVSPost2010PropOp57
 70
     1
102
RTVSPropertyOp0
 70
     1
102
RTVSPropertyOp1
 70
     1
102
RTVSPropertyOp2
 70
     1
102
RTVSPropertyOp3
 70
     1
102
RTVSPropertyOp4
 70
     1
102
RTVSPropertyOp5
 70
     1
102
RTVSPropertyOp6
 70
     1
102
RTVSPropertyOp7
 70
     1
102
RTVSPropertyOp8
 70
     1
102
RTVSPropertyOp9
 70
     1
102
RTVSPropertyOp10
 70
     1
102
RTVSPropertyOp11
 70
     1
102
RTVSPropertyOp12
 70
     1
102
RTVSPropertyOp13
 70
     1
102
RTVSPropertyOp14
 70
     1
102
RTVSPropertyOp15
 70
     1
102
RTVSPropertyOp16
 70
     1
102
RTVSPropertyOp17
 70
     1
102
RTVSPropertyOp18
 70
     1
102
RTVSPropertyOp19
 70
     1
102
RTVSPropertyOp20
 70
     1
102
RTVSPropertyOp21
 70
     1
102
RTVSPropertyOp22
 70
     1
102
RTVSPropertyOp23
 70
     1
102
RTVSPropertyOp24
 70
     1
102
RTVSPropertyOp25
 70
     1
102
RTVSPropertyOp26
 70
     1
102
RTVSPropertyOp27
 70
     1
102
RTVSPropertyOp28
 70
     1
102
RTVSPropertyOp29
 70
     1
102
RTVSPropertyOp30
 70
     1
102
RTVSPropertyOp31
 70
     1
102
RTVSPropertyOp32
 70
     1
102
RTVSPropertyOp33
 70
     1
102
RTVSPropertyOp34
 70
     1
102
RTVSPropertyOp35
 70
     1
102
RTVSPropertyOp36
 70
     1
102
RTVSPropertyOp37
 70
     1
102
RTVSPropertyOp38
 70
     1
102
RTVSPropertyOp39
 70
     1
102
RTVSPropertyOp40
 70
     1
102
RTVSPropertyOp41
 70
     1
102
RTVSPropertyOp42
 70
     1
102
RTVSPropertyOp43
 70
     1
102
RTVSPropertyOp44
 70
     1
102
RTVSPropertyOp45
 70
     1
102
RTVSPropertyOp46
 70
     1
102
RTVSPropertyOp47
 70
     1
102
RTVSPropertyOp48
 70
     1
102
RTVSPropertyOp49
 70
     1
102
RTVSPropertyOp50
 70
     1
102
RTVSPropertyOp51
 70
     0
102
RTVSPropertyOp52
 70
     0
102
RTVSPropertyOp53
 70
     1
102
RTVSPropertyOp54
 70
     1
102
RTVSPropertyOp55
 70
     1
102
RTVSPropertyOp56
 70
     1
102
RTVSPropertyOp57
 70
     1
102
RTVSPropertyOp58
 70
     1
102
RTVSPropertyOp59
 70
     1
102
RTVSPropertyOp60
 70
     1
102
RTVSPropertyOp61
 70
     1
102
RTVSPropertyOp62
 70
     1
  0
XRECORD
  5
A63
102
{ACAD_REACTORS
330
A62
102
}
330
A62
100
AcDbXrecord
280
     1
102
RTVSPost2010Prop28
280
     0
102
RTVSPost2010PropOp28
 70
     1
102
RTVSPost2010Prop29
280
     1
102
RTVSPost2010PropOp29
 70
     1
102
RTVSPost2010Prop30
280
     1
102
RTVSPost2010PropOp30
 70
     1
102
RTVSPost2010Prop31
280
     0
102
RTVSPost2010PropOp31
 70
     1
102
RTVSPost2010Prop32
280
     0
102
RTVSPost2010PropOp32
 70
     1
102
RTVSPost2010Prop33
280
     0
102
RTVSPost2010PropOp33
 70
     1
102
RTVSPost2010Prop34
280
     0
102
RTVSPost2010PropOp34
 70
     1
102
RTVSPost2010Prop35
280
     0
102
RTVSPost2010PropOp35
 70
     1
102
RTVSPost2010Prop36
280
     0
102
RTVSPost2010PropOp36
 70
     1
102
RTVSPost2010Prop37
 90
       50
102
RTVSPost2010PropOp37
 70
     1
102
RTVSPost2010Prop38
140
0.0
102
RTVSPost2010PropOp38
 70
     1
102
RTVSPost2010Prop39
140
1.0
102
RTVSPost2010PropOp39
 70
     1
102
RTVSPost2010Prop40
 90
        0
102
RTVSPost2010PropOp40
 70
     1
102
RTVSPost2010Prop41ColorIndex
 90
       18
102
RTVSPost2010Prop41ColorRGB
 90
        0
102
RTVSPost2010PropOp41
 70
     1
102
RTVSPost2010Prop42
 90
       50
102
RTVSPost2010PropOp42
 70
     1
102
RTVSPost2010Prop43
 90
        3
102
RTVSPost2010PropOp43
 70
     1
102
RTVSPost2010Prop44ColorIndex
 90
        5
102
RTVSPost2010Prop44ColorRGB
 90
      255
102
RTVSPost2010PropOp44
 70
     1
102
RTVSPost2010Prop45
280
     0
102
RTVSPost2010PropOp45
 70
     1
102
RTVSPost2010Prop46
 90
       50
102
RTVSPost2010PropOp46
 70
     1
102
RTVSPost2010Prop47
 90
       50
102
RTVSPost2010PropOp47
 70
     1
102
RTVSPost2010Prop48
 90
       50
102
RTVSPost2010PropOp48
 70
     1
102
RTVSPost2010Prop49
280
     0
102
RTVSPost2010PropOp49
 70
     1
102
RTVSPost2010Prop50
 90
       50
102
RTVSPost2010PropOp50
 70
     1
102
RTVSPost2010Prop51ColorIndex
 90
      256
102
RTVSPost2010Prop51ColorRGB
 90
-16777216
102
RTVSPost2010PropOp51
 70
     0
102
RTVSPost2010Prop52
140
1.0
102
RTVSPost2010PropOp52
 70
     0
102
RTVSPost2010Prop53
 90
        2
102
RTVSPost2010PropOp53
 70
     1
102
RTVSPost2010Prop54
  1
strokes_ogs.tif
102
RTVSPost2010PropOp54
 70
     1
102
RTVSPost2010Prop55
280
     0
102
RTVSPost2010PropOp55
 70
     1
102
RTVSPost2010Prop56
140
1.0
102
RTVSPost2010PropOp56
 70
     1
102
RTVSPost2010Prop57
140
1.0
102
RTVSPost2010PropOp57
 70
     1
102
RTVSPropertyOp0
 70
     1
102
RTVSPropertyOp1
 70
     1
102
RTVSPropertyOp2
 70
     1
102
RTVSPropertyOp3
 70
     1
102
RTVSPropertyOp4
 70
     1
102
RTVSPropertyOp5
 70
     1
102
RTVSPropertyOp6
 70
     1
102
RTVSPropertyOp7
 70
     1
102
RTVSPropertyOp8
 70
     1
102
RTVSPropertyOp9
 70
     1
102
RTVSPropertyOp10
 70
     1
102
RTVSPropertyOp11
 70
     1
102
RTVSPropertyOp12
 70
     1
102
RTVSPropertyOp13
 70
     1
102
RTVSPropertyOp14
 70
     1
102
RTVSPropertyOp15
 70
     1
102
RTVSPropertyOp16
 70
     1
102
RTVSPropertyOp17
 70
     1
102
RTVSPropertyOp18
 70
     1
102
RTVSPropertyOp19
 70
     1
102
RTVSPropertyOp20
 70
     1
102
RTVSPropertyOp21
 70
     1
102
RTVSPropertyOp22
 70
     1
102
RTVSPropertyOp23
 70
     1
102
RTVSPropertyOp24
 70
     1
102
RTVSPropertyOp25
 70
     1
102
RTVSPropertyOp26
 70
     1
102
RTVSPropertyOp27
 70
     1
102
RTVSPropertyOp28
 70
     1
102
RTVSPropertyOp29
 70
     1
102
RTVSPropertyOp30
 70
     1
102
RTVSPropertyOp31
 70
     1
102
RTVSPropertyOp32
 70
     1
102
RTVSPropertyOp33
 70
     1
102
RTVSPropertyOp34
 70
     1
102
RTVSPropertyOp35
 70
     1
102
RTVSPropertyOp36
 70
     1
102
RTVSPropertyOp37
 70
     1
102
RTVSPropertyOp38
 70
     1
102
RTVSPropertyOp39
 70
     1
102
RTVSPropertyOp40
 70
     1
102
RTVSPropertyOp41
 70
     1
102
RTVSPropertyOp42
 70
     1
102
RTVSPropertyOp43
 70
     1
102
RTVSPropertyOp44
 70
     1
102
RTVSPropertyOp45
 70
     1
102
RTVSPropertyOp46
 70
     1
102
RTVSPropertyOp47
 70
     1
102
RTVSPropertyOp48
 70
     1
102
RTVSPropertyOp49
 70
     1
102
RTVSPropertyOp50
 70
     1
102
RTVSPropertyOp51
 70
     0
102
RTVSPropertyOp52
 70
     0
102
RTVSPropertyOp53
 70
     1
102
RTVSPropertyOp54
 70
     1
102
RTVSPropertyOp55
 70
     1
102
RTVSPropertyOp56
 70
     1
102
RTVSPropertyOp57
 70
     1
102
RTVSPropertyOp58
 70
     1
102
RTVSPropertyOp59
 70
     1
102
RTVSPropertyOp60
 70
     1
102
RTVSPropertyOp61
 70
     1
102
RTVSPropertyOp62
 70
     1
  0
XRECORD
  5
A51
102
{ACAD_REACTORS
330
A50
102
}
330
A50
100
AcDbXrecord
280
     1
102
RTVSPost2010Prop28
280
     0
102
RTVSPost2010PropOp28
 70
     1
102
RTVSPost2010Prop29
280
     1
102
RTVSPost2010PropOp29
 70
     1
102
RTVSPost2010Prop30
280
     1
102
RTVSPost2010PropOp30
 70
     1
102
RTVSPost2010Prop31
280
     0
102
RTVSPost2010PropOp31
 70
     1
102
RTVSPost2010Prop32
280
     0
102
RTVSPost2010PropOp32
 70
     1
102
RTVSPost2010Prop33
280
     0
102
RTVSPost2010PropOp33
 70
     1
102
RTVSPost2010Prop34
280
     0
102
RTVSPost2010PropOp34
 70
     1
102
RTVSPost2010Prop35
280
     0
102
RTVSPost2010PropOp35
 70
     1
102
RTVSPost2010Prop36
280
     0
102
RTVSPost2010PropOp36
 70
     1
102
RTVSPost2010Prop37
 90
       50
102
RTVSPost2010PropOp37
 70
     1
102
RTVSPost2010Prop38
140
0.0
102
RTVSPost2010PropOp38
 70
     1
102
RTVSPost2010Prop39
140
1.0
102
RTVSPost2010PropOp39
 70
     1
102
RTVSPost2010Prop40
 90
        0
102
RTVSPost2010PropOp40
 70
     1
102
RTVSPost2010Prop41ColorIndex
 90
       18
102
RTVSPost2010Prop41ColorRGB
 90
        0
102
RTVSPost2010PropOp41
 70
     1
102
RTVSPost2010Prop42
 90
       50
102
RTVSPost2010PropOp42
 70
     1
102
RTVSPost2010Prop43
 90
        3
102
RTVSPost2010PropOp43
 70
     1
102
RTVSPost2010Prop44ColorIndex
 90
        5
102
RTVSPost2010Prop44ColorRGB
 90
      255
102
RTVSPost2010PropOp44
 70
     1
102
RTVSPost2010Prop45
280
     0
102
RTVSPost2010PropOp45
 70
     1
102
RTVSPost2010Prop46
 90
       50
102
RTVSPost2010PropOp46
 70
     1
102
RTVSPost2010Prop47
 90
       50
102
RTVSPost2010PropOp47
 70
     1
102
RTVSPost2010Prop48
 90
       50
102
RTVSPost2010PropOp48
 70
     1
102
RTVSPost2010Prop49
280
     0
102
RTVSPost2010PropOp49
 70
     1
102
RTVSPost2010Prop50
 90
       50
102
RTVSPost2010PropOp50
 70
     1
102
RTVSPost2010Prop51ColorIndex
 90
      256
102
RTVSPost2010Prop51ColorRGB
 90
-16777216
102
RTVSPost2010PropOp51
 70
     0
102
RTVSPost2010Prop52
140
1.0
102
RTVSPost2010PropOp52
 70
     0
102
RTVSPost2010Prop53
 90
        2
102
RTVSPost2010PropOp53
 70
     1
102
RTVSPost2010Prop54
  1
strokes_ogs.tif
102
RTVSPost2010PropOp54
 70
     1
102
RTVSPost2010Prop55
280
     0
102
RTVSPost2010PropOp55
 70
     1
102
RTVSPost2010Prop56
140
1.0
102
RTVSPost2010PropOp56
 70
     1
102
RTVSPost2010Prop57
140
1.0
102
RTVSPost2010PropOp57
 70
     1
102
RTVSPropertyOp0
 70
     1
102
RTVSPropertyOp1
 70
     1
102
RTVSPropertyOp2
 70
     1
102
RTVSPropertyOp3
 70
     1
102
RTVSPropertyOp4
 70
     1
102
RTVSPropertyOp5
 70
     1
102
RTVSPropertyOp6
 70
     1
102
RTVSPropertyOp7
 70
     1
102
RTVSPropertyOp8
 70
     1
102
RTVSPropertyOp9
 70
     1
102
RTVSPropertyOp10
 70
     1
102
RTVSPropertyOp11
 70
     1
102
RTVSPropertyOp12
 70
     1
102
RTVSPropertyOp13
 70
     1
102
RTVSPropertyOp14
 70
     1
102
RTVSPropertyOp15
 70
     1
102
RTVSPropertyOp16
 70
     1
102
RTVSPropertyOp17
 70
     1
102
RTVSPropertyOp18
 70
     1
102
RTVSPropertyOp19
 70
     1
102
RTVSPropertyOp20
 70
     1
102
RTVSPropertyOp21
 70
     1
102
RTVSPropertyOp22
 70
     1
102
RTVSPropertyOp23
 70
     1
102
RTVSPropertyOp24
 70
     1
102
RTVSPropertyOp25
 70
     1
102
RTVSPropertyOp26
 70
     1
102
RTVSPropertyOp27
 70
     1
102
RTVSPropertyOp28
 70
     1
102
RTVSPropertyOp29
 70
     1
102
RTVSPropertyOp30
 70
     1
102
RTVSPropertyOp31
 70
     1
102
RTVSPropertyOp32
 70
     1
102
RTVSPropertyOp33
 70
     1
102
RTVSPropertyOp34
 70
     1
102
RTVSPropertyOp35
 70
     1
102
RTVSPropertyOp36
 70
     1
102
RTVSPropertyOp37
 70
     1
102
RTVSPropertyOp38
 70
     1
102
RTVSPropertyOp39
 70
     1
102
RTVSPropertyOp40
 70
     1
102
RTVSPropertyOp41
 70
     1
102
RTVSPropertyOp42
 70
     1
102
RTVSPropertyOp43
 70
     1
102
RTVSPropertyOp44
 70
     1
102
RTVSPropertyOp45
 70
     1
102
RTVSPropertyOp46
 70
     1
102
RTVSPropertyOp47
 70
     1
102
RTVSPropertyOp48
 70
     1
102
RTVSPropertyOp49
 70
     1
102
RTVSPropertyOp50
 70
     1
102
RTVSPropertyOp51
 70
     0
102
RTVSPropertyOp52
 70
     0
102
RTVSPropertyOp53
 70
     1
102
RTVSPropertyOp54
 70
     1
102
RTVSPropertyOp55
 70
     1
102
RTVSPropertyOp56
 70
     1
102
RTVSPropertyOp57
 70
     1
102
RTVSPropertyOp58
 70
     1
102
RTVSPropertyOp59
 70
     1
102
RTVSPropertyOp60
 70
     1
102
RTVSPropertyOp61
 70
     1
102
RTVSPropertyOp62
 70
     1
  0
XRECORD
  5
A45
102
{ACAD_REACTORS
330
A44
102
}
330
A44
100
AcDbXrecord
280
     1
102
RTVSPost2010Prop28
280
     0
102
RTVSPost2010PropOp28
 70
     1
102
RTVSPost2010Prop29
280
     1
102
RTVSPost2010PropOp29
 70
     1
102
RTVSPost2010Prop30
280
     1
102
RTVSPost2010PropOp30
 70
     1
102
RTVSPost2010Prop31
280
     0
102
RTVSPost2010PropOp31
 70
     1
102
RTVSPost2010Prop32
280
     0
102
RTVSPost2010PropOp32
 70
     1
102
RTVSPost2010Prop33
280
     0
102
RTVSPost2010PropOp33
 70
     1
102
RTVSPost2010Prop34
280
     0
102
RTVSPost2010PropOp34
 70
     1
102
RTVSPost2010Prop35
280
     0
102
RTVSPost2010PropOp35
 70
     1
102
RTVSPost2010Prop36
280
     0
102
RTVSPost2010PropOp36
 70
     1
102
RTVSPost2010Prop37
 90
       50
102
RTVSPost2010PropOp37
 70
     1
102
RTVSPost2010Prop38
140
0.0
102
RTVSPost2010PropOp38
 70
     1
102
RTVSPost2010Prop39
140
1.0
102
RTVSPost2010PropOp39
 70
     1
102
RTVSPost2010Prop40
 90
        0
102
RTVSPost2010PropOp40
 70
     1
102
RTVSPost2010Prop41ColorIndex
 90
       18
102
RTVSPost2010Prop41ColorRGB
 90
        0
102
RTVSPost2010PropOp41
 70
     1
102
RTVSPost2010Prop42
 90
       50
102
RTVSPost2010PropOp42
 70
     1
102
RTVSPost2010Prop43
 90
        3
102
RTVSPost2010PropOp43
 70
     1
102
RTVSPost2010Prop44ColorIndex
 90
        5
102
RTVSPost2010Prop44ColorRGB
 90
      255
102
RTVSPost2010PropOp44
 70
     1
102
RTVSPost2010Prop45
280
     0
102
RTVSPost2010PropOp45
 70
     1
102
RTVSPost2010Prop46
 90
       50
102
RTVSPost2010PropOp46
 70
     1
102
RTVSPost2010Prop47
 90
       50
102
RTVSPost2010PropOp47
 70
     1
102
RTVSPost2010Prop48
 90
       50
102
RTVSPost2010PropOp48
 70
     1
102
RTVSPost2010Prop49
280
     0
102
RTVSPost2010PropOp49
 70
     1
102
RTVSPost2010Prop50
 90
       50
102
RTVSPost2010PropOp50
 70
     1
102
RTVSPost2010Prop51ColorIndex
 90
      256
102
RTVSPost2010Prop51ColorRGB
 90
-16777216
102
RTVSPost2010PropOp51
 70
     0
102
RTVSPost2010Prop52
140
1.0
102
RTVSPost2010PropOp52
 70
     0
102
RTVSPost2010Prop53
 90
        2
102
RTVSPost2010PropOp53
 70
     1
102
RTVSPost2010Prop54
  1
strokes_ogs.tif
102
RTVSPost2010PropOp54
 70
     1
102
RTVSPost2010Prop55
280
     0
102
RTVSPost2010PropOp55
 70
     1
102
RTVSPost2010Prop56
140
1.0
102
RTVSPost2010PropOp56
 70
     1
102
RTVSPost2010Prop57
140
1.0
102
RTVSPost2010PropOp57
 70
     1
102
RTVSPropertyOp0
 70
     1
102
RTVSPropertyOp1
 70
     1
102
RTVSPropertyOp2
 70
     1
102
RTVSPropertyOp3
 70
     1
102
RTVSPropertyOp4
 70
     1
102
RTVSPropertyOp5
 70
     1
102
RTVSPropertyOp6
 70
     1
102
RTVSPropertyOp7
 70
     1
102
RTVSPropertyOp8
 70
     1
102
RTVSPropertyOp9
 70
     1
102
RTVSPropertyOp10
 70
     1
102
RTVSPropertyOp11
 70
     1
102
RTVSPropertyOp12
 70
     1
102
RTVSPropertyOp13
 70
     1
102
RTVSPropertyOp14
 70
     1
102
RTVSPropertyOp15
 70
     1
102
RTVSPropertyOp16
 70
     1
102
RTVSPropertyOp17
 70
     1
102
RTVSPropertyOp18
 70
     1
102
RTVSPropertyOp19
 70
     1
102
RTVSPropertyOp20
 70
     1
102
RTVSPropertyOp21
 70
     1
102
RTVSPropertyOp22
 70
     1
102
RTVSPropertyOp23
 70
     1
102
RTVSPropertyOp24
 70
     1
102
RTVSPropertyOp25
 70
     1
102
RTVSPropertyOp26
 70
     1
102
RTVSPropertyOp27
 70
     1
102
RTVSPropertyOp28
 70
     1
102
RTVSPropertyOp29
 70
     1
102
RTVSPropertyOp30
 70
     1
102
RTVSPropertyOp31
 70
     1
102
RTVSPropertyOp32
 70
     1
102
RTVSPropertyOp33
 70
     1
102
RTVSPropertyOp34
 70
     1
102
RTVSPropertyOp35
 70
     1
102
RTVSPropertyOp36
 70
     1
102
RTVSPropertyOp37
 70
     1
102
RTVSPropertyOp38
 70
     1
102
RTVSPropertyOp39
 70
     1
102
RTVSPropertyOp40
 70
     1
102
RTVSPropertyOp41
 70
     1
102
RTVSPropertyOp42
 70
     1
102
RTVSPropertyOp43
 70
     1
102
RTVSPropertyOp44
 70
     1
102
RTVSPropertyOp45
 70
     1
102
RTVSPropertyOp46
 70
     1
102
RTVSPropertyOp47
 70
     1
102
RTVSPropertyOp48
 70
     1
102
RTVSPropertyOp49
 70
     1
102
RTVSPropertyOp50
 70
     1
102
RTVSPropertyOp51
 70
     0
102
RTVSPropertyOp52
 70
     0
102
RTVSPropertyOp53
 70
     1
102
RTVSPropertyOp54
 70
     1
102
RTVSPropertyOp55
 70
     1
102
RTVSPropertyOp56
 70
     1
102
RTVSPropertyOp57
 70
     1
102
RTVSPropertyOp58
 70
     1
102
RTVSPropertyOp59
 70
     1
102
RTVSPropertyOp60
 70
     1
102
RTVSPropertyOp61
 70
     1
102
RTVSPropertyOp62
 70
     1
  0
XRECORD
  5
A65
102
{ACAD_REACTORS
330
A64
102
}
330
A64
100
AcDbXrecord
280
     1
102
RTVSPost2010Prop28
280
     0
102
RTVSPost2010PropOp28
 70
     1
102
RTVSPost2010Prop29
280
     1
102
RTVSPost2010PropOp29
 70
     1
102
RTVSPost2010Prop30
280
     1
102
RTVSPost2010PropOp30
 70
     1
102
RTVSPost2010Prop31
280
     0
102
RTVSPost2010PropOp31
 70
     1
102
RTVSPost2010Prop32
280
     0
102
RTVSPost2010PropOp32
 70
     1
102
RTVSPost2010Prop33
280
     0
102
RTVSPost2010PropOp33
 70
     1
102
RTVSPost2010Prop34
280
     0
102
RTVSPost2010PropOp34
 70
     1
102
RTVSPost2010Prop35
280
     0
102
RTVSPost2010PropOp35
 70
     1
102
RTVSPost2010Prop36
280
     0
102
RTVSPost2010PropOp36
 70
     1
102
RTVSPost2010Prop37
 90
       50
102
RTVSPost2010PropOp37
 70
     1
102
RTVSPost2010Prop38
140
0.0
102
RTVSPost2010PropOp38
 70
     1
102
RTVSPost2010Prop39
140
1.0
102
RTVSPost2010PropOp39
 70
     1
102
RTVSPost2010Prop40
 90
        0
102
RTVSPost2010PropOp40
 70
     1
102
RTVSPost2010Prop41ColorIndex
 90
       18
102
RTVSPost2010Prop41ColorRGB
 90
        0
102
RTVSPost2010PropOp41
 70
     1
102
RTVSPost2010Prop42
 90
       50
102
RTVSPost2010PropOp42
 70
     1
102
RTVSPost2010Prop43
 90
        3
102
RTVSPost2010PropOp43
 70
     1
102
RTVSPost2010Prop44ColorIndex
 90
        5
102
RTVSPost2010Prop44ColorRGB
 90
      255
102
RTVSPost2010PropOp44
 70
     1
102
RTVSPost2010Prop45
280
     0
102
RTVSPost2010PropOp45
 70
     1
102
RTVSPost2010Prop46
 90
       50
102
RTVSPost2010PropOp46
 70
     1
102
RTVSPost2010Prop47
 90
       50
102
RTVSPost2010PropOp47
 70
     1
102
RTVSPost2010Prop48
 90
       50
102
RTVSPost2010PropOp48
 70
     1
102
RTVSPost2010Prop49
280
     0
102
RTVSPost2010PropOp49
 70
     1
102
RTVSPost2010Prop50
 90
       50
102
RTVSPost2010PropOp50
 70
     1
102
RTVSPost2010Prop51ColorIndex
 90
      256
102
RTVSPost2010Prop51ColorRGB
 90
-16777216
102
RTVSPost2010PropOp51
 70
     0
102
RTVSPost2010Prop52
140
1.0
102
RTVSPost2010PropOp52
 70
     0
102
RTVSPost2010Prop53
 90
        2
102
RTVSPost2010PropOp53
 70
     1
102
RTVSPost2010Prop54
  1
strokes_ogs.tif
102
RTVSPost2010PropOp54
 70
     1
102
RTVSPost2010Prop55
280
     0
102
RTVSPost2010PropOp55
 70
     1
102
RTVSPost2010Prop56
140
1.0
102
RTVSPost2010PropOp56
 70
     1
102
RTVSPost2010Prop57
140
1.0
102
RTVSPost2010PropOp57
 70
     1
102
RTVSPropertyOp0
 70
     1
102
RTVSPropertyOp1
 70
     1
102
RTVSPropertyOp2
 70
     1
102
RTVSPropertyOp3
 70
     1
102
RTVSPropertyOp4
 70
     1
102
RTVSPropertyOp5
 70
     1
102
RTVSPropertyOp6
 70
     1
102
RTVSPropertyOp7
 70
     1
102
RTVSPropertyOp8
 70
     1
102
RTVSPropertyOp9
 70
     1
102
RTVSPropertyOp10
 70
     1
102
RTVSPropertyOp11
 70
     1
102
RTVSPropertyOp12
 70
     1
102
RTVSPropertyOp13
 70
     1
102
RTVSPropertyOp14
 70
     1
102
RTVSPropertyOp15
 70
     1
102
RTVSPropertyOp16
 70
     1
102
RTVSPropertyOp17
 70
     1
102
RTVSPropertyOp18
 70
     1
102
RTVSPropertyOp19
 70
     1
102
RTVSPropertyOp20
 70
     1
102
RTVSPropertyOp21
 70
     1
102
RTVSPropertyOp22
 70
     1
102
RTVSPropertyOp23
 70
     1
102
RTVSPropertyOp24
 70
     1
102
RTVSPropertyOp25
 70
     1
102
RTVSPropertyOp26
 70
     1
102
RTVSPropertyOp27
 70
     1
102
RTVSPropertyOp28
 70
     1
102
RTVSPropertyOp29
 70
     1
102
RTVSPropertyOp30
 70
     1
102
RTVSPropertyOp31
 70
     1
102
RTVSPropertyOp32
 70
     1
102
RTVSPropertyOp33
 70
     1
102
RTVSPropertyOp34
 70
     1
102
RTVSPropertyOp35
 70
     1
102
RTVSPropertyOp36
 70
     1
102
RTVSPropertyOp37
 70
     1
102
RTVSPropertyOp38
 70
     1
102
RTVSPropertyOp39
 70
     1
102
RTVSPropertyOp40
 70
     1
102
RTVSPropertyOp41
 70
     1
102
RTVSPropertyOp42
 70
     1
102
RTVSPropertyOp43
 70
     1
102
RTVSPropertyOp44
 70
     1
102
RTVSPropertyOp45
 70
     1
102
RTVSPropertyOp46
 70
     1
102
RTVSPropertyOp47
 70
     1
102
RTVSPropertyOp48
 70
     1
102
RTVSPropertyOp49
 70
     1
102
RTVSPropertyOp50
 70
     1
102
RTVSPropertyOp51
 70
     0
102
RTVSPropertyOp52
 70
     0
102
RTVSPropertyOp53
 70
     1
102
RTVSPropertyOp54
 70
     1
102
RTVSPropertyOp55
 70
     1
102
RTVSPropertyOp56
 70
     1
102
RTVSPropertyOp57
 70
     1
102
RTVSPropertyOp58
 70
     1
102
RTVSPropertyOp59
 70
     1
102
RTVSPropertyOp60
 70
     1
102
RTVSPropertyOp61
 70
     1
102
RTVSPropertyOp62
 70
     1
  0
ENDSEC
  0
EOF
