  0
SECTION
  2
HEADER
  9
$ACADVER
  1
AC1015
  9
$ACADMAINTVER
 70
    18
  9
$DWGCODEPAGE
  3
ANSI_1252
  9
$INSBASE
 10
0.0
 20
0.0
 30
0.0
  9
$EXTMIN
 10
-222.0098869758773
 20
-236.3229213365388
 30
-0.0015258207003583
  9
$EXTMAX
 10
223.2980354168662
 20
283.5041205488426
 30
0.0000000349246037
  9
$LIMMIN
 10
0.0
 20
0.0
  9
$LIMMAX
 10
420.0
 20
297.0
  9
$ORTHOMODE
 70
     0
  9
$REGENMODE
 70
     1
  9
$FILLMODE
 70
     1
  9
$QTEXTMODE
 70
     0
  9
$MIRRTEXT
 70
     0
  9
$LTSCALE
 40
1.0
  9
$ATTMODE
 70
     1
  9
$TEXTSIZE
 40
2.5
  9
$TRACEWID
 40
1.0
  9
$TEXTSTYLE
  7
Standard
  9
$CLAYER
  8
0
  9
$CELTYPE
  6
ByLayer
  9
$CECOLOR
 62
   256
  9
$CELTSCALE
 40
1.0
  9
$DISPSILH
 70
     0
  9
$DIMSCALE
 40
1.0
  9
$DIMASZ
 40
2.5
  9
$DIMEXO
 40
0.625
  9
$DIMDLI
 40
3.75
  9
$DIMRND
 40
0.0
  9
$DIMDLE
 40
0.0
  9
$DIMEXE
 40
1.25
  9
$DIMTP
 40
0.0
  9
$DIMTM
 40
0.0
  9
$DIMTXT
 40
2.5
  9
$DIMCEN
 40
2.5
  9
$DIMTSZ
 40
0.0
  9
$DIMTOL
 70
     0
  9
$DIMLIM
 70
     0
  9
$DIMTIH
 70
     0
  9
$DIMTOH
 70
     0
  9
$DIMSE1
 70
     0
  9
$DIMSE2
 70
     0
  9
$DIMTAD
 70
     1
  9
$DIMZIN
 70
     8
  9
$DIMBLK
  1

  9
$DIMASO
 70
     1
  9
$DIMSHO
 70
     1
  9
$DIMPOST
  1

  9
$DIMAPOST
  1

  9
$DIMALT
 70
     0
  9
$DIMALTD
 70
     3
  9
$DIMALTF
 40
0.03937007874016
  9
$DIMLFAC
 40
1.0
  9
$DIMTOFL
 70
     1
  9
$DIMTVP
 40
0.0
  9
$DIMTIX
 70
     0
  9
$DIMSOXD
 70
     0
  9
$DIMSAH
 70
     0
  9
$DIMBLK1
  1

  9
$DIMBLK2
  1

  9
$DIMSTYLE
  2
ISO-25
  9
$DIMCLRD
 70
     0
  9
$DIMCLRE
 70
     0
  9
$DIMCLRT
 70
     0
  9
$DIMTFAC
 40
1.0
  9
$DIMGAP
 40
0.625
  9
$DIMJUST
 70
     0
  9
$DIMSD1
 70
     0
  9
$DIMSD2
 70
     0
  9
$DIMTOLJ
 70
     0
  9
$DIMTZIN
 70
     8
  9
$DIMALTZ
 70
     0
  9
$DIMALTTZ
 70
     0
  9
$DIMUPT
 70
     0
  9
$DIMDEC
 70
     2
  9
$DIMTDEC
 70
     2
  9
$DIMALTU
 70
     2
  9
$DIMALTTD
 70
     3
  9
$DIMTXSTY
  7
Standard
  9
$DIMAUNIT
 70
     0
  9
$DIMADEC
 70
     0
  9
$DIMALTRND
 40
0.0
  9
$DIMAZIN
 70
     0
  9
$DIMDSEP
 70
    44
  9
$DIMATFIT
 70
     3
  9
$DIMFRAC
 70
     0
  9
$DIMLDRBLK
  1

  9
$DIMLUNIT
 70
     2
  9
$DIMLWD
 70
    -2
  9
$DIMLWE
 70
    -2
  9
$DIMTMOVE
 70
     0
  9
$LUNITS
 70
     2
  9
$LUPREC
 70
     4
  9
$SKETCHINC
 40
1.0
  9
$FILLETRAD
 40
0.0
  9
$AUNITS
 70
     0
  9
$AUPREC
 70
     0
  9
$MENU
  1
.
  9
$ELEVATION
 40
0.0
  9
$PELEVATION
 40
0.0
  9
$THICKNESS
 40
0.0
  9
$LIMCHECK
 70
     0
  9
$CHAMFERA
 40
0.0
  9
$CHAMFERB
 40
0.0
  9
$CHAMFERC
 40
0.0
  9
$CHAMFERD
 40
0.0
  9
$SKPOLY
 70
     0
  9
$TDCREATE
 40
2460367.705740741
  9
$TDUCREATE
 40
2460367.414074074
  9
$TDUPDATE
 40
2460367.713483797
  9
$TDUUPDATE
 40
2460367.421817129
  9
$TDINDWG
 40
0.0037268519
  9
$TDUSRTIMER
 40
0.0037268519
  9
$USRTIMER
 70
     1
  9
$ANGBASE
 50
0.0
  9
$ANGDIR
 70
     0
  9
$PDMODE
 70
     0
  9
$PDSIZE
 40
0.0
  9
$PLINEWID
 40
0.0
  9
$SPLFRAME
 70
     0
  9
$SPLINETYPE
 70
     6
  9
$SPLINESEGS
 70
     8
  9
$HANDSEED
  5
5899
  9
$SURFTAB1
 70
     6
  9
$SURFTAB2
 70
     6
  9
$SURFTYPE
 70
     6
  9
$SURFU
 70
     6
  9
$SURFV
 70
     6
  9
$UCSBASE
  2

  9
$UCSNAME
  2

  9
$UCSORG
 10
0.0
 20
0.0
 30
0.0
  9
$UCSXDIR
 10
1.0
 20
0.0
 30
0.0
  9
$UCSYDIR
 10
0.0
 20
1.0
 30
0.0
  9
$UCSORTHOREF
  2

  9
$UCSORTHOVIEW
 70
     0
  9
$UCSORGTOP
 10
0.0
 20
0.0
 30
0.0
  9
$UCSORGBOTTOM
 10
0.0
 20
0.0
 30
0.0
  9
$UCSORGLEFT
 10
0.0
 20
0.0
 30
0.0
  9
$UCSORGRIGHT
 10
0.0
 20
0.0
 30
0.0
  9
$UCSORGFRONT
 10
0.0
 20
0.0
 30
0.0
  9
$UCSORGBACK
 10
0.0
 20
0.0
 30
0.0
  9
$PUCSBASE
  2

  9
$PUCSNAME
  2

  9
$PUCSORG
 10
0.0
 20
0.0
 30
0.0
  9
$PUCSXDIR
 10
1.0
 20
0.0
 30
0.0
  9
$PUCSYDIR
 10
0.0
 20
1.0
 30
0.0
  9
$PUCSORTHOREF
  2

  9
$PUCSORTHOVIEW
 70
     0
  9
$PUCSORGTOP
 10
0.0
 20
0.0
 30
0.0
  9
$PUCSORGBOTTOM
 10
0.0
 20
0.0
 30
0.0
  9
$PUCSORGLEFT
 10
0.0
 20
0.0
 30
0.0
  9
$PUCSORGRIGHT
 10
0.0
 20
0.0
 30
0.0
  9
$PUCSORGFRONT
 10
0.0
 20
0.0
 30
0.0
  9
$PUCSORGBACK
 10
0.0
 20
0.0
 30
0.0
  9
$USERI1
 70
     0
  9
$USERI2
 70
     0
  9
$USERI3
 70
     0
  9
$USERI4
 70
     0
  9
$USERI5
 70
     0
  9
$USERR1
 40
0.0
  9
$USERR2
 40
0.0
  9
$USERR3
 40
0.0
  9
$USERR4
 40
0.0
  9
$USERR5
 40
0.0
  9
$WORLDVIEW
 70
     1
  9
$SHADEDGE
 70
     3
  9
$SHADEDIF
 70
    70
  9
$TILEMODE
 70
     1
  9
$MAXACTVP
 70
    48
  9
$PINSBASE
 10
0.0
 20
0.0
 30
0.0
  9
$PLIMCHECK
 70
     0
  9
$PEXTMIN
 10
0.0
 20
0.0
 30
0.0
  9
$PEXTMAX
 10
0.0
 20
0.0
 30
0.0
  9
$PLIMMIN
 10
0.0
 20
0.0
  9
$PLIMMAX
 10
12.0
 20
9.0
  9
$UNITMODE
 70
     0
  9
$VISRETAIN
 70
     1
  9
$PLINEGEN
 70
     0
  9
$PSLTSCALE
 70
     1
  9
$TREEDEPTH
 70
  3020
  9
$CMLSTYLE
  2
Standard
  9
$CMLJUST
 70
     0
  9
$CMLSCALE
 40
20.0
  9
$PROXYGRAPHICS
 70
     1
  9
$MEASUREMENT
 70
     1
  9
$CELWEIGHT
370
    -1
  9
$ENDCAPS
280
     0
  9
$JOINSTYLE
280
     0
  9
$LWDISPLAY
290
     0
  9
$INSUNITS
 70
     4
  9
$HYPERLINKBASE
  1

  9
$STYLESHEET
  1

  9
$XEDIT
290
     1
  9
$CEPSNTYPE
380
     0
  9
$PSTYLEMODE
290
     1
  9
$FINGERPRINTGUID
  2
{09ACAAAA-6FF3-F94C-B944-1C0D1F37C415}
  9
$VERSIONGUID
  2
{C4643390-2725-084F-9BB6-006EAC886A5D}
  9
$EXTNAMES
290
     1
  9
$PSVPSCALE
 40
0.0
  9
$OLESTARTUP
290
     0
  0
ENDSEC
  0
SECTION
  2
CLASSES
  0
CLASS
  1
ACDBDICTIONARYWDFLT
  2
AcDbDictionaryWithDefault
  3
ObjectDBX Classes
 90
        0
280
     0
281
     0
  0
CLASS
  1
ACDBPLACEHOLDER
  2
AcDbPlaceHolder
  3
ObjectDBX Classes
 90
        0
280
     0
281
     0
  0
CLASS
  1
LAYOUT
  2
AcDbLayout
  3
ObjectDBX Classes
 90
        0
280
     0
281
     0
  0
CLASS
  1
DICTIONARYVAR
  2
AcDbDictionaryVar
  3
ObjectDBX Classes
 90
        0
280
     0
281
     0
  0
CLASS
  1
TABLESTYLE
  2
AcDbTableStyle
  3
ObjectDBX Classes
 90
     4095
280
     0
281
     0
  0
CLASS
  1
MATERIAL
  2
AcDbMaterial
  3
ObjectDBX Classes
 90
     1153
280
     0
281
     0
  0
CLASS
  1
VISUALSTYLE
  2
AcDbVisualStyle
  3
ObjectDBX Classes
 90
     4095
280
     0
281
     0
  0
CLASS
  1
SCALE
  2
AcDbScale
  3
ObjectDBX Classes
 90
     1153
280
     0
281
     0
  0
CLASS
  1
MLEADERSTYLE
  2
AcDbMLeaderStyle
  3
ACDB_MLEADERSTYLE_CLASS
 90
     4095
280
     0
281
     0
  0
CLASS
  1
CELLSTYLEMAP
  2
AcDbCellStyleMap
  3
ObjectDBX Classes
 90
     1152
280
     0
281
     0
  0
CLASS
  1
EXACXREFPANELOBJECT
  2
ExAcXREFPanelObject
  3
EXAC_ESW
 90
    33793
280
     0
281
     0
  0
CLASS
  1
NPOCOLLECTION
  2
AcDbImpNonPersistentObjectsCollection
  3
ObjectDBX Classes
 90
    33921
280
     0
281
     0
  0
CLASS
  1
LAYER_INDEX
  2
AcDbLayerIndex
  3
ObjectDBX Classes
 90
    32768
280
     0
281
     0
  0
CLASS
  1
SPATIAL_INDEX
  2
AcDbSpatialIndex
  3
ObjectDBX Classes
 90
    32768
280
     0
281
     0
  0
CLASS
  1
IDBUFFER
  2
AcDbIdBuffer
  3
ObjectDBX Classes
 90
    32768
280
     0
281
     0
  0
CLASS
  1
ACDBSECTIONVIEWSTYLE
  2
AcDbSectionViewStyle
  3
ObjectDBX Classes
 90
     1025
280
     0
281
     0
  0
CLASS
  1
ACDBDETAILVIEWSTYLE
  2
AcDbDetailViewStyle
  3
ObjectDBX Classes
 90
     1025
280
     0
281
     0
  0
CLASS
  1
XRECORD
  2
AcDbXrecord
  3
ObjectDBX Classes
 90
        0
280
     0
281
     0
  0
ENDSEC
  0
SECTION
  2
TABLES
  0
TABLE
  2
VPORT
  5
8
102
{ACAD_XDICTIONARY
360
57A7
102
}
330
0
100
AcDbSymbolTable
 70
     1
  0
VPORT
  5
EA
330
8
100
AcDbSymbolTableRecord
100
AcDbViewportTableRecord
  2
*Active
 70
     0
 10
0.0
 20
0.0
 11
1.0
 21
1.0
 12
0.6440742204944954
 22
23.59059960615192
 13
0.0
 23
0.0
 14
10.0
 24
10.0
 15
10.0
 25
10.0
 16
0.0
 26
0.0
 36
1.0
 17
0.0
 27
0.0
 37
0.0
 40
552.788950594837
 41
0.9846153846153846
 42
50.0
 43
0.0
 44
0.0
 50
0.0
 51
0.0
 71
     0
 72
  1000
 73
     1
 74
     3
 75
     0
 76
     1
 77
     0
 78
     0
281
     0
 65
     1
110
0.0
120
0.0
130
0.0
111
1.0
121
0.0
131
0.0
112
0.0
122
1.0
132
0.0
 79
     0
146
0.0
1001
ACAD_NAV_VCDISPLAY
1070
     3
  0
ENDTAB
  0
TABLE
  2
LTYPE
  5
5
330
0
100
AcDbSymbolTable
 70
     1
  0
LTYPE
  5
14
330
5
100
AcDbSymbolTableRecord
100
AcDbLinetypeTableRecord
  2
ByBlock
 70
     0
  3

 72
    65
 73
     0
 40
0.0
  0
LTYPE
  5
15
330
5
100
AcDbSymbolTableRecord
100
AcDbLinetypeTableRecord
  2
ByLayer
 70
     0
  3

 72
    65
 73
     0
 40
0.0
  0
LTYPE
  5
16
330
5
100
AcDbSymbolTableRecord
100
AcDbLinetypeTableRecord
  2
Continuous
 70
     0
  3
Solid line
 72
    65
 73
     0
 40
0.0
  0
ENDTAB
  0
TABLE
  2
LAYER
  5
2
102
{ACAD_XDICTIONARY
360
1FF
102
}
330
0
100
AcDbSymbolTable
 70
     1
  0
LAYER
  5
10
102
{ACAD_XDICTIONARY
360
13C
102
}
330
2
100
AcDbSymbolTableRecord
100
AcDbLayerTableRecord
  2
0
 70
     0
 62
     7
  6
Continuous
370
    -3
390
F
  0
ENDTAB
  0
TABLE
  2
STYLE
  5
3
330
0
100
AcDbSymbolTable
 70
     1
  0
STYLE
  5
11
330
3
100
AcDbSymbolTableRecord
100
AcDbTextStyleTableRecord
  2
Standard
 70
     0
 40
0.0
 41
1.0
 50
0.0
 71
     0
 42
2.5
  3
arial.ttf
  4

1001
ACAD
1000
Arial
1071
       34
  0
ENDTAB
  0
TABLE
  2
VIEW
  5
6
330
0
100
AcDbSymbolTable
 70
     0
  0
ENDTAB
  0
TABLE
  2
UCS
  5
7
330
0
100
AcDbSymbolTable
 70
     0
  0
ENDTAB
  0
TABLE
  2
APPID
  5
9
330
0
100
AcDbSymbolTable
 70
     8
  0
APPID
  5
12
330
9
100
AcDbSymbolTableRecord
100
AcDbRegAppTableRecord
  2
ACAD
 70
     0
  0
APPID
  5
9E
330
9
100
AcDbSymbolTableRecord
100
AcDbRegAppTableRecord
  2
ACAD_PSEXT
 70
     0
  0
APPID
  5
133
330
9
100
AcDbSymbolTableRecord
100
AcDbRegAppTableRecord
  2
AcadAnnoPO
 70
     0
  0
APPID
  5
134
330
9
100
AcDbSymbolTableRecord
100
AcDbRegAppTableRecord
  2
AcadAnnotative
 70
     0
  0
APPID
  5
135
330
9
100
AcDbSymbolTableRecord
100
AcDbRegAppTableRecord
  2
ACAD_DSTYLE_DIMJAG
 70
     0
  0
APPID
  5
136
330
9
100
AcDbSymbolTableRecord
100
AcDbRegAppTableRecord
  2
ACAD_DSTYLE_DIMTALN
 70
     0
  0
APPID
  5
165
330
9
100
AcDbSymbolTableRecord
100
AcDbRegAppTableRecord
  2
ACAD_MLEADERVER
 70
     0
  0
APPID
  5
217
330
9
100
AcDbSymbolTableRecord
100
AcDbRegAppTableRecord
  2
ACAD_NAV_VCDISPLAY
 70
     0
  0
ENDTAB
  0
TABLE
  2
DIMSTYLE
  5
A
330
0
100
AcDbSymbolTable
 70
     1
100
AcDbDimStyleTable
 71
     0
  0
DIMSTYLE
105
27
330
A
100
AcDbSymbolTableRecord
100
AcDbDimStyleTableRecord
  2
ISO-25
 70
     0
 41
2.5
 42
0.625
 43
3.75
 44
1.25
 73
     0
 74
     0
 77
     1
 78
     8
140
2.5
141
2.5
143
0.03937007874016
147
0.625
171
     3
172
     1
271
     2
272
     2
274
     3
278
    44
283
     0
284
     8
340
11
  0
ENDTAB
  0
TABLE
  2
BLOCK_RECORD
  5
1
330
0
100
AcDbSymbolTable
 70
     7
  0
BLOCK_RECORD
  5
1F
102
{ACAD_XDICTIONARY
360
1CE
102
}
330
1
100
AcDbSymbolTableRecord
100
AcDbBlockTableRecord
  2
*Model_Space
340
22
  0
BLOCK_RECORD
  5
D2
102
{ACAD_XDICTIONARY
360
5758
102
}
330
1
100
AcDbSymbolTableRecord
100
AcDbBlockTableRecord
  2
*Paper_Space
340
D3
  0
BLOCK_RECORD
  5
D6
102
{ACAD_XDICTIONARY
360
575A
102
}
330
1
100
AcDbSymbolTableRecord
100
AcDbBlockTableRecord
  2
*Paper_Space0
340
D7
  0
BLOCK_RECORD
  5
55CF
330
1
100
AcDbSymbolTableRecord
100
AcDbBlockTableRecord
  2
E9S_2.5-Front
340
0
102
{BLKREFS
331
574E
102
}
  0
BLOCK_RECORD
  5
55FB
330
1
100
AcDbSymbolTableRecord
100
AcDbBlockTableRecord
  2
E9S_2.5-Left
340
0
102
{BLKREFS
331
574F
102
}
  0
BLOCK_RECORD
  5
561D
330
1
100
AcDbSymbolTableRecord
100
AcDbBlockTableRecord
  2
E9S_2.5-Right
340
0
102
{BLKREFS
331
5750
102
}
  0
BLOCK_RECORD
  5
563F
330
1
100
AcDbSymbolTableRecord
100
AcDbBlockTableRecord
  2
E9S_2.5-Top
340
0
102
{BLKREFS
331
5751
102
}
  0
BLOCK_RECORD
  5
5675
330
1
100
AcDbSymbolTableRecord
100
AcDbBlockTableRecord
  2
E9S_2.5-Bottom
340
0
102
{BLKREFS
331
5752
102
}
  0
BLOCK_RECORD
  5
56B8
330
1
100
AcDbSymbolTableRecord
100
AcDbBlockTableRecord
  2
E9S_2.5-ISO
340
0
102
{BLKREFS
331
5753
102
}
  0
ENDTAB
  0
ENDSEC
  0
SECTION
  2
BLOCKS
  0
BLOCK
  5
20
330
1F
100
AcDbEntity
  8
0
100
AcDbBlockBegin
  2
*Model_Space
 70
     0
 10
0.0
 20
0.0
 30
0.0
  3
*Model_Space
  1

  0
ENDBLK
  5
21
330
1F
100
AcDbEntity
  8
0
100
AcDbBlockEnd
  0
BLOCK
  5
D4
330
D2
100
AcDbEntity
 67
     1
  8
0
100
AcDbBlockBegin
  2
*Paper_Space
 70
     0
 10
0.0
 20
0.0
 30
0.0
  3
*Paper_Space
  1

  0
ENDBLK
  5
D5
330
D2
100
AcDbEntity
 67
     1
  8
0
100
AcDbBlockEnd
  0
BLOCK
  5
D8
330
D6
100
AcDbEntity
 67
     1
  8
0
100
AcDbBlockBegin
  2
*Paper_Space0
 70
     0
 10
0.0
 20
0.0
 30
0.0
  3
*Paper_Space0
  1

  0
ENDBLK
  5
D9
330
D6
100
AcDbEntity
 67
     1
  8
0
100
AcDbBlockEnd
  0
BLOCK
  5
55D0
330
55CF
100
AcDbEntity
  8
0
100
AcDbBlockBegin
  2
E9S_2.5-Front
 70
     0
 10
0.0
 20
0.0
 30
0.0
  3
E9S_2.5-Front
  1

  0
LINE
  5
55D2
330
55CF
100
AcDbEntity
  8
0
100
AcDbLine
 10
32.49999999999999
 20
94.0
 30
0.0
 11
-32.50000000000002
 21
94.0
 31
0.0
  0
CIRCLE
  5
55D3
330
55CF
100
AcDbEntity
  8
0
100
AcDbCircle
 10
-0.0000000000000164
 20
81.5
 30
0.0
 40
5.5
  0
CIRCLE
  5
55D4
330
55CF
100
AcDbEntity
  8
0
100
AcDbCircle
 10
19.99999999999998
 20
24.50000000000003
 30
0.0
 40
2.5
  0
CIRCLE
  5
55D5
330
55CF
100
AcDbEntity
  8
0
100
AcDbCircle
 10
19.99999999999998
 20
44.50000000000002
 30
0.0
 40
2.5
  0
CIRCLE
  5
55D6
330
55CF
100
AcDbEntity
  8
0
100
AcDbCircle
 10
9.999999999999984
 20
64.50000000000002
 30
0.0
 40
2.5
  0
CIRCLE
  5
55D7
330
55CF
100
AcDbEntity
  8
0
100
AcDbCircle
 10
19.99999999999998
 20
84.50000000000002
 30
0.0
 40
2.5
  0
CIRCLE
  5
55D8
330
55CF
100
AcDbEntity
  8
0
100
AcDbCircle
 10
-20.00000000000002
 20
84.50000000000002
 30
0.0
 40
2.5
  0
CIRCLE
  5
55D9
330
55CF
100
AcDbEntity
  8
0
100
AcDbCircle
 10
-10.00000000000001
 20
64.50000000000002
 30
0.0
 40
2.5
  0
CIRCLE
  5
55DA
330
55CF
100
AcDbEntity
  8
0
100
AcDbCircle
 10
-20.00000000000002
 20
44.50000000000002
 30
0.0
 40
2.5
  0
CIRCLE
  5
55DB
330
55CF
100
AcDbEntity
  8
0
100
AcDbCircle
 10
-20.00000000000002
 20
24.50000000000003
 30
0.0
 40
2.5
  0
LINE
  5
55DC
330
55CF
100
AcDbEntity
  8
0
100
AcDbLine
 10
-32.50000000000002
 20
94.0
 30
0.0
 11
-32.50000000000002
 21
24.49999999955112
 31
0.0
  0
LINE
  5
55DD
330
55CF
100
AcDbEntity
  8
0
100
AcDbLine
 10
32.49999999999999
 20
94.0
 30
0.0
 11
32.49999999999999
 21
24.49999999955112
 31
0.0
  0
LINE
  5
55DE
330
55CF
100
AcDbEntity
  8
0
100
AcDbLine
 10
-32.49999999999999
 20
0.0
 30
0.0
 11
32.50000000000002
 21
0.0
 31
0.0
  0
LINE
  5
55DF
330
55CF
100
AcDbEntity
  8
0
100
AcDbLine
 10
-32.49999999999999
 20
2.499999999999982
 30
0.0
 11
32.50000000000002
 21
2.499999999999982
 31
0.0
  0
LINE
  5
55E0
330
55CF
100
AcDbEntity
  8
0
100
AcDbLine
 10
-32.49999999999999
 20
2.499999999999982
 30
0.0
 11
-32.49999999999999
 21
0.0
 31
0.0
  0
LINE
  5
55E1
330
55CF
100
AcDbEntity
  8
0
100
AcDbLine
 10
32.50000000000002
 20
2.499999999999982
 30
0.0
 11
32.50000000000002
 21
0.0
 31
0.0
  0
LINE
  5
55E2
330
55CF
100
AcDbEntity
  8
0
100
AcDbLine
 10
-32.50000000000002
 20
24.49999999955112
 30
0.0
 11
-29.80746451448294
 21
7.499999999632089
 31
0.0
  0
LINE
  5
55E3
330
55CF
100
AcDbEntity
  8
0
100
AcDbLine
 10
29.80746451448289
 20
7.499999999632133
 30
0.0
 11
32.49999999999999
 21
24.49999999955112
 31
0.0
  0
SPLINE
  5
55E4
330
55CF
100
AcDbEntity
  8
0
100
AcDbSpline
210
0.0
220
0.0
230
1.0
 70
     8
 71
     3
 72
     8
 73
     4
 74
     0
 42
0.000000001
 43
0.0000000001
 40
0.0
 40
0.0
 40
0.0
 40
0.0
 40
0.3748179610984072
 40
0.3748179610984072
 40
0.3748179610984072
 40
0.3748179610984072
 10
29.80746451448267
 20
7.499999999448217
 30
0.0
 10
29.61941651069191
 20
6.040219218431953
 30
0.0
 10
29.50173657670509
 20
4.605621626087433
 30
0.0
 10
29.45456202879972
 20
3.389156471172598
 30
0.0
  0
SPLINE
  5
55E5
330
55CF
100
AcDbEntity
  8
0
100
AcDbSpline
210
0.0
220
0.0
230
1.0
 70
     8
 71
     3
 72
    11
 73
     7
 74
     0
 42
0.000000001
 43
0.0000000001
 40
0.6251820389015903
 40
0.6251820389015903
 40
0.6251820389015903
 40
0.6251820389015903
 40
0.8948926887967029
 40
0.8948926887967029
 40
0.8948926887967029
 40
1.0
 40
1.0
 40
1.0
 40
1.0
 10
-29.45444335580919
 20
3.383748503884493
 30
0.0
 10
-29.48831857547996
 20
4.249791207061149
 30
0.0
 10
-29.55874841859153
 20
5.233306270447981
 30
0.0
 10
-29.66578404804144
 20
6.274467304837235
 30
0.0
 10
-29.70749625784409
 20
6.68021189407335
 30
0.0
 10
-29.7547316625201
 20
7.090644929084786
 30
0.0
 10
-29.80746451448287
 20
7.49999999944812
 30
0.0
  0
SPLINE
  5
55E6
330
55CF
100
AcDbEntity
  8
0
100
AcDbSpline
210
0.0
220
0.0
230
1.0
 70
     8
 71
     3
 72
    11
 73
     7
 74
     0
 42
0.000000001
 43
0.0000000001
 40
-1.0
 40
-1.0
 40
-1.0
 40
-1.0
 40
-0.8948926887967024
 40
-0.8948926887967024
 40
-0.8948926887967024
 40
0.0
 40
0.0
 40
0.0
 40
0.0
 10
-29.80746451448287
 20
7.49999999963208
 30
0.0
 10
-29.7547316625201
 20
7.227096619389855
 30
0.0
 10
-29.70749625784408
 20
6.953474596048905
 30
0.0
 10
-29.66578404804144
 20
6.682978203224819
 30
0.0
 10
-29.3106427057447
 20
4.379948646927302
 30
0.0
 10
-29.3584924768505
 20
2.499999999619099
 30
0.0
 10
-29.80746451448289
 20
2.5
 30
0.0
  0
SPLINE
  5
55E7
330
55CF
100
AcDbEntity
  8
0
100
AcDbSpline
210
0.0
220
0.0
230
1.0
 70
     8
 71
     3
 72
    11
 73
     7
 74
     0
 42
0.000000001
 43
0.0000000001
 40
-1.0
 40
-1.0
 40
-1.0
 40
-1.0
 40
-0.8948926887914495
 40
-0.8948926887914495
 40
-0.8948926887914495
 40
0.0
 40
0.0
 40
0.0
 40
0.0
 10
29.80746451448271
 20
2.5
 30
0.0
 10
29.75473166251724
 20
2.499999999955259
 30
0.0
 10
29.70749625783922
 20
2.522401628886564
 30
0.0
 10
29.66578404803499
 20
2.567204100569077
 30
0.0
 10
29.31064270574455
 20
2.948656198310544
 30
0.0
 10
29.358492476854
 20
5.17647714542408
 30
0.0
 10
29.80746451448267
 20
7.499999999632144
 30
0.0
  0
LINE
  5
55E8
330
55CF
100
AcDbEntity
  8
0
100
AcDbLine
 10
-10.39159650704258
 20
19.56972643475237
 30
0.0
 11
-5.765000000000018
 21
41.24548300611511
 31
0.0
  0
LINE
  5
55E9
330
55CF
100
AcDbEntity
  8
0
100
AcDbLine
 10
5.764999999999985
 20
41.24548300611511
 30
0.0
 11
10.39159650704264
 21
19.56972643475198
 31
0.0
  0
SPLINE
  5
55EA
330
55CF
100
AcDbEntity
  8
0
100
AcDbSpline
210
0.0
220
0.0
230
1.0
 70
     8
 71
     3
 72
    12
 73
     8
 74
     0
 42
0.000000001
 43
0.0000000001
 40
0.0
 40
0.0
 40
0.0
 40
0.0
 40
0.1243285561162358
 40
0.1243285561162358
 40
0.2081435427040438
 40
0.2081435427040438
 40
0.2905570301017684
 40
0.2905570301017684
 40
0.2905570301017684
 40
0.2905570301017684
 10
-7.937464828588989
 20
20.01641427860432
 30
0.0
 10
-8.174100666144472
 20
19.90179738470736
 30
0.0
 10
-8.475932675706188
 20
19.80334819462216
 30
0.0
 10
-9.059716236883371
 20
19.6772985891245
 30
0.0
 10
-9.314501789692757
 20
19.63742101478915
 30
0.0
 10
-9.84456117689956
 20
19.58373786065464
 30
0.0
 10
-10.11734477851713
 20
19.56972643475193
 30
0.0
 10
-10.39159650704269
 20
19.56972643475193
 30
0.0
  0
SPLINE
  5
55EB
330
55CF
100
AcDbEntity
  8
0
100
AcDbSpline
210
0.0
220
0.0
230
1.0
 70
     8
 71
     3
 72
    12
 73
     8
 74
     0
 42
0.000000001
 43
0.0000000001
 40
0.0
 40
0.0
 40
0.0
 40
0.0
 40
0.1071924999187088
 40
0.1071924999187088
 40
0.1983440260468834
 40
0.1983440260468834
 40
0.2899837002222282
 40
0.2899837002222282
 40
0.2899837002222282
 40
0.2899837002222282
 10
10.39159650704265
 20
19.56972643475194
 30
0.0
 10
10.03428817398029
 20
19.56972643475194
 30
0.0
 10
9.680167717918525
 20
19.59348946134776
 30
0.0
 10
9.064485485985812
 20
19.67542422967
 30
0.0
 10
8.79974362649184
 20
19.72753820731005
 30
0.0
 10
8.322741417182918
 20
19.85584377305446
 30
0.0
 10
8.112227494486319
 20
19.93176626357316
 30
0.0
 10
7.937464828588951
 20
20.01641427860433
 30
0.0
  0
ARC
  5
55EC
330
55CF
100
AcDbEntity
  8
0
100
AcDbCircle
 10
-0.0000000000000164
 20
40.01496868587501
 30
0.0
 40
5.894861363282087
100
AcDbArc
 50
12.04873155206801
 51
167.951268447932
  0
LINE
  5
55ED
330
55CF
100
AcDbEntity
  8
0
100
AcDbLine
 10
0.0
 20
40.01496868587501
 30
0.0
 11
-2.387610421053803
 21
40.52459380543463
 31
0.0
  0
LINE
  5
55EE
330
55CF
100
AcDbEntity
  8
0
100
AcDbLine
 10
2.38761042105377
 20
40.52459380543461
 30
0.0
 11
0.0
 21
40.01496868587501
 31
0.0
  0
LINE
  5
55EF
330
55CF
100
AcDbEntity
  8
0
100
AcDbLine
 10
4.165858623168935
 20
40.90415319444485
 30
0.0
 11
2.387610421053765
 21
40.52459380543463
 31
0.0
  0
LINE
  5
55F0
330
55CF
100
AcDbEntity
  8
0
100
AcDbLine
 10
5.764999999999982
 20
41.24548300611511
 30
0.0
 11
4.165858623168938
 21
40.90415319444485
 31
0.0
  0
LINE
  5
55F1
330
55CF
100
AcDbEntity
  8
0
100
AcDbLine
 10
-4.165858623168967
 20
40.90415319444485
 30
0.0
 11
-5.765000000000005
 21
41.24548300611509
 31
0.0
  0
LINE
  5
55F2
330
55CF
100
AcDbEntity
  8
0
100
AcDbLine
 10
-2.387610421053797
 20
40.52459380543463
 30
0.0
 11
-4.165858623168967
 21
40.90415319444486
 31
0.0
  0
SPLINE
  5
55F3
330
55CF
100
AcDbEntity
  8
0
100
AcDbSpline
210
0.0
220
0.0
230
1.0
 70
     8
 71
     3
 72
    10
 73
     6
 74
     0
 42
0.000000001
 43
0.0000000001
 40
-0.446462628344785
 40
-0.446462628344785
 40
-0.446462628344785
 40
-0.446462628344785
 40
-0.103952103000345
 40
-0.103952103000345
 40
-0.0554704935954536
 40
-0.0554704935954536
 40
-0.0554704935954536
 40
-0.0554704935954536
 10
-2.387610421053796
 20
3.359072847491751
 30
0.0
 10
-2.143565172746078
 20
3.457503870598127
 30
0.0
 10
-1.238597287753958
 20
3.825875520734343
 30
0.0
 10
-0.2527895407290201
 20
3.988008452423932
 30
0.0
 10
-0.1302890816240154
 20
4.004194579655464
 30
0.0
 10
-0.000000000000008
 20
4.013868196508796
 30
0.0
  0
SPLINE
  5
55F4
330
55CF
100
AcDbEntity
  8
0
100
AcDbSpline
210
0.0
220
0.0
230
1.0
 70
     8
 71
     3
 72
    10
 73
     6
 74
     0
 42
0.000000001
 43
0.0000000001
 40
-0.1912355565170601
 40
-0.1912355565170601
 40
-0.1912355565170601
 40
-0.1912355565170601
 40
-0.0996388894577021
 40
-0.0996388894577021
 40
0.0
 40
0.0
 40
0.0
 40
0.0
 10
-4.165858623168959
 20
2.756530944296488
 30
0.0
 10
-3.867489242383157
 20
2.852315122094303
 30
0.0
 10
-3.582791799050047
 20
2.941617345231511
 30
0.0
 10
-3.016556589967746
 20
3.126292489111981
 30
0.0
 10
-2.689766906850064
 20
3.23720375870026
 30
0.0
 10
-2.387610421053789
 20
3.35907284749175
 30
0.0
  0
SPLINE
  5
55F5
330
55CF
100
AcDbEntity
  8
0
100
AcDbSpline
210
0.0
220
0.0
230
1.0
 70
     8
 71
     3
 72
    10
 73
     6
 74
     0
 42
0.000000001
 43
0.0000000001
 40
-0.1660624726421035
 40
-0.1660624726421035
 40
-0.1660624726421035
 40
-0.1660624726421035
 40
-0.083295501751649
 40
-0.083295501751649
 40
0.0
 40
0.0
 40
0.0
 40
0.0
 10
-5.764999999999997
 20
2.50000000000001
 30
0.0
 10
-5.492549083563781
 20
2.500000000000011
 30
0.0
 10
-5.227836336319986
 20
2.521155987575136
 30
0.0
 10
-4.691024338904434
 20
2.608040202912508
 30
0.0
 10
-4.424926032924036
 20
2.673363701155635
 30
0.0
 10
-4.165858623168959
 20
2.75653094429649
 30
0.0
  0
SPLINE
  5
55F6
330
55CF
100
AcDbEntity
  8
0
100
AcDbSpline
210
0.0
220
0.0
230
1.0
 70
     8
 71
     3
 72
    10
 73
     6
 74
     0
 42
0.000000001
 43
0.0000000001
 40
-0.1676853196454884
 40
-0.1676853196454884
 40
-0.1676853196454884
 40
-0.1676853196454884
 40
-0.0835328295563808
 40
-0.0835328295563808
 40
0.0
 40
0.0
 40
0.0
 40
0.0
 10
4.165858623168946
 20
2.756530944296517
 30
0.0
 10
4.425055780195831
 20
2.673322075412052
 30
0.0
 10
4.691290650462161
 20
2.607974784060353
 30
0.0
 10
5.228110591976004
 20
2.52113392029005
 30
0.0
 10
5.492691214028015
 20
2.50000000000001
 30
0.0
 10
5.764999999999991
 20
2.50000000000001
 30
0.0
  0
SPLINE
  5
55F7
330
55CF
100
AcDbEntity
  8
0
100
AcDbSpline
210
0.0
220
0.0
230
1.0
 70
     8
 71
     3
 72
    10
 73
     6
 74
     0
 42
0.000000001
 43
0.0000000001
 40
-0.2002449562418786
 40
-0.2002449562418786
 40
-0.2002449562418786
 40
-0.2002449562418786
 40
-0.0958426940544169
 40
-0.0958426940544169
 40
0.0
 40
0.0
 40
0.0
 40
0.0
 10
2.387610421053773
 20
3.35907284749175
 30
0.0
 10
2.689992894477388
 20
3.237112610876156
 30
0.0
 10
3.017100567316403
 20
3.126108099635496
 30
0.0
 10
3.58328106954173
 20
2.941464130327121
 30
0.0
 10
3.867766665280183
 20
2.852226031866116
 30
0.0
 10
4.165858623168944
 20
2.756530944296515
 30
0.0
  0
SPLINE
  5
55F8
330
55CF
100
AcDbEntity
  8
0
100
AcDbSpline
210
0.0
220
0.0
230
1.0
 70
     8
 71
     3
 72
    12
 73
     8
 74
     0
 42
0.000000001
 43
0.0000000001
 40
-0.1092148079344466
 40
-0.1092148079344466
 40
-0.1092148079344466
 40
-0.1092148079344466
 40
-0.0971438673808177
 40
-0.0971438673808177
 40
-0.0649614152609036
 40
-0.0649614152609036
 40
0.0
 40
0.0
 40
0.0
 40
0.0
 10
-0.000000000000008
 20
4.013868196508796
 30
0.0
 10
0.1183296740122582
 20
4.005082533777074
 30
0.0
 10
0.2277095833727846
 20
3.991076875741067
 30
0.0
 10
0.6144427045690808
 20
3.930707516503788
 30
0.0
 10
0.905957004337106
 20
3.861142767880052
 30
0.0
 10
1.736749742229515
 20
3.623601189548661
 30
0.0
 10
2.190613916431752
 20
3.438527652011748
 30
0.0
 10
2.387610421053774
 20
3.35907284749175
 30
0.0
  0
SPLINE
  5
55F9
330
55CF
100
AcDbEntity
  8
0
100
AcDbSpline
210
0.0
220
0.0
230
1.0
 70
     8
 71
     3
 72
    12
 73
     8
 74
     0
 42
0.000000001
 43
0.0000000001
 40
0.0
 40
0.0
 40
0.0
 40
0.0
 40
0.1243285560962474
 40
0.1243285560962474
 40
0.2081435426481914
 40
0.2081435426481914
 40
0.2905570300988916
 40
0.2905570300988916
 40
0.2905570300988916
 40
0.2905570300988916
 10
7.937464828588965
 20
3.748435474346614
 30
0.0
 10
8.174100666106404
 20
3.4280958943766
 30
0.0
 10
8.47593267560782
 20
3.152942981872823
 30
0.0
 10
9.05971623660112
 20
2.800650433128863
 30
0.0
 10
9.314501789291572
 20
2.689197705689183
 30
0.0
 10
9.844561176536096
 20
2.53916014597257
 30
0.0
 10
10.11734477833394
 20
2.499999999999999
 30
0.0
 10
10.39159650704267
 20
2.499999999999999
 30
0.0
  0
SPLINE
  5
55FA
330
55CF
100
AcDbEntity
  8
0
100
AcDbSpline
210
0.0
220
0.0
230
1.0
 70
     8
 71
     3
 72
    12
 73
     8
 74
     0
 42
0.000000001
 43
0.0000000001
 40
0.0
 40
0.0
 40
0.0
 40
0.0
 40
0.1071924998403328
 40
0.1071924998403328
 40
0.1983440260170466
 40
0.1983440260170466
 40
0.2899837002212135
 40
0.2899837002212135
 40
0.2899837002212135
 40
0.2899837002212135
 10
-10.3915965070427
 20
2.499999999999999
 30
0.0
 10
-10.03428817424159
 20
2.499999999999999
 30
0.0
 10
-9.680167718434322
 20
2.56641462425555
 30
0.0
 10
-9.064485486527345
 20
2.79541183714423
 30
0.0
 10
-8.799743626862323
 20
2.941063748933467
 30
0.0
 10
-8.322741417315768
 20
3.299661418615941
 30
0.0
 10
-8.1122274945415
 20
3.511855083172602
 30
0.0
 10
-7.937464828588998
 20
3.748435474346607
 30
0.0
  0
ENDBLK
  5
55D1
330
55CF
100
AcDbEntity
  8
0
100
AcDbBlockEnd
  0
BLOCK
  5
55FC
330
55FB
100
AcDbEntity
  8
0
100
AcDbBlockBegin
  2
E9S_2.5-Left
 70
     0
 10
0.0
 20
0.0
 30
0.0
  3
E9S_2.5-Left
  1

  0
LINE
  5
55FE
330
55FB
100
AcDbEntity
  8
0
100
AcDbLine
 10
2.500000000000013
 20
94.0
 30
0.0
 11
0.0
 21
94.0
 31
0.0
  0
LINE
  5
55FF
330
55FB
100
AcDbEntity
  8
0
100
AcDbLine
 10
2.500000000000013
 20
94.0
 30
0.0
 11
2.500000000000002
 21
24.49999999955112
 31
0.0
  0
LINE
  5
5600
330
55FB
100
AcDbEntity
  8
0
100
AcDbLine
 10
0.0
 20
94.0
 30
0.0
 11
0.0
 21
24.49999999955112
 31
0.0
  0
LINE
  5
5601
330
55FB
100
AcDbEntity
  8
0
100
AcDbLine
 10
24.50000000099998
 20
0.0
 30
0.0
 11
152.5
 21
0.0
 31
0.0
  0
LINE
  5
5602
330
55FB
100
AcDbEntity
  8
0
100
AcDbLine
 10
24.50000000099998
 20
2.499999999999998
 30
0.0
 11
152.5
 21
2.499999999999982
 31
0.0
  0
LINE
  5
5603
330
55FB
100
AcDbEntity
  8
0
100
AcDbLine
 10
152.5
 20
2.499999999999982
 30
0.0
 11
152.5
 21
0.0
 31
0.0
  0
LINE
  5
5604
330
55FB
100
AcDbEntity
  8
0
100
AcDbLine
 10
2.500000000000002
 20
24.49999999955112
 30
0.0
 11
2.500000000000007
 21
7.499999999632089
 31
0.0
  0
LINE
  5
5605
330
55FB
100
AcDbEntity
  8
0
100
AcDbLine
 10
0.0
 20
24.49999999955112
 30
0.0
 11
2.500000000000002
 21
24.49999999955112
 31
0.0
  0
LINE
  5
5606
330
55FB
100
AcDbEntity
  8
0
100
AcDbLine
 10
24.50000000099998
 20
0.0
 30
0.0
 11
7.500000000999998
 21
0.0
 31
0.0
  0
LINE
  5
5607
330
55FB
100
AcDbEntity
  8
0
100
AcDbLine
 10
0.0
 20
7.499999999448132
 30
0.0
 11
0.0
 21
24.49999999955112
 31
0.0
  0
SPLINE
  5
5608
330
55FB
100
AcDbEntity
  8
0
100
AcDbSpline
210
0.0
220
0.0
230
1.0
 70
     8
 71
     3
 72
    11
 73
     7
 74
     0
 42
0.000000001
 43
0.0000000001
 40
0.0
 40
0.0
 40
0.0
 40
0.0
 40
0.8948926887967029
 40
0.8948926887967029
 40
0.8948926887967029
 40
1.0
 40
1.0
 40
1.0
 40
1.0
 10
7.500000001003747
 20
0.0
 30
0.0
 10
4.014715719895295
 20
-0.0000000005713513
 30
0.0
 10
0.6729842985421822
 20
2.819922970391064
 30
0.0
 10
0.1008061511346394
 20
6.274467304837235
 30
0.0
 10
0.0336024435212087
 20
6.68021189407335
 30
0.0
 10
0.0000000000301289
 20
7.090644929084786
 30
0.0
 10
0.0000000000000069
 20
7.49999999944812
 30
0.0
  0
LINE
  5
5609
330
55FB
100
AcDbEntity
  8
0
100
AcDbLine
 10
7.500000000999998
 20
2.5
 30
0.0
 11
24.50000000099998
 21
2.499999999999998
 31
0.0
  0
SPLINE
  5
560A
330
55FB
100
AcDbEntity
  8
0
100
AcDbSpline
210
0.0
220
0.0
230
1.0
 70
     8
 71
     3
 72
    11
 73
     7
 74
     0
 42
0.000000001
 43
0.0000000001
 40
-1.0
 40
-1.0
 40
-1.0
 40
-1.0
 40
-0.8948926887967024
 40
-0.8948926887967024
 40
-0.8948926887967024
 40
0.0
 40
0.0
 40
0.0
 40
0.0
 10
2.500000000000007
 20
7.49999999963208
 30
0.0
 10
2.500000000020087
 20
7.227096619389855
 30
0.0
 10
2.522401629014139
 20
6.953474596048905
 30
0.0
 10
2.567204100756428
 20
6.682978203224819
 30
0.0
 10
2.948656199028137
 20
4.379948646927302
 30
0.0
 10
5.176477146596866
 20
2.499999999619099
 30
0.0
 10
7.500000000819668
 20
2.5
 30
0.0
  0
LINE
  5
560B
330
55FB
100
AcDbEntity
  8
0
100
AcDbLine
 10
0.0
 20
7.499999999448132
 30
0.0
 11
1.399999998944702
 21
7.499999999551137
 31
0.0
  0
LINE
  5
560C
330
55FB
100
AcDbEntity
  8
0
100
AcDbLine
 10
1.399999998944702
 20
7.499999999551137
 30
0.0
 11
2.500000000000007
 21
7.499999999632088
 31
0.0
  0
LINE
  5
560D
330
55FB
100
AcDbEntity
  8
0
100
AcDbLine
 10
7.500000000999998
 20
2.5
 30
0.0
 11
7.500000000999998
 21
1.399999998931772
 31
0.0
  0
LINE
  5
560E
330
55FB
100
AcDbEntity
  8
0
100
AcDbLine
 10
7.500000000999998
 20
1.399999998931772
 30
0.0
 11
7.500000000999998
 21
0.0
 31
0.0
  0
LINE
  5
560F
330
55FB
100
AcDbEntity
  8
0
100
AcDbLine
 10
24.50000000099998
 20
2.499999999999998
 30
0.0
 11
24.50000000099998
 21
0.0
 31
0.0
  0
SPLINE
  5
5610
330
55FB
100
AcDbEntity
  8
0
100
AcDbSpline
210
0.0
220
0.0
230
1.0
 70
     8
 71
     3
 72
    10
 73
     6
 74
     0
 42
0.000000001
 43
0.0000000001
 40
-0.446462628344785
 40
-0.446462628344785
 40
-0.446462628344785
 40
-0.446462628344785
 40
-0.103952103000345
 40
-0.103952103000345
 40
-0.0554704935954536
 40
-0.0554704935954536
 40
-0.0554704935954536
 40
-0.0554704935954536
 10
40.52459380543463
 20
3.359072847491751
 30
0.0
 10
40.47250340251543
 20
3.457503870598127
 30
0.0
 10
40.27934192084175
 20
3.825875520734343
 30
0.0
 10
40.06892552019685
 20
3.988008452423932
 30
0.0
 10
40.04277832693474
 20
4.004194579655464
 30
0.0
 10
40.01496868587501
 20
4.013868196508796
 30
0.0
  0
SPLINE
  5
5611
330
55FB
100
AcDbEntity
  8
0
100
AcDbSpline
210
0.0
220
0.0
230
1.0
 70
     8
 71
     3
 72
    10
 73
     6
 74
     0
 42
0.000000001
 43
0.0000000001
 40
-0.1912355565170601
 40
-0.1912355565170601
 40
-0.1912355565170601
 40
-0.1912355565170601
 40
-0.0996388894577021
 40
-0.0996388894577021
 40
0.0
 40
0.0
 40
0.0
 40
0.0
 10
40.90415319444485
 20
2.756530944296488
 30
0.0
 10
40.84046754036365
 20
2.852315122094303
 30
0.0
 10
40.77970010220976
 20
2.941617345231511
 30
0.0
 10
40.65883964541881
 20
3.126292489111981
 30
0.0
 10
40.58908780070362
 20
3.23720375870026
 30
0.0
 10
40.52459380543463
 20
3.35907284749175
 30
0.0
  0
SPLINE
  5
5612
330
55FB
100
AcDbEntity
  8
0
100
AcDbSpline
210
0.0
220
0.0
230
1.0
 70
     8
 71
     3
 72
    10
 73
     6
 74
     0
 42
0.000000001
 43
0.0000000001
 40
-0.1660624726421035
 40
-0.1660624726421035
 40
-0.1660624726421035
 40
-0.1660624726421035
 40
-0.083295501751649
 40
-0.083295501751649
 40
0.0
 40
0.0
 40
0.0
 40
0.0
 10
41.2454830061151
 20
2.50000000000001
 30
0.0
 10
41.18732953616934
 20
2.500000000000011
 30
0.0
 10
41.13082774497535
 20
2.521155987575136
 30
0.0
 10
41.01624754547898
 20
2.608040202912508
 30
0.0
 10
40.95945001276421
 20
2.673363701155635
 30
0.0
 10
40.90415319444485
 20
2.75653094429649
 30
0.0
  0
LINE
  5
5613
330
55FB
100
AcDbEntity
  8
0
100
AcDbLine
 10
19.56972643475191
 20
2.499999999999999
 30
0.0
 11
20.01641427860429
 21
3.748435474346607
 31
0.0
  0
SPLINE
  5
5614
330
55FB
100
AcDbEntity
  8
0
100
AcDbSpline
210
0.0
220
0.0
230
1.0
 70
     8
 71
     3
 72
    10
 73
     6
 74
     0
 42
0.000000001
 43
0.0000000001
 40
0.0
 40
0.0
 40
0.0
 40
0.0
 40
0.276985118905761
 40
0.276985118905761
 40
0.6101631605865128
 40
0.6101631605865128
 40
0.6101631605865128
 40
0.6101631605865128
 10
40.014968685875
 20
4.01386819650879
 30
0.0
 10
40.8897606449881
 20
3.718585495068367
 30
0.0
 10
41.74788298324426
 20
3.370695543208106
 30
0.0
 10
43.70379666778663
 20
2.812969686489599
 30
0.0
 10
44.80558783555419
 20
2.618604360559863
 30
0.0
 10
45.90983004914375
 20
2.499999999875627
 30
0.0
  0
SPLINE
  5
5615
330
55FB
100
AcDbEntity
  8
0
100
AcDbSpline
210
0.0
220
0.0
230
1.0
 70
     8
 71
     3
 72
     8
 73
     4
 74
     0
 42
0.000000001
 43
0.0000000001
 40
0.0
 40
0.0
 40
0.0
 40
0.0
 40
1.874032911287692
 40
1.874032911287692
 40
1.874032911287692
 40
1.874032911287692
 10
22.34233011812667
 20
10.24907318895596
 30
0.0
 10
28.22395955045106
 20
8.144637338285555
 30
0.0
 10
34.11495437937276
 20
6.066195218913819
 30
0.0
 10
40.01496868624893
 20
4.013868196378723
 30
0.0
  0
SPLINE
  5
5616
330
55FB
100
AcDbEntity
  8
0
100
AcDbSpline
210
0.0
220
0.0
230
1.0
 70
     8
 71
     3
 72
    12
 73
     8
 74
     0
 42
0.000000001
 43
0.0000000001
 40
-0.1092148079344782
 40
-0.1092148079344782
 40
-0.1092148079344782
 40
-0.1092148079344782
 40
-0.0971438673808425
 40
-0.0971438673808425
 40
-0.0649614152609135
 40
-0.0649614152609135
 40
0.0
 40
0.0
 40
0.0
 40
0.0
 10
4.013868196508787
 20
40.01496868587501
 30
0.0
 10
4.005082533777065
 20
40.04022564309642
 30
0.0
 10
3.991076875741058
 20
40.06357231174084
 30
0.0
 10
3.930707516503785
 20
40.1461188240987
 30
0.0
 10
3.861142767880077
 20
40.2083412907941
 30
0.0
 10
3.623601189548663
 20
40.38567040807565
 30
0.0
 10
3.438527652011758
 20
40.48254575340087
 30
0.0
 10
3.359072847491742
 20
40.52459380543463
 30
0.0
  0
SPLINE
  5
5617
330
55FB
100
AcDbEntity
  8
0
100
AcDbSpline
210
0.0
220
0.0
230
1.0
 70
     8
 71
     3
 72
    10
 73
     6
 74
     0
 42
0.000000001
 43
0.0000000001
 40
-0.1676850919280784
 40
-0.1676850919280784
 40
-0.1676850919280784
 40
-0.1676850919280784
 40
-0.0835329193522998
 40
-0.0835329193522998
 40
0.0
 40
0.0
 40
0.0
 40
0.0
 10
2.756530944296482
 20
40.90415319444485
 30
0.0
 10
2.673321965970417
 20
40.95947776194607
 30
0.0
 10
2.607974705970947
 20
41.01630451040935
 30
0.0
 10
2.521133965727046
 20
41.13088602497172
 30
0.0
 10
2.500000000000002
 20
41.18735981082125
 30
0.0
 10
2.500000000000002
 20
41.2454830061151
 30
0.0
  0
SPLINE
  5
5618
330
55FB
100
AcDbEntity
  8
0
100
AcDbSpline
210
0.0
220
0.0
230
1.0
 70
     8
 71
     3
 72
    10
 73
     6
 74
     0
 42
0.000000001
 43
0.0000000001
 40
-0.2002449434725946
 40
-0.2002449434725946
 40
-0.2002449434725946
 40
-0.2002449434725946
 40
-0.0958426888579099
 40
-0.0958426888579099
 40
0.0
 40
0.0
 40
0.0
 40
0.0
 10
3.359072847491741
 20
40.52459380543463
 30
0.0
 10
3.237112618761361
 20
40.58913603261252
 30
0.0
 10
3.126108088297005
 20
40.65895577889269
 30
0.0
 10
2.941464213249496
 20
40.77980450442066
 30
0.0
 10
2.852226054355187
 20
40.840526760345
 30
0.0
 10
2.75653094429648
 20
40.90415319444485
 30
0.0
  0
SPLINE
  5
5619
330
55FB
100
AcDbEntity
  8
0
100
AcDbSpline
210
0.0
220
0.0
230
1.0
 70
     8
 71
     3
 72
     8
 73
     4
 74
     0
 42
0.000000001
 43
0.0000000001
 40
0.0
 40
0.0
 40
0.0
 40
0.0
 40
0.6086147172798012
 40
0.6086147172798012
 40
0.6086147172798012
 40
0.6086147172798012
 10
2.49999999987543
 20
45.90983004914549
 30
0.0
 10
2.716654011891945
 20
43.89271613839084
 30
0.0
 10
3.365048510582119
 20
41.93713426277518
 30
0.0
 10
4.013868196508774
 20
40.01496868587499
 30
0.0
  0
LINE
  5
561A
330
55FB
100
AcDbEntity
  8
0
100
AcDbLine
 10
3.74843547434661
 20
20.01641427860432
 30
0.0
 11
2.500000000000003
 21
19.56972643475193
 31
0.0
  0
SPLINE
  5
561B
330
55FB
100
AcDbEntity
  8
0
100
AcDbSpline
210
0.0
220
0.0
230
1.0
 70
     8
 71
     3
 72
     8
 73
     4
 74
     0
 42
0.000000001
 43
0.0000000001
 40
0.0
 40
0.0
 40
0.0
 40
0.0
 40
1.874032911287694
 40
1.874032911287694
 40
1.874032911287694
 40
1.874032911287694
 10
4.013868196378719
 20
40.01496868624895
 30
0.0
 10
6.066195218913818
 20
34.11495437937276
 30
0.0
 10
8.144637338285548
 20
28.22395955045106
 30
0.0
 10
10.24907318895596
 20
22.34233011812667
 30
0.0
  0
ARC
  5
561C
330
55FB
100
AcDbEntity
  8
0
100
AcDbCircle
 10
29.07999999999999
 20
29.08000000000001
 30
0.0
 40
20.0
100
AcDbArc
 50
199.6871130180827
 51
250.3128869819171
  0
ENDBLK
  5
55FD
330
55FB
100
AcDbEntity
  8
0
100
AcDbBlockEnd
  0
BLOCK
  5
561E
330
561D
100
AcDbEntity
  8
0
100
AcDbBlockBegin
  2
E9S_2.5-Right
 70
     0
 10
0.0
 20
0.0
 30
0.0
  3
E9S_2.5-Right
  1

  0
LINE
  5
5620
330
561D
100
AcDbEntity
  8
0
100
AcDbLine
 10
0.0
 20
94.0
 30
0.0
 11
-2.499999999999998
 21
94.0
 31
0.0
  0
LINE
  5
5621
330
561D
100
AcDbEntity
  8
0
100
AcDbLine
 10
-2.499999999999992
 20
7.499999999632133
 30
0.0
 11
-2.499999999999987
 21
24.49999999955112
 31
0.0
  0
LINE
  5
5622
330
561D
100
AcDbEntity
  8
0
100
AcDbLine
 10
-7.500000001000048
 20
0.0
 30
0.0
 11
-24.50000000099997
 21
0.0
 31
0.0
  0
SPLINE
  5
5623
330
561D
100
AcDbEntity
  8
0
100
AcDbSpline
210
0.0
220
0.0
230
1.0
 70
     8
 71
     3
 72
    11
 73
     7
 74
     0
 42
0.000000001
 43
0.0000000001
 40
0.0
 40
0.0
 40
0.0
 40
0.0
 40
0.8948926887914495
 40
0.8948926887914495
 40
0.8948926887914495
 40
1.0
 40
1.0
 40
1.0
 40
1.0
 10
0.0000000000000069
 20
7.499999999448217
 30
0.0
 10
-0.0000000002564092
 20
4.014715718136121
 30
0.0
 10
-2.819922971975769
 20
0.6729842974658398
 30
0.0
 10
-6.274467306533867
 20
0.1008061508536173
 30
0.0
 10
-6.680211895805788
 20
0.0336024433298454
 30
0.0
 10
-7.090644930845773
 20
-0.0000000000671106
 30
0.0
 10
-7.50000000100382
 20
0.0
 30
0.0
  0
LINE
  5
5624
330
561D
100
AcDbEntity
  8
0
100
AcDbLine
 10
0.0
 20
24.49999999955112
 30
0.0
 11
0.0
 21
7.499999999448199
 31
0.0
  0
LINE
  5
5625
330
561D
100
AcDbEntity
  8
0
100
AcDbLine
 10
-24.50000000099997
 20
2.499999999999998
 30
0.0
 11
-7.500000001000048
 21
2.5
 31
0.0
  0
LINE
  5
5626
330
561D
100
AcDbEntity
  8
0
100
AcDbLine
 10
-2.499999999999987
 20
24.49999999955112
 30
0.0
 11
0.0
 21
24.49999999955112
 31
0.0
  0
LINE
  5
5627
330
561D
100
AcDbEntity
  8
0
100
AcDbLine
 10
-2.499999999999992
 20
7.499999999632133
 30
0.0
 11
-1.399999998943471
 21
7.499999999551215
 31
0.0
  0
LINE
  5
5628
330
561D
100
AcDbEntity
  8
0
100
AcDbLine
 10
-1.399999998943471
 20
7.499999999551215
 30
0.0
 11
0.0
 21
7.499999999448199
 31
0.0
  0
SPLINE
  5
5629
330
561D
100
AcDbEntity
  8
0
100
AcDbSpline
210
0.0
220
0.0
230
1.0
 70
     8
 71
     3
 72
    11
 73
     7
 74
     0
 42
0.000000001
 43
0.0000000001
 40
-1.0
 40
-1.0
 40
-1.0
 40
-1.0
 40
-0.8948926887914495
 40
-0.8948926887914495
 40
-0.8948926887914495
 40
0.0
 40
0.0
 40
0.0
 40
0.0
 10
-7.500000000819704
 20
2.5
 30
0.0
 10
-7.227096620563846
 20
2.499999999955259
 30
0.0
 10
-6.95347459720385
 20
2.522401628886564
 30
0.0
 10
-6.682978204355912
 20
2.567204100569077
 30
0.0
 10
-4.379948647983928
 20
2.948656198310544
 30
0.0
 10
-2.500000000170937
 20
5.17647714542408
 30
0.0
 10
-2.499999999999992
 20
7.499999999632144
 30
0.0
  0
LINE
  5
562A
330
561D
100
AcDbEntity
  8
0
100
AcDbLine
 10
-7.500000001000048
 20
2.5
 30
0.0
 11
-7.500000001000048
 21
1.399999998938791
 31
0.0
  0
LINE
  5
562B
330
561D
100
AcDbEntity
  8
0
100
AcDbLine
 10
-7.500000001000048
 20
1.399999998938791
 30
0.0
 11
-7.500000001000048
 21
0.0
 31
0.0
  0
LINE
  5
562C
330
561D
100
AcDbEntity
  8
0
100
AcDbLine
 10
-24.50000000099997
 20
0.0
 30
0.0
 11
-24.50000000099997
 21
2.499999999999998
 31
0.0
  0
LINE
  5
562D
330
561D
100
AcDbEntity
  8
0
100
AcDbLine
 10
-2.499999999999998
 20
94.0
 30
0.0
 11
-2.499999999999987
 21
24.49999999955112
 31
0.0
  0
LINE
  5
562E
330
561D
100
AcDbEntity
  8
0
100
AcDbLine
 10
-152.5
 20
0.0
 30
0.0
 11
-24.50000000099997
 21
0.0
 31
0.0
  0
LINE
  5
562F
330
561D
100
AcDbEntity
  8
0
100
AcDbLine
 10
0.0
 20
24.49999999955112
 30
0.0
 11
0.0
 21
94.0
 31
0.0
  0
LINE
  5
5630
330
561D
100
AcDbEntity
  8
0
100
AcDbLine
 10
-24.50000000099997
 20
2.499999999999998
 30
0.0
 11
-152.5
 21
2.499999999999982
 31
0.0
  0
LINE
  5
5631
330
561D
100
AcDbEntity
  8
0
100
AcDbLine
 10
-152.5
 20
2.499999999999982
 30
0.0
 11
-152.5
 21
0.0
 31
0.0
  0
SPLINE
  5
5632
330
561D
100
AcDbEntity
  8
0
100
AcDbSpline
210
0.0
220
0.0
230
1.0
 70
     8
 71
     3
 72
    10
 73
     6
 74
     0
 42
0.000000001
 43
0.0000000001
 40
-0.1676853196454884
 40
-0.1676853196454884
 40
-0.1676853196454884
 40
-0.1676853196454884
 40
-0.0835328295563808
 40
-0.0835328295563808
 40
0.0
 40
0.0
 40
0.0
 40
0.0
 10
-40.90415319444485
 20
2.756530944296517
 30
0.0
 10
-40.95947770675831
 20
2.673322075412052
 30
0.0
 10
-41.01630438852935
 20
2.607974784060353
 30
0.0
 10
-41.13088628365914
 20
2.52113392029005
 30
0.0
 10
-41.18735987330232
 20
2.50000000000001
 30
0.0
 10
-41.24548300611511
 20
2.50000000000001
 30
0.0
  0
SPLINE
  5
5633
330
561D
100
AcDbEntity
  8
0
100
AcDbSpline
210
0.0
220
0.0
230
1.0
 70
     8
 71
     3
 72
    10
 73
     6
 74
     0
 42
0.000000001
 43
0.0000000001
 40
-0.2002449562418786
 40
-0.2002449562418786
 40
-0.2002449562418786
 40
-0.2002449562418786
 40
-0.0958426940544169
 40
-0.0958426940544169
 40
0.0
 40
0.0
 40
0.0
 40
0.0
 10
-40.52459380543463
 20
3.35907284749175
 30
0.0
 10
-40.58913603678543
 20
3.237112610876156
 30
0.0
 10
-40.65895575503228
 20
3.126108099635496
 30
0.0
 10
-40.7798045348812
 20
2.941464130327121
 30
0.0
 10
-40.84052675508136
 20
2.852226031866116
 30
0.0
 10
-40.90415319444485
 20
2.756530944296515
 30
0.0
  0
SPLINE
  5
5634
330
561D
100
AcDbEntity
  8
0
100
AcDbSpline
210
0.0
220
0.0
230
1.0
 70
     8
 71
     3
 72
    12
 73
     8
 74
     0
 42
0.000000001
 43
0.0000000001
 40
-0.1092148079344466
 40
-0.1092148079344466
 40
-0.1092148079344466
 40
-0.1092148079344466
 40
-0.0971438673808177
 40
-0.0971438673808177
 40
-0.0649614152609036
 40
-0.0649614152609036
 40
0.0
 40
0.0
 40
0.0
 40
0.0
 10
-40.01496868587501
 20
4.013868196508796
 30
0.0
 10
-40.04022564309643
 20
4.005082533777074
 30
0.0
 10
-40.06357231174084
 20
3.991076875741067
 30
0.0
 10
-40.14611882409872
 20
3.930707516503788
 30
0.0
 10
-40.20834129079414
 20
3.861142767880052
 30
0.0
 10
-40.3856704080757
 20
3.623601189548661
 30
0.0
 10
-40.48254575340087
 20
3.438527652011748
 30
0.0
 10
-40.52459380543463
 20
3.35907284749175
 30
0.0
  0
LINE
  5
5635
330
561D
100
AcDbEntity
  8
0
100
AcDbLine
 10
-20.0164142786043
 20
3.748435474346614
 30
0.0
 11
-19.56972643475191
 21
2.499999999999999
 31
0.0
  0
SPLINE
  5
5636
330
561D
100
AcDbEntity
  8
0
100
AcDbSpline
210
0.0
220
0.0
230
1.0
 70
     8
 71
     3
 72
     8
 73
     4
 74
     0
 42
0.000000001
 43
0.0000000001
 40
0.0
 40
0.0
 40
0.0
 40
0.0
 40
0.6086147172796263
 40
0.6086147172796263
 40
0.6086147172796263
 40
0.6086147172796263
 10
-45.90983004914374
 20
2.499999999875626
 30
0.0
 10
-43.89271613838968
 20
2.716654011892222
 30
0.0
 10
-41.93713426277468
 20
3.365048510582369
 30
0.0
 10
-40.014968685875
 20
4.013868196508783
 30
0.0
  0
SPLINE
  5
5637
330
561D
100
AcDbEntity
  8
0
100
AcDbSpline
210
0.0
220
0.0
230
1.0
 70
     8
 71
     3
 72
     8
 73
     4
 74
     0
 42
0.000000001
 43
0.0000000001
 40
0.0
 40
0.0
 40
0.0
 40
0.0
 40
1.874032911248104
 40
1.874032911248104
 40
1.874032911248104
 40
1.874032911248104
 10
-40.01496868587501
 20
4.013868196508793
 30
0.0
 10
-34.11495437912386
 20
6.066195219001636
 30
0.0
 10
-28.22395955032681
 20
8.14463733833001
 30
0.0
 10
-22.34233011812667
 20
10.24907318895596
 30
0.0
  0
SPLINE
  5
5638
330
561D
100
AcDbEntity
  8
0
100
AcDbSpline
210
0.0
220
0.0
230
1.0
 70
     8
 71
     3
 72
    10
 73
     6
 74
     0
 42
0.000000001
 43
0.0000000001
 40
-0.4464626283457165
 40
-0.4464626283457165
 40
-0.4464626283457165
 40
-0.4464626283457165
 40
-0.1039521030004597
 40
-0.1039521030004597
 40
-0.0554704935954795
 40
-0.0554704935954795
 40
-0.0554704935954795
 40
-0.0554704935954795
 10
-3.359072847491742
 20
40.52459380543461
 30
0.0
 10
-3.457503870598132
 20
40.47250340251539
 30
0.0
 10
-3.825875520734332
 20
40.27934192084174
 30
0.0
 10
-3.988008452423911
 20
40.06892552019687
 30
0.0
 10
-4.004194579655449
 20
40.04277832693476
 30
0.0
 10
-4.013868196508787
 20
40.01496868587501
 30
0.0
  0
SPLINE
  5
5639
330
561D
100
AcDbEntity
  8
0
100
AcDbSpline
210
0.0
220
0.0
230
1.0
 70
     8
 71
     3
 72
    10
 73
     6
 74
     0
 42
0.000000001
 43
0.0000000001
 40
-0.1912355673579826
 40
-0.1912355673579826
 40
-0.1912355673579826
 40
-0.1912355673579826
 40
-0.0996388958989757
 40
-0.0996388958989757
 40
0.0
 40
0.0
 40
0.0
 40
0.0
 10
-2.756530944296505
 20
40.90415319444485
 30
0.0
 10
-2.852315099670788
 20
40.84046753503759
 30
0.0
 10
-2.941617262292063
 20
40.7797001326736
 30
0.0
 10
-3.126292500237584
 20
40.65883962172043
 30
0.0
 10
-3.237203750821887
 20
40.58908780487292
 30
0.0
 10
-3.359072847491741
 20
40.52459380543463
 30
0.0
  0
SPLINE
  5
563A
330
561D
100
AcDbEntity
  8
0
100
AcDbSpline
210
0.0
220
0.0
230
1.0
 70
     8
 71
     3
 72
    10
 73
     6
 74
     0
 42
0.000000001
 43
0.0000000001
 40
-0.166061894379557
 40
-0.166061894379557
 40
-0.166061894379557
 40
-0.166061894379557
 40
-0.0832954138001302
 40
-0.0832954138001302
 40
0.0
 40
0.0
 40
0.0
 40
0.0
 10
-2.499999999999999
 20
41.24548300611511
 30
0.0
 10
-2.499999999999999
 20
41.18732959858134
 30
0.0
 10
-2.521155942164721
 20
41.13082800388158
 30
0.0
 10
-2.608040281579309
 20
41.01624742250464
 30
0.0
 10
-2.673363813025928
 20
40.95944995595284
 30
0.0
 10
-2.756530944296506
 20
40.90415319444485
 30
0.0
  0
SPLINE
  5
563B
330
561D
100
AcDbEntity
  8
0
100
AcDbSpline
210
0.0
220
0.0
230
1.0
 70
     8
 71
     3
 72
    10
 73
     6
 74
     0
 42
0.000000001
 43
0.0000000001
 40
0.0
 40
0.0
 40
0.0
 40
0.0
 40
0.2769851189184387
 40
0.2769851189184387
 40
0.6101631605867216
 40
0.6101631605867216
 40
0.6101631605867216
 40
0.6101631605867216
 10
-4.013868196508775
 20
40.01496868587501
 30
0.0
 10
-3.718585495054831
 20
40.88976064502816
 30
0.0
 10
-3.370695543178456
 20
41.7478829833239
 30
0.0
 10
-2.812969686473879
 20
43.70379666787095
 30
0.0
 10
-2.618604360555149
 20
44.80558783559724
 30
0.0
 10
-2.499999999875429
 20
45.90983004914549
 30
0.0
  0
LINE
  5
563C
330
561D
100
AcDbEntity
  8
0
100
AcDbLine
 10
-2.499999999999998
 20
19.56972643475194
 30
0.0
 11
-3.748435474346614
 21
20.01641427860432
 31
0.0
  0
SPLINE
  5
563D
330
561D
100
AcDbEntity
  8
0
100
AcDbSpline
210
0.0
220
0.0
230
1.0
 70
     8
 71
     3
 72
     8
 73
     4
 74
     0
 42
0.000000001
 43
0.0000000001
 40
0.0
 40
0.0
 40
0.0
 40
0.0
 40
1.874032911248104
 40
1.874032911248104
 40
1.874032911248104
 40
1.874032911248104
 10
-10.24907318895596
 20
22.34233011812667
 30
0.0
 10
-8.144637338330003
 20
28.22395955032681
 30
0.0
 10
-6.066195219001631
 20
34.11495437912385
 30
0.0
 10
-4.013868196508784
 20
40.01496868587501
 30
0.0
  0
ARC
  5
563E
330
561D
100
AcDbEntity
  8
0
100
AcDbCircle
 10
-29.07999999999999
 20
29.08000000000001
 30
0.0
 40
20.0
100
AcDbArc
 50
289.6871130180827
 51
340.3128869819171
  0
ENDBLK
  5
561F
330
561D
100
AcDbEntity
  8
0
100
AcDbBlockEnd
  0
BLOCK
  5
5640
330
563F
100
AcDbEntity
  8
0
100
AcDbBlockBegin
  2
E9S_2.5-Top
 70
     0
 10
0.0
 20
0.0
 30
0.0
  3
E9S_2.5-Top
  1

  0
LINE
  5
5642
330
563F
100
AcDbEntity
  8
0
100
AcDbLine
 10
32.49999999999999
 20
-2.499999999999999
 30
0.0
 11
-32.50000000000002
 21
-2.500000000000013
 31
0.0
  0
LINE
  5
5643
330
563F
100
AcDbEntity
  8
0
100
AcDbLine
 10
32.49999999999998
 20
0.0
 30
0.0
 11
32.49999999999999
 21
-2.499999999999999
 31
0.0
  0
LINE
  5
5644
330
563F
100
AcDbEntity
  8
0
100
AcDbLine
 10
-32.50000000000002
 20
0.0
 30
0.0
 11
32.49999999999998
 21
0.0
 31
0.0
  0
LINE
  5
5645
330
563F
100
AcDbEntity
  8
0
100
AcDbLine
 10
-32.50000000000002
 20
-2.500000000000013
 30
0.0
 11
-32.50000000000002
 21
0.0
 31
0.0
  0
LINE
  5
5646
330
563F
100
AcDbEntity
  8
0
100
AcDbLine
 10
-2.387610421053796
 20
-40.52459380543463
 30
0.0
 11
0.0
 21
-40.01496868587501
 31
0.0
  0
LINE
  5
5647
330
563F
100
AcDbEntity
  8
0
100
AcDbLine
 10
-4.165858623168959
 20
-40.90415319444485
 30
0.0
 11
-2.387610421053789
 21
-40.52459380543462
 31
0.0
  0
LINE
  5
5648
330
563F
100
AcDbEntity
  8
0
100
AcDbLine
 10
-5.764999999999997
 20
-41.2454830061151
 30
0.0
 11
-4.165858623168959
 21
-40.90415319444484
 31
0.0
  0
ARC
  5
5649
330
563F
100
AcDbEntity
  8
0
100
AcDbCircle
 10
-0.000000000000008
 20
-40.01496868587501
 30
0.0
 40
5.894861363282086
100
AcDbArc
 50
192.048731552068
 51
347.951268447932
  0
LINE
  5
564A
330
563F
100
AcDbEntity
  8
0
100
AcDbLine
 10
4.165858623168946
 20
-40.90415319444485
 30
0.0
 11
5.764999999999989
 21
-41.24548300611511
 31
0.0
  0
LINE
  5
564B
330
563F
100
AcDbEntity
  8
0
100
AcDbLine
 10
2.387610421053773
 20
-40.52459380543463
 30
0.0
 11
4.165858623168944
 21
-40.90415319444486
 31
0.0
  0
LINE
  5
564C
330
563F
100
AcDbEntity
  8
0
100
AcDbLine
 10
0.0
 20
-40.01496868587501
 30
0.0
 11
2.387610421053774
 21
-40.52459380543463
 31
0.0
  0
LINE
  5
564D
330
563F
100
AcDbEntity
  8
0
100
AcDbLine
 10
10.39159650704248
 20
-19.56972643475262
 30
0.0
 11
5.764999999999994
 21
-41.24548300611511
 31
0.0
  0
SPLINE
  5
564E
330
563F
100
AcDbEntity
  8
0
100
AcDbSpline
210
0.0
220
0.0
230
1.0
 70
     8
 71
     3
 72
    12
 73
     8
 74
     0
 42
0.000000001
 43
0.0000000001
 40
0.0
 40
0.0
 40
0.0
 40
0.0
 40
0.1243285560962474
 40
0.1243285560962474
 40
0.2081435426481914
 40
0.2081435426481914
 40
0.2905570300988916
 40
0.2905570300988916
 40
0.2905570300988916
 40
0.2905570300988916
 10
7.937464828588965
 20
-20.0164142786043
 30
0.0
 10
8.174100666106404
 20
-19.90179738472576
 30
0.0
 10
8.47593267560782
 20
-19.80334819465792
 30
0.0
 10
9.05971623660112
 20
-19.67729858918186
 30
0.0
 10
9.314501789291572
 20
-19.63742101484831
 30
0.0
 10
9.844561176536096
 20
-19.58373786067347
 30
0.0
 10
10.11734477833394
 20
-19.56972643475191
 30
0.0
 10
10.39159650704267
 20
-19.56972643475191
 30
0.0
  0
SPLINE
  5
564F
330
563F
100
AcDbEntity
  8
0
100
AcDbSpline
210
0.0
220
0.0
230
1.0
 70
     8
 71
     3
 72
    12
 73
     8
 74
     0
 42
0.000000001
 43
0.0000000001
 40
0.0
 40
0.0
 40
0.0
 40
0.0
 40
0.1071924998403328
 40
0.1071924998403328
 40
0.1983440260170466
 40
0.1983440260170466
 40
0.2899837002212135
 40
0.2899837002212135
 40
0.2899837002212135
 40
0.2899837002212135
 10
-10.3915965070427
 20
-19.56972643475191
 30
0.0
 10
-10.03428817424159
 20
-19.56972643475191
 30
0.0
 10
-9.680167718434322
 20
-19.59348946131161
 30
0.0
 10
-9.064485486527345
 20
-19.67542422956785
 30
0.0
 10
-8.799743626862323
 20
-19.72753820722211
 30
0.0
 10
-8.322741417315768
 20
-19.85584377300619
 30
0.0
 10
-8.1122274945415
 20
-19.93176626354643
 30
0.0
 10
-7.937464828588998
 20
-20.0164142786043
 30
0.0
  0
LINE
  5
5650
330
563F
100
AcDbEntity
  8
0
100
AcDbLine
 10
-5.765000000000009
 20
-41.24548300611511
 30
0.0
 11
-10.3915965070427
 21
-19.56972643475193
 31
0.0
  0
SPLINE
  5
5651
330
563F
100
AcDbEntity
  8
0
100
AcDbSpline
210
0.0
220
0.0
230
1.0
 70
     8
 71
     3
 72
    12
 73
     8
 74
     0
 42
0.000000001
 43
0.0000000001
 40
-0.1092148079344782
 40
-0.1092148079344782
 40
-0.1092148079344782
 40
-0.1092148079344782
 40
-0.0971438673808425
 40
-0.0971438673808425
 40
-0.0649614152609135
 40
-0.0649614152609135
 40
0.0
 40
0.0
 40
0.0
 40
0.0
 10
-0.000000000000016
 20
-4.013868196508787
 30
0.0
 10
-0.118329674012279
 20
-4.005082533777065
 30
0.0
 10
-0.2277095833728024
 20
-3.991076875741058
 30
0.0
 10
-0.6144427045690727
 20
-3.930707516503785
 30
0.0
 10
-0.9059570043370406
 20
-3.861142767880077
 30
0.0
 10
-1.736749742229544
 20
-3.623601189548663
 30
0.0
 10
-2.190613916431754
 20
-3.438527652011758
 30
0.0
 10
-2.387610421053804
 20
-3.359072847491742
 30
0.0
  0
SPLINE
  5
5652
330
563F
100
AcDbEntity
  8
0
100
AcDbSpline
210
0.0
220
0.0
230
1.0
 70
     8
 71
     3
 72
    10
 73
     6
 74
     0
 42
0.000000001
 43
0.0000000001
 40
-0.4464626283457165
 40
-0.4464626283457165
 40
-0.4464626283457165
 40
-0.4464626283457165
 40
-0.1039521030004597
 40
-0.1039521030004597
 40
-0.0554704935954795
 40
-0.0554704935954795
 40
-0.0554704935954795
 40
-0.0554704935954795
 10
2.38761042105377
 20
-3.359072847491742
 30
0.0
 10
2.143565172746
 20
-3.457503870598132
 30
0.0
 10
1.238597287753922
 20
-3.825875520734332
 30
0.0
 10
0.2527895407291005
 20
-3.988008452423911
 30
0.0
 10
0.1302890816240898
 20
-4.004194579655449
 30
0.0
 10
-0.000000000000016
 20
-4.013868196508787
 30
0.0
  0
SPLINE
  5
5653
330
563F
100
AcDbEntity
  8
0
100
AcDbSpline
210
0.0
220
0.0
230
1.0
 70
     8
 71
     3
 72
    10
 73
     6
 74
     0
 42
0.000000001
 43
0.0000000001
 40
-0.1912355673579826
 40
-0.1912355673579826
 40
-0.1912355673579826
 40
-0.1912355673579826
 40
-0.0996388958989757
 40
-0.0996388958989757
 40
0.0
 40
0.0
 40
0.0
 40
0.0
 10
4.165858623168935
 20
-2.756530944296505
 30
0.0
 10
3.867489217430374
 20
-2.852315099670788
 30
0.0
 10
3.582791941774059
 20
-2.941617262292064
 30
0.0
 10
3.016556478940002
 20
-3.126292500237584
 30
0.0
 10
2.689766926383306
 20
-3.237203750821887
 30
0.0
 10
2.387610421053765
 20
-3.359072847491741
 30
0.0
  0
SPLINE
  5
5654
330
563F
100
AcDbEntity
  8
0
100
AcDbSpline
210
0.0
220
0.0
230
1.0
 70
     8
 71
     3
 72
    10
 73
     6
 74
     0
 42
0.000000001
 43
0.0000000001
 40
-0.166061894379557
 40
-0.166061894379557
 40
-0.166061894379557
 40
-0.166061894379557
 40
-0.0832954138001302
 40
-0.0832954138001302
 40
0.0
 40
0.0
 40
0.0
 40
0.0
 10
5.764999999999982
 20
-2.499999999999999
 30
0.0
 10
5.492549375965936
 20
-2.5
 30
0.0
 10
5.227837549304272
 20
-2.521155942164721
 30
0.0
 10
4.691023762765683
 20
-2.608040281579309
 30
0.0
 10
4.424925766760892
 20
-2.673363813025928
 30
0.0
 10
4.165858623168938
 20
-2.756530944296506
 30
0.0
  0
SPLINE
  5
5655
330
563F
100
AcDbEntity
  8
0
100
AcDbSpline
210
0.0
220
0.0
230
1.0
 70
     8
 71
     3
 72
    10
 73
     6
 74
     0
 42
0.000000001
 43
0.0000000001
 40
-0.1676850919280784
 40
-0.1676850919280784
 40
-0.1676850919280784
 40
-0.1676850919280784
 40
-0.0835329193522998
 40
-0.0835329193522998
 40
0.0
 40
0.0
 40
0.0
 40
0.0
 10
-4.165858623168967
 20
-2.756530944296482
 30
0.0
 10
-4.425056038752294
 20
-2.673321965970417
 30
0.0
 10
-4.691291221473999
 20
-2.607974705970947
 30
0.0
 10
-5.228109380017025
 20
-2.521133965727046
 30
0.0
 10
-5.492690921302191
 20
-2.500000000000002
 30
0.0
 10
-5.765000000000006
 20
-2.500000000000002
 30
0.0
  0
SPLINE
  5
5656
330
563F
100
AcDbEntity
  8
0
100
AcDbSpline
210
0.0
220
0.0
230
1.0
 70
     8
 71
     3
 72
    10
 73
     6
 74
     0
 42
0.000000001
 43
0.0000000001
 40
-0.2002449434725946
 40
-0.2002449434725946
 40
-0.2002449434725946
 40
-0.2002449434725946
 40
-0.0958426888579099
 40
-0.0958426888579099
 40
0.0
 40
0.0
 40
0.0
 40
0.0
 10
-2.387610421053797
 20
-3.359072847491741
 30
0.0
 10
-2.68999287492716
 20
-3.237112618761361
 30
0.0
 10
-3.017100679103168
 20
-3.126108088297005
 30
0.0
 10
-3.583280926833106
 20
-2.941464213249496
 30
0.0
 10
-3.867766689940546
 20
-2.852226054355187
 30
0.0
 10
-4.165858623168967
 20
-2.75653094429648
 30
0.0
  0
SPLINE
  5
5657
330
563F
100
AcDbEntity
  8
0
100
AcDbSpline
210
0.0
220
0.0
230
1.0
 70
     8
 71
     3
 72
    12
 73
     8
 74
     0
 42
0.000000001
 43
0.0000000001
 40
0.0
 40
0.0
 40
0.0
 40
0.0
 40
0.1243285561162358
 40
0.1243285561162358
 40
0.2081435427040438
 40
0.2081435427040438
 40
0.2905570301017684
 40
0.2905570301017684
 40
0.2905570301017684
 40
0.2905570301017684
 10
-7.937464828588989
 20
-3.74843547434661
 30
0.0
 10
-8.174100666144472
 20
-3.428095894325095
 30
0.0
 10
-8.475932675706188
 20
-3.152942981783854
 30
0.0
 10
-9.059716236883371
 20
-2.8006504329795
 30
0.0
 10
-9.314501789692757
 20
-2.689197705524201
 30
0.0
 10
-9.84456117689956
 20
-2.539160145920292
 30
0.0
 10
-10.11734477851713
 20
-2.500000000000003
 30
0.0
 10
-10.39159650704269
 20
-2.500000000000003
 30
0.0
  0
SPLINE
  5
5658
330
563F
100
AcDbEntity
  8
0
100
AcDbSpline
210
0.0
220
0.0
230
1.0
 70
     8
 71
     3
 72
    12
 73
     8
 74
     0
 42
0.000000001
 43
0.0000000001
 40
0.0
 40
0.0
 40
0.0
 40
0.0
 40
0.1071924999187088
 40
0.1071924999187088
 40
0.1983440260468834
 40
0.1983440260468834
 40
0.2899837002222282
 40
0.2899837002222282
 40
0.2899837002222282
 40
0.2899837002222282
 10
10.39159650704265
 20
-2.499999999999999
 30
0.0
 10
10.03428817398029
 20
-2.499999999999999
 30
0.0
 10
9.680167717918525
 20
-2.56641462435272
 30
0.0
 10
9.064485485985812
 20
-2.795411837425891
 30
0.0
 10
8.79974362649184
 20
-2.941063749178094
 30
0.0
 10
8.322741417182918
 20
-3.299661418749675
 30
0.0
 10
8.112227494486319
 20
-3.511855083247242
 30
0.0
 10
7.937464828588951
 20
-3.748435474346613
 30
0.0
  0
SPLINE
  5
5659
330
563F
100
AcDbEntity
  8
0
100
AcDbSpline
210
0.0
220
0.0
230
1.0
 70
     8
 71
     3
 72
    11
 73
     7
 74
     0
 42
0.000000001
 43
0.0000000001
 40
0.6251820388436192
 40
0.6251820388436192
 40
0.6251820388436192
 40
0.6251820388436192
 40
0.8948926887914495
 40
0.8948926887914495
 40
0.8948926887914495
 40
1.0
 40
1.0
 40
1.0
 40
1.0
 10
29.45444335578806
 20
-3.383748504796789
 30
0.0
 10
29.48831857544885
 20
-4.249791208235699
 30
0.0
 10
29.55874841856553
 20
-5.233306271901261
 30
0.0
 10
29.665784048035
 20
-6.274467306533867
 30
0.0
 10
29.7074962578392
 20
-6.680211895805788
 30
0.0
 10
29.75473166251724
 20
-7.090644930845773
 30
0.0
 10
29.80746451445361
 20
-7.50000000100382
 30
0.0
  0
SPLINE
  5
565A
330
563F
100
AcDbEntity
  8
0
100
AcDbSpline
210
0.0
220
0.0
230
1.0
 70
     8
 71
     3
 72
     8
 73
     4
 74
     0
 42
0.000000001
 43
0.0000000001
 40
0.0
 40
0.0
 40
0.0
 40
0.0
 40
0.3748179611563744
 40
0.3748179611563744
 40
0.3748179611563744
 40
0.3748179611563744
 10
-29.80746451445381
 20
-7.500000001003747
 30
0.0
 10
-29.6194165106457
 20
-6.040219219855584
 30
0.0
 10
-29.5017365766586
 20
-4.605621627231148
 30
0.0
 10
-29.45456202877194
 20
-3.38915647203137
 30
0.0
  0
LINE
  5
565B
330
563F
100
AcDbEntity
  8
0
100
AcDbLine
 10
-29.80746451448291
 20
-7.500000000999998
 30
0.0
 11
-32.50000000000002
 21
-24.50000000099998
 31
0.0
  0
LINE
  5
565C
330
563F
100
AcDbEntity
  8
0
100
AcDbLine
 10
32.49999999999999
 20
-24.50000000099997
 30
0.0
 11
29.80746451448288
 21
-7.500000001000048
 31
0.0
  0
SPLINE
  5
565D
330
563F
100
AcDbEntity
  8
0
100
AcDbSpline
210
0.0
220
0.0
230
1.0
 70
     8
 71
     3
 72
    11
 73
     7
 74
     0
 42
0.000000001
 43
0.0000000001
 40
-1.0
 40
-1.0
 40
-1.0
 40
-1.0
 40
-0.8948926887967024
 40
-0.8948926887967024
 40
-0.8948926887967024
 40
0.0
 40
0.0
 40
0.0
 40
0.0
 10
-29.80746451448287
 20
-2.500000000000006
 30
0.0
 10
-29.7547316625201
 20
-2.500000000020087
 30
0.0
 10
-29.70749625784408
 20
-2.522401629014139
 30
0.0
 10
-29.66578404804144
 20
-2.567204100756428
 30
0.0
 10
-29.3106427057447
 20
-2.948656199028137
 30
0.0
 10
-29.3584924768505
 20
-5.176477146596866
 30
0.0
 10
-29.80746451448289
 20
-7.500000000819668
 30
0.0
  0
SPLINE
  5
565E
330
563F
100
AcDbEntity
  8
0
100
AcDbSpline
210
0.0
220
0.0
230
1.0
 70
     8
 71
     3
 72
    11
 73
     7
 74
     0
 42
0.000000001
 43
0.0000000001
 40
-1.0
 40
-1.0
 40
-1.0
 40
-1.0
 40
-0.8948926887914495
 40
-0.8948926887914495
 40
-0.8948926887914495
 40
0.0
 40
0.0
 40
0.0
 40
0.0
 10
29.80746451448271
 20
-7.500000000819704
 30
0.0
 10
29.75473166251724
 20
-7.227096620563846
 30
0.0
 10
29.70749625783922
 20
-6.95347459720385
 30
0.0
 10
29.66578404803499
 20
-6.682978204355912
 30
0.0
 10
29.31064270574455
 20
-4.379948647983928
 30
0.0
 10
29.358492476854
 20
-2.500000000170937
 30
0.0
 10
29.80746451448267
 20
-2.499999999999993
 30
0.0
  0
LINE
  5
565F
330
563F
100
AcDbEntity
  8
0
100
AcDbLine
 10
-32.50000000000002
 20
-24.50000000099998
 30
0.0
 11
-32.49999999999999
 21
-152.5
 31
0.0
  0
LINE
  5
5660
330
563F
100
AcDbEntity
  8
0
100
AcDbLine
 10
-32.49999999999999
 20
-152.5
 30
0.0
 11
32.50000000000002
 21
-152.5
 31
0.0
  0
LINE
  5
5661
330
563F
100
AcDbEntity
  8
0
100
AcDbLine
 10
32.49999999999999
 20
-24.50000000099997
 30
0.0
 11
32.50000000000002
 21
-152.5
 31
0.0
  0
CIRCLE
  5
5662
330
563F
100
AcDbEntity
  8
0
100
AcDbCircle
 10
0.0000000000000136
 20
-137.5
 30
0.0
 40
5.5
  0
ARC
  5
5663
330
563F
100
AcDbEntity
  8
0
100
AcDbCircle
 10
-0.0000000000000047
 20
-55.0
 30
0.0
 40
5.5
100
AcDbArc
 50
0.0
 51
180.0
  0
LINE
  5
5664
330
563F
100
AcDbEntity
  8
0
100
AcDbLine
 10
5.499999999999993
 20
-55.0
 30
0.0
 11
5.500000000000012
 21
-78.0
 31
0.0
  0
ARC
  5
5665
330
563F
100
AcDbEntity
  8
0
100
AcDbCircle
 10
0.0000000000000004
 20
-78.0
 30
0.0
 40
5.5
100
AcDbArc
 50
180.0
 51
0.0
  0
LINE
  5
5666
330
563F
100
AcDbEntity
  8
0
100
AcDbLine
 10
-5.499999999999997
 20
-78.0
 30
0.0
 11
-5.500000000000002
 21
-55.0
 31
0.0
  0
CIRCLE
  5
5667
330
563F
100
AcDbEntity
  8
0
100
AcDbCircle
 10
-19.99999999999998
 20
-142.5
 30
0.0
 40
2.5
  0
CIRCLE
  5
5668
330
563F
100
AcDbEntity
  8
0
100
AcDbCircle
 10
-20.0
 20
-82.5
 30
0.0
 40
2.5
  0
CIRCLE
  5
5669
330
563F
100
AcDbEntity
  8
0
100
AcDbCircle
 10
-20.00000000000001
 20
-42.5
 30
0.0
 40
2.5
  0
CIRCLE
  5
566A
330
563F
100
AcDbEntity
  8
0
100
AcDbCircle
 10
-9.999999999999989
 20
-122.5
 30
0.0
 40
2.5
  0
CIRCLE
  5
566B
330
563F
100
AcDbEntity
  8
0
100
AcDbCircle
 10
10.00000000000001
 20
-122.5
 30
0.0
 40
2.5
  0
CIRCLE
  5
566C
330
563F
100
AcDbEntity
  8
0
100
AcDbCircle
 10
20.0
 20
-82.5
 30
0.0
 40
2.5
  0
CIRCLE
  5
566D
330
563F
100
AcDbEntity
  8
0
100
AcDbCircle
 10
19.99999999999999
 20
-42.5
 30
0.0
 40
2.5
  0
CIRCLE
  5
566E
330
563F
100
AcDbEntity
  8
0
100
AcDbCircle
 10
19.99999999999998
 20
-22.5
 30
0.0
 40
2.5
  0
CIRCLE
  5
566F
330
563F
100
AcDbEntity
  8
0
100
AcDbCircle
 10
20.0
 20
-62.5
 30
0.0
 40
2.5
  0
CIRCLE
  5
5670
330
563F
100
AcDbEntity
  8
0
100
AcDbCircle
 10
20.0
 20
-102.5
 30
0.0
 40
2.5
  0
CIRCLE
  5
5671
330
563F
100
AcDbEntity
  8
0
100
AcDbCircle
 10
20.00000000000001
 20
-142.5
 30
0.0
 40
2.5
  0
CIRCLE
  5
5672
330
563F
100
AcDbEntity
  8
0
100
AcDbCircle
 10
-20.00000000000001
 20
-22.5
 30
0.0
 40
2.5
  0
CIRCLE
  5
5673
330
563F
100
AcDbEntity
  8
0
100
AcDbCircle
 10
-20.0
 20
-62.5
 30
0.0
 40
2.5
  0
CIRCLE
  5
5674
330
563F
100
AcDbEntity
  8
0
100
AcDbCircle
 10
-20.0
 20
-102.5
 30
0.0
 40
2.5
  0
ENDBLK
  5
5641
330
563F
100
AcDbEntity
  8
0
100
AcDbBlockEnd
  0
BLOCK
  5
5676
330
5675
100
AcDbEntity
  8
0
100
AcDbBlockBegin
  2
E9S_2.5-Bottom
 70
     0
 10
0.0
 20
0.0
 30
0.0
  3
E9S_2.5-Bottom
  1

  0
LINE
  5
5678
330
5675
100
AcDbEntity
  8
0
100
AcDbLine
 10
-32.50000000000002
 20
2.500000000000002
 30
0.0
 11
-29.80746451448294
 21
2.500000000000006
 31
0.0
  0
LINE
  5
5679
330
5675
100
AcDbEntity
  8
0
100
AcDbLine
 10
29.80746451448289
 20
2.499999999999993
 30
0.0
 11
32.49999999999999
 21
2.499999999999988
 31
0.0
  0
LINE
  5
567A
330
5675
100
AcDbEntity
  8
0
100
AcDbLine
 10
-32.50000000000002
 20
0.0
 30
0.0
 11
-32.50000000000002
 21
2.500000000000002
 31
0.0
  0
LINE
  5
567B
330
5675
100
AcDbEntity
  8
0
100
AcDbLine
 10
-32.50000000000002
 20
24.50000000099998
 30
0.0
 11
-29.80746451448291
 21
7.500000000999998
 31
0.0
  0
LINE
  5
567C
330
5675
100
AcDbEntity
  8
0
100
AcDbLine
 10
29.80746451448288
 20
7.500000001000048
 30
0.0
 11
32.49999999999999
 21
24.50000000099997
 31
0.0
  0
SPLINE
  5
567D
330
5675
100
AcDbEntity
  8
0
100
AcDbSpline
210
0.0
220
0.0
230
1.0
 70
     8
 71
     3
 72
    11
 73
     7
 74
     0
 42
0.000000001
 43
0.0000000001
 40
0.0
 40
0.0
 40
0.0
 40
0.0
 40
0.8948926887914495
 40
0.8948926887914495
 40
0.8948926887914495
 40
1.0
 40
1.0
 40
1.0
 40
1.0
 10
29.80746451448267
 20
-0.0000000000000066
 30
0.0
 10
29.358492476854
 20
0.0000000002564095
 30
0.0
 10
29.31064270574484
 20
2.819922971975769
 30
0.0
 10
29.665784048035
 20
6.274467306533867
 30
0.0
 10
29.7074962578392
 20
6.680211895805788
 30
0.0
 10
29.75473166251724
 20
7.090644930845773
 30
0.0
 10
29.80746451445361
 20
7.50000000100382
 30
0.0
  0
LINE
  5
567E
330
5675
100
AcDbEntity
  8
0
100
AcDbLine
 10
32.49999999999999
 20
0.0
 30
0.0
 11
29.80746451448289
 21
0.0
 31
0.0
  0
LINE
  5
567F
330
5675
100
AcDbEntity
  8
0
100
AcDbLine
 10
-29.80746451448294
 20
0.0
 30
0.0
 11
-32.50000000000002
 21
0.0
 31
0.0
  0
SPLINE
  5
5680
330
5675
100
AcDbEntity
  8
0
100
AcDbSpline
210
0.0
220
0.0
230
1.0
 70
     8
 71
     3
 72
    11
 73
     7
 74
     0
 42
0.000000001
 43
0.0000000001
 40
0.0
 40
0.0
 40
0.0
 40
0.0
 40
0.8948926887967029
 40
0.8948926887967029
 40
0.8948926887967029
 40
1.0
 40
1.0
 40
1.0
 40
1.0
 10
-29.80746451445381
 20
7.500000001003747
 30
0.0
 10
-29.3584924768505
 20
4.014715719895295
 30
0.0
 10
-29.31064270574469
 20
0.6729842985421819
 30
0.0
 10
-29.66578404804144
 20
0.1008061511346391
 30
0.0
 10
-29.70749625784409
 20
0.0336024435212084
 30
0.0
 10
-29.7547316625201
 20
0.0000000000301286
 30
0.0
 10
-29.80746451448287
 20
0.0000000000000066
 30
0.0
  0
SPLINE
  5
5681
330
5675
100
AcDbEntity
  8
0
100
AcDbSpline
210
0.0
220
0.0
230
1.0
 70
     8
 71
     3
 72
    11
 73
     7
 74
     0
 42
0.000000001
 43
0.0000000001
 40
-1.0
 40
-1.0
 40
-1.0
 40
-1.0
 40
-0.8948926887967024
 40
-0.8948926887967024
 40
-0.8948926887967024
 40
-0.6251820388436162
 40
-0.6251820388436162
 40
-0.6251820388436162
 40
-0.6251820388436162
 10
-29.80746451448287
 20
2.500000000000006
 30
0.0
 10
-29.7547316625201
 20
2.500000000020087
 30
0.0
 10
-29.70749625784408
 20
2.522401629014139
 30
0.0
 10
-29.66578404804144
 20
2.567204100756428
 30
0.0
 10
-29.55874841856852
 20
2.682169497880377
 30
0.0
 10
-29.4883185754497
 20
2.964850215219563
 30
0.0
 10
-29.45444335578815
 20
3.367318734867335
 30
0.0
  0
LINE
  5
5682
330
5675
100
AcDbEntity
  8
0
100
AcDbLine
 10
-29.80746451448294
 20
0.0
 30
0.0
 11
-29.80746451448287
 21
1.399999998944702
 31
0.0
  0
LINE
  5
5683
330
5675
100
AcDbEntity
  8
0
100
AcDbLine
 10
-29.80746451448287
 20
1.399999998944702
 30
0.0
 11
-29.80746451448294
 21
2.500000000000006
 31
0.0
  0
LINE
  5
5684
330
5675
100
AcDbEntity
  8
0
100
AcDbLine
 10
32.49999999999999
 20
2.499999999999988
 30
0.0
 11
32.49999999999999
 21
0.0
 31
0.0
  0
LINE
  5
5685
330
5675
100
AcDbEntity
  8
0
100
AcDbLine
 10
29.80746451448289
 20
2.499999999999993
 30
0.0
 11
29.80746451448267
 21
1.399999998943471
 31
0.0
  0
LINE
  5
5686
330
5675
100
AcDbEntity
  8
0
100
AcDbLine
 10
29.80746451448267
 20
1.399999998943471
 30
0.0
 11
29.80746451448289
 21
0.0
 31
0.0
  0
SPLINE
  5
5687
330
5675
100
AcDbEntity
  8
0
100
AcDbSpline
210
0.0
220
0.0
230
1.0
 70
     8
 71
     3
 72
     8
 73
     4
 74
     0
 42
0.000000001
 43
0.0000000001
 40
-0.3748179611563819
 40
-0.3748179611563819
 40
-0.3748179611563819
 40
-0.3748179611563819
 40
0.0
 40
0.0
 40
0.0
 40
0.0
 10
29.45456202877775
 20
3.382341290524361
 30
0.0
 10
29.50173657666864
 20
2.829795598013814
 30
0.0
 10
29.61941651066283
 20
2.500000000071591
 30
0.0
 10
29.80746451448267
 20
2.499999999999993
 30
0.0
  0
LINE
  5
5688
330
5675
100
AcDbEntity
  8
0
100
AcDbLine
 10
-3.441180981989864
 20
40.74947388568013
 30
0.0
 11
-5.764999999999997
 21
41.24548300611511
 31
0.0
  0
LINE
  5
5689
330
5675
100
AcDbEntity
  8
0
100
AcDbLine
 10
-1.623752930610101
 20
40.36155172727094
 30
0.0
 11
-3.441180981993852
 21
40.74947388568098
 31
0.0
  0
LINE
  5
568A
330
5675
100
AcDbEntity
  8
0
100
AcDbLine
 10
0.0
 20
40.01496868587501
 30
0.0
 11
-1.623752930610101
 21
40.36155172727095
 31
0.0
  0
LINE
  5
568B
330
5675
100
AcDbEntity
  8
0
100
AcDbLine
 10
1.623752930610084
 20
40.36155172727094
 30
0.0
 11
0.0
 21
40.01496868587501
 31
0.0
  0
LINE
  5
568C
330
5675
100
AcDbEntity
  8
0
100
AcDbLine
 10
3.441180981993744
 20
40.74947388568094
 30
0.0
 11
1.623752930610085
 21
40.36155172727093
 31
0.0
  0
LINE
  5
568D
330
5675
100
AcDbEntity
  8
0
100
AcDbLine
 10
5.764999999999994
 20
41.24548300611512
 30
0.0
 11
3.441180981989778
 21
40.74947388568008
 31
0.0
  0
ARC
  5
568E
330
5675
100
AcDbEntity
  8
0
100
AcDbCircle
 10
-0.000000000000008
 20
40.01496868587501
 30
0.0
 40
5.894861363282087
100
AcDbArc
 50
12.04873155206801
 51
167.951268447932
  0
LINE
  5
568F
330
5675
100
AcDbEntity
  8
0
100
AcDbLine
 10
-10.39159650704258
 20
19.56972643475236
 30
0.0
 11
-5.765000000000009
 21
41.24548300611511
 31
0.0
  0
SPLINE
  5
5690
330
5675
100
AcDbEntity
  8
0
100
AcDbSpline
210
0.0
220
0.0
230
1.0
 70
     8
 71
     3
 72
    12
 73
     8
 74
     0
 42
0.000000001
 43
0.0000000001
 40
-0.5564662599012649
 40
-0.5564662599012649
 40
-0.5564662599012649
 40
-0.5564662599012649
 40
-0.4007782120375922
 40
-0.4007782120375922
 40
-0.2386392591806868
 40
-0.2386392591806868
 40
0.0
 40
0.0
 40
0.0
 40
0.0
 10
-10.5825066419385
 20
18.67530624493521
 30
0.0
 10
-10.06454482083677
 20
18.67690904648511
 30
0.0
 10
-9.549542819804738
 20
18.70413372044957
 30
0.0
 10
-8.536098288881904
 20
18.80692769273071
 30
0.0
 10
-8.043055360803531
 20
18.88404695743121
 30
0.0
 10
-6.918934465274631
 20
19.12680016048556
 30
0.0
 10
-6.339282323392952
 20
19.31552041955154
 30
0.0
 10
-5.885077732477838
 20
19.53551887769812
 30
0.0
  0
SPLINE
  5
5691
330
5675
100
AcDbEntity
  8
0
100
AcDbSpline
210
0.0
220
0.0
230
1.0
 70
     8
 71
     3
 72
    12
 73
     8
 74
     0
 42
0.000000001
 43
0.0000000001
 40
0.0048508660687673
 40
0.0048508660687673
 40
0.0048508660687673
 40
0.0048508660687673
 40
0.2077234227683432
 40
0.2077234227683432
 40
0.3841448170805799
 40
0.3841448170805799
 40
0.5602215732880384
 40
0.5602215732880384
 40
0.5602215732880384
 40
0.5602215732880384
 10
10.58250662878827
 20
18.67530624497589
 30
0.0
 10
9.906541633116448
 20
18.67739797836636
 30
0.0
 10
9.236765088552559
 20
18.72309056372509
 30
0.0
 10
8.058813911672725
 20
18.87930897235022
 30
0.0
 10
7.545919711225723
 20
18.97992242056711
 30
0.0
 10
6.625582908103665
 20
19.22714928692354
 30
0.0
 10
6.220856498705602
 20
19.37288113178796
 30
0.0
 10
5.885077732477813
 20
19.53551887769811
 30
0.0
  0
LINE
  5
5692
330
5675
100
AcDbEntity
  8
0
100
AcDbLine
 10
5.764999999999994
 20
41.24548300611511
 30
0.0
 11
10.39159650704265
 21
19.56972643475197
 31
0.0
  0
SPLINE
  5
5693
330
5675
100
AcDbEntity
  8
0
100
AcDbSpline
210
0.0
220
0.0
230
1.0
 70
     8
 71
     3
 72
    10
 73
     6
 74
     0
 42
0.000000001
 43
0.0000000001
 40
-0.1721615627353996
 40
-0.1721615627353996
 40
-0.1721615627353996
 40
-0.1721615627353996
 40
-0.0962360498249293
 40
-0.0962360498249293
 40
0.0
 40
0.0
 40
0.0
 40
0.0
 10
-3.441180981993861
 20
0.4033728236205091
 30
0.0
 10
-3.06162673543706
 20
0.5374491313682477
 30
0.0
 10
-2.774326947487102
 20
0.6342666861454114
 30
0.0
 10
-2.201890965635157
 20
0.8307904662038451
 30
0.0
 10
-1.914161987173711
 20
0.9324465165636572
 30
0.0
 10
-1.62375293061011
 20
1.053790814516539
 30
0.0
  0
SPLINE
  5
5694
330
5675
100
AcDbEntity
  8
0
100
AcDbSpline
210
0.0
220
0.0
230
1.0
 70
     8
 71
     3
 72
    10
 73
     6
 74
     0
 42
0.000000001
 43
0.0000000001
 40
-0.2409753581363466
 40
-0.2409753581363466
 40
-0.2409753581363466
 40
-0.2409753581363466
 40
-0.1179371608786402
 40
-0.1179371608786402
 40
0.0
 40
0.0
 40
0.0
 40
0.0
 10
-5.765000000000007
 20
0.0000000000000024
 30
0.0
 10
-5.357228708310356
 20
0.0000000000000028
 30
0.0
 10
-4.962277027802413
 20
0.0350126645723982
 30
0.0
 10
-4.18327235589404
 20
0.1740693413464935
 30
0.0
 10
-3.804570969835179
 20
0.2750064878908098
 30
0.0
 10
-3.441180981989873
 20
0.4033728236264162
 30
0.0
  0
LINE
  5
5695
330
5675
100
AcDbEntity
  8
0
100
AcDbLine
 10
5.764999999999983
 20
0.0
 30
0.0
 11
-5.765000000000016
 21
0.0
 31
0.0
  0
SPLINE
  5
5696
330
5675
100
AcDbEntity
  8
0
100
AcDbSpline
210
0.0
220
0.0
230
1.0
 70
     8
 71
     3
 72
    10
 73
     6
 74
     0
 42
0.000000001
 43
0.0000000001
 40
-0.2450148389325495
 40
-0.2450148389325495
 40
-0.2450148389325495
 40
-0.2450148389325495
 40
-0.1249813764648795
 40
-0.1249813764648795
 40
0.0
 40
0.0
 40
0.0
 40
0.0
 10
3.44118098198977
 20
0.4033728236269907
 30
0.0
 10
3.805164976002135
 20
0.2748529631544502
 30
0.0
 10
4.183967737641217
 20
0.1739169392411792
 30
0.0
 10
4.962987343693161
 20
0.0349697488848836
 30
0.0
 10
5.357573038947664
 20
-0.0000000000000013
 30
0.0
 10
5.764999999999985
 20
-0.0000000000000013
 30
0.0
  0
SPLINE
  5
5697
330
5675
100
AcDbEntity
  8
0
100
AcDbSpline
210
0.0
220
0.0
230
1.0
 70
     8
 71
     3
 72
    10
 73
     6
 74
     0
 42
0.000000001
 43
0.0000000001
 40
-0.2781058232347106
 40
-0.2781058232347106
 40
-0.2781058232347106
 40
-0.2781058232347106
 40
-0.1226523661285818
 40
-0.1226523661285818
 40
0.0
 40
0.0
 40
0.0
 40
0.0
 10
1.623752930610077
 20
1.053790814516538
 30
0.0
 10
1.914618082499895
 20
0.9322559420417347
 30
0.0
 10
2.202363377501105
 20
0.8305399693381618
 30
0.0
 10
2.775523143423181
 20
0.6337568561178806
 30
0.0
 10
3.063244780506042
 20
0.5368190978561555
 30
0.0
 10
3.441180981993736
 20
0.403372823621119
 30
0.0
  0
SPLINE
  5
5698
330
5675
100
AcDbEntity
  8
0
100
AcDbSpline
210
0.0
220
0.0
230
1.0
 70
     8
 71
     3
 72
    12
 73
     8
 74
     0
 42
0.000000001
 43
0.0000000001
 40
-0.0952734084758124
 40
-0.0952734084758124
 40
-0.0952734084758124
 40
-0.0952734084758124
 40
-0.0912216839376083
 40
-0.0912216839376083
 40
-0.0623310689860816
 40
-0.0623310689860816
 40
0.0
 40
0.0
 40
0.0
 40
0.0
 10
-0.0000000000000166
 20
1.495742810428296
 30
0.0
 10
0.0338307279777219
 20
1.49333407746701
 30
0.0
 10
0.0642771331139748
 20
1.490512839346262
 30
0.0
 10
0.2847883142563922
 20
1.467455854770017
 30
0.0
 10
0.4849935119368951
 20
1.427459228260294
 30
0.0
 10
1.083616180341713
 20
1.274430607774441
 30
0.0
 10
1.435658064166764
 20
1.132384229567551
 30
0.0
 10
1.623752930610075
 20
1.053790814516536
 30
0.0
  0
SPLINE
  5
5699
330
5675
100
AcDbEntity
  8
0
100
AcDbSpline
210
0.0
220
0.0
230
1.0
 70
     8
 71
     3
 72
    12
 73
     8
 74
     0
 42
0.000000001
 43
0.0000000001
 40
-0.3916576508622089
 40
-0.3916576508622089
 40
-0.3916576508622089
 40
-0.3916576508622089
 40
-0.2470205763544446
 40
-0.2470205763544446
 40
-0.0817507011086227
 40
-0.0817507011086227
 40
-0.0637424252983738
 40
-0.0637424252983738
 40
-0.0637424252983738
 40
-0.0637424252983738
 10
-1.623752930610109
 20
1.053790814516537
 30
0.0
 10
-1.480219109760931
 20
1.113764876377875
 30
0.0
 10
-1.244744667380161
 20
1.209374886847107
 30
0.0
 10
-0.6337517104296141
 20
1.399435437247156
 30
0.0
 10
-0.3403229959047072
 20
1.46164866062506
 30
0.0
 10
-0.0642805456387914
 20
1.490512526471938
 30
0.0
 10
-0.0338325658732414
 20
1.49333394660966
 30
0.0
 10
-0.0000000000000166
 20
1.495742810428296
 30
0.0
  0
LINE
  5
569A
330
5675
100
AcDbEntity
  8
0
100
AcDbLine
 10
10.39159650704264
 20
0.0
 30
0.0
 11
5.764999999999986
 21
0.0
 31
0.0
  0
SPLINE
  5
569B
330
5675
100
AcDbEntity
  8
0
100
AcDbSpline
210
0.0
220
0.0
230
1.0
 70
     8
 71
     3
 72
    12
 73
     8
 74
     0
 42
0.000000001
 43
0.0000000001
 40
-0.5564662586195263
 40
-0.5564662586195263
 40
-0.5564662586195263
 40
-0.5564662586195263
 40
-0.4007782222018196
 40
-0.4007782222018196
 40
-0.2386392661041762
 40
-0.2386392661041762
 40
0.0
 40
0.0
 40
0.0
 40
0.0
 10
10.58250662878267
 20
0.0002098014174497
 30
0.0
 10
10.06454484581418
 20
0.0046894279298987
 30
0.0
 10
9.549542882466944
 20
0.0807789049825736
 30
0.0
 10
8.536098372416216
 20
0.3680749046425849
 30
0.0
 10
8.043055431111238
 20
0.5836133986348262
 30
0.0
 10
6.918934498831118
 20
1.262077602659229
 30
0.0
 10
6.339282336570459
 20
1.789526635872198
 30
0.0
 10
5.885077732477796
 20
2.404394246889774
 30
0.0
  0
SPLINE
  5
569C
330
5675
100
AcDbEntity
  8
0
100
AcDbSpline
210
0.0
220
0.0
230
1.0
 70
     8
 71
     3
 72
    12
 73
     8
 74
     0
 42
0.000000001
 43
0.0000000001
 40
-0.5602215732746058
 40
-0.5602215732746058
 40
-0.5602215732746058
 40
-0.5602215732746058
 40
-0.3841448226958169
 40
-0.3841448226958169
 40
-0.2077234343555907
 40
-0.2077234343555907
 40
-0.0048508646245041
 40
-0.0048508646245041
 40
-0.0048508646245041
 40
-0.0048508646245041
 10
-5.885077732477829
 20
2.404394246889775
 30
0.0
 10
-6.220856488006868
 20
1.949842533009582
 30
0.0
 10
-6.625582882345788
 20
1.542540650134014
 30
0.0
 10
-7.545919648480888
 20
0.85157314812734
 30
0.0
 10
-8.058813827100721
 20
0.5703714123521065
 30
0.0
 10
-9.236765016832402
 20
0.1337608814886607
 30
0.0
 10
-9.906541604058316
 20
0.0060559276087176
 30
0.0
 10
-10.58250664322549
 20
0.0002098012925451
 30
0.0
  0
LINE
  5
569D
330
5675
100
AcDbEntity
  8
0
100
AcDbLine
 10
-5.765000000000018
 20
0.0
 30
0.0
 11
-10.39159650704258
 21
0.0
 31
0.0
  0
LINE
  5
569E
330
5675
100
AcDbEntity
  8
0
100
AcDbLine
 10
10.39159650704265
 20
0.0
 30
0.0
 11
14.90005439294874
 21
0.0
 31
0.0
  0
LINE
  5
569F
330
5675
100
AcDbEntity
  8
0
100
AcDbLine
 10
-14.90005439299628
 20
0.0
 30
0.0
 11
-10.39159650704258
 21
0.0
 31
0.0
  0
LINE
  5
56A0
330
5675
100
AcDbEntity
  8
0
100
AcDbLine
 10
32.50000000000002
 20
152.5
 30
0.0
 11
32.49999999999999
 21
24.50000000099997
 31
0.0
  0
LINE
  5
56A1
330
5675
100
AcDbEntity
  8
0
100
AcDbLine
 10
-32.49999999999999
 20
152.5
 30
0.0
 11
32.50000000000002
 21
152.5
 31
0.0
  0
LINE
  5
56A2
330
5675
100
AcDbEntity
  8
0
100
AcDbLine
 10
-32.50000000000002
 20
24.50000000099998
 30
0.0
 11
-32.49999999999999
 21
152.5
 31
0.0
  0
CIRCLE
  5
56A3
330
5675
100
AcDbEntity
  8
0
100
AcDbCircle
 10
0.0000000000000136
 20
137.5
 30
0.0
 40
5.5
  0
ARC
  5
56A4
330
5675
100
AcDbEntity
  8
0
100
AcDbCircle
 10
-0.0000000000000047
 20
55.0
 30
0.0
 40
5.5
100
AcDbArc
 50
180.0
 51
0.0
  0
LINE
  5
56A5
330
5675
100
AcDbEntity
  8
0
100
AcDbLine
 10
-5.500000000000002
 20
55.0
 30
0.0
 11
-5.499999999999997
 21
78.0
 31
0.0
  0
ARC
  5
56A6
330
5675
100
AcDbEntity
  8
0
100
AcDbCircle
 10
0.0000000000000004
 20
78.0
 30
0.0
 40
5.5
100
AcDbArc
 50
0.0
 51
180.0
  0
LINE
  5
56A7
330
5675
100
AcDbEntity
  8
0
100
AcDbLine
 10
5.500000000000012
 20
78.0
 30
0.0
 11
5.499999999999993
 21
55.0
 31
0.0
  0
CIRCLE
  5
56A8
330
5675
100
AcDbEntity
  8
0
100
AcDbCircle
 10
-19.99999999999998
 20
142.5
 30
0.0
 40
2.5
  0
CIRCLE
  5
56A9
330
5675
100
AcDbEntity
  8
0
100
AcDbCircle
 10
-20.0
 20
82.5
 30
0.0
 40
2.5
  0
CIRCLE
  5
56AA
330
5675
100
AcDbEntity
  8
0
100
AcDbCircle
 10
-9.999999999999989
 20
122.5
 30
0.0
 40
2.5
  0
CIRCLE
  5
56AB
330
5675
100
AcDbEntity
  8
0
100
AcDbCircle
 10
10.00000000000001
 20
122.5
 30
0.0
 40
2.5
  0
CIRCLE
  5
56AC
330
5675
100
AcDbEntity
  8
0
100
AcDbCircle
 10
20.0
 20
82.5
 30
0.0
 40
2.5
  0
CIRCLE
  5
56AD
330
5675
100
AcDbEntity
  8
0
100
AcDbCircle
 10
20.0
 20
102.5
 30
0.0
 40
2.5
  0
CIRCLE
  5
56AE
330
5675
100
AcDbEntity
  8
0
100
AcDbCircle
 10
20.00000000000001
 20
142.5
 30
0.0
 40
2.5
  0
CIRCLE
  5
56AF
330
5675
100
AcDbEntity
  8
0
100
AcDbCircle
 10
-20.0
 20
102.5
 30
0.0
 40
2.5
  0
CIRCLE
  5
56B0
330
5675
100
AcDbEntity
  8
0
100
AcDbCircle
 10
-20.0
 20
62.5
 30
0.0
 40
2.5
  0
CIRCLE
  5
56B1
330
5675
100
AcDbEntity
  8
0
100
AcDbCircle
 10
-20.00000000000001
 20
42.5
 30
0.0
 40
2.5
  0
CIRCLE
  5
56B2
330
5675
100
AcDbEntity
  8
0
100
AcDbCircle
 10
-20.00000000000001
 20
22.5
 30
0.0
 40
2.5
  0
CIRCLE
  5
56B3
330
5675
100
AcDbEntity
  8
0
100
AcDbCircle
 10
20.0
 20
62.5
 30
0.0
 40
2.5
  0
CIRCLE
  5
56B4
330
5675
100
AcDbEntity
  8
0
100
AcDbCircle
 10
19.99999999999999
 20
42.5
 30
0.0
 40
2.5
  0
CIRCLE
  5
56B5
330
5675
100
AcDbEntity
  8
0
100
AcDbCircle
 10
19.99999999999998
 20
22.5
 30
0.0
 40
2.5
  0
LINE
  5
56B6
330
5675
100
AcDbEntity
  8
0
100
AcDbLine
 10
14.90005439294874
 20
0.0
 30
0.0
 11
29.80746451448289
 21
0.0
 31
0.0
  0
LINE
  5
56B7
330
5675
100
AcDbEntity
  8
0
100
AcDbLine
 10
-14.90005439299628
 20
0.0
 30
0.0
 11
-29.80746451448294
 21
0.0
 31
0.0
  0
ENDBLK
  5
5677
330
5675
100
AcDbEntity
  8
0
100
AcDbBlockEnd
  0
BLOCK
  5
56B9
330
56B8
100
AcDbEntity
  8
0
100
AcDbBlockBegin
  2
E9S_2.5-ISO
 70
     0
 10
0.0
 20
0.0
 30
0.0
  3
E9S_2.5-ISO
  1

  0
LINE
  5
56BB
330
56B8
100
AcDbEntity
  8
0
100
AcDbLine
 10
75.09995805761271
 20
55.23298114656384
 30
0.0
 11
29.13801728048712
 21
81.76912002671492
 31
0.0
  0
LINE
  5
56BC
330
56B8
100
AcDbEntity
  8
0
100
AcDbLine
 10
76.86772501057908
 20
56.2536018727235
 30
0.0
 11
75.09995805761271
 21
55.23298114656384
 31
0.0
  0
LINE
  5
56BD
330
56B8
100
AcDbEntity
  8
0
100
AcDbLine
 10
30.90578423345349
 20
82.78974075287457
 30
0.0
 11
76.86772501057908
 21
56.2536018727235
 31
0.0
  0
LINE
  5
56BE
330
56B8
100
AcDbEntity
  8
0
100
AcDbLine
 10
29.13801728048712
 20
81.76912002671492
 30
0.0
 11
30.90578423345349
 21
82.78974075287457
 31
0.0
  0
ELLIPSE
  5
56BF
330
56B8
100
AcDbEntity
  8
0
100
AcDbEllipse
 10
52.11898766904991
 20
58.2948433250428
 30
0.0
 11
2.750000000000002
 21
-4.763139720814412
 31
0.0
210
0.0
220
0.0
230
1.0
 40
0.5773502691896258
 41
0.0
 42
6.283185307179586
  0
ELLIPSE
  5
56C0
330
56B8
100
AcDbEntity
  8
0
100
AcDbEllipse
 10
53.88675462201629
 20
59.31546405120247
 30
0.0
 11
-2.750000000000002
 21
4.763139720814414
 31
0.0
210
0.0
220
0.0
230
1.0
 40
0.5773502691896259
 41
0.3272204132950645
 42
2.814372240294726
  0
ELLIPSE
  5
56C1
330
56B8
100
AcDbEntity
  8
0
100
AcDbEllipse
 10
66.26112329278088
 20
3.58957240288519
 30
0.0
 11
1.25
 21
-2.165063509461096
 31
0.0
210
0.0
220
0.0
230
0.9999999999999998
 40
0.5773502691896259
 41
0.0
 42
6.283185307179586
  0
ELLIPSE
  5
56C2
330
56B8
100
AcDbEntity
  8
0
100
AcDbEllipse
 10
66.26112329278088
 20
19.91950402143971
 30
0.0
 11
1.25
 21
-2.165063509461096
 31
0.0
210
0.0
220
0.0
230
0.9999999999999998
 40
0.5773502691896259
 41
0.0
 42
6.283185307179586
  0
ELLIPSE
  5
56C3
330
56B8
100
AcDbEntity
  8
0
100
AcDbEllipse
 10
59.1900554809154
 20
40.33191854463286
 30
0.0
 11
1.25
 21
-2.165063509461096
 31
0.0
210
0.0
220
0.0
230
0.9999999999999998
 40
0.5773502691896259
 41
0.0
 42
6.283185307179586
  0
ELLIPSE
  5
56C4
330
56B8
100
AcDbEntity
  8
0
100
AcDbEllipse
 10
66.26112329278088
 20
52.57936725854875
 30
0.0
 11
1.25
 21
-2.165063509461096
 31
0.0
210
0.0
220
0.0
230
0.9999999999999998
 40
0.5773502691896259
 41
0.0
 42
6.283185307179586
  0
ELLIPSE
  5
56C5
330
56B8
100
AcDbEntity
  8
0
100
AcDbEllipse
 10
37.97685204531897
 20
68.90929887710327
 30
0.0
 11
1.25
 21
-2.165063509461096
 31
0.0
210
0.0
220
0.0
230
0.9999999999999998
 40
0.5773502691896259
 41
0.0
 42
6.283185307179586
  0
ELLIPSE
  5
56C6
330
56B8
100
AcDbEntity
  8
0
100
AcDbEllipse
 10
45.04791985718444
 20
48.49688435391012
 30
0.0
 11
1.25
 21
-2.165063509461096
 31
0.0
210
0.0
220
0.0
230
0.9999999999999998
 40
0.5773502691896259
 41
0.0
 42
6.283185307179586
  0
ELLIPSE
  5
56C7
330
56B8
100
AcDbEntity
  8
0
100
AcDbEllipse
 10
37.97685204531897
 20
36.24943563999423
 30
0.0
 11
1.25
 21
-2.165063509461096
 31
0.0
210
0.0
220
0.0
230
0.9999999999999998
 40
0.5773502691896259
 41
0.0
 42
6.283185307179586
  0
ELLIPSE
  5
56C8
330
56B8
100
AcDbEntity
  8
0
100
AcDbEllipse
 10
37.97685204531898
 20
19.9195040214397
 30
0.0
 11
1.25
 21
-2.165063509461096
 31
0.0
210
0.0
220
0.0
230
0.9999999999999998
 40
0.5773502691896259
 41
0.0
 42
6.283185307179586
  0
ELLIPSE
  5
56C9
330
56B8
100
AcDbEntity
  8
0
100
AcDbEllipse
 10
60.95782243388177
 20
41.35253927079252
 30
0.0
 11
1.25000000000013
 21
-2.165063509461022
 31
0.0
210
0.0
220
0.0
230
1.0
 40
0.5773502691896259
 41
3.926990816987
 42
5.497787143781894
  0
ELLIPSE
  5
56CA
330
56B8
100
AcDbEntity
  8
0
100
AcDbEllipse
 10
68.02889024574723
 20
53.5999879847084
 30
0.0
 11
1.25000000000013
 21
-2.165063509461022
 31
0.0
210
0.0
220
0.0
230
1.0
 40
0.5773502691896259
 41
3.926990816986997
 42
5.497787143781894
  0
ELLIPSE
  5
56CB
330
56B8
100
AcDbEntity
  8
0
100
AcDbEllipse
 10
39.74461899828533
 20
69.92991960326292
 30
0.0
 11
1.25000000000013
 21
-2.165063509461022
 31
0.0
210
0.0
220
0.0
230
1.0
 40
0.5773502691896259
 41
3.926990816986998
 42
5.497787143781894
  0
ELLIPSE
  5
56CC
330
56B8
100
AcDbEntity
  8
0
100
AcDbEllipse
 10
46.81568681015081
 20
49.51750508006978
 30
0.0
 11
1.25000000000013
 21
-2.165063509461022
 31
0.0
210
0.0
220
0.0
230
1.0
 40
0.5773502691896259
 41
3.926990816987
 42
5.497787143781894
  0
ELLIPSE
  5
56CD
330
56B8
100
AcDbEntity
  8
0
100
AcDbEllipse
 10
68.02889024574724
 20
4.610193129044848
 30
0.0
 11
1.25000000000013
 21
-2.165063509461022
 31
0.0
210
0.0
220
0.0
230
1.0
 40
0.5773502691896259
 41
3.926990816987
 42
5.497787143781895
  0
ELLIPSE
  5
56CE
330
56B8
100
AcDbEntity
  8
0
100
AcDbEllipse
 10
68.02889024574724
 20
20.94012474759937
 30
0.0
 11
1.25000000000013
 21
-2.165063509461022
 31
0.0
210
0.0
220
0.0
230
1.0
 40
0.5773502691896259
 41
3.926990816987
 42
5.497787143781894
  0
ELLIPSE
  5
56CF
330
56B8
100
AcDbEntity
  8
0
100
AcDbEllipse
 10
39.74461899828534
 20
37.27005636615388
 30
0.0
 11
1.25000000000013
 21
-2.165063509461022
 31
0.0
210
0.0
220
0.0
230
1.0
 40
0.5773502691896259
 41
3.926990816986998
 42
5.497787143781894
  0
ELLIPSE
  5
56D0
330
56B8
100
AcDbEntity
  8
0
100
AcDbEllipse
 10
39.74461899828534
 20
20.94012474759936
 30
0.0
 11
1.25000000000013
 21
-2.165063509461022
 31
0.0
210
0.0
220
0.0
230
1.0
 40
0.5773502691896259
 41
3.926990816986998
 42
5.497787143781894
  0
LINE
  5
56D1
330
56B8
100
AcDbEntity
  8
0
100
AcDbLine
 10
29.13801728048712
 20
81.76912002671492
 30
0.0
 11
29.13801728048714
 21
25.02260765187147
 31
0.0
  0
LINE
  5
56D2
330
56B8
100
AcDbEntity
  8
0
100
AcDbLine
 10
75.09995805761271
 20
55.23298114656384
 30
0.0
 11
75.09995805761272
 21
-1.513531228279623
 31
0.0
  0
LINE
  5
56D3
330
56B8
100
AcDbEntity
  8
0
100
AcDbLine
 10
-30.96605912036936
 20
-82.75494103022188
 30
0.0
 11
59.54360887080159
 21
-30.49915985125564
 31
0.0
  0
LINE
  5
56D4
330
56B8
100
AcDbEntity
  8
0
100
AcDbLine
 10
-76.92799989749497
 20
-56.2188021500708
 30
0.0
 11
-30.96605912036936
 21
-82.75494103022188
 31
0.0
  0
LINE
  5
56D5
330
56B8
100
AcDbEntity
  8
0
100
AcDbLine
 10
76.86772501057911
 20
-0.4929105021199654
 30
0.0
 11
76.86772501057908
 21
56.2536018727235
 31
0.0
  0
LINE
  5
56D6
330
56B8
100
AcDbEntity
  8
0
100
AcDbLine
 10
13.581668093676
 20
-1.921779518785229
 30
0.0
 11
-76.92799989749497
 21
-54.17756069775148
 31
0.0
  0
LINE
  5
56D7
330
56B8
100
AcDbEntity
  8
0
100
AcDbLine
 10
-76.92799989749497
 20
-54.17756069775148
 30
0.0
 11
-30.96605912036936
 21
-80.71369957790256
 31
0.0
  0
LINE
  5
56D8
330
56B8
100
AcDbEntity
  8
0
100
AcDbLine
 10
59.54360887080159
 20
-28.45791839893632
 30
0.0
 11
-30.96605912036935
 21
-80.71369957790256
 31
0.0
  0
LINE
  5
56D9
330
56B8
100
AcDbEntity
  8
0
100
AcDbLine
 10
-76.92799989749497
 20
-54.17756069775148
 30
0.0
 11
-76.92799989749497
 21
-56.2188021500708
 31
0.0
  0
LINE
  5
56DA
330
56B8
100
AcDbEntity
  8
0
100
AcDbLine
 10
-30.96605912036936
 20
-80.71369957790256
 30
0.0
 11
-30.96605912036936
 21
-82.75494103022188
 31
0.0
  0
LINE
  5
56DB
330
56B8
100
AcDbEntity
  8
0
100
AcDbLine
 10
29.13801728048714
 20
25.02260765187147
 30
0.0
 11
31.04192738088167
 21
10.0429427671906
 31
0.0
  0
LINE
  5
56DC
330
56B8
100
AcDbEntity
  8
0
100
AcDbLine
 10
73.19604795721819
 20
-14.29475009500918
 30
0.0
 11
75.09995805761272
 21
-1.513531228279623
 31
0.0
  0
LINE
  5
56DD
330
56B8
100
AcDbEntity
  8
0
100
AcDbLine
 10
69.66051405057829
 20
-22.45971590439435
 30
0.0
 11
59.54360887080159
 21
-30.49915985125564
 31
0.0
  0
SPLINE
  5
56DE
330
56B8
100
AcDbEntity
  8
0
100
AcDbSpline
210
0.0
220
0.0
230
1.0
 70
     8
 71
     3
 72
    11
 73
     7
 74
     0
 42
0.000000001
 43
0.0000000001
 40
0.0
 40
0.0
 40
0.0
 40
0.0
 40
0.8948926887914495
 40
0.8948926887914495
 40
0.8948926887914495
 40
1.0
 40
1.0
 40
1.0
 40
1.0
 10
74.96381491018439
 20
-13.2741293689996
 30
0.0
 10
74.64634373763271
 20
-15.93656000152877
 30
0.0
 10
72.61852218427671
 20
-19.79676642607461
 30
0.0
 10
70.42691331081417
 20
-21.81924559124303
 30
0.0
 10
70.16950354672108
 20
-22.05679066194111
 30
0.0
 10
69.91268403938128
 20
-22.27106930019969
 30
0.0
 10
69.66051405055492
 20
-22.45971590438394
 30
0.0
  0
LINE
  5
56DF
330
56B8
100
AcDbEntity
  8
0
100
AcDbLine
 10
76.86772501057911
 20
-0.4929105021199654
 30
0.0
 11
74.96381491018455
 21
-13.2741293689997
 31
0.0
  0
LINE
  5
56E0
330
56B8
100
AcDbEntity
  8
0
100
AcDbLine
 10
27.50639347424185
 20
3.919218410124791
 30
0.0
 11
13.581668093676
 21
-1.921779518785229
 31
0.0
  0
LINE
  5
56E1
330
56B8
100
AcDbEntity
  8
0
100
AcDbLine
 10
59.54360887080159
 20
-28.45791839893632
 30
0.0
 11
69.66051405057829
 21
-20.41847445207503
 31
0.0
  0
SPLINE
  5
56E2
330
56B8
100
AcDbEntity
  8
0
100
AcDbSpline
210
0.0
220
0.0
230
1.0
 70
     8
 71
     3
 72
    11
 73
     7
 74
     0
 42
0.000000001
 43
0.0000000001
 40
-1.0
 40
-1.0
 40
-1.0
 40
-1.0
 40
-0.8948926887967024
 40
-0.8948926887967024
 40
-0.8948926887967024
 40
0.0
 40
0.0
 40
0.0
 40
0.0
 10
31.04192738088172
 20
10.04294276719056
 30
0.0
 10
31.0792151380817
 20
9.798589993625878
 30
0.0
 10
31.09677526926889
 20
9.546749347152687
 30
0.0
 10
31.09459012409572
 20
9.290570496417796
 30
0.0
 10
31.07598561012768
 20
7.109441725046412
 30
0.0
 10
29.46684341320525
 20
4.684500576148076
 30
0.0
 10
27.50639347436938
 20
3.919218410198401
 30
0.0
  0
LINE
  5
56E3
330
56B8
100
AcDbEntity
  8
0
100
AcDbLine
 10
75.09995805761272
 20
-1.513531228279623
 30
0.0
 11
76.86772501057911
 21
-0.4929105021199654
 31
0.0
  0
LINE
  5
56E4
330
56B8
100
AcDbEntity
  8
0
100
AcDbLine
 10
73.19604795721819
 20
-14.29475009500918
 30
0.0
 11
73.9738654172703
 21
-13.84567697513359
 31
0.0
  0
LINE
  5
56E5
330
56B8
100
AcDbEntity
  8
0
100
AcDbLine
 10
73.9738654172703
 20
-13.84567697513359
 30
0.0
 11
74.96381491018455
 21
-13.2741293689997
 31
0.0
  0
SPLINE
  5
56E6
330
56B8
100
AcDbEntity
  8
0
100
AcDbSpline
210
0.0
220
0.0
230
1.0
 70
     8
 71
     3
 72
    11
 73
     7
 74
     0
 42
0.000000001
 43
0.0000000001
 40
-1.0
 40
-1.0
 40
-1.0
 40
-1.0
 40
-0.8948926887914495
 40
-0.8948926887914495
 40
-0.8948926887914495
 40
0.0
 40
0.0
 40
0.0
 40
0.0
 10
69.6605140507057
 20
-20.41847445200133
 30
0.0
 10
69.81619812427725
 20
-20.28553401692042
 30
0.0
 10
69.97627763751717
 20
-20.13625366701165
 30
0.0
 10
70.13805248477559
 20
-19.9722139737649
 30
0.0
 10
71.51541744994601
 20
-18.57556591503156
 30
0.0
 10
72.87857678472677
 20
-16.0086064944192
 30
0.0
 10
73.19604795721803
 20
-14.29475009500908
 30
0.0
  0
LINE
  5
56E7
330
56B8
100
AcDbEntity
  8
0
100
AcDbLine
 10
69.66051405057829
 20
-20.41847445207503
 30
0.0
 11
69.66051405057829
 21
-21.316620691962
 31
0.0
  0
LINE
  5
56E8
330
56B8
100
AcDbEntity
  8
0
100
AcDbLine
 10
69.66051405057829
 20
-21.316620691962
 30
0.0
 11
69.66051405057829
 21
-22.45971590439435
 31
0.0
  0
LINE
  5
56E9
330
56B8
100
AcDbEntity
  8
0
100
AcDbLine
 10
59.54360887080159
 20
-30.49915985125564
 30
0.0
 11
59.54360887080159
 21
-28.45791839893632
 31
0.0
  0
LINE
  5
56EA
330
56B8
100
AcDbEntity
  8
0
100
AcDbLine
 10
41.58305816772286
 20
3.957018070144289
 30
0.0
 11
31.04192738088167
 21
10.04294276719059
 31
0.0
  0
LINE
  5
56EB
330
56B8
100
AcDbEntity
  8
0
100
AcDbLine
 10
73.19604795721819
 20
-14.29475009500918
 30
0.0
 11
62.6549171703764
 21
-8.208825397362346
 31
0.0
  0
LINE
  5
56EC
330
56B8
100
AcDbEntity
  8
0
100
AcDbLine
 10
38.04752426179044
 20
-2.166706286813147
 30
0.0
 11
27.50639347424185
 21
3.919218410124791
 31
0.0
  0
LINE
  5
56ED
330
56B8
100
AcDbEntity
  8
0
100
AcDbLine
 10
69.66051405057829
 20
-20.41847445207503
 30
0.0
 11
59.11938326444503
 21
-14.33254975432051
 31
0.0
  0
SPLINE
  5
56EE
330
56B8
100
AcDbEntity
  8
0
100
AcDbSpline
210
0.0
220
0.0
230
1.0
 70
     8
 71
     3
 72
    10
 73
     6
 74
     0
 42
0.000000001
 43
0.0000000001
 40
-1.290430895932348
 40
-1.290430895932348
 40
-1.290430895932348
 40
-1.290430895932348
 40
-0.7729452090812833
 40
-0.7729452090812833
 40
0.0
 40
0.0
 40
0.0
 40
0.0
 10
44.77101931156568
 20
11.97133821228976
 30
0.0
 10
44.46704149343466
 20
10.78285771954504
 30
0.0
 10
44.09831748285859
 20
9.65070450106751
 30
0.0
 10
43.06778191989081
 20
6.941134147713117
 30
0.0
 10
42.35303546207455
 20
5.41904604270623
 30
0.0
 10
41.58305816772286
 20
3.95701807014436
 30
0.0
  0
SPLINE
  5
56EF
330
56B8
100
AcDbEntity
  8
0
100
AcDbSpline
210
0.0
220
0.0
230
1.0
 70
     8
 71
     3
 72
    10
 73
     6
 74
     0
 42
0.000000001
 43
0.0000000001
 40
-8.549357942483529
 40
-8.549357942483529
 40
-8.549357942483529
 40
-8.549357942483529
 40
-7.73938373134097
 40
-7.73938373134097
 40
-7.258927067527402
 40
-7.258927067527402
 40
-7.258927067527402
 40
-7.258927067527402
 10
62.6549171703764
 20
-8.208825397362017
 30
0.0
 10
61.84805305599571
 20
-5.745070539064376
 30
0.0
 10
61.10153562693483
 20
-3.285041116661901
 30
0.0
 10
60.08726986873764
 20
0.6119909681514136
 30
0.0
 10
59.74919628891111
 20
2.057240356997134
 30
0.0
 10
59.46695602653424
 20
3.486635193908651
 30
0.0
  0
SPLINE
  5
56F0
330
56B8
100
AcDbEntity
  8
0
100
AcDbSpline
210
0.0
220
0.0
230
1.0
 70
     8
 71
     3
 72
    10
 73
     6
 74
     0
 42
0.000000001
 43
0.0000000001
 40
7.159453970986182
 40
7.159453970986182
 40
7.159453970986182
 40
7.159453970986182
 40
7.73938373134097
 40
7.73938373134097
 40
8.549357942483529
 40
8.549357942483529
 40
8.549357942483529
 40
8.549357942483529
 10
56.84884568499009
 20
4.343577705304532
 30
0.0
 10
57.13495348229184
 20
2.529590990856101
 30
0.0
 10
57.50258066667356
 20
0.6963387765477725
 30
0.0
 10
58.51984844894662
 20
-3.691507927912323
 30
0.0
 10
59.22154014900187
 20
-6.242959414244174
 30
0.0
 10
59.98717755856404
 20
-8.783194715281032
 30
0.0
  0
SPLINE
  5
56F1
330
56B8
100
AcDbEntity
  8
0
100
AcDbSpline
210
0.0
220
0.0
230
1.0
 70
     8
 71
     3
 72
    10
 73
     6
 74
     0
 42
0.000000001
 43
0.0000000001
 40
0.0
 40
0.0
 40
0.0
 40
0.0
 40
0.7552763252266481
 40
0.7552763252266481
 40
1.38988290415839
 40
1.38988290415839
 40
1.38988290415839
 40
1.38988290415839
 10
58.28293187901103
 20
-11.73503482084945
 30
0.0
 10
55.87461747081395
 20
-12.30109627375358
 30
0.0
 10
53.48603052299395
 20
-12.92026090693104
 30
0.0
 10
49.16509611266445
 20
-14.21098944412691
 30
0.0
 10
47.22131512192849
 20
-14.85915590793181
 30
0.0
 10
45.34564755630083
 20
-15.58054590312019
 30
0.0
  0
SPLINE
  5
56F2
330
56B8
100
AcDbEntity
  8
0
100
AcDbSpline
210
0.0
220
0.0
230
1.0
 70
     8
 71
     3
 72
    14
 73
    10
 74
     0
 42
0.000000001
 43
0.0000000001
 40
-0.374876835027683
 40
-0.374876835027683
 40
-0.374876835027683
 40
-0.374876835027683
 40
-0.2988263799572567
 40
-0.2988263799572567
 40
-0.1775625711625309
 40
-0.1775625711625309
 40
-0.0660800453963885
 40
-0.0660800453963885
 40
0.0
 40
0.0
 40
0.0
 40
0.0
 10
59.98717755856421
 20
-8.783194715281634
 30
0.0
 10
60.0590651231498
 20
-9.021703606024335
 30
0.0
 10
60.09605411223149
 20
-9.275495913038636
 30
0.0
 10
60.0811555617258
 20
-9.944414642412189
 30
0.0
 10
59.95821754139284
 20
-10.36565144825765
 30
0.0
 10
59.52063802469646
 20
-11.04981794197773
 30
0.0
 10
59.22620297455196
 20
-11.3185681216538
 30
0.0
 10
58.70110706081213
 20
-11.60748307676283
 30
0.0
 10
58.49363823919604
 20
-11.68550941504001
 30
0.0
 10
58.28293187901103
 20
-11.73503482084946
 30
0.0
  0
ELLIPSE
  5
56F3
330
56B8
100
AcDbEntity
  8
0
100
AcDbEllipse
 10
38.04752426179027
 20
0.0378344816916132
 30
0.0
 11
2.284056904738211
 21
-1.439820841604154
 31
0.0
210
0.0
220
0.0
230
0.9999999999999998
 40
0.7672609699118033
 41
5.162883383252248
 42
5.975434439104052
  0
SPLINE
  5
56F4
330
56B8
100
AcDbEntity
  8
0
100
AcDbSpline
210
0.0
220
0.0
230
1.0
 70
     8
 71
     3
 72
    10
 73
     6
 74
     0
 42
0.000000001
 43
0.0000000001
 40
-8.549327845527489
 40
-8.549327845527489
 40
-8.549327845527489
 40
-8.549327845527489
 40
-7.739353634384912
 40
-7.739353634384912
 40
-7.258921871841486
 40
-7.258921871841486
 40
-7.258921871841486
 40
-7.258921871841486
 10
38.04752426179027
 20
-2.166706286813243
 30
0.0
 10
37.12414613737821
 20
-3.631505322780667
 30
0.0
 10
36.11337207892032
 20
-5.077162750914748
 30
0.0
 10
34.25982038501673
 20
-7.318469342526181
 30
0.0
 10
33.51536289396984
 20
-8.138615926310944
 30
0.0
 10
32.70089999655326
 20
-8.934721694730408
 30
0.0
  0
ELLIPSE
  5
56F5
330
56B8
100
AcDbEntity
  8
0
100
AcDbEllipse
 10
39.67386985851918
 20
2.854747685891929
 30
0.0
 11
2.38894987809657
 21
-1.258140882390512
 31
0.0
210
0.0
220
0.0
230
1.0
 40
0.7672609699118446
 41
0.3077508680755208
 42
1.120301923927378
  0
SPLINE
  5
56F6
330
56B8
100
AcDbEntity
  8
0
100
AcDbSpline
210
0.0
220
0.0
230
1.0
 70
     8
 71
     3
 72
    14
 73
    10
 74
     0
 42
0.000000001
 43
0.0000000001
 40
0.0
 40
0.0
 40
0.0
 40
0.0
 40
0.0660800453965112
 40
0.0660800453965112
 40
0.177562571162685
 40
0.177562571162685
 40
0.2988263799572477
 40
0.2988263799572477
 40
0.3748768350276733
 40
0.3748768350276733
 40
0.3748768350276733
 40
0.3748768350276733
 10
41.58305816772286
 20
3.957018070143396
 30
0.0
 10
41.5172318530406
 20
3.64068502647084
 30
0.0
 10
41.41854669588187
 20
3.287767368186649
 30
0.0
 10
41.06148780686817
 20
2.266057535201888
 30
0.0
 10
40.73582067232837
 20
1.5432398961458
 30
0.0
 10
39.91451428167052
 20
0.0722834018932273
 30
0.0
 10
39.41246131619959
 20
-0.6599090122521102
 30
0.0
 10
38.62269418270935
 20
-1.609261316070921
 30
0.0
 10
38.32493248585097
 20
-1.919066261948043
 30
0.0
 10
38.0475242617903
 20
-2.166706286813095
 30
0.0
  0
ELLIPSE
  5
56F7
330
56B8
100
AcDbEntity
  8
0
100
AcDbEllipse
 10
60.74572886117272
 20
-9.311095781614453
 30
0.0
 11
2.565904612244047
 21
0.84031751193505
 31
0.0
210
0.0
220
0.0
230
1.0
 40
0.2792441059656619
 41
0.6450878637160838
 42
1.778425638644209
  0
ELLIPSE
  5
56F8
330
56B8
100
AcDbEntity
  8
0
100
AcDbEllipse
 10
59.11938326444498
 20
-12.12800898581569
 30
0.0
 11
0.5552159935410011
 21
-2.642297333858602
 31
0.0
210
0.0
220
0.0
230
1.0
 40
0.2792441059656703
 41
4.504759668535395
 42
5.638097443463585
  0
SPLINE
  5
56F9
330
56B8
100
AcDbEntity
  8
0
100
AcDbSpline
210
0.0
220
0.0
230
1.0
 70
     8
 71
     3
 72
    14
 73
    10
 74
     0
 42
0.000000001
 43
0.0000000001
 40
0.0
 40
0.0
 40
0.0
 40
0.0
 40
0.0660800453963885
 40
0.0660800453963885
 40
0.1775625711625309
 40
0.1775625711625309
 40
0.2988263799572567
 40
0.2988263799572567
 40
0.374876835027683
 40
0.374876835027683
 40
0.374876835027683
 40
0.374876835027683
 10
59.1193832644458
 20
-14.33254975432006
 30
0.0
 10
59.49207518834509
 20
-14.19338565273467
 30
0.0
 10
59.86533696812974
 20
-13.99899488143759
 30
0.0
 10
60.82914024381263
 20
-13.3275890834271
 30
0.0
 10
61.39180640418048
 20
-12.74160289573102
 30
0.0
 10
62.28549654429158
 20
-11.31243717870923
 30
0.0
 10
62.58271877296486
 20
-10.46198568353386
 30
0.0
 10
62.74333011904484
 20
-9.149390116490396
 30
0.0
 10
62.73067561087326
 20
-8.660366291078414
 30
0.0
 10
62.65491717037659
 20
-8.208825397362394
 30
0.0
  0
SPLINE
  5
56FA
330
56B8
100
AcDbEntity
  8
0
100
AcDbSpline
210
0.0
220
0.0
230
1.0
 70
     8
 71
     3
 72
    10
 73
     6
 74
     0
 42
0.000000001
 43
0.0000000001
 40
-1.290405965424521
 40
-1.290405965424521
 40
-1.290405965424521
 40
-1.290405965424521
 40
-0.7552763252266481
 40
-0.7552763252266481
 40
0.0
 40
0.0
 40
0.0
 40
0.0
 10
47.39683671152127
 20
-17.41942471311147
 30
0.0
 10
48.93263225533776
 20
-16.89568840483187
 30
0.0
 10
50.52008198183141
 20
-16.42204292690202
 30
0.0
 10
54.41723809694373
 20
-15.37075453890926
 30
0.0
 10
56.75360872894343
 20
-14.82966105303427
 30
0.0
 10
59.11938326444498
 20
-14.33254975432055
 30
0.0
  0
LINE
  5
56FB
330
56B8
100
AcDbEntity
  8
0
100
AcDbLine
 10
44.77101931156568
 20
11.97133821228976
 30
0.0
 11
48.04251707550947
 21
27.78071922716293
 31
0.0
  0
LINE
  5
56FC
330
56B8
100
AcDbEntity
  8
0
100
AcDbLine
 10
56.19545826259038
 20
23.07361643811459
 30
0.0
 11
59.46695602653424
 21
3.486635193908651
 31
0.0
  0
SPLINE
  5
56FD
330
56B8
100
AcDbEntity
  8
0
100
AcDbSpline
210
0.0
220
0.0
230
1.0
 70
     8
 71
     2
 72
     6
 73
     3
 74
     0
 42
0.000000001
 43
0.0000000001
 40
0.1635585484293225
 40
0.1635585484293225
 40
0.1635585484293225
 40
0.9641409980176641
 40
0.9641409980176641
 40
0.9641409980176641
 10
45.68026487110352
 20
12.1312143942862
 30
0.0
 10
47.67773716622537
 20
19.37820249324431
 30
0.0
 10
49.82323591349648
 20
25.46258711637191
 30
0.0
  0
ELLIPSE
  5
56FE
330
56B8
100
AcDbEntity
  8
0
100
AcDbEllipse
 10
50.63420828246335
 20
7.485185025718363
 30
0.0
 11
-5.802900468677687
 21
1.525236424499585
 31
0.0
210
0.0
220
0.0
230
1.0
 40
0.3491022571718005
 41
0.0
 42
1.870079015841092
  0
ELLIPSE
  5
56FF
330
56B8
100
AcDbEntity
  8
0
100
AcDbEllipse
 10
50.63420828246335
 20
7.485185025718363
 30
0.0
 11
-5.802900468677687
 21
1.525236424499585
 31
0.0
210
0.0
220
0.0
230
0.9999999999999998
 40
0.3491022571718005
 41
6.281808225212479
 42
6.283185307179582
  0
SPLINE
  5
5700
330
56B8
100
AcDbEntity
  8
0
100
AcDbSpline
210
0.0
220
0.0
230
1.0
 70
     8
 71
     2
 72
     6
 73
     3
 74
     0
 42
0.000000001
 43
0.0000000001
 40
0.0
 40
0.0
 40
0.0
 40
0.9641409980176639
 40
0.9641409980176639
 40
0.9641409980176639
 10
51.83631108362561
 20
5.099737170944178
 30
0.0
 10
54.20544576720487
 20
14.11332519236405
 30
0.0
 10
53.19982695261408
 20
23.51311137099409
 30
0.0
  0
SPLINE
  5
5701
330
56B8
100
AcDbEntity
  8
0
100
AcDbSpline
210
0.0
220
0.0
230
1.0
 70
     8
 71
     2
 72
     6
 73
     3
 74
     0
 42
0.000000001
 43
0.0000000001
 40
0.394376044936182
 40
0.394376044936182
 40
0.394376044936182
 40
0.9840252483526686
 40
0.9840252483526686
 40
0.9840252483526686
 10
47.01257389036157
 20
17.03568461206145
 30
0.0
 10
48.03142451562266
 20
21.76359179583827
 30
0.0
 10
48.99188601684648
 20
26.74444955020403
 30
0.0
  0
SPLINE
  5
5702
330
56B8
100
AcDbEntity
  8
0
100
AcDbSpline
210
0.0
220
0.0
230
1.0
 70
     8
 71
     3
 72
    10
 73
     6
 74
     0
 42
0.000000001
 43
0.0000000001
 40
0.1547679991224747
 40
0.1547679991224747
 40
0.1547679991224747
 40
0.1547679991224747
 40
0.2081435427040438
 40
0.2081435427040438
 40
0.2905570301017684
 40
0.2905570301017684
 40
0.2905570301017684
 40
0.2905570301017684
 10
45.48034814131614
 20
11.40437391890618
 30
0.0
 10
45.42208952924564
 20
11.4777672923367
 30
0.0
 10
45.34965054308869
 20
11.55246488688606
 30
0.0
 10
45.13014129832594
 20
11.74346519265239
 30
0.0
 10
44.96494456855816
 20
11.85937541296213
 30
0.0
 10
44.7710193115656
 20
11.97133821228945
 30
0.0
  0
SPLINE
  5
5703
330
56B8
100
AcDbEntity
  8
0
100
AcDbSpline
210
0.0
220
0.0
230
1.0
 70
     8
 71
     2
 72
     6
 73
     3
 74
     0
 42
0.000000001
 43
0.0000000001
 40
0.0
 40
0.0
 40
0.0
 40
0.9840252483526665
 40
0.9840252483526665
 40
0.9840252483526665
 10
56.84884568498912
 20
4.343577705304308
 30
0.0
 10
55.35184251679147
 20
13.83490888959184
 30
0.0
 10
54.8832997806609
 20
23.34304022775829
 30
0.0
  0
SPLINE
  5
5704
330
56B8
100
AcDbEntity
  8
0
100
AcDbSpline
210
0.0
220
0.0
230
1.0
 70
     8
 71
     3
 72
    12
 73
     8
 74
     0
 42
0.000000001
 43
0.0000000001
 40
0.0
 40
0.0
 40
0.0
 40
0.0
 40
0.1071924999187088
 40
0.1071924999187088
 40
0.1983440260468834
 40
0.1983440260468834
 40
0.2899837002222282
 40
0.2899837002222282
 40
0.2899837002222282
 40
0.2899837002222282
 10
59.46695602653424
 20
3.486635193908618
 30
0.0
 10
59.21430088125138
 20
3.63250571004982
 30
0.0
 10
58.91693767416348
 20
3.7693635539695
 30
0.0
 10
58.31965911067093
 20
3.994126510061113
 30
0.0
 10
58.02946689206603
 20
4.085295662199768
 30
0.0
 10
57.43860855135096
 20
4.238395168874999
 30
0.0
 10
57.13970914998697
 20
4.299699871080373
 30
0.0
 10
56.84884568499057
 20
4.343577705301555
 30
0.0
  0
LINE
  5
5705
330
56B8
100
AcDbEntity
  8
0
100
AcDbLine
 10
55.74840390906858
 20
4.509583435222177
 30
0.0
 11
51.83631108362561
 21
5.099737170944173
 31
0.0
  0
LINE
  5
5706
330
56B8
100
AcDbEntity
  8
0
100
AcDbLine
 10
56.84884568498912
 20
4.343577705304308
 30
0.0
 11
55.74840390906858
 21
4.509583435222177
 31
0.0
  0
SPLINE
  5
5707
330
56B8
100
AcDbEntity
  8
0
100
AcDbSpline
210
0.0
220
0.0
230
1.0
 70
     8
 71
     3
 72
     8
 73
     4
 74
     0
 42
0.000000001
 43
0.0000000001
 40
0.0
 40
0.0
 40
0.0
 40
0.0
 40
0.3369544926963341
 40
0.3369544926963341
 40
0.3369544926963341
 40
0.3369544926963341
 10
44.8320465615858
 20
9.013209703571646
 30
0.0
 10
45.10927240693323
 20
10.05126813472946
 30
0.0
 10
45.38873893743649
 20
11.0735351578922
 30
0.0
 10
45.68026487110353
 20
12.13121439428622
 30
0.0
  0
SPLINE
  5
5708
330
56B8
100
AcDbEntity
  8
0
100
AcDbSpline
210
0.0
220
0.0
230
1.0
 70
     8
 71
     3
 72
    24
 73
    20
 74
     0
 42
0.000000001
 43
0.0000000001
 40
0.0
 40
0.0
 40
0.0
 40
0.0
 40
0.3884166632194862
 40
0.3884166632194862
 40
0.5408028389707277
 40
0.5408028389707277
 40
0.5816914575481606
 40
0.5816914575481606
 40
0.5874373505682749
 40
0.5874373505682749
 40
0.5922806451172172
 40
0.5922806451172172
 40
0.5971741041617939
 40
0.5971741041617939
 40
0.5996000579712544
 40
0.5996000579712544
 40
0.6020254647632483
 40
0.6020254647632483
 40
0.6060602103964677
 40
0.6060602103964677
 40
0.6060602103964677
 40
0.6060602103964677
 10
45.68026487110352
 20
12.1312143942862
 30
0.0
 10
46.02339334988386
 20
13.37611176192805
 30
0.0
 10
46.35836416607541
 20
14.60493186214417
 30
0.0
 10
46.81115231440624
 20
16.27982037340658
 30
0.0
 10
46.93722952199834
 20
16.74793124565357
 30
0.0
 10
47.09743285961282
 20
17.35840729310969
 30
0.0
 10
47.13200428120028
 20
17.49110806424539
 30
0.0
 10
47.17042833933868
 20
17.64120344049498
 30
0.0
 10
47.17514947697885
 20
17.65969652128696
 30
0.0
 10
47.18362479704473
 20
17.69300518451055
 30
0.0
 10
47.18745267151604
 20
17.70809372047317
 30
0.0
 10
47.19461902126091
 20
17.7364364377541
 30
0.0
 10
47.19803371105033
 20
17.74999681745614
 30
0.0
 10
47.20205408072668
 20
17.76602167747257
 30
0.0
 10
47.2032254421577
 20
17.77070192492518
 30
0.0
 10
47.20513942150954
 20
17.77836307621796
 30
0.0
 10
47.20589449005732
 20
17.78139352114397
 30
0.0
 10
47.20736368793367
 20
17.78729892214032
 30
0.0
 10
47.2077395419317
 20
17.78882073684606
 30
0.0
 10
47.20773954190729
 20
17.78882073674733
 30
0.0
  0
ELLIPSE
  5
5709
330
56B8
100
AcDbEntity
  8
0
100
AcDbEllipse
 10
52.11898766904993
 20
24.42245709738011
 30
0.0
 11
-2.947430681641045
 21
5.105099692389655
 31
0.0
210
0.0
220
0.0
230
1.0
 40
0.5773502691896259
 41
4.137280853259756
 42
6.858293434304522
  0
SPLINE
  5
570A
330
56B8
100
AcDbEntity
  8
0
100
AcDbSpline
210
0.0
220
0.0
230
1.0
 70
     8
 71
     3
 72
    12
 73
     8
 74
     0
 42
0.000000001
 43
0.0000000001
 40
-0.1092148079344782
 40
-0.1092148079344782
 40
-0.1092148079344782
 40
-0.1092148079344782
 40
-0.0971438673808425
 40
-0.0971438673808425
 40
-0.0649614152609135
 40
-0.0649614152609135
 40
0.0
 40
0.0
 40
0.0
 40
0.0
 10
51.04852120147591
 20
23.80442299416779
 30
0.0
 10
50.97106188826106
 20
23.87693983230118
 30
0.0
 10
50.90362210839892
 20
23.94637425438294
 30
0.0
 10
50.67284807918415
 20
24.19630202278979
 30
0.0
 10
50.51590604648874
 20
24.39451635833169
 30
0.0
 10
50.09641412861632
 20
24.97545063453331
 30
0.0
 10
49.90635044671082
 20
25.31539425129793
 30
0.0
 10
49.82323591349647
 20
25.46258711637191
 30
0.0
  0
SPLINE
  5
570B
330
56B8
100
AcDbEntity
  8
0
100
AcDbSpline
210
0.0
220
0.0
230
1.0
 70
     8
 71
     3
 72
    10
 73
     6
 74
     0
 42
0.000000001
 43
0.0000000001
 40
-0.4464626283457165
 40
-0.4464626283457165
 40
-0.4464626283457165
 40
-0.4464626283457165
 40
-0.1039521030004597
 40
-0.1039521030004597
 40
-0.0554704935954795
 40
-0.0554704935954795
 40
-0.0554704935954795
 40
-0.0554704935954795
 10
53.19982695261408
 20
23.51311137099407
 30
0.0
 10
52.95765965870164
 20
23.53002649361706
 30
0.0
 10
52.05727263865951
 20
23.59137529981286
 30
0.0
 10
51.24555600034067
 20
23.75583486337395
 30
0.0
 10
51.14748977468249
 20
23.77788841371373
 30
0.0
 10
51.04852120147591
 20
23.80442299416779
 30
0.0
  0
SPLINE
  5
570C
330
56B8
100
AcDbEntity
  8
0
100
AcDbSpline
210
0.0
220
0.0
230
1.0
 70
     8
 71
     3
 72
    10
 73
     6
 74
     0
 42
0.000000001
 43
0.0000000001
 40
-0.1912355673579826
 40
-0.1912355673579826
 40
-0.1912355673579826
 40
-0.1912355673579826
 40
-0.0996388958989757
 40
-0.0996388958989757
 40
0.0
 40
0.0
 40
0.0
 40
0.0
 10
54.8832997806609
 20
23.34304022775829
 30
0.0
 10
54.60459112476918
 20
23.37374618673255
 30
0.0
 10
54.34013358580314
 20
23.40389953133204
 30
0.0
 10
53.80915953721636
 20
23.46098864688934
 30
0.0
 10
53.49965833118456
 20
23.49216847464832
 30
0.0
 10
53.19982695261408
 20
23.51311137099409
 30
0.0
  0
SPLINE
  5
570D
330
56B8
100
AcDbEntity
  8
0
100
AcDbSpline
210
0.0
220
0.0
230
1.0
 70
     8
 71
     3
 72
    10
 73
     6
 74
     0
 42
0.000000001
 43
0.0000000001
 40
-0.166061894379557
 40
-0.166061894379557
 40
-0.166061894379557
 40
-0.166061894379557
 40
-0.0832954138001302
 40
-0.0832954138001302
 40
0.0
 40
0.0
 40
0.0
 40
0.0
 10
56.19545826259038
 20
23.07361643811459
 30
0.0
 10
56.00280657879739
 20
23.13736188119167
 30
0.0
 10
55.80066754093758
 20
23.19065979578065
 30
0.0
 10
55.35964636666275
 20
23.2807880704634
 30
0.0
 10
55.12529595717065
 20
23.31637896514317
 30
0.0
 10
54.8832997806609
 20
23.34304022775829
 30
0.0
  0
SPLINE
  5
570E
330
56B8
100
AcDbEntity
  8
0
100
AcDbSpline
210
0.0
220
0.0
230
1.0
 70
     8
 71
     3
 72
    10
 73
     6
 74
     0
 42
0.000000001
 43
0.0000000001
 40
-0.1676850919280784
 40
-0.1676850919280784
 40
-0.1676850919280784
 40
-0.1676850919280784
 40
-0.0835329193522998
 40
-0.0835329193522998
 40
0.0
 40
0.0
 40
0.0
 40
0.0
 10
48.99188601684648
 20
26.74444955020403
 30
0.0
 10
48.86744339945145
 20
26.92940869536748
 30
0.0
 10
48.72539418703607
 20
27.11117550658175
 30
0.0
 10
48.40721210317595
 20
27.45933860072178
 30
0.0
 10
48.23506867163537
 20
27.62209212107672
 30
0.0
 10
48.04251707550948
 20
27.78071922716291
 30
0.0
  0
SPLINE
  5
570F
330
56B8
100
AcDbEntity
  8
0
100
AcDbSpline
210
0.0
220
0.0
230
1.0
 70
     8
 71
     3
 72
    10
 73
     6
 74
     0
 42
0.000000001
 43
0.0000000001
 40
-0.2002449434725946
 40
-0.2002449434725946
 40
-0.2002449434725946
 40
-0.2002449434725946
 40
-0.0958426888579099
 40
-0.0958426888579099
 40
0.0
 40
0.0
 40
0.0
 40
0.0
 10
49.82323591349648
 20
25.46258711637191
 30
0.0
 10
49.69565813462111
 20
25.68852279893194
 30
0.0
 10
49.542850044343
 20
25.924388994699
 30
0.0
 10
49.27306308794992
 20
26.32958423046499
 30
0.0
 10
49.1350021830004
 20
26.5317358970761
 30
0.0
 10
48.99188601684648
 20
26.74444955020403
 30
0.0
  0
SPLINE
  5
5710
330
56B8
100
AcDbEntity
  8
0
100
AcDbSpline
210
0.0
220
0.0
230
1.0
 70
     8
 71
     3
 72
    10
 73
     6
 74
     0
 42
0.000000001
 43
0.0000000001
 40
-0.446462628344785
 40
-0.446462628344785
 40
-0.446462628344785
 40
-0.446462628344785
 40
-0.103952103000345
 40
-0.103952103000345
 40
-0.0554704935954536
 40
-0.0554704935954536
 40
-0.0554704935954536
 40
-0.0554704935954536
 10
23.54324401780432
 20
-20.05569406946526
 30
0.0
 10
23.75264354493797
 20
-20.0536907131178
 30
0.0
 10
24.52913826672745
 20
-20.04351026756687
 30
0.0
 10
25.37499647336389
 20
-20.22768147478665
 30
0.0
 10
25.48010623636014
 20
-20.25380161330461
 30
0.0
 10
25.59189891526673
 20
-20.28774019463672
 30
0.0
  0
SPLINE
  5
5711
330
56B8
100
AcDbEntity
  8
0
100
AcDbSpline
210
0.0
220
0.0
230
1.0
 70
     8
 71
     3
 72
    10
 73
     6
 74
     0
 42
0.000000001
 43
0.0000000001
 40
-0.1912355565170601
 40
-0.1912355565170601
 40
-0.1912355565170601
 40
-0.1912355565170601
 40
-0.0996388894577021
 40
-0.0996388894577021
 40
0.0
 40
0.0
 40
0.0
 40
0.0
 10
22.01744363762375
 20
-19.97665515644886
 30
0.0
 10
22.27345520794094
 20
-19.99425693299681
 30
0.0
 10
22.5177357683022
 20
-20.01276101493401
 30
0.0
 10
23.00358577296507
 20
-20.04379787261198
 30
0.0
 10
23.28398297631776
 20
-20.05817445831914
 30
0.0
 10
23.54324401780432
 20
-20.05569406946526
 30
0.0
  0
SPLINE
  5
5712
330
56B8
100
AcDbEntity
  8
0
100
AcDbSpline
210
0.0
220
0.0
230
1.0
 70
     8
 71
     3
 72
    10
 73
     6
 74
     0
 42
0.000000001
 43
0.0000000001
 40
-0.1660624726421035
 40
-0.1660624726421035
 40
-0.1660624726421035
 40
-0.1660624726421035
 40
-0.083295501751649
 40
-0.083295501751649
 40
0.0
 40
0.0
 40
0.0
 40
0.0
 10
20.64532330153737
 20
-19.67261237416652
 30
0.0
 10
20.87909590503809
 20
-19.76009894034702
 30
0.0
 10
21.10622888338315
 20
-19.82782691568896
 30
0.0
 10
21.56683272303157
 20
-19.9292616606094
 30
0.0
 10
21.79515456018985
 20
-19.9613719305181
 30
0.0
 10
22.01744363762375
 20
-19.97665515644885
 30
0.0
  0
ELLIPSE
  5
5713
330
56B8
100
AcDbEntity
  8
0
100
AcDbEllipse
 10
25.59189891526673
 20
-21.52380840106137
 30
0.0
 11
-5.894861363282086
 21
0.0000000000003517
 31
0.0
210
0.0
220
0.0
230
1.0
 40
0.577350269189626
 41
5.708077180054894
 42
8.429089761099547
  0
SPLINE
  5
5714
330
56B8
100
AcDbEntity
  8
0
100
AcDbSpline
210
0.0
220
0.0
230
1.0
 70
     8
 71
     3
 72
    10
 73
     6
 74
     0
 42
0.000000001
 43
0.0000000001
 40
-0.1676853196454884
 40
-0.1676853196454884
 40
-0.1676853196454884
 40
-0.1676853196454884
 40
-0.0835328295563808
 40
-0.0835328295563808
 40
0.0
 40
0.0
 40
0.0
 40
0.0
 10
27.90885740143819
 20
-23.37806447889456
 30
0.0
 10
28.05301713101349
 20
-23.57440716966363
 30
0.0
 10
28.2010910811345
 20
-23.75965233595904
 30
0.0
 10
28.49965846700762
 20
-24.09649129052708
 30
0.0
 10
28.64681236083652
 20
-24.24481689725629
 30
0.0
 10
28.79826448861825
 20
-24.37971516321486
 30
0.0
  0
SPLINE
  5
5715
330
56B8
100
AcDbEntity
  8
0
100
AcDbSpline
210
0.0
220
0.0
230
1.0
 70
     8
 71
     3
 72
    10
 73
     6
 74
     0
 42
0.000000001
 43
0.0000000001
 40
-0.2002449562418786
 40
-0.2002449562418786
 40
-0.2002449562418786
 40
-0.2002449562418786
 40
-0.0958426940544169
 40
-0.0958426940544169
 40
0.0
 40
0.0
 40
0.0
 40
0.0
 10
26.91983505692192
 20
-22.00516981484309
 30
0.0
 10
27.08801350493066
 20
-22.25454631450196
 30
0.0
 10
27.26994356234039
 20
-22.50722604724661
 30
0.0
 10
27.58484064311024
 20
-22.93846574678124
 30
0.0
 10
27.74306524333456
 20
-23.15225884977484
 30
0.0
 10
27.90885740143819
 20
-23.37806447889456
 30
0.0
  0
SPLINE
  5
5716
330
56B8
100
AcDbEntity
  8
0
100
AcDbSpline
210
0.0
220
0.0
230
1.0
 70
     8
 71
     3
 72
    12
 73
     8
 74
     0
 42
0.000000001
 43
0.0000000001
 40
-0.1092148079344466
 40
-0.1092148079344466
 40
-0.1092148079344466
 40
-0.1092148079344466
 40
-0.0971438673808177
 40
-0.0971438673808177
 40
-0.0649614152609036
 40
-0.0649614152609036
 40
0.0
 40
0.0
 40
0.0
 40
0.0
 10
25.59189891526673
 20
-20.28774019463672
 30
0.0
 10
25.65771126445299
 20
-20.35353265495297
 30
0.0
 10
25.71854595237082
 20
-20.41915362542265
 30
0.0
 10
25.93363836622661
 20
-20.66002760898069
 30
0.0
 10
26.09577217626293
 20
-20.86123941856798
 30
0.0
 10
26.55784073365558
 20
-21.46675532905776
 30
0.0
 10
26.8102699553624
 20
-21.8427057070148
 30
0.0
 10
26.91983505692192
 20
-22.00516981484309
 30
0.0
  0
SPLINE
  5
5717
330
56B8
100
AcDbEntity
  8
0
100
AcDbSpline
210
0.0
220
0.0
230
1.0
 70
     8
 71
     2
 72
     6
 73
     3
 74
     0
 42
0.000000001
 43
0.0000000001
 40
0.0
 40
0.0
 40
0.0
 40
0.9840252483526665
 40
0.9840252483526665
 40
0.9840252483526665
 10
45.3456475562978
 20
-15.58054590312026
 30
0.0
 10
36.37741205087455
 20
-19.02976872205909
 30
0.0
 10
27.90885740143819
 20
-23.37806447889456
 30
0.0
  0
LINE
  5
5718
330
56B8
100
AcDbEntity
  8
0
100
AcDbLine
 10
45.34564755630082
 20
-15.58054590312015
 30
0.0
 11
44.65166148905496
 21
-14.71053823474642
 31
0.0
  0
LINE
  5
5719
330
56B8
100
AcDbEntity
  8
0
100
AcDbLine
 10
44.65166148905496
 20
-14.71053823474642
 30
0.0
 11
42.18452694905988
 21
-11.61764333381088
 31
0.0
  0
SPLINE
  5
571A
330
56B8
100
AcDbEntity
  8
0
100
AcDbSpline
210
0.0
220
0.0
230
1.0
 70
     8
 71
     2
 72
     6
 73
     3
 74
     0
 42
0.000000001
 43
0.0000000001
 40
0.0
 40
0.0
 40
0.0
 40
0.9641409980176639
 40
0.9641409980176639
 40
0.9641409980176639
 10
42.18452694905986
 20
-11.6176433338109
 30
0.0
 10
35.56309808505278
 20
-18.17616816548729
 30
0.0
 10
26.91983505692192
 20
-22.00516981484309
 30
0.0
  0
LINE
  5
571B
330
56B8
100
AcDbEntity
  8
0
100
AcDbLine
 10
47.39683671152127
 20
-17.41942471311147
 30
0.0
 11
28.79826448861825
 21
-24.37971516321488
 31
0.0
  0
SPLINE
  5
571C
330
56B8
100
AcDbEntity
  8
0
100
AcDbSpline
210
0.0
220
0.0
230
1.0
 70
     8
 71
     3
 72
    12
 73
     8
 74
     0
 42
0.000000001
 43
0.0000000001
 40
0.0
 40
0.0
 40
0.0
 40
0.0
 40
0.1243285560962474
 40
0.1243285560962474
 40
0.2081435426481914
 40
0.2081435426481914
 40
0.2905570300988916
 40
0.2905570300988916
 40
0.2905570300988916
 40
0.2905570300988916
 10
45.34564755630094
 20
-15.58054590312014
 30
0.0
 10
45.59402074458134
 20
-15.89191610004627
 30
0.0
 10
45.87706229517825
 20
-16.19960820068139
 30
0.0
 10
46.37899014069986
 20
-16.67412296704432
 30
0.0
 10
46.58734843598415
 20
-16.85285955270514
 30
0.0
 10
47.00011674548886
 20
-17.16984448999281
 30
0.0
 10
47.20291145439984
 20
-17.30746191370915
 30
0.0
 10
47.39683671152191
 20
-17.41942471311125
 30
0.0
  0
ELLIPSE
  5
571D
330
56B8
100
AcDbEntity
  8
0
100
AcDbEllipse
 10
39.51761710684122
 20
-11.76931569743102
 30
0.0
 11
-4.222343724732835
 21
4.262841009257707
 31
0.0
210
0.0
220
0.0
230
1.0
 40
0.3491022571717998
 41
4.413106291338492
 42
6.283185307179586
  0
ELLIPSE
  5
571E
330
56B8
100
AcDbEntity
  8
0
100
AcDbEllipse
 10
39.51761710684122
 20
-11.76931569743102
 30
0.0
 11
-4.222343724732834
 21
4.262841009257705
 31
0.0
210
0.0
220
0.0
230
0.9999999999999998
 40
0.3491022571718001
 41
0.0000000000000048
 42
0.0013770819671075
  0
SPLINE
  5
571F
330
56B8
100
AcDbEntity
  8
0
100
AcDbSpline
210
0.0
220
0.0
230
1.0
 70
     8
 71
     2
 72
     6
 73
     3
 74
     0
 42
0.000000001
 43
0.0000000001
 40
0.163558548429323
 40
0.163558548429323
 40
0.163558548429323
 40
0.9641409980176639
 40
0.9641409980176639
 40
0.9641409980176639
 10
33.01706594125295
 20
-9.802089538566821
 30
0.0
 10
27.73972629419267
 20
-15.15544533897699
 30
0.0
 10
23.54324401780432
 20
-20.05569406946526
 30
0.0
  0
SPLINE
  5
5720
330
56B8
100
AcDbEntity
  8
0
100
AcDbSpline
210
0.0
220
0.0
230
1.0
 70
     8
 71
     2
 72
     6
 73
     3
 74
     0
 42
0.000000001
 43
0.0000000001
 40
0.3943844385056623
 40
0.3943844385056623
 40
0.3943844385056623
 40
0.9840252483526686
 40
0.9840252483526686
 40
0.9840252483526686
 10
29.43572258446423
 20
-13.40823052515942
 30
0.0
 10
25.8507076682042
 20
-16.65448951106056
 30
0.0
 10
22.01744363762375
 20
-19.97665515644885
 30
0.0
  0
SPLINE
  5
5721
330
56B8
100
AcDbEntity
  8
0
100
AcDbSpline
210
0.0
220
0.0
230
1.0
 70
     8
 71
     3
 72
    10
 73
     6
 74
     0
 42
0.000000001
 43
0.0000000001
 40
0.0
 40
0.0
 40
0.0
 40
0.0
 40
0.1071924998403328
 40
0.1071924998403328
 40
0.1356041497549847
 40
0.1356041497549847
 40
0.1356041497549847
 40
0.1356041497549847
 10
32.70089999655326
 20
-8.934721694730399
 30
0.0
 10
32.95355514165139
 20
-9.080592210764946
 30
0.0
 10
33.1871531200877
 20
-9.180635182807536
 30
0.0
 10
33.4451857816585
 20
-9.247516675934758
 30
0.0
 10
33.49700465070384
 20
-9.258175308003009
 30
0.0
 10
33.54644938782624
 20
-9.26551947480706
 30
0.0
  0
LINE
  5
5722
330
56B8
100
AcDbEntity
  8
0
100
AcDbLine
 10
20.64532330153735
 20
-19.67261237416654
 30
0.0
 11
32.70089999655326
 21
-8.934721694730408
 31
0.0
  0
SPLINE
  5
5723
330
56B8
100
AcDbEntity
  8
0
100
AcDbSpline
210
0.0
220
0.0
230
1.0
 70
     8
 71
     3
 72
    10
 73
     6
 74
     0
 42
0.000000001
 43
0.0000000001
 40
0.0
 40
0.0
 40
0.0
 40
0.0
 40
0.1015165183935611
 40
0.1015165183935611
 40
0.3369784092515412
 40
0.3369784092515412
 40
0.3369784092515412
 40
0.3369784092515412
 10
33.01706594125294
 20
-9.802089538566832
 30
0.0
 10
33.24911346597834
 20
-9.566699541799897
 30
0.0
 10
33.47639302176944
 20
-9.336286995196758
 30
0.0
 10
34.23338543013565
 20
-8.570678170675618
 30
0.0
 10
34.7618843767421
 20
-8.038973040859504
 30
0.0
 10
35.29322805777196
 20
-7.508508589212103
 30
0.0
  0
SPLINE
  5
5724
330
56B8
100
AcDbEntity
  8
0
100
AcDbSpline
210
0.0
220
0.0
230
1.0
 70
     8
 71
     3
 72
    24
 73
    20
 74
     0
 42
0.000000001
 43
0.0000000001
 40
0.5560853344415503
 40
0.5560853344415503
 40
0.5560853344415503
 40
0.5560853344415503
 40
0.5585796893309229
 40
0.5585796893309229
 40
0.5612252671965834
 40
0.5612252671965834
 40
0.5638769361063957
 40
0.5638769361063957
 40
0.566527887093862
 40
0.566527887093862
 40
0.5718853986954682
 40
0.5718853986954682
 40
0.5825733511078651
 40
0.5825733511078651
 40
0.6252692059114349
 40
0.6252692059114349
 40
0.7938807462922634
 40
0.7938807462922634
 40
1.162222732472815
 40
1.162222732472815
 40
1.162222732472815
 40
1.162222732472815
 10
28.88117245947278
 20
-13.95372457834953
 30
0.0
 10
28.88117246009649
 20
-13.95372457774963
 30
0.0
 10
28.88159458103353
 20
-13.95331864180973
 30
0.0
 10
28.88358675244449
 20
-13.95139908029385
 30
0.0
 10
28.88524541444848
 20
-13.94979994810102
 30
0.0
 10
28.88999969575135
 20
-13.94520945275904
 30
0.0
 10
28.89314103915574
 20
-13.94217378978232
 30
0.0
 10
28.90071112071242
 20
-13.93484860845742
 30
0.0
 10
28.90518733817604
 20
-13.93051304286412
 30
0.0
 10
28.91997060135892
 20
-13.91617757797589
 30
0.0
 10
28.93175655769225
 20
-13.90472680912727
 30
0.0
 10
28.96784437323224
 20
-13.86959931840325
 30
0.0
 10
28.99378153857264
 20
-13.84427126463917
 30
0.0
 10
29.12083005457881
 20
-13.71991593159809
 30
0.0
 10
29.22206502920362
 20
-13.61999609434292
 30
0.0
 10
29.71142122167007
 20
-13.13529723444105
 30
0.0
 10
30.08955106213061
 20
-12.75574012308215
 30
0.0
 10
31.30569625946505
 20
-11.53316321066455
 30
0.0
 10
32.15737090516675
 20
-10.67416784237271
 30
0.0
 10
33.01706594125295
 20
-9.80208953856682
 30
0.0
  0
ELLIPSE
  5
5725
330
56B8
100
AcDbEntity
  8
0
100
AcDbEllipse
 10
36.80710582498342
 20
2.631932536224004
 30
0.0
 11
-11.2870206133442
 21
-19.54969316838672
 31
0.0
210
0.0
220
0.0
230
1.0
 40
0.5773502691896263
 41
1.129003105775296
 42
2.012589547814627
  0
SPLINE
  5
5726
330
56B8
100
AcDbEntity
  8
0
100
AcDbSpline
210
0.0
220
0.0
230
1.0
 70
     8
 71
     3
 72
    16
 73
    12
 74
     0
 42
0.000000001
 43
0.0000000001
 40
0.3436049423777823
 40
0.3436049423777823
 40
0.3436049423777823
 40
0.3436049423777823
 40
0.5203222307856487
 40
0.5203222307856487
 40
0.6970395191935151
 40
0.6970395191935151
 40
0.8737568076013813
 40
0.8737568076013813
 40
1.050474096009247
 40
1.050474096009247
 40
1.227191384417114
 40
1.227191384417114
 40
1.227191384417114
 40
1.227191384417114
 10
44.83130781378565
 20
9.010421450217949
 30
0.0
 10
44.52554466330266
 20
7.847117780870913
 30
0.0
 10
44.13925582435545
 20
6.65401906006317
 30
0.0
 10
43.21634969134314
 20
4.261319926222375
 30
0.0
 10
42.67979394188019
 20
3.061750545452466
 30
0.0
 10
41.47607332871719
 20
0.7066409793023542
 30
0.0
 10
40.80894097483615
 20
-0.4488661529926264
 30
0.0
 10
39.37121656843591
 20
-2.668873566125821
 30
0.0
 10
38.60063688581867
 20
-3.733329166092286
 30
0.0
 10
36.98995171880568
 20
-5.72893888950981
 30
0.0
 10
36.14984233683706
 20
-6.660024197640361
 30
0.0
 10
35.29527338210838
 20
-7.506474688173315
 30
0.0
  0
ELLIPSE
  5
5727
330
56B8
100
AcDbEntity
  8
0
100
AcDbEllipse
 10
-43.34042779113395
 20
-63.36314723318837
 30
0.0
 11
5.500000000000001
 21
-0.0000000000000001
 31
0.0
210
0.0
220
0.0
230
1.0
 40
0.5773502691896257
 41
0.3272204132950656
 42
2.814372240294728
  0
ELLIPSE
  5
5728
330
56B8
100
AcDbEntity
  8
0
100
AcDbEllipse
 10
-43.34042779113395
 20
-61.32190578086906
 30
0.0
 11
-5.5
 21
0.0000000000003286
 31
0.0
210
0.0
220
0.0
230
1.0
 40
0.5773502691896259
 41
0.0
 42
6.283185307179586
  0
ELLIPSE
  5
5729
330
56B8
100
AcDbEntity
  8
0
100
AcDbEllipse
 10
14.9958816567562
 20
-29.68266326991967
 30
0.0
 11
5.500000000000001
 21
-0.0000000000000001
 31
0.0
210
0.0
220
0.0
230
1.0
 40
0.5773502691896257
 41
0.3272204132950656
 42
2.356194490192345
  0
LINE
  5
572A
330
56B8
100
AcDbEntity
  8
0
100
AcDbLine
 10
11.10679436023018
 20
-27.43729767236843
 30
0.0
 11
-5.156661607060408
 21
-36.82700835303729
 31
0.0
  0
ELLIPSE
  5
572B
330
56B8
100
AcDbEntity
  8
0
100
AcDbEllipse
 10
-1.267574310534396
 20
-39.07237395058853
 30
0.0
 11
-5.5
 21
-0.0000000000000003
 31
0.0
210
0.0
220
0.0
230
1.0
 40
0.5773502691896259
 41
5.497787143782137
 42
5.955964893884519
  0
ELLIPSE
  5
572C
330
56B8
100
AcDbEntity
  8
0
100
AcDbEllipse
 10
14.9958816567562
 20
-27.64142181760036
 30
0.0
 11
5.5
 21
-0.0000000000003286
 31
0.0
210
0.0
220
0.0
230
1.0
 40
0.5773502691896259
 41
5.49778714378238
 42
8.639379797372173
  0
LINE
  5
572D
330
56B8
100
AcDbEntity
  8
0
100
AcDbLine
 10
18.88496895328221
 20
-29.8867874151516
 30
0.0
 11
2.621512985991625
 21
-39.27649809582047
 31
0.0
  0
ELLIPSE
  5
572E
330
56B8
100
AcDbEntity
  8
0
100
AcDbEllipse
 10
-1.267574310534396
 20
-37.03113249826921
 30
0.0
 11
-5.5
 21
0.0000000000003286
 31
0.0
210
0.0
220
0.0
230
1.0
 40
0.5773502691896259
 41
5.49778714378238
 42
8.639379797372173
  0
LINE
  5
572F
330
56B8
100
AcDbEntity
  8
0
100
AcDbLine
 10
-5.156661607060408
 20
-34.78576690071797
 30
0.0
 11
11.10679436023018
 21
-25.39605622004911
 31
0.0
  0
LINE
  5
5730
330
56B8
100
AcDbEntity
  8
0
100
AcDbLine
 10
11.10679436023018
 20
-25.39605622004911
 30
0.0
 11
11.10679436023018
 21
-27.43729767236843
 31
0.0
  0
LINE
  5
5731
330
56B8
100
AcDbEntity
  8
0
100
AcDbLine
 10
-5.156661607060408
 20
-34.78576690071797
 30
0.0
 11
-5.156661607060408
 21
-36.82700835303729
 31
0.0
  0
ELLIPSE
  5
5732
330
56B8
100
AcDbEntity
  8
0
100
AcDbEllipse
 10
-61.01809732079765
 20
-57.23942287623045
 30
0.0
 11
-2.5
 21
-0.000000000000149
 31
0.0
210
0.0
220
0.0
230
1.0
 40
0.5773502691896258
 41
3.926990816987004
 42
5.497787143781897
  0
ELLIPSE
  5
5733
330
56B8
100
AcDbEntity
  8
0
100
AcDbEllipse
 10
-18.5916904496048
 20
-32.74452544839866
 30
0.0
 11
-2.5
 21
-0.000000000000149
 31
0.0
210
0.0
220
0.0
230
1.0
 40
0.5773502691896258
 41
3.926990816987
 42
5.497787143781898
  0
ELLIPSE
  5
5734
330
56B8
100
AcDbEntity
  8
0
100
AcDbEllipse
 10
-39.80489388520123
 20
-53.1569399715918
 30
0.0
 11
-2.5
 21
-0.0000000000001497
 31
0.0
210
0.0
220
0.0
230
1.0
 40
0.5773502691896258
 41
3.926990816986998
 42
5.497787143781896
  0
ELLIPSE
  5
5735
330
56B8
100
AcDbEntity
  8
0
100
AcDbEllipse
 10
-25.66275826147027
 20
-61.32190578086906
 30
0.0
 11
-2.5
 21
-0.000000000000149
 31
0.0
210
0.0
220
0.0
230
1.0
 40
0.5773502691896258
 41
3.926990816987
 42
5.497787143781896
  0
ELLIPSE
  5
5736
330
56B8
100
AcDbEntity
  8
0
100
AcDbEllipse
 10
9.692580797857095
 20
-49.07445706695317
 30
0.0
 11
-2.5
 21
-0.000000000000149
 31
0.0
210
0.0
220
0.0
230
1.0
 40
0.5773502691896258
 41
3.926990816987
 42
5.497787143781897
  0
ELLIPSE
  5
5737
330
56B8
100
AcDbEntity
  8
0
100
AcDbEllipse
 10
-4.449554825873844
 20
-57.23942287623043
 30
0.0
 11
-2.5
 21
-0.000000000000149
 31
0.0
210
0.0
220
0.0
230
1.0
 40
0.5773502691896258
 41
3.926990816987
 42
5.497787143781897
  0
ELLIPSE
  5
5738
330
56B8
100
AcDbEntity
  8
0
100
AcDbEllipse
 10
-32.73382607333574
 20
-73.56935449478497
 30
0.0
 11
-2.5
 21
-0.000000000000149
 31
0.0
210
0.0
220
0.0
230
1.0
 40
0.5773502691896258
 41
3.926990816987
 42
5.497787143781896
  0
ELLIPSE
  5
5739
330
56B8
100
AcDbEntity
  8
0
100
AcDbEllipse
 10
-32.73382607333576
 20
-40.90949125767592
 30
0.0
 11
-2.5
 21
-0.000000000000149
 31
0.0
210
0.0
220
0.0
230
1.0
 40
0.5773502691896258
 41
3.926990816987
 42
5.497787143781898
  0
ELLIPSE
  5
573A
330
56B8
100
AcDbEntity
  8
0
100
AcDbEllipse
 10
-4.449554825873862
 20
-24.57955963912139
 30
0.0
 11
-2.5
 21
-0.000000000000149
 31
0.0
210
0.0
220
0.0
230
1.0
 40
0.5773502691896258
 41
3.926990816987
 42
5.497787143781899
  0
ELLIPSE
  5
573B
330
56B8
100
AcDbEntity
  8
0
100
AcDbEllipse
 10
9.692580797857077
 20
-16.41459382984413
 30
0.0
 11
-2.5
 21
-0.000000000000149
 31
0.0
210
0.0
220
0.0
230
1.0
 40
0.5773502691896258
 41
3.926990816987
 42
5.497787143781897
  0
ELLIPSE
  5
573C
330
56B8
100
AcDbEntity
  8
0
100
AcDbEllipse
 10
23.83471642158803
 20
-8.249628020566866
 30
0.0
 11
-2.5
 21
-0.000000000000149
 31
0.0
210
0.0
220
0.0
230
1.0
 40
0.5773502691896258
 41
3.926990816987
 42
5.497787143781899
  0
ELLIPSE
  5
573D
330
56B8
100
AcDbEntity
  8
0
100
AcDbEllipse
 10
23.83471642158804
 20
-40.9094912576759
 30
0.0
 11
-2.5
 21
-0.000000000000149
 31
0.0
210
0.0
220
0.0
230
1.0
 40
0.5773502691896258
 41
3.926990816987
 42
5.497787143781899
  0
ELLIPSE
  5
573E
330
56B8
100
AcDbEntity
  8
0
100
AcDbEllipse
 10
37.97685204531899
 20
-32.74452544839865
 30
0.0
 11
-2.5
 21
-0.000000000000149
 31
0.0
210
0.0
220
0.0
230
1.0
 40
0.5773502691896258
 41
3.926990816987
 42
5.497787143781899
  0
ELLIPSE
  5
573F
330
56B8
100
AcDbEntity
  8
0
100
AcDbEllipse
 10
52.11898766904994
 20
-24.57955963912138
 30
0.0
 11
-2.5
 21
-0.000000000000149
 31
0.0
210
0.0
220
0.0
230
1.0
 40
0.5773502691896258
 41
3.926990816987006
 42
5.497787143781899
  0
ELLIPSE
  5
5740
330
56B8
100
AcDbEntity
  8
0
100
AcDbEllipse
 10
-61.01809732079765
 20
-55.19818142391113
 30
0.0
 11
-2.5
 21
0.0000000000001495
 31
0.0
210
0.0
220
0.0
230
1.0
 40
0.5773502691896258
 41
0.0
 42
6.283185307179586
  0
ELLIPSE
  5
5741
330
56B8
100
AcDbEntity
  8
0
100
AcDbEllipse
 10
-18.5916904496048
 20
-30.70328399607934
 30
0.0
 11
-2.5
 21
0.0000000000001495
 31
0.0
210
0.0
220
0.0
230
1.0
 40
0.5773502691896258
 41
0.0
 42
6.283185307179586
  0
ELLIPSE
  5
5742
330
56B8
100
AcDbEntity
  8
0
100
AcDbEllipse
 10
9.692580797857077
 20
-14.37335237752481
 30
0.0
 11
-2.5
 21
0.0000000000001495
 31
0.0
210
0.0
220
0.0
230
1.0
 40
0.5773502691896258
 41
0.0
 42
6.283185307179586
  0
ELLIPSE
  5
5743
330
56B8
100
AcDbEntity
  8
0
100
AcDbEllipse
 10
-39.80489388520123
 20
-51.11569851927249
 30
0.0
 11
-2.5
 21
0.0000000000001495
 31
0.0
210
0.0
220
0.0
230
1.0
 40
0.5773502691896258
 41
0.0
 42
6.283185307179586
  0
ELLIPSE
  5
5744
330
56B8
100
AcDbEntity
  8
0
100
AcDbEllipse
 10
-25.66275826147027
 20
-59.28066432854976
 30
0.0
 11
-2.5
 21
0.0000000000001495
 31
0.0
210
0.0
220
0.0
230
1.0
 40
0.5773502691896258
 41
0.0
 42
6.283185307179586
  0
ELLIPSE
  5
5745
330
56B8
100
AcDbEntity
  8
0
100
AcDbEllipse
 10
9.692580797857095
 20
-47.03321561463385
 30
0.0
 11
-2.5
 21
0.0000000000001495
 31
0.0
210
0.0
220
0.0
230
1.0
 40
0.5773502691896258
 41
0.0
 42
6.283185307179586
  0
ELLIPSE
  5
5746
330
56B8
100
AcDbEntity
  8
0
100
AcDbEllipse
 10
37.97685204531899
 20
-30.70328399607933
 30
0.0
 11
-2.5
 21
0.0000000000001495
 31
0.0
210
0.0
220
0.0
230
1.0
 40
0.5773502691896258
 41
0.0
 42
6.283185307179586
  0
ELLIPSE
  5
5747
330
56B8
100
AcDbEntity
  8
0
100
AcDbEllipse
 10
52.11898766904994
 20
-22.53831818680207
 30
0.0
 11
-2.5
 21
0.0000000000001495
 31
0.0
210
0.0
220
0.0
230
1.0
 40
0.5773502691896258
 41
0.0
 42
6.283185307179586
  0
ELLIPSE
  5
5748
330
56B8
100
AcDbEntity
  8
0
100
AcDbEllipse
 10
23.83471642158804
 20
-38.86824980535659
 30
0.0
 11
-2.5
 21
0.0000000000001495
 31
0.0
210
0.0
220
0.0
230
1.0
 40
0.5773502691896258
 41
0.0
 42
6.283185307179586
  0
ELLIPSE
  5
5749
330
56B8
100
AcDbEntity
  8
0
100
AcDbEllipse
 10
-4.449554825873844
 20
-55.19818142391113
 30
0.0
 11
-2.5
 21
0.0000000000001495
 31
0.0
210
0.0
220
0.0
230
1.0
 40
0.5773502691896258
 41
0.0
 42
6.283185307179586
  0
ELLIPSE
  5
574A
330
56B8
100
AcDbEntity
  8
0
100
AcDbEllipse
 10
-32.73382607333574
 20
-71.52811304246566
 30
0.0
 11
-2.5
 21
0.0000000000001495
 31
0.0
210
0.0
220
0.0
230
1.0
 40
0.5773502691896258
 41
0.0
 42
6.283185307179586
  0
ELLIPSE
  5
574B
330
56B8
100
AcDbEntity
  8
0
100
AcDbEllipse
 10
23.83471642158803
 20
-6.208386568247551
 30
0.0
 11
-2.5
 21
0.0000000000001495
 31
0.0
210
0.0
220
0.0
230
1.0
 40
0.5773502691896258
 41
0.0
 42
6.283185307179586
  0
ELLIPSE
  5
574C
330
56B8
100
AcDbEntity
  8
0
100
AcDbEllipse
 10
-4.449554825873862
 20
-22.53831818680208
 30
0.0
 11
-2.5
 21
0.0000000000001495
 31
0.0
210
0.0
220
0.0
230
1.0
 40
0.5773502691896258
 41
0.0
 42
6.283185307179586
  0
ELLIPSE
  5
574D
330
56B8
100
AcDbEntity
  8
0
100
AcDbEllipse
 10
-32.73382607333576
 20
-38.8682498053566
 30
0.0
 11
-2.5
 21
0.0000000000001495
 31
0.0
210
0.0
220
0.0
230
1.0
 40
0.5773502691896258
 41
0.0
 42
6.283185307179586
  0
ENDBLK
  5
56BA
330
56B8
100
AcDbEntity
  8
0
100
AcDbBlockEnd
  0
ENDSEC
  0
SECTION
  2
ENTITIES
  0
INSERT
  5
574E
330
1F
100
AcDbEntity
  8
0
100
AcDbBlockReference
  2
E9S_2.5-Front
 10
0.0
 20
0.0
 30
0.0
  0
INSERT
  5
574F
330
1F
100
AcDbEntity
  8
0
100
AcDbBlockReference
  2
E9S_2.5-Left
 10
69.50000000000001
 20
0.0
 30
0.0
  0
INSERT
  5
5750
330
1F
100
AcDbEntity
  8
0
100
AcDbBlockReference
  2
E9S_2.5-Right
 10
-69.50000000000002
 20
0.0
 30
0.0
  0
INSERT
  5
5751
330
1F
100
AcDbEntity
  8
0
100
AcDbBlockReference
  2
E9S_2.5-Top
 10
0.0
 20
-37.0
 30
0.0
  0
INSERT
  5
5752
330
1F
100
AcDbEntity
  8
0
100
AcDbBlockReference
  2
E9S_2.5-Bottom
 10
0.0
 20
131.0
 30
0.0
  0
INSERT
  5
5753
330
1F
100
AcDbEntity
  8
0
100
AcDbBlockReference
  2
E9S_2.5-ISO
 10
146.427999897495
 20
-119.7897407528746
 30
0.0
  0
MTEXT
  5
5754
330
1F
100
AcDbEntity
  8
0
100
AcDbMText
 10
0.0
 20
-226.5
 30
0.0
 40
12.33333333333333
 41
0.0
 71
     5
 72
     5
  1
E9S/2.5
 73
     1
 44
1.0
1001
ACAD
1000
MTEXTBEGIN
1070
    73
1070
     1
1070
    44
1040
1.0
1070
    74
1070
     0
1000
MTEXTEND
  0
ENDSEC
  0
SECTION
  2
OBJECTS
  0
DICTIONARY
  5
C
330
0
100
AcDbDictionary
281
     1
  3
ACAD_CIP_PREVIOUS_PRODUCT_INFO
350
216
  3
ACAD_COLOR
350
6B
  3
ACAD_DETAILVIEWSTYLE
350
21B
  3
ACAD_GROUP
350
D
  3
ACAD_LAYOUT
350
1A
  3
ACAD_MATERIAL
350
6A
  3
ACAD_MLEADERSTYLE
350
12D
  3
ACAD_MLINESTYLE
350
17
  3
ACAD_PLOTSETTINGS
350
19
  3
ACAD_PLOTSTYLENAME
350
E
  3
ACAD_SCALELIST
350
10C
  3
ACAD_SECTIONVIEWSTYLE
350
219
  3
ACAD_TABLESTYLE
350
7E
  3
ACAD_VISUALSTYLE
350
EF
  3
ACDB_RECOMPOSE_DATA
350
5857
  3
AcDbVariableDictionary
350
5E
  3
DWGPROPS
350
5858
  0
DICTIONARY
  5
57A7
330
8
100
AcDbDictionary
280
     1
281
     1
  0
DICTIONARY
  5
1FF
330
2
100
AcDbDictionary
280
     1
281
     1
  3
ACAD_LAYERSTATES
360
200
  0
DICTIONARY
  5
13C
330
10
100
AcDbDictionary
280
     1
281
     1
  0
DICTIONARY
  5
1CE
330
1F
100
AcDbDictionary
280
     1
281
     1
  3
ACAD_LAYOUTSELFREF
360
57AF
  0
DICTIONARY
  5
5758
330
D2
100
AcDbDictionary
280
     1
281
     1
  3
ACAD_LAYOUTSELFREF
360
57B8
  0
DICTIONARY
  5
575A
330
D6
100
AcDbDictionary
280
     1
281
     1
  3
ACAD_LAYOUTSELFREF
360
57BB
  0
XRECORD
  5
216
102
{ACAD_REACTORS
330
C
102
}
330
C
100
AcDbXrecord
280
     1
300
ACD
300
2021
300

  0
DICTIONARY
  5
6B
102
{ACAD_REACTORS
330
C
102
}
330
C
100
AcDbDictionary
281
     1
  0
DICTIONARY
  5
21B
102
{ACAD_REACTORS
330
C
102
}
330
C
100
AcDbDictionary
281
     1
  3
Metric50
350
21C
  0
DICTIONARY
  5
D
102
{ACAD_REACTORS
330
C
102
}
330
C
100
AcDbDictionary
281
     1
  0
DICTIONARY
  5
1A
102
{ACAD_REACTORS
330
C
102
}
330
C
100
AcDbDictionary
281
     1
  3
Layout1
350
D3
  3
Layout2
350
D7
  3
Model
350
22
  0
DICTIONARY
  5
6A
102
{ACAD_REACTORS
330
C
102
}
330
C
100
AcDbDictionary
281
     1
  3
ByBlock
350
ED
  3
ByLayer
350
EC
  3
Global
350
EE
  0
DICTIONARY
  5
12D
102
{ACAD_REACTORS
330
C
102
}
330
C
100
AcDbDictionary
281
     1
  3
Standard
350
12E
  0
DICTIONARY
  5
17
102
{ACAD_REACTORS
330
C
102
}
330
C
100
AcDbDictionary
281
     1
  3
Standard
350
18
  0
DICTIONARY
  5
19
102
{ACAD_REACTORS
330
C
102
}
330
C
100
AcDbDictionary
281
     1
  0
ACDBDICTIONARYWDFLT
  5
E
102
{ACAD_REACTORS
330
C
102
}
330
C
100
AcDbDictionary
281
     1
  3
Normal
350
F
100
AcDbDictionaryWithDefault
340
F
  0
DICTIONARY
  5
10C
102
{ACAD_REACTORS
330
C
102
}
330
C
100
AcDbDictionary
281
     1
  3
A0
350
10D
  3
A1
350
1BE
  3
A2
350
1BF
  3
A3
350
1C0
  3
A4
350
1C1
  3
A5
350
1C2
  3
A6
350
1C3
  3
A7
350
1C4
  3
A8
350
1C5
  3
A9
350
1C6
  3
B0
350
1C7
  3
B1
350
1C8
  3
B2
350
1C9
  3
B3
350
1CA
  3
B4
350
1CB
  3
B5
350
1CC
  3
B6
350
1CD
  0
DICTIONARY
  5
219
102
{ACAD_REACTORS
330
C
102
}
330
C
100
AcDbDictionary
281
     1
  3
Metric50
350
21A
  0
DICTIONARY
  5
7E
102
{ACAD_REACTORS
330
C
102
}
330
C
100
AcDbDictionary
281
     1
  3
Standard
350
7F
  0
DICTIONARY
  5
EF
102
{ACAD_REACTORS
330
C
102
}
330
C
100
AcDbDictionary
281
     1
  3
2dWireframe
350
F5
  3
Basic
350
F4
  3
Brighten
350
FB
  3
ColorChange
350
FF
  3
Conceptual
350
F8
  3
Dim
350
FA
  3
EdgeColorOff
350
1E6
  3
Facepattern
350
FE
  3
Flat
350
F0
  3
FlatWithEdges
350
F1
  3
Gouraud
350
F2
  3
GouraudWithEdges
350
F3
  3
Hidden
350
F7
  3
JitterOff
350
1E4
  3
Linepattern
350
FD
  3
OverhangOff
350
1E5
  3
Realistic
350
F9
  3
Shaded
350
1F3
  3
Shaded with edges
350
1F2
  3
Shades of Gray
350
1EF
  3
Sketchy
350
1F0
  3
Thicken
350
FC
  3
Wireframe
350
F6
  3
X-Ray
350
1F1
  0
XRECORD
  5
5857
102
{ACAD_REACTORS
330
C
102
}
330
C
100
AcDbXrecord
280
     1
 90
        1
330
7F
  0
DICTIONARY
  5
5E
102
{ACAD_REACTORS
330
C
102
}
330
C
100
AcDbDictionary
281
     1
  3
CANNOSCALE
350
146
  3
CENTEREXE
350
259
  3
CENTERLTYPEFILE
350
25A
  3
CMLEADERSTYLE
350
145
  3
CTABLESTYLE
350
84
  3
CVIEWDETAILSTYLE
350
227
  3
CVIEWSECTIONSTYLE
350
228
  3
DIMASSOC
350
5F
  3
HIDETEXT
350
63
  3
INDEXCTL
350
5804
  3
LAYEREVAL
350
1AE
  3
LAYERNOTIFY
350
1AF
  3
LIGHTINGUNITS
350
5802
  3
MSLTSCALE
350
5801
  3
PSOLHEIGHT
350
5854
  3
PSOLWIDTH
350
5853
  3
SORTENTS
350
5803
  3
XCLIPFRAME
350
5855
  0
XRECORD
  5
5858
102
{ACAD_REACTORS
330
C
102
}
330
C
100
AcDbXrecord
280
     1
  1
DWGPROPS COOKIE
  2

  3

  4

  6

  7

  8
tronnguyen
  9

300
=
301
=
302
=
303
=
304
=
305
=
306
=
307
=
308
=
309
=
 40
0.0037268518518519
 41
2460367.705740741
 42
2460367.713483797
  1

 90
        0
  0
DICTIONARY
  5
200
102
{ACAD_REACTORS
330
1FF
102
}
330
1FF
100
AcDbDictionary
281
     1
  0
XRECORD
  5
57AF
102
{ACAD_REACTORS
330
1CE
102
}
330
1CE
100
AcDbXrecord
280
     1
340
1F
  0
XRECORD
  5
57B8
102
{ACAD_REACTORS
330
5758
102
}
330
5758
100
AcDbXrecord
280
     1
340
D2
  0
XRECORD
  5
57BB
102
{ACAD_REACTORS
330
575A
102
}
330
575A
100
AcDbXrecord
280
     1
340
D6
  0
ACDBDETAILVIEWSTYLE
  5
21C
102
{ACAD_XDICTIONARY
360
5897
102
}
102
{ACAD_REACTORS
330
21B
102
}
330
21B
100
AcDbModelDocViewStyle
 70
     0
  3
Metric50
290
     0
100
AcDbDetailViewStyle
 70
     0
 71
     0
 90
        3
 71
     1
340
11
 40
5.0
340
0
 40
5.0
300

 40
0.0
280
     1
 71
     2
340
16
 90
       25
 71
     3
340
11
 40
5.0
 90
        0
 40
15.0
 90
        1
300
%<\AcVar ViewDetailId>% (%<\AcVar ViewScale \f "%sn">%)
 71
     4
340
16
 90
       25
340
16
 90
       25
280
     0
  0
LAYOUT
  5
D3
102
{ACAD_XDICTIONARY
360
585C
102
}
102
{ACAD_REACTORS
330
1A
102
}
330
1A
100
AcDbPlotSettings
  1

  2
C:\Documents and Settings\basas\Application Data\Autodesk\AutoCAD 2005\R16.1\enu\plotters\Default Windows System Printer.pc3
  4

  6

 40
0.0
 41
0.0
 42
0.0
 43
0.0
 44
0.0
 45
0.0
 46
0.0
 47
0.0
 48
0.0
 49
0.0
140
0.0
141
0.0
142
1.0
143
1.0
 70
   688
 72
     0
 73
     0
 74
     5
  7

 75
    16
147
1.0
148
0.0
149
0.0
100
AcDbLayout
  1
Layout1
 70
     1
 71
     1
 10
0.0
 20
0.0
 11
12.0
 21
9.0
 12
0.0
 22
0.0
 32
0.0
 14
0.0
 24
0.0
 34
0.0
 15
0.0
 25
0.0
 35
0.0
146
0.0
 13
0.0
 23
0.0
 33
0.0
 16
1.0
 26
0.0
 36
0.0
 17
0.0
 27
1.0
 37
0.0
 76
     0
330
D2
  0
LAYOUT
  5
D7
102
{ACAD_XDICTIONARY
360
585E
102
}
102
{ACAD_REACTORS
330
1A
102
}
330
1A
100
AcDbPlotSettings
  1

  2
C:\Documents and Settings\basas\Application Data\Autodesk\AutoCAD 2005\R16.1\enu\plotters\Default Windows System Printer.pc3
  4

  6

 40
0.0
 41
0.0
 42
0.0
 43
0.0
 44
0.0
 45
0.0
 46
0.0
 47
0.0
 48
0.0
 49
0.0
140
0.0
141
0.0
142
1.0
143
1.0
 70
   688
 72
     0
 73
     0
 74
     5
  7

 75
    16
147
1.0
148
0.0
149
0.0
100
AcDbLayout
  1
Layout2
 70
     1
 71
     2
 10
0.0
 20
0.0
 11
12.0
 21
9.0
 12
0.0
 22
0.0
 32
0.0
 14
0.0
 24
0.0
 34
0.0
 15
0.0
 25
0.0
 35
0.0
146
0.0
 13
0.0
 23
0.0
 33
0.0
 16
1.0
 26
0.0
 36
0.0
 17
0.0
 27
1.0
 37
0.0
 76
     0
330
D6
  0
LAYOUT
  5
22
102
{ACAD_XDICTIONARY
360
5859
102
}
102
{ACAD_REACTORS
330
1A
102
}
330
1A
100
AcDbPlotSettings
  1

  2
none_device
  4
ISO_A4_(210.00_x_297.00_MM)
  6

 40
7.5
 41
20.0
 42
7.5
 43
20.0
 44
210.0
 45
297.0
 46
11.54999923706054
 47
-13.65000009536743
 48
0.0
 49
0.0
140
0.0
141
0.0
142
1.0
143
8.704084754739808
 70
 11952
 72
     1
 73
     0
 74
     0
  7

 75
     0
147
0.1148885871608098
148
0.0
149
0.0
100
AcDbLayout
  1
Model
 70
     1
 71
     0
 10
0.0
 20
0.0
 11
12.0
 21
9.0
 12
0.0
 22
0.0
 32
0.0
 14
0.0
 24
0.0
 34
0.0
 15
0.0
 25
0.0
 35
0.0
146
0.0
 13
0.0
 23
0.0
 33
0.0
 16
1.0
 26
0.0
 36
0.0
 17
0.0
 27
1.0
 37
0.0
 76
     0
330
1F
331
EA
1001
ACAD_PSEXT
1000
None
1000
None
1000
Not applicable
1000
The layout will not be plotted unless a new plotter configuration name is selected.
1070
     0
  0
MATERIAL
  5
ED
102
{ACAD_XDICTIONARY
360
1F9
102
}
102
{ACAD_REACTORS
330
6A
102
}
330
6A
100
AcDbMaterial
  1
ByBlock
  0
MATERIAL
  5
EC
102
{ACAD_XDICTIONARY
360
1F7
102
}
102
{ACAD_REACTORS
330
6A
102
}
330
6A
100
AcDbMaterial
  1
ByLayer
  0
MATERIAL
  5
EE
102
{ACAD_XDICTIONARY
360
173
102
}
102
{ACAD_REACTORS
330
6A
102
}
330
6A
100
AcDbMaterial
  1
Global
 43
0.0007999999797903
 43
0.0
 43
0.0
 43
0.0
 43
0.0
 43
0.0007999999797903
 43
0.0
 43
0.0
 43
0.0
 43
0.0
 43
1.0
 43
0.0
 43
0.0
 43
0.0
 43
0.0
 43
1.0
 49
0.0007999999797903
 49
0.0
 49
0.0
 49
0.0
 49
0.0
 49
0.0007999999797903
 49
0.0
 49
0.0
 49
0.0
 49
0.0
 49
1.0
 49
0.0
 49
0.0
 49
0.0
 49
0.0
 49
1.0
142
0.0007999999797903
142
0.0
142
0.0
142
0.0
142
0.0
142
0.0007999999797903
142
0.0
142
0.0
142
0.0
142
0.0
142
1.0
142
0.0
142
0.0
142
0.0
142
0.0
142
1.0
144
0.0007999999797903
144
0.0
144
0.0
144
0.0
144
0.0
144
0.0007999999797903
144
0.0
144
0.0
144
0.0
144
0.0
144
1.0
144
0.0
144
0.0
144
0.0
144
0.0
144
1.0
1001
ACAD
1070
    -1
1070
     3
1070
     0
1000

1071
        0
1070
     0
  0
MLEADERSTYLE
  5
12E
102
{ACAD_XDICTIONARY
360
5883
102
}
102
{ACAD_REACTORS
330
12D
102
}
330
12D
100
AcDbMLeaderStyle
170
     2
171
     1
172
     0
 90
        2
 40
0.0
 41
0.0
173
     1
 91
-1056964608
340
14
 92
       -2
290
     1
 42
2.0
291
     1
 43
8.0
  3
Standard
 44
4.0
300

342
11
174
     1
178
     1
175
     1
176
     0
 93
-1056964608
 45
4.0
292
     0
297
     0
 46
4.0
 94
-1056964608
 47
1.0
 49
1.0
140
1.0
293
     1
141
0.0
294
     1
177
     0
142
1.0
295
     0
296
     0
143
3.75
1001
ACAD_MLEADERVER
1070
     2
  0
MLINESTYLE
  5
18
102
{ACAD_REACTORS
330
17
102
}
330
17
100
AcDbMlineStyle
  2
STANDARD
 70
     0
  3

 62
   256
 51
90.0
 52
90.0
 71
     2
 49
0.5
 62
   256
  6
BYLAYER
 49
-0.5
 62
   256
  6
BYLAYER
  0
ACDBPLACEHOLDER
  5
F
102
{ACAD_REACTORS
330
E
102
}
330
E
  0
SCALE
  5
10D
102
{ACAD_REACTORS
330
10C
102
}
330
10C
100
AcDbScale
 70
     0
300
1:1
140
1.0
141
1.0
290
     1
  0
SCALE
  5
1BE
102
{ACAD_REACTORS
330
10C
102
}
330
10C
100
AcDbScale
 70
     0
300
1:2
140
1.0
141
2.0
290
     0
  0
SCALE
  5
1BF
102
{ACAD_REACTORS
330
10C
102
}
330
10C
100
AcDbScale
 70
     0
300
1:4
140
1.0
141
4.0
290
     0
  0
SCALE
  5
1C0
102
{ACAD_REACTORS
330
10C
102
}
330
10C
100
AcDbScale
 70
     0
300
1:5
140
1.0
141
5.0
290
     0
  0
SCALE
  5
1C1
102
{ACAD_REACTORS
330
10C
102
}
330
10C
100
AcDbScale
 70
     0
300
1:8
140
1.0
141
8.0
290
     0
  0
SCALE
  5
1C2
102
{ACAD_REACTORS
330
10C
102
}
330
10C
100
AcDbScale
 70
     0
300
1:10
140
1.0
141
10.0
290
     0
  0
SCALE
  5
1C3
102
{ACAD_REACTORS
330
10C
102
}
330
10C
100
AcDbScale
 70
     0
300
1:16
140
1.0
141
16.0
290
     0
  0
SCALE
  5
1C4
102
{ACAD_REACTORS
330
10C
102
}
330
10C
100
AcDbScale
 70
     0
300
1:20
140
1.0
141
20.0
290
     0
  0
SCALE
  5
1C5
102
{ACAD_REACTORS
330
10C
102
}
330
10C
100
AcDbScale
 70
     0
300
1:30
140
1.0
141
30.0
290
     0
  0
SCALE
  5
1C6
102
{ACAD_REACTORS
330
10C
102
}
330
10C
100
AcDbScale
 70
     0
300
1:40
140
1.0
141
40.0
290
     0
  0
SCALE
  5
1C7
102
{ACAD_REACTORS
330
10C
102
}
330
10C
100
AcDbScale
 70
     0
300
1:50
140
1.0
141
50.0
290
     0
  0
SCALE
  5
1C8
102
{ACAD_REACTORS
330
10C
102
}
330
10C
100
AcDbScale
 70
     0
300
1:100
140
1.0
141
100.0
290
     0
  0
SCALE
  5
1C9
102
{ACAD_REACTORS
330
10C
102
}
330
10C
100
AcDbScale
 70
     0
300
2:1
140
2.0
141
1.0
290
     0
  0
SCALE
  5
1CA
102
{ACAD_REACTORS
330
10C
102
}
330
10C
100
AcDbScale
 70
     0
300
4:1
140
4.0
141
1.0
290
     0
  0
SCALE
  5
1CB
102
{ACAD_REACTORS
330
10C
102
}
330
10C
100
AcDbScale
 70
     0
300
8:1
140
8.0
141
1.0
290
     0
  0
SCALE
  5
1CC
102
{ACAD_REACTORS
330
10C
102
}
330
10C
100
AcDbScale
 70
     0
300
10:1
140
10.0
141
1.0
290
     0
  0
SCALE
  5
1CD
102
{ACAD_REACTORS
330
10C
102
}
330
10C
100
AcDbScale
 70
     0
300
100:1
140
100.0
141
1.0
290
     0
  0
ACDBSECTIONVIEWSTYLE
  5
21A
102
{ACAD_XDICTIONARY
360
5895
102
}
102
{ACAD_REACTORS
330
219
102
}
330
219
100
AcDbModelDocViewStyle
 70
     0
  3
Metric50
290
     0
100
AcDbSectionViewStyle
 70
     0
 71
     0
 90
      102
 71
     1
340
11
 40
5.0
340
0
340
0
 40
5.0
300
I, O, Q, S, X, Z
 40
10.0
 90
        0
 40
2.5
 90
        0
 71
     2
340
16
 90
       25
340
16
 90
       50
 40
5.0
 40
2.5
 40
5.0
 71
     3
340
11
 40
5.0
 90
        0
 40
15.0
 90
        1
300
%<\AcVar ViewSectionStartId>%-%<\AcVar ViewSectionEndId>% (%<\AcVar ViewScale \f "%sn">%)
 71
     4
300
ANSI31
 40
1.0
 90
        0
290
     0
290
     0
 90
        6
 40
0.0
 40
1.570796326794896
 40
0.2617993877991494
 40
1.308996938995747
 40
-0.2617993877991494
 40
1.832595714594046
  0
TABLESTYLE
  5
7F
102
{ACAD_XDICTIONARY
360
162
102
}
102
{ACAD_REACTORS
330
7E
102
}
330
7E
100
AcDbTableStyle
  3
Standard
 70
     0
 71
     0
 40
1.5
 41
1.5
280
     0
281
     0
  7
Standard
140
4.5
170
     2
 62
     0
 63
     7
283
     0
274
    -2
284
     1
 64
     0
275
    -2
285
     1
 65
     0
276
    -2
286
     1
 66
     0
277
    -2
287
     1
 67
     0
278
    -2
288
     1
 68
     0
279
    -2
289
     1
 69
     0
  7
Standard
140
6.0
170
     5
 62
     0
 63
     7
283
     0
274
    -2
284
     1
 64
     0
275
    -2
285
     1
 65
     0
276
    -2
286
     1
 66
     0
277
    -2
287
     1
 67
     0
278
    -2
288
     1
 68
     0
279
    -2
289
     1
 69
     0
  7
Standard
140
4.5
170
     5
 62
     0
 63
     7
283
     0
274
    -2
284
     1
 64
     0
275
    -2
285
     1
 65
     0
276
    -2
286
     1
 66
     0
277
    -2
287
     1
 67
     0
278
    -2
288
     1
 68
     0
279
    -2
289
     1
 69
     0
  0
VISUALSTYLE
  5
F5
102
{ACAD_XDICTIONARY
360
586D
102
}
102
{ACAD_REACTORS
330
EF
102
}
330
EF
100
AcDbVisualStyle
  2
2dWireframe
 70
     4
 71
     0
 72
     2
 73
     1
 90
        0
 40
-0.6
 41
-30.0
 62
     5
 63
     7
 74
     1
 91
        4
 64
     7
 65
   257
 75
     1
175
     1
 42
1.0
 92
        0
 66
   257
 43
1.0
 76
     1
 77
     6
 78
     2
 67
     7
 79
     5
170
     0
171
     0
290
     0
174
     0
 93
        1
 44
0.0
173
     0
291
     0
 45
0.0
1001
ACAD
1000
AcDbSavedByObjectVersion
1070
     0
  0
VISUALSTYLE
  5
F4
102
{ACAD_XDICTIONARY
360
586B
102
}
102
{ACAD_REACTORS
330
EF
102
}
330
EF
100
AcDbVisualStyle
  2
Basic
 70
     7
 71
     1
 72
     0
 73
     1
 90
        0
 40
-0.6
 41
-30.0
 62
     5
 63
     7
 74
     0
 91
        4
 64
     7
 65
   257
 75
     1
175
     1
 42
1.0
 92
        8
 66
     7
 43
1.0
 76
     1
 77
     6
 78
     2
 67
     7
 79
     5
170
     0
171
     0
290
     0
174
     0
 93
        1
 44
0.0
173
     0
291
     1
 45
0.0
1001
ACAD
1000
AcDbSavedByObjectVersion
1070
     0
  0
VISUALSTYLE
  5
FB
102
{ACAD_XDICTIONARY
360
5879
102
}
102
{ACAD_REACTORS
330
EF
102
}
330
EF
100
AcDbVisualStyle
  2
Brighten
 70
    12
 71
     2
 72
     2
 73
     1
 90
        0
 40
-0.6
 41
-30.0
 62
     5
 63
     7
 74
     1
 91
        4
 64
     7
 65
   257
 75
     1
175
     1
 42
1.0
 92
        8
 66
     7
 43
1.0
 76
     1
 77
     6
 78
     2
 67
     7
 79
     5
170
     0
171
     0
290
     0
174
     0
 93
        1
 44
50.0
173
     0
291
     1
 45
0.0
1001
ACAD
1000
AcDbSavedByObjectVersion
1070
     0
  0
VISUALSTYLE
  5
FF
102
{ACAD_XDICTIONARY
360
5881
102
}
102
{ACAD_REACTORS
330
EF
102
}
330
EF
100
AcDbVisualStyle
  2
ColorChange
 70
    16
 71
     2
 72
     2
 73
     3
 90
        0
 40
-0.6
 41
-30.0
 62
     5
 63
     8
 74
     1
 91
        4
 64
     7
 65
   257
 75
     1
175
     1
 42
1.0
 92
        8
 66
     8
 43
1.0
 76
     1
 77
     6
 78
     2
 67
     7
 79
     5
170
     0
171
     0
290
     0
174
     0
 93
        1
 44
0.0
173
     0
291
     1
 45
0.0
1001
ACAD
1000
AcDbSavedByObjectVersion
1070
     0
  0
VISUALSTYLE
  5
F8
102
{ACAD_XDICTIONARY
360
5873
102
}
102
{ACAD_REACTORS
330
EF
102
}
330
EF
100
AcDbVisualStyle
  2
Conceptual
 70
     9
 71
     3
 72
     2
 73
     1
 90
        0
 40
-0.6
 41
-30.0
 62
     5
 63
     7
 74
     2
 91
        2
 64
     7
 65
   257
 75
     1
175
     1
 42
40.0
 92
        8
 66
     7
 43
1.0
 76
     1
 77
     6
 78
     2
 67
     7
 79
     3
170
     0
171
     0
290
     0
174
     0
 93
        1
 44
0.0
173
     0
291
     0
 45
0.0
1001
ACAD
1000
AcDbSavedByObjectVersion
1070
     0
  0
VISUALSTYLE
  5
FA
102
{ACAD_XDICTIONARY
360
5877
102
}
102
{ACAD_REACTORS
330
EF
102
}
330
EF
100
AcDbVisualStyle
  2
Dim
 70
    11
 71
     2
 72
     2
 73
     1
 90
        0
 40
-0.6
 41
-30.0
 62
     5
 63
     7
 74
     1
 91
        4
 64
     7
 65
   257
 75
     1
175
     1
 42
1.0
 92
        8
 66
     7
 43
1.0
 76
     1
 77
     6
 78
     2
 67
     7
 79
     5
170
     0
171
     0
290
     0
174
     0
 93
        1
 44
-50.0
173
     0
291
     1
 45
0.0
1001
ACAD
1000
AcDbSavedByObjectVersion
1070
     0
  0
VISUALSTYLE
  5
1E6
102
{ACAD_XDICTIONARY
360
5889
102
}
102
{ACAD_REACTORS
330
EF
102
}
330
EF
100
AcDbVisualStyle
  2
EdgeColorOff
 70
    22
 71
     2
 72
     2
 73
     0
 90
        0
 40
-0.6
 41
-30.0
 62
     5
 63
     7
 74
     1
 91
        4
 64
     7
 65
   257
 75
     1
175
     1
 42
1.0
 92
        8
 66
     7
 43
1.0
 76
     1
 77
     6
 78
     2
 67
     7
 79
     5
170
     0
171
     0
290
     0
174
     0
 93
        1
 44
0.0
173
     0
291
     1
 45
0.0
1001
ACAD
1000
AcDbSavedByObjectVersion
1070
     0
  0
VISUALSTYLE
  5
FE
102
{ACAD_XDICTIONARY
360
587F
102
}
102
{ACAD_REACTORS
330
EF
102
}
330
EF
100
AcDbVisualStyle
  2
Facepattern
 70
    15
 71
     2
 72
     2
 73
     1
 90
        0
 40
-0.6
 41
-30.0
 62
     5
 63
     7
 74
     1
 91
        4
 64
     7
 65
   257
 75
     1
175
     1
 42
1.0
 92
        8
 66
     7
 43
1.0
 76
     1
 77
     6
 78
     2
 67
     7
 79
     5
170
     0
171
     0
290
     0
174
     0
 93
        1
 44
0.0
173
     0
291
     1
 45
0.0
1001
ACAD
1000
AcDbSavedByObjectVersion
1070
     0
  0
VISUALSTYLE
  5
F0
102
{ACAD_XDICTIONARY
360
5863
102
}
102
{ACAD_REACTORS
330
EF
102
}
330
EF
100
AcDbVisualStyle
  2
Flat
 70
     0
 71
     2
 72
     1
 73
     1
 90
        2
 40
-0.6
 41
30.0
 62
     5
 63
     7
 74
     0
 91
        0
 64
     7
 65
   257
 75
     1
175
     1
 42
1.0
 92
        8
 66
     7
 43
1.0
 76
     1
 77
     6
 78
     2
 67
     7
 79
     5
170
     0
171
     0
290
     0
174
     0
 93
       13
 44
0.0
173
     0
291
     1
 45
0.0
1001
ACAD
1000
AcDbSavedByObjectVersion
1070
     0
  0
VISUALSTYLE
  5
F1
102
{ACAD_XDICTIONARY
360
5865
102
}
102
{ACAD_REACTORS
330
EF
102
}
330
EF
100
AcDbVisualStyle
  2
FlatWithEdges
 70
     1
 71
     2
 72
     1
 73
     1
 90
        2
 40
-0.6
 41
30.0
 62
     5
 63
     7
 74
     1
 91
        0
 64
     7
 65
   257
 75
     1
175
     1
 42
1.0
 92
        0
 66
   257
 43
1.0
 76
     1
 77
     6
 78
     2
 67
     7
 79
     5
170
     0
171
     0
290
     0
174
     0
 93
       13
 44
0.0
173
     0
291
     1
 45
0.0
1001
ACAD
1000
AcDbSavedByObjectVersion
1070
     0
  0
VISUALSTYLE
  5
F2
102
{ACAD_XDICTIONARY
360
5867
102
}
102
{ACAD_REACTORS
330
EF
102
}
330
EF
100
AcDbVisualStyle
  2
Gouraud
 70
     2
 71
     2
 72
     2
 73
     1
 90
        2
 40
-0.6
 41
30.0
 62
     5
 63
     7
 74
     0
 91
        0
 64
     7
 65
   257
 75
     1
175
     1
 42
1.0
 92
        0
 66
     7
 43
1.0
 76
     1
 77
     6
 78
     2
 67
     7
 79
     5
170
     0
171
     0
290
     0
174
     0
 93
       13
 44
0.0
173
     0
291
     1
 45
0.0
1001
ACAD
1000
AcDbSavedByObjectVersion
1070
     0
  0
VISUALSTYLE
  5
F3
102
{ACAD_XDICTIONARY
360
5869
102
}
102
{ACAD_REACTORS
330
EF
102
}
330
EF
100
AcDbVisualStyle
  2
GouraudWithEdges
 70
     3
 71
     2
 72
     2
 73
     1
 90
        2
 40
-0.6
 41
30.0
 62
     5
 63
     7
 74
     1
 91
        0
 64
     7
 65
   257
 75
     1
175
     1
 42
1.0
 92
        0
 66
   257
 43
1.0
 76
     1
 77
     6
 78
     2
 67
     7
 79
     5
170
     0
171
     0
290
     0
174
     0
 93
       13
 44
0.0
173
     0
291
     1
 45
0.0
1001
ACAD
1000
AcDbSavedByObjectVersion
1070
     0
  0
VISUALSTYLE
  5
F7
102
{ACAD_XDICTIONARY
360
5871
102
}
102
{ACAD_REACTORS
330
EF
102
}
330
EF
100
AcDbVisualStyle
  2
Hidden
 70
     6
 71
     1
 72
     2
 73
     2
 90
        0
 40
-0.6
 41
-30.0
 62
     5
 63
     7
 74
     2
 91
        2
 64
     7
 65
   257
 75
     2
175
     1
 42
40.0
 92
        0
 66
   257
 43
1.0
 76
     1
 77
     6
 78
     2
 67
     7
 79
     3
170
     0
171
     0
290
     0
174
     0
 93
        1
 44
0.0
173
     0
291
     0
 45
0.0
1001
ACAD
1000
AcDbSavedByObjectVersion
1070
     0
  0
VISUALSTYLE
  5
1E4
102
{ACAD_XDICTIONARY
360
5885
102
}
102
{ACAD_REACTORS
330
EF
102
}
330
EF
100
AcDbVisualStyle
  2
JitterOff
 70
    20
 71
     2
 72
     2
 73
     0
 90
        0
 40
-0.6
 41
-30.0
 62
     5
 63
     7
 74
     1
 91
        4
 64
     7
 65
   257
 75
     1
175
     1
 42
1.0
 92
       10
 66
     7
 43
1.0
 76
     1
 77
     6
 78
     2
 67
     7
 79
     5
170
     0
171
     0
290
     0
174
     0
 93
        1
 44
0.0
173
     0
291
     1
 45
0.0
1001
ACAD
1000
AcDbSavedByObjectVersion
1070
     0
  0
VISUALSTYLE
  5
FD
102
{ACAD_XDICTIONARY
360
587D
102
}
102
{ACAD_REACTORS
330
EF
102
}
330
EF
100
AcDbVisualStyle
  2
Linepattern
 70
    14
 71
     2
 72
     2
 73
     1
 90
        0
 40
-0.6
 41
-30.0
 62
     5
 63
     7
 74
     1
 91
        4
 64
     7
 65
   257
 75
     7
175
     7
 42
1.0
 92
        8
 66
     7
 43
1.0
 76
     1
 77
     6
 78
     2
 67
     7
 79
     5
170
     0
171
     0
290
     0
174
     0
 93
        1
 44
0.0
173
     0
291
     1
 45
0.0
1001
ACAD
1000
AcDbSavedByObjectVersion
1070
     0
  0
VISUALSTYLE
  5
1E5
102
{ACAD_XDICTIONARY
360
5887
102
}
102
{ACAD_REACTORS
330
EF
102
}
330
EF
100
AcDbVisualStyle
  2
OverhangOff
 70
    21
 71
     2
 72
     2
 73
     0
 90
        0
 40
-0.6
 41
-30.0
 62
     5
 63
     7
 74
     1
 91
        4
 64
     7
 65
   257
 75
     1
175
     1
 42
1.0
 92
        9
 66
     7
 43
1.0
 76
     1
 77
     6
 78
     2
 67
     7
 79
     5
170
     0
171
     0
290
     0
174
     0
 93
        1
 44
0.0
173
     0
291
     1
 45
0.0
1001
ACAD
1000
AcDbSavedByObjectVersion
1070
     0
  0
VISUALSTYLE
  5
F9
102
{ACAD_XDICTIONARY
360
5875
102
}
102
{ACAD_REACTORS
330
EF
102
}
330
EF
100
AcDbVisualStyle
  2
Realistic
 70
     8
 71
     2
 72
     2
 73
     0
 90
        2
 40
-0.6
 41
30.0
 62
     5
 63
     7
 74
     0
 91
        0
 64
     7
 65
   257
 75
     1
175
     1
 42
1.0
 92
        8
 66
   257
 43
1.0
 76
     1
 77
     6
 78
     2
 67
     7
 79
     3
170
     0
171
     0
290
     0
174
     0
 93
       13
 44
0.0
173
     0
291
     0
 45
0.0
1001
ACAD
1000
AcDbSavedByObjectVersion
1070
     0
  0
VISUALSTYLE
  5
1F3
102
{ACAD_XDICTIONARY
360
5893
102
}
102
{ACAD_REACTORS
330
EF
102
}
330
EF
100
AcDbVisualStyle
  2
Shaded
 70
    27
 71
     2
 72
     2
 73
     1
 90
        2
 40
-0.6
 41
30.0
 62
     5
 63
     7
 74
     0
 91
        4
 64
     7
 65
   257
 75
     1
175
     1
 42
1.0
 92
        8
 66
   257
 43
1.0
 76
     1
 77
     6
 78
     2
 67
     8
 79
     3
170
     0
171
     0
290
     0
174
     0
 93
        5
 44
0.0
173
     0
291
     0
 45
0.0
1001
ACAD
1000
AcDbSavedByObjectVersion
1070
     0
  0
VISUALSTYLE
  5
1F2
102
{ACAD_XDICTIONARY
360
5891
102
}
102
{ACAD_REACTORS
330
EF
102
}
330
EF
100
AcDbVisualStyle
  2
Shaded with edges
 70
    26
 71
     2
 72
     2
 73
     1
 90
        2
 40
-0.6
 41
30.0
 62
     5
 63
     7
 74
     1
 91
        2
 64
     7
 65
   257
 75
     2
175
     1
 42
1.0
 92
        8
 66
   257
 43
1.0
 76
     1
 77
     6
 78
     2
 67
     7
 79
     3
170
     0
171
     0
290
     0
174
     0
 93
        5
 44
0.0
173
     0
291
     0
 45
0.0
1001
ACAD
1000
AcDbSavedByObjectVersion
1070
     0
  0
VISUALSTYLE
  5
1EF
102
{ACAD_XDICTIONARY
360
588B
102
}
102
{ACAD_REACTORS
330
EF
102
}
330
EF
100
AcDbVisualStyle
  2
Shades of Gray
 70
    23
 71
     2
 72
     2
 73
     3
 90
        0
 40
-0.6
 41
-30.0
 62
     5
 63
     7
 74
     2
 91
        2
 64
     7
 65
     7
 75
     1
175
     1
 42
40.0
 92
        8
 66
     7
 43
1.0
 76
     1
 77
     6
 78
     2
 67
     7
 79
     3
170
     0
171
     0
290
     0
174
     0
 93
        1
 44
0.0
173
     0
291
     0
 45
0.0
1001
ACAD
1000
AcDbSavedByObjectVersion
1070
     0
  0
VISUALSTYLE
  5
1F0
102
{ACAD_XDICTIONARY
360
588D
102
}
102
{ACAD_REACTORS
330
EF
102
}
330
EF
100
AcDbVisualStyle
  2
Sketchy
 70
    24
 71
     1
 72
     2
 73
     2
 90
        0
 40
-0.6
 41
-30.0
 62
     5
 63
     7
 74
     2
 91
        2
 64
     7
 65
     7
 75
     1
175
     1
 42
40.0
 92
       11
 66
     7
 43
1.0
 76
     1
 77
     6
 78
     2
 67
     7
 79
     6
170
     0
171
     0
290
     0
174
     0
 93
        1
 44
0.0
173
     0
291
     0
 45
0.0
1001
ACAD
1000
AcDbSavedByObjectVersion
1070
     0
  0
VISUALSTYLE
  5
FC
102
{ACAD_XDICTIONARY
360
587B
102
}
102
{ACAD_REACTORS
330
EF
102
}
330
EF
100
AcDbVisualStyle
  2
Thicken
 70
    13
 71
     2
 72
     2
 73
     1
 90
        0
 40
-0.6
 41
-30.0
 62
     5
 63
     7
 74
     1
 91
        4
 64
     7
 65
   257
 75
     1
175
     1
 42
1.0
 92
       12
 66
     7
 43
1.0
 76
     1
 77
     6
 78
     2
 67
     7
 79
     5
170
     0
171
     0
290
     0
174
     0
 93
        1
 44
0.0
173
     0
291
     1
 45
0.0
1001
ACAD
1000
AcDbSavedByObjectVersion
1070
     0
  0
VISUALSTYLE
  5
F6
102
{ACAD_XDICTIONARY
360
586F
102
}
102
{ACAD_REACTORS
330
EF
102
}
330
EF
100
AcDbVisualStyle
  2
Wireframe
 70
     5
 71
     0
 72
     2
 73
     0
 90
        0
 40
-0.6
 41
-30.0
 62
     5
 63
     7
 74
     1
 91
        4
 64
     7
 65
   257
 75
     1
175
     1
 42
1.0
 92
        0
 66
   257
 43
1.0
 76
     1
 77
     6
 78
     2
 67
     7
 79
     3
170
     0
171
     0
290
     0
174
     0
 93
        1
 44
0.0
173
     0
291
     0
 45
0.0
1001
ACAD
1000
AcDbSavedByObjectVersion
1070
     0
  0
VISUALSTYLE
  5
1F1
102
{ACAD_XDICTIONARY
360
588F
102
}
102
{ACAD_REACTORS
330
EF
102
}
330
EF
100
AcDbVisualStyle
  2
X-Ray
 70
    25
 71
     2
 72
     2
 73
     1
 90
        1
 40
0.5
 41
-30.0
 62
     5
 63
     7
 74
     1
 91
        0
 64
     7
 65
   257
 75
     1
175
     1
 42
1.0
 92
        8
 66
     7
 43
1.0
 76
     1
 77
     6
 78
     2
 67
     7
 79
     3
170
     0
171
     0
290
     0
174
     0
 93
       13
 44
0.0
173
     0
291
     0
 45
0.0
1001
ACAD
1000
AcDbSavedByObjectVersion
1070
     0
  0
DICTIONARYVAR
  5
146
102
{ACAD_REACTORS
330
5E
102
}
330
5E
100
DictionaryVariables
280
     0
  1
1:1
  0
DICTIONARYVAR
  5
259
102
{ACAD_REACTORS
330
5E
102
}
330
5E
100
DictionaryVariables
280
     0
  1
3.500000
  0
DICTIONARYVAR
  5
25A
102
{ACAD_REACTORS
330
5E
102
}
330
5E
100
DictionaryVariables
280
     0
  1
acadiso.lin
  0
DICTIONARYVAR
  5
145
102
{ACAD_REACTORS
330
5E
102
}
330
5E
100
DictionaryVariables
280
     0
  1
STANDARD
  0
DICTIONARYVAR
  5
84
102
{ACAD_REACTORS
330
5E
102
}
330
5E
100
DictionaryVariables
280
     0
  1
STANDARD
  0
DICTIONARYVAR
  5
227
102
{ACAD_REACTORS
330
5E
102
}
330
5E
100
DictionaryVariables
280
     0
  1
Metric50
  0
DICTIONARYVAR
  5
228
102
{ACAD_REACTORS
330
5E
102
}
330
5E
100
DictionaryVariables
280
     0
  1
Metric50
  0
DICTIONARYVAR
  5
5F
102
{ACAD_REACTORS
330
5E
102
}
330
5E
100
DictionaryVariables
280
     0
  1
2
  0
DICTIONARYVAR
  5
63
102
{ACAD_REACTORS
330
5E
102
}
330
5E
100
DictionaryVariables
280
     0
  1
1
  0
DICTIONARYVAR
  5
5804
102
{ACAD_REACTORS
330
5E
102
}
330
5E
100
DictionaryVariables
280
     0
  1
0
  0
DICTIONARYVAR
  5
1AE
102
{ACAD_REACTORS
330
5E
102
}
330
5E
100
DictionaryVariables
280
     0
  1
0
  0
DICTIONARYVAR
  5
1AF
102
{ACAD_REACTORS
330
5E
102
}
330
5E
100
DictionaryVariables
280
     0
  1
0
  0
DICTIONARYVAR
  5
5802
102
{ACAD_REACTORS
330
5E
102
}
330
5E
100
DictionaryVariables
280
     0
  1
2
  0
DICTIONARYVAR
  5
5801
102
{ACAD_REACTORS
330
5E
102
}
330
5E
100
DictionaryVariables
280
     0
  1
1
  0
DICTIONARYVAR
  5
5854
102
{ACAD_REACTORS
330
5E
102
}
330
5E
100
DictionaryVariables
280
     0
  1
80.000000
  0
DICTIONARYVAR
  5
5853
102
{ACAD_REACTORS
330
5E
102
}
330
5E
100
DictionaryVariables
280
     0
  1
5.000000
  0
DICTIONARYVAR
  5
5803
102
{ACAD_REACTORS
330
5E
102
}
330
5E
100
DictionaryVariables
280
     0
  1
127
  0
DICTIONARYVAR
  5
5855
102
{ACAD_REACTORS
330
5E
102
}
330
5E
100
DictionaryVariables
280
     0
  1
2
  0
DICTIONARY
  5
5897
330
21C
100
AcDbDictionary
280
     1
281
     1
  3
ACAD_XREC_ROUNDTRIP
360
5898
  0
DICTIONARY
  5
585C
330
D3
100
AcDbDictionary
280
     1
281
     1
  3
ACAD_XREC_ROUNDTRIP
360
585D
  0
DICTIONARY
  5
585E
330
D7
100
AcDbDictionary
280
     1
281
     1
  3
ACAD_XREC_ROUNDTRIP
360
585F
  0
DICTIONARY
  5
5859
330
22
100
AcDbDictionary
280
     1
281
     1
  3
ACAD_XREC_ROUNDTRIP
360
585A
  0
DICTIONARY
  5
1F9
330
ED
100
AcDbDictionary
280
     1
281
     1
  3
ACAD_XREC_ROUNDTRIP
360
5861
  3
FBXASSET
360
1FA
  0
DICTIONARY
  5
1F7
330
EC
100
AcDbDictionary
280
     1
281
     1
  3
ACAD_XREC_ROUNDTRIP
360
5860
  3
FBXASSET
360
1F8
  0
DICTIONARY
  5
173
330
EE
100
AcDbDictionary
280
     1
281
     1
  3
ACAD_XREC_ROUNDTRIP
360
5862
  3
BUMPTILE
360
175
  3
DIFFUSETILE
360
174
  3
FBXASSET
360
1FB
  3
OPACITYTILE
360
176
  3
REFLECTIONTILE
360
177
  0
DICTIONARY
  5
5883
330
12E
100
AcDbDictionary
280
     1
281
     1
  3
ACAD_XREC_ROUNDTRIP
360
5884
  0
DICTIONARY
  5
5895
330
21A
100
AcDbDictionary
280
     1
281
     1
  3
ACAD_XREC_ROUNDTRIP
360
5896
  0
DICTIONARY
  5
162
330
7F
100
AcDbDictionary
280
     1
281
     1
  3
ACAD_ROUNDTRIP_2008_TABLESTYLE_CELLSTYLEMAP
360
5856
  3
ACAD_XREC_ROUNDTRIP
360
585B
  0
DICTIONARY
  5
586D
330
F5
100
AcDbDictionary
280
     1
281
     1
  3
ACAD_XREC_ROUNDTRIP
360
586E
  0
DICTIONARY
  5
586B
330
F4
100
AcDbDictionary
280
     1
281
     1
  3
ACAD_XREC_ROUNDTRIP
360
586C
  0
DICTIONARY
  5
5879
330
FB
100
AcDbDictionary
280
     1
281
     1
  3
ACAD_XREC_ROUNDTRIP
360
587A
  0
DICTIONARY
  5
5881
330
FF
100
AcDbDictionary
280
     1
281
     1
  3
ACAD_XREC_ROUNDTRIP
360
5882
  0
DICTIONARY
  5
5873
330
F8
100
AcDbDictionary
280
     1
281
     1
  3
ACAD_XREC_ROUNDTRIP
360
5874
  0
DICTIONARY
  5
5877
330
FA
100
AcDbDictionary
280
     1
281
     1
  3
ACAD_XREC_ROUNDTRIP
360
5878
  0
DICTIONARY
  5
5889
330
1E6
100
AcDbDictionary
280
     1
281
     1
  3
ACAD_XREC_ROUNDTRIP
360
588A
  0
DICTIONARY
  5
587F
330
FE
100
AcDbDictionary
280
     1
281
     1
  3
ACAD_XREC_ROUNDTRIP
360
5880
  0
DICTIONARY
  5
5863
330
F0
100
AcDbDictionary
280
     1
281
     1
  3
ACAD_XREC_ROUNDTRIP
360
5864
  0
DICTIONARY
  5
5865
330
F1
100
AcDbDictionary
280
     1
281
     1
  3
ACAD_XREC_ROUNDTRIP
360
5866
  0
DICTIONARY
  5
5867
330
F2
100
AcDbDictionary
280
     1
281
     1
  3
ACAD_XREC_ROUNDTRIP
360
5868
  0
DICTIONARY
  5
5869
330
F3
100
AcDbDictionary
280
     1
281
     1
  3
ACAD_XREC_ROUNDTRIP
360
586A
  0
DICTIONARY
  5
5871
330
F7
100
AcDbDictionary
280
     1
281
     1
  3
ACAD_XREC_ROUNDTRIP
360
5872
  0
DICTIONARY
  5
5885
330
1E4
100
AcDbDictionary
280
     1
281
     1
  3
ACAD_XREC_ROUNDTRIP
360
5886
  0
DICTIONARY
  5
587D
330
FD
100
AcDbDictionary
280
     1
281
     1
  3
ACAD_XREC_ROUNDTRIP
360
587E
  0
DICTIONARY
  5
5887
330
1E5
100
AcDbDictionary
280
     1
281
     1
  3
ACAD_XREC_ROUNDTRIP
360
5888
  0
DICTIONARY
  5
5875
330
F9
100
AcDbDictionary
280
     1
281
     1
  3
ACAD_XREC_ROUNDTRIP
360
5876
  0
DICTIONARY
  5
5893
330
1F3
100
AcDbDictionary
280
     1
281
     1
  3
ACAD_XREC_ROUNDTRIP
360
5894
  0
DICTIONARY
  5
5891
330
1F2
100
AcDbDictionary
280
     1
281
     1
  3
ACAD_XREC_ROUNDTRIP
360
5892
  0
DICTIONARY
  5
588B
330
1EF
100
AcDbDictionary
280
     1
281
     1
  3
ACAD_XREC_ROUNDTRIP
360
588C
  0
DICTIONARY
  5
588D
330
1F0
100
AcDbDictionary
280
     1
281
     1
  3
ACAD_XREC_ROUNDTRIP
360
588E
  0
DICTIONARY
  5
587B
330
FC
100
AcDbDictionary
280
     1
281
     1
  3
ACAD_XREC_ROUNDTRIP
360
587C
  0
DICTIONARY
  5
586F
330
F6
100
AcDbDictionary
280
     1
281
     1
  3
ACAD_XREC_ROUNDTRIP
360
5870
  0
DICTIONARY
  5
588F
330
1F1
100
AcDbDictionary
280
     1
281
     1
  3
ACAD_XREC_ROUNDTRIP
360
5890
  0
XRECORD
  5
5898
102
{ACAD_REACTORS
330
5897
102
}
330
5897
100
AcDbXrecord
280
     1
102
DISPLAYNAME
  1
Metric50
102
FLAGS
 90
        0
  0
XRECORD
  5
585D
102
{ACAD_REACTORS
330
585C
102
}
330
585C
100
AcDbXrecord
280
     1
102
SHADEPLOT
 70
     0
102
SHADEPLOTRESLEVEL
 70
     2
102
SHADEPLOTCUSTOMDPI
 70
   300
  0
XRECORD
  5
585F
102
{ACAD_REACTORS
330
585E
102
}
330
585E
100
AcDbXrecord
280
     1
102
SHADEPLOT
 70
     0
102
SHADEPLOTRESLEVEL
 70
     2
102
SHADEPLOTCUSTOMDPI
 70
   300
  0
XRECORD
  5
585A
102
{ACAD_REACTORS
330
5859
102
}
330
5859
100
AcDbXrecord
280
     1
102
SHADEPLOT
 70
     0
102
SHADEPLOTRESLEVEL
 70
     2
102
SHADEPLOTCUSTOMDPI
 70
   300
  0
XRECORD
  5
5861
102
{ACAD_REACTORS
330
1F9
102
}
330
1F9
100
AcDbXrecord
280
     1
102
MATERIAL
148
0.0
149
0.0
149
0.0
 93
        0
 94
       63
282
     0
 72
     1
 77
     1
171
     1
175
     1
179
     1
273
     0
  0
XRECORD
  5
1FA
102
{ACAD_REACTORS
330
1F9
102
}
330
1F9
100
AcDbXrecord
280
     1
 70
     1
 90
429727718
  1
D62C5603-E3A1-4AEA-B7FB-FE5D8D0755AF
310
504B03040A0000080000CC70623B3DEE336E79000000790000001B0000006175746F6465736B2D64657369676E2D7061636B6167652E786D6C3C3F786D6C2076657273696F6E3D22312E302220656E636F64696E673D227574662D3822203F3E3C666F726D6174733E3C666F726D61743E687474703A2F2F736368656D612E
310
6175746F6465736B2E636F6D2F64657369676E2D7061636B6167652F323030393C2F666F726D61743E3C2F666F726D6174733E504B0304140006080800CC70623BD486FD9CA0000000F4000000130000005B436F6E74656E745F54797065735D2E786D6C7D8EC10E82300C865F65E91D8A1E8C310C0EEA1BF002731658846E
310
D98AC1B77784ABF1D8FE5FBFBF75BBCE937A534CCEB38643598122B6FEE978D0B0485F9C41B54DDD7D022595594E1A469170414C76A4D9A4D207E29CF43ECE46F218070CC6BECC4078ACAA135ACF422C856C0E68EA1BF5669944DDD7BCDE7B1F8E415D77AECB980613C2E4AC91FC167A2B244592486606FC29C8FD7F045B9A
310
EF7053A7E60B504B0304140006080800CC70623B853B8169EB0000007C01000008000000636F72652E786D6C8D90416EC3201045AF62CDB6C206821CC7C244919D9CA01740401C94182C03558F5F9C3852BBEB6A467FFE9B197D7EFC9E1EC5975982F5AE035262288C535E5B377690E21535501C055FBC8FBF6C503839990E
310
5619041F179FE64D52DE45E362569DD7661365082642A11EB9E920A89B99642953CC8E702F67A9EE7234257977194EC9EAE275C4EABCCF5EAD5940D4AC6F0E35A568B8F43562CD7046CD199FD07E60174276A7BE677B5EADB0E0D14EEFFB6A31321A0D82627C4084204C3F096B71DD52F6819B16635EADF63F509AF53FA164
310
5DDCD1EDDD17164090FCC8732078B56691CB33A85CD7DCC40F504B0304140006080800CC70623B55019EA25F0000007C00000007000000636E782E786D6C4DCB3B0E80201045D1AD90E915ED2CF8AC45050C11660C8261F98AB1B07AC9C97D42D718D865D3E909258CFD00CCE24AC6E326A164D74DC0B4128928FF32603847
310
2BA13128B1252AC747C6BAB984FC68F0B87FE8960A5C09FE86CFB69FBA01504B0304140006080800CC70623BDBABAAF470010000D40300000C0000006662782F636F72652E786D6CC553D16E823014FD95A6AF4B694182CC941A83FA05FB810A9511A125A5257EFE2E82712ECEB8A7F100CD39F7F69E734AF9FADC366850B6
310
AF8DCE7018308C942E4C59EB2AC3DE1D498AD15A706B8CFB56869196ADCAF00863C12B6B7C374385D14E6907A836A59A41D9F7CA615434B0C8705F7CAA5606D23BA8E84F41278B93AC54100640439DE0BDB320004D43C63716C7C399D30917DCFBBA9CD9BA8469F5B156168B24CED3F7248AC8769F27244EB73B92EED8862C
310
B7F13E0C179B3C8F979C8ECD82BBBABDAA2BAC924E9558448CBD9330242CFA08E3154B5651FCC6D215639C8EE5774DBE2B5F6CF2B5768B68963BB5F5588420E442FC700B1139D4CB01F450C1E918227C2E09DF070D8140C84E1E9AAB8F1340832A9CB13130A5F1376A908D57309505ECF2A0DF179C4E9D30F5B239B87E3823
310
7A79C6F31DE1A8A5AEC08474B03C7837EAE4938639B44E5932B833D2C6B6B279CDC613877FA26EE21F4A2A4C63EC7F29A2F301D1F9F7A0E37D145F504B0304140006080800CC70623B9C113CC27E0000009D0000000B0000006662782F636E782E786D6C4DCCDF0A83201C86E15B91DFB94BFB330DD428C8FB886521330DA7
310
6397BF1A1DECE883878F57749FCDA1B7892F1BBC047A23808C7F84D9FA55424E0BE6803A256208E9EF06C84F9B91703228B1C690F78B66B34CD9A5439DF5CF0BFBF65E35BCA1B8D6A5C6F540381E886698B5741C695F9503EBA150A2F8958E3DC3EA0B504B0304140006080800CC70623B7DF2F77C2A010000120200003100
310
00006662782F41393633353835312D344632462D344230382D423046372D3739314545314133324237412F636F72652E786D6C8D51DB8EC22014FC15C2939B0D2DB4B45643319AE817EC0F6041255A68B86CFCFC856D4D76DF7CE190393373060EDB3DC707F856CE6B6B7A480A0C81328395DA5C7B18C3057510EC3873D686
310
3F34088C18550F330C39BB3A1BA7051AAC09CA84841A2BD5020AEF55806078A44B0FFD7053A328440C89E1EFC52486BBB8AA8214A99D789CF9E05200300FC927E4FB4D5B375D43103D5527440FB843077C5AA3F5861C8F645F5787F59E95B390B318B55CE45AA638FAA2957BD7248B390B7A7CC51F9C124149C82B8C378810
310
84AB2F42B7B8DD56F413775B8C5999E9FF4471926F8AA236A1AE96B8B3CC434E5839373893369E1FAF30EA395917409EB7F26AF8801C171837A4A6AC9C89E9F9C9B1A58BA30FD6A5EF5DDDCF894B9AD9B6A59C957943A9FCAE2FD5BC4DFE03504B0304140006080800CC70623BAD7543B64E01000033030000300000006662
310
782F41393633353835312D344632462D344230382D423046372D3739314545314133324237412F636E782E786D6CD593CD6EC32010845F0571AD6CE3D48AD20813A9873E410FBD12D82434182C7EAAE6EDBB2424CD25871E7B41D6EC30B3FA84F9E67BB2E40B4234DE8DB46F1925E094D7C6ED479AD3AE5951B2113C789FEE
310
6C943839C1488B4C05DF079FE72A69D8C96C13AAD6B8631503449F83828872B949AC57D26200B826A308D316B4064D6E46FCDA41C05550DC9E483A00797BFD207EFB092A45DE9514C1BBD22178396BD39D891265658C238DEA00936C654E5E433CB65A26D9F6EDB5EBC14EBF49A45CB856E66048291F6939A9A81BB5C89177
310
38143CA680F4AA299D66A042CEB3354A2684DC9D8D178FE0D9B8B41CAAD720F880EE7EF93C0C18769E099ECC04D5A102C8049A8A05632F4DDF376CF1DE0F6BB65C2F8627B65A33C6BB62177CEBBDAD973006829F89F22E814B54F4BC2BE347F8AA8F681390B50FA73F804400B5F542E796F19FF974E7F78DB802FE05E20750
310
4B0304140006080800CC70623BE75B7789680500003C100000340000006662782F41393633353835312D344632462D344230382D423046372D3739314545314133324237412F6F626A656374732E786D6CAD575B8F9B3818FD2B887D06C22499CB8AA1CA655245D5B455A356FB305264C061D8018C6C3393D95FBFC7600890
310
A4CD5EF210B0B1BFEBF98E3F7B1FF6596ABC522E1296DF9BAE3D320D9A872C4AF2F8DE2CE5CEBA358D0FBEC719939D65A691938CDE9B6ADAF4BD98B3B2D05311DD91329583D9D5FC0F438434A7A611A644887B5384CF34233629258BA878B12322891DEFF6B66BD70BFB62634E8AE781D082709A4B588AF91C528CDA28B73F
310
1C998EEF39EABBEFA97FBD6A7C7E9553F9D3D79FE442923C3C523610337627CB87ABE99D359D4CC6D6E4FACAB5E6ABF9D2726FC6A3C5F56271377BB88362213924694B38DD99FE47C48627A1E7D49F5A8BB5E1A74C0A599ED3B0F21F1E56366B89112D681E218F0915D0D6F17AD41FBA2A369DCF6335D62ABBD39779D5DDD1
310
11D4D8DE3CBB96B2E04FB8202E41051754A1AA8E8F76B4C6DFE810B580B1547F4B84911149794252234D024EF8BBE963A95AE27B3D310A9D5C215C7960FAEE415ED75694C6AFB17BCACA5D99A60A9AA65F217B0BFC53292ACB92BF283FAD0D3621576592CB5BED907C2FA8E9DF794E35E97BEA31BED21FEB401ABB94C44839
310
DCACBF0E1C5DA8DA5B2F4DFFD32AD86F543D9E565E7056502E157C00AD2671CD534549AB752FCA9CDA00677A313F04E51B22FF19E57B300579E3C97EB29F682D92935CEC18CF901B7B54FD8C51F362B56FC72FE0B3C1EAE335EDCCBF5AEC39ADB17DC238973F804BA5E6F6BFE7AF1FB32E523BE9F3BD571418E3631DCA4D48
310
5250CF639223210A9446CA30052EDF057BD35F8329C1ECD84552BF0DC8D18BE7BCE23BFE6BD960AB4A7DE79923A103BEBD80F911CBAA2C60DB19B01CF164A5583B772EE6D3FFA56666CBCDA74DC97724A48F9A58967497E489C4D979006FD7A05E227A1EBDD0F737C623387A9C844D3709995625106D157315F8B8392CD4E0
310
A0B9A720C4BE9829CEF37EA1E13111214D53925356365ADA634861B52519DD27A00AEB808EAF0628E6F435519D446F45CF2C9CF5214F0A15B2F6D06B79DA3EE3CBF7F56780D2F4E7EF73A0F5E5B02A38D07DC852C6B7C1FBB6664213E0C39E3EBA7FF4E1AD23EA2829407C85E586727488B751B2DB9502BC7B228A3FD68B6E
310
A65A22397E690AA8D158D7E404EC8CDA235CC3B7D1898680131CEC2CDF2638C65196279577750F15884AEE19F94199155B92B13297978469D4F8D358DF0AEF7631E28DC8F0D9F437D5D39A83B2231A1D52D543813A824EF8D44BCFF2FA6A31BD1E8DAD87F1CCB526B3879935BF59CDADD5C37479BB1CDD4CA7B3556B516589
310
EF352754B706114D9C885EC9131DE6EFEB43D99AFE2391C2F958179413D7CFEF6B1B6DB1E7600F00DE6E5C67454A339A4BA2E0FBA85ED26F045D454F463DBFCE484C2F90F2E5E3666003662ED8F755951A7D1BECD5B30B550B2785C8E7320B7292A4838DDA71BBC863ED7613CAF659337A3354231D4FF4A182A54904C2898C
310
98B28C4AD0CE056CCF332A80986E571EE9DBC305BB5FEB7E509220A58D25CF042D712A806AC0AD0C657FDEF80D2D9CEAA2EE4D1C76F60BFE74219A06527D6F82DF6412526107381E55E353090704D085B52408A8913C4ED159D79BDA71BB4BC506F4831350EB6F975CD22D69BF7AC49B91A2C0A9DDA3D5CA36AD20FC478E37
310
E61844E2352865EBCB61A275A65283CAAA9DD27703B4102F5AF51EF5F573B75CBB5AD38BC845F7A49F82A0966A49C2E3EA5EA0ECD326CD965F1DB402C6FA8B51A4658C5C5E2EC9E214602E55810345408596591009A82E7E7FFACA19EEA299B14A0081A705CB3296EBC14CDF658DCD336EA6D1136881AAEB87B81AB9EE53D5
310
F5EB8BC8362082DA24122F98680A4E7930C01A0079749CEA14382A0783E5EBA5A10F8C098456A03D6A4AEB6BB881E2513747552A5DB22C7EDAF83BD5528081A365F7FF06504B0304140006080000CC70623B000000000000000000000000350000006662782F41393633353835312D344632462D344230382D423046372D37
310
39314545314133324237412F76657274696365732E62696E504B0304140006080800CC70623BF270F1330600000004000000360000006662782F41393633353835312D344632462D344230382D423046372D3739314545314133324237412F747269616E676C65732E62696E636660600000504B0304140006080000CC7062
310
3B000000000000000000000000370000006662782F41393633353835312D344632462D344230382D423046372D3739314545314133324237412F617474726962757465732E62696E504B0304140006080800CC70623B08DA0BD19000000041010000360000006662782F41393633353835312D344632462D344230382D4230
310
46372D3739314545314133324237412F6469726563746F72792E786D6C858F410AC3201045AF22B36F53E9A60B35CBEEBAE80D244E44489C6234F4F835464A48035D0DF398FF9F8AF63D0E6CC63039F212F8F9020C7D47C6792B21C5FE7403D62A1188E2E60C98D7234A5830286103A55745067B9D86B8A3CF9C7F90C11DE6
310
07FB144396D7B6A82D282E9A152AD114D5EF2CB866EEE831B8EEA07A7BB5A8D7D61A2BAAEB7FD5F70921FF497D00504B0304140006080800CC70623BEDD1DC58FD000000A00100003B0000006662782F41393633353835312D344632462D344230382D423046372D3739314545314133324237412F7265736F75726365732F
310
636F72652E786D6C8D504B6E833010BD0A9A6D65B00922041947112427E8052C33A156828DFCA97AFC9A40A576D7CDCCE87D344F8F9FBFE667F689CE6B6B3A6039850C8DB2A336530731DC4903D95970676DF82583CCC8193B5861107C72362E3BA4AC096842428D1D7107A5F7182053CF7474E0D507CE32973124857FE48B
310
540F3961CEF244279DE03EB81420DB9EAC1384436FA353E879B1B182C7A8C75DA3C7F453DF353A1075D537A7BA6464B8F535A99AE14A9A2BBD90E350DD183B5CFABE3AF262350B1EF4FC9351399401471025A527C218A1E53BAB5A5AB765F5469B96525EACF23FA6B88CFF34456DC2A1DCE36E360F82A5202F42F062ED2BAD
310
579969AFDD8A6F504B010214000A0000080000CC70623B3DEE336E79000000790000001B00000000000000000000000000000000006175746F6465736B2D64657369676E2D7061636B6167652E786D6C504B01021400140006080800CC70623BD486FD9CA0000000F40000001300000000000000000000000000B20000005B
310
436F6E74656E745F54797065735D2E786D6C504B01021400140006080800CC70623B853B8169EB0000007C010000080000000000000000000000000083010000636F72652E786D6C504B01021400140006080800CC70623B55019EA25F0000007C000000070000000000000000000000000094020000636E782E786D6C504B
310
01021400140006080800CC70623BDBABAAF470010000D40300000C00000000000000000000000000180300006662782F636F72652E786D6C504B01021400140006080800CC70623B9C113CC27E0000009D0000000B00000000000000000000000000B20400006662782F636E782E786D6C504B01021400140006080800CC70
310
623B7DF2F77C2A010000120200003100000000000000000000000000590500006662782F41393633353835312D344632462D344230382D423046372D3739314545314133324237412F636F72652E786D6C504B01021400140006080800CC70623BAD7543B64E010000330300003000000000000000000000000000D2060000
310
6662782F41393633353835312D344632462D344230382D423046372D3739314545314133324237412F636E782E786D6C504B01021400140006080800CC70623BE75B7789680500003C10000034000000000000000000000000006E0800006662782F41393633353835312D344632462D344230382D423046372D3739314545
310
314133324237412F6F626A656374732E786D6C504B01021400140006080000CC70623B0000000000000000000000003500000000000000000000000000280E00006662782F41393633353835312D344632462D344230382D423046372D3739314545314133324237412F76657274696365732E62696E504B01021400140006
310
080800CC70623BF270F133060000000400000036000000000000000000000000007B0E00006662782F41393633353835312D344632462D344230382D423046372D3739314545314133324237412F747269616E676C65732E62696E504B01021400140006080000CC70623B0000000000000000000000003700000000000000
310
000000000000D50E00006662782F41393633353835312D344632462D344230382D423046372D3739314545314133324237412F617474726962757465732E62696E504B01021400140006080800CC70623B08DA0BD1900000004101000036000000000000000000000000002A0F00006662782F41393633353835312D344632
310
462D344230382D423046372D3739314545314133324237412F6469726563746F72792E786D6C504B01021400140006080800CC70623BEDD1DC58FD000000A00100003B000000000000000000000000000E1000006662782F41393633353835312D344632462D344230382D423046372D3739314545314133324237412F7265
310
736F75726365732F636F72652E786D6C504B0506000000000E000E0080040000641100000000
  0
XRECORD
  5
5860
102
{ACAD_REACTORS
330
1F7
102
}
330
1F7
100
AcDbXrecord
280
     1
102
MATERIAL
148
0.0
149
0.0
149
0.0
 93
        0
 94
       63
282
     0
 72
     1
 77
     1
171
     1
175
     1
179
     1
273
     0
  0
XRECORD
  5
1F8
102
{ACAD_REACTORS
330
1F7
102
}
330
1F7
100
AcDbXrecord
280
     1
 70
     1
 90
429727718
  1
30362254-06B7-45E0-A893-8CFA70E3D6BC
310
504B03040A0000080000CC70623B3DEE336E79000000790000001B0000006175746F6465736B2D64657369676E2D7061636B6167652E786D6C3C3F786D6C2076657273696F6E3D22312E302220656E636F64696E673D227574662D3822203F3E3C666F726D6174733E3C666F726D61743E687474703A2F2F736368656D612E
310
6175746F6465736B2E636F6D2F64657369676E2D7061636B6167652F323030393C2F666F726D61743E3C2F666F726D6174733E504B0304140006080800CC70623BD486FD9CA0000000F4000000130000005B436F6E74656E745F54797065735D2E786D6C7D8EC10E82300C865F65E91D8A1E8C310C0EEA1BF002731658846E
310
D98AC1B77784ABF1D8FE5FBFBF75BBCE937A534CCEB38643598122B6FEE978D0B0485F9C41B54DDD7D022595594E1A469170414C76A4D9A4D207E29CF43ECE46F218070CC6BECC4078ACAA135ACF422C856C0E68EA1BF5669944DDD7BCDE7B1F8E415D77AECB980613C2E4AC91FC167A2B244592486606FC29C8FD7F045B9A
310
EF7053A7E60B504B0304140006080800CC70623B1EC5D7A3EB0000007C01000008000000636F72652E786D6C8D90416EC3201045AF82665B6103C6756C6122AB4D4ED00B204C5C94182C03558F5F9C3852BBEB6A467FFE9B197D71FC9E6FE8CBACC17AD7032D0820E3B41FAD9B7A48F1820F808E52ACDEC75F36404ECDA687
310
4D0629A6D5A76597B477D1B89855E747B38B2A041301E95B6E7A08FAD3CCAA50296647B8168BD2573599823EBB0CA76447F43862C7BCCF5EAC59410E4DDD9C7973C2755553CCCFA4C603E3040F1565ED3B1FDE4E432BCA0D9622DAF9795FAF464533826484B498524CD807E51D79ED187F21878E10516EF63F505AC67F42C9
310
BA58B1FDDD071640D2FCC87D2045B96591CB3DA85CB7DCE40F504B0304140006080800CC70623B55019EA25F0000007C00000007000000636E782E786D6C4DCB3B0E80201045D1AD90E915ED2CF8AC45050C11660C8261F98AB1B07AC9C97D42D718D865D3E909258CFD00CCE24AC6E326A164D74DC0B4128928FF32603847
310
2BA13128B1252AC747C6BAB984FC68F0B87FE8960A5C09FE86CFB69FBA01504B0304140006080800CC70623B8C9102E971010000D40300000C0000006662782F636F72652E786D6CC5535B6E833010BC8AE5DF0A6C08340F1947A84D4ED00B38C6A128602363A31CBFCB234A53A551FA553EC09AD9F5CE8C31DB9E9B1AF5CA
310
7695D1198E428A91D2D214952E33ECDD315861B4E5CC1AE3BE9561A445A3323CC098B3D21ADFCE9034DA29ED00D5A6503328BA4E398C640D8B0C77F253352214DE4145770A5B214FA2546114020D759C75CE8200340D19DE981F0F6746269C33EFAB6266AB02A655C74A59CCF365BADC27CB5D902ED22848F6340DF238A141
310
BE88E2F57B92BFEDF23523433367AE6A2EEAA455C2A902F398D2751045018D3FA264435F3771F242571B4A1919CA6F9A7C5B3CD9E42BED16F12C776AEB308F40C848FC700B1139D4891EF410CEC810227CC6846F8386402064270EF5C5C709A05E49676C024C61FC95EA45ED154CA5211D1FF4FB8291A913A68E9B83EBBB33
310
E2A7673CDE118E5AE8124C0807CB8377834E366998436B950D7A7746DAD846D4CFD978E0F04FD455FC5D49D2D4C6FE9722321F10997F0F32DC47FE05504B0304140006080800CC70623BFFEA85907E0000009D0000000B0000006662782F636E782E786D6C4DCCD10A83201886E15B91FFDC95D95A811AB6F23E625948A6C3
310
E9D8E5AF46073BFAE0E1E365ED67B3E8ADC3CB78C7815C7240DA3DFC64DCC221C519D7805AC182F7F1EF06C88D9BE6703008B6049F9E274D7A1E938DBB5AE3D6131B2589BA0D3D965551E0B2EA732C9B9A624AAEB41E3A557677029960D9AFB4EF11165F504B0304140006080800CC70623B4FEEA4082C0100001202000031
310
0000006662782F39464131463745442D413632322D343644302D413938332D3331353338454246344243312F636F72652E786D6C8D515B6EC32010BC0AE2AB55850DD871ED0813254D72825EC00192A2C460F1A872FC42ED48ED5F7E00CDCECCCEB26C731F6FE05B39AFADE921293004CA082BB5B9F43086336A21D870E6AC
310
0D7F68109861543DCC30E4ECE26C9C164858139409093556AA051CBC570102714B8F1E7AF1A5C6A11862480C7F2DA6415C878B2A4891CA89C7990F2E050073937C42DE1DB7E4F87ED8A36D4329AA9B3D46DBAEAD504556557BD81DEBDD0761E52CE42C462D17B996298E3E6BE59E35C962CE821E1FF18553435012728A7187
310
0841987E927A8D9B35ADDF70BBC6989599FE4F1427F9A4286A132ABAC49D651EF234CD5CE04CDA78BA3DC2A8FB645D00B9DF8B57E215725C60BCA2A463E54C4CE327C7A65E1C7DB02E7DEFCBF594B864C5CA6CDBD49C957943E9FA5D5FBAF336F90F504B0304140006080800CC70623BAD7543B64E01000033030000300000
310
006662782F39464131463745442D413632322D343644302D413938332D3331353338454246344243312F636E782E786D6CD593CD6EC32010845F0571AD6CE3D48AD20813A9873E410FBD12D82434182C7EAAE6EDBB2424CD25871E7B41D6EC30B3FA84F9E67BB2E40B4234DE8DB46F1925E094D7C6ED479AD3AE5951B2113C
310
789FEE6C943839C1488B4C05DF079FE72A69D8C96C13AAD6B8631503449F83828872B949AC57D26200B826A308D316B4064D6E46FCDA41C05550DC9E483A00797BFD207EFB092A45DE9514C1BBD22178396BD39D891265658C238DEA00936C654E5E433CB65A26D9F6EDB5EBC14EBF49A45CB856E66048291F6939A9A81BB5
310
C8917738143CA680F4AA299D66A042CEB3354A2684DC9D8D178FE0D9B8B41CAAD720F880EE7EF93C0C18769E099ECC04D5A102C8049A8A05632F4DDF376CF1DE0F6BB65C2F8627B65A33C6BB62177CEBBDAD973006829F89F22E814B54F4BC2BE347F8AA8F681390B50FA73F804400B5F542E796F19FF974E7F78DB802FE05
310
E207504B0304140006080800CC70623B16AB87BA640500003C100000340000006662782F39464131463745442D413632322D343644302D413938332D3331353338454246344243312F6F626A656374732E786D6CAD575B6FA33818FD2B887DE6924B3BED8A326A92B68A663B534DD4D13E548A0C38942D60649B369D5FBFC7
310
600890A493BDE42160637FD7F31D7FF63E6FB3D478A55C242CBF3247B66B1A340F5994E4F19559CA8D75611A9F7D8F33263BCB4C232719BD32D5B4E97B316765A1A722BA21652A07B3B7B33F0D11D29C9A46981221AE4C113ED38CD8A4942CA2E2C58E882476BCD9DA23BB5ED8171B73523C0F841684D35CC252CCE79062D4
310
468DFA43D7747CCF51DF7D4FFDEB5593E3AB9CCA9FBEFE241792E4E19EB28198C968BAB8199F5D5A67D3E9C49A9E8F47D6EC76B6B0469F26EEFC7C3EBFBCBEB98462213924694B38DD98FE1D62C393D073EA4FADC5DAF04326852CCF6958F90F0F2B9BB5C48816348F90C7840A68EB78EDF68723159BCEE7891A6B95DDE9D3
310
BCEAEEE8086A6C6F9E5D4B59F0175C10A7A0820BAA5055C7473B5AE3CFDD452D602CD5DF12616444529E90D448938013FE6EFA58AA96F85E4F8C42275708571E98FE6827AF6B2B4AE3D7D83D64E5A64C53054DD3AF90BD06FEA9149565C94FCA0F6B834DC85599E4F2423B24DF0B6AFA979E534DFA9E7A4CC6FA631D486393
310
921829879BF5D781A373557BCB85E97FB90DB62B558F8795179C15944B051F40AB495CF35451D26A4727654E6D8033BD98EF82F21D91FF8AF2DD9982BCF1643BDD4EB516C9492E368C67C88DED563FC36D5EACF66DFF057C3658BDBFA69DF9578B3DA735B64F18C7F20770A9D45CFCF7FCF563D6456A277DBEF78A02637CA2
310
43B90A490AEAB94F72244481D24819A6C0E59B606BFA4B3025981DBB48EAB701D97BF19C577CC77F2D1B6C55A9EF3C732474C0B727303F625995056C3B02963D9EAC146BE78EC5FCEC7FA999EBC5EACBAAE41B12D27B4D2C0BBA49F244E2ECDC81B76B502F113D8F5EE8FB1BE3111CDD4FC2AA9B844CAB1288B68AB90A7CDC
310
1C166AB0D3DC5310625FCC14E779BFD0709F8890A629C9292B1B2DED31A4B0DA928CEE135085754027E3018A397D4D5427D15BD1330B677DC8934285AC3DF45A9EB68FF8F2B8FC0A509AFEECFD0FF2DE25CC6047F7214B195F07EFEB9A094D800F7BFAE8FED187B78EA8A3A400F115961BCAD1215E47C966530AF0EE8128FE
310
58CEBB996A8964FFA529A046635D9353B0336A8F700DDF46271A024E70B0B37C9DE01847591E54DED53D54202AB947E4076556AC49C6CA5C9E1226B7F1A7B1BE15DEED62C41B91E1B3E9AFAAA735036547343A925075041DF0A9979E893B391F8FCFA6967B3EFB644DCF6E5CEBFAE272625DCC6FAF3FB93793C5F90CE1EF57
310
407342756B10D1C489E8953CD1617E5CEECAD6F4EF8914CE5D5D504E5C3F1F9736DA62CFC11E00BCDDB8CC8A9466349744C1F75EBDA4DF09BA8A9E8C7A7E9991989E20E5DBDD6A6003664ED8F7A04A8DBE0DF6EAD9B9AA858342E47399053949D2C146EDB85DE4B176BB0965FBAC19BD19AA918E27FA50C1D22402E144464C
310
59462568E704B6E71915404CB72B8FF4EDE184DDAF753F284990D2C6926782963815403548A70C657FDEF80D2D9CEAA2AE4C1C76F60BFE74219A06527D6582DF6412526107381E55E353090704D085B52408D0933C4ED159D79BDA71BB4BC506F4831350EB6F979CD22D69BF7AC49B91A2C0A9DDA3D5CA36AD20FC478E37E6
310
1844E2352865EBCB6EA275A652E3836BE04EFB400BF1A2556F515F1FBB35B2AB35BD889C744FFA1004B5544B121E57F70215746DD2F5E2C1412B602CBF19455AC6C8E5E9922C4E01E65215385004546899059180EAFCF7A707CE7017CD8CDB0410789AB32C63B91E5CEBBBACB17AC6CD347A022D5075FD106377347AAABA7E
310
7D11590744509B44E205134DC1290F06580320F78E537D3D73540E06CB970B431F185308AD40BBD794D6D77003C5A36E8EAA54BA64597CD8F83BD552A080A365F7FF06504B0304140006080000CC70623B000000000000000000000000350000006662782F39464131463745442D413632322D343644302D413938332D3331
310
353338454246344243312F76657274696365732E62696E504B0304140006080800CC70623BF270F1330600000004000000360000006662782F39464131463745442D413632322D343644302D413938332D3331353338454246344243312F747269616E676C65732E62696E636660600000504B0304140006080000CC70623B
310
000000000000000000000000370000006662782F39464131463745442D413632322D343644302D413938332D3331353338454246344243312F617474726962757465732E62696E504B0304140006080800CC70623B08DA0BD19000000041010000360000006662782F39464131463745442D413632322D343644302D413938
310
332D3331353338454246344243312F6469726563746F72792E786D6C858F410AC3201045AF22B36F53E9A60B35CBEEBAE80D244E44489C6234F4F835464A48035D0DF398FF9F8AF63D0E6CC63039F212F8F9020C7D47C6792B21C5FE7403D62A1188E2E60C98D7234A5830286103A55745067B9D86B8A3CF9C7F90C11DE607
310
FB144396D7B6A82D282E9A152AD114D5EF2CB866EEE831B8EEA07A7BB5A8D7D61A2BAAEB7FD5F70921FF497D00504B0304140006080800CC70623B0D6EF93BFE000000A00100003B0000006662782F39464131463745442D413632322D343644302D413938332D3331353338454246344243312F7265736F75726365732F63
310
6F72652E786D6C8D50596E833010BD0A9ADFCA60B334011947A8694ED00B586642AC041B79A97AFC9A40A5F6AF3F33A3B7689E1E3F7DCD8FEC139DD7D6F4C0720A191A65476DA61E62B892236427C19DB5E1970C322367EC618541F0C9D9B8EC90B226A009093576C41D94DE63804C3DD2D18357379C652E63480A7FCF17A9
310
EE72C29CE5894E3AC17D702940B63D59270887DE46A7D0F36263058F518FBB468FE9A7BE6A7420864373B8D4873369AA8691FA421B3294352543C5CAF65C0F6FEF43CB8BD52C78D0F34F46E550061C419494B6843142CB0F5677F4B52BEB177AEC28E5C52AFF638ACBF84F53D42654E51E77B379102C05791282176B5F693D
310
CB4C7BED567C03504B010214000A0000080000CC70623B3DEE336E79000000790000001B00000000000000000000000000000000006175746F6465736B2D64657369676E2D7061636B6167652E786D6C504B01021400140006080800CC70623BD486FD9CA0000000F40000001300000000000000000000000000B20000005B
310
436F6E74656E745F54797065735D2E786D6C504B01021400140006080800CC70623B1EC5D7A3EB0000007C010000080000000000000000000000000083010000636F72652E786D6C504B01021400140006080800CC70623B55019EA25F0000007C000000070000000000000000000000000094020000636E782E786D6C504B
310
01021400140006080800CC70623B8C9102E971010000D40300000C00000000000000000000000000180300006662782F636F72652E786D6C504B01021400140006080800CC70623BFFEA85907E0000009D0000000B00000000000000000000000000B30400006662782F636E782E786D6C504B01021400140006080800CC70
310
623B4FEEA4082C0100001202000031000000000000000000000000005A0500006662782F39464131463745442D413632322D343644302D413938332D3331353338454246344243312F636F72652E786D6C504B01021400140006080800CC70623BAD7543B64E010000330300003000000000000000000000000000D5060000
310
6662782F39464131463745442D413632322D343644302D413938332D3331353338454246344243312F636E782E786D6C504B01021400140006080800CC70623B16AB87BA640500003C1000003400000000000000000000000000710800006662782F39464131463745442D413632322D343644302D413938332D3331353338
310
454246344243312F6F626A656374732E786D6C504B01021400140006080000CC70623B0000000000000000000000003500000000000000000000000000270E00006662782F39464131463745442D413632322D343644302D413938332D3331353338454246344243312F76657274696365732E62696E504B01021400140006
310
080800CC70623BF270F133060000000400000036000000000000000000000000007A0E00006662782F39464131463745442D413632322D343644302D413938332D3331353338454246344243312F747269616E676C65732E62696E504B01021400140006080000CC70623B0000000000000000000000003700000000000000
310
000000000000D40E00006662782F39464131463745442D413632322D343644302D413938332D3331353338454246344243312F617474726962757465732E62696E504B01021400140006080800CC70623B08DA0BD190000000410100003600000000000000000000000000290F00006662782F39464131463745442D413632
310
322D343644302D413938332D3331353338454246344243312F6469726563746F72792E786D6C504B01021400140006080800CC70623B0D6EF93BFE000000A00100003B000000000000000000000000000D1000006662782F39464131463745442D413632322D343644302D413938332D3331353338454246344243312F7265
310
736F75726365732F636F72652E786D6C504B0506000000000E000E0080040000641100000000
  0
XRECORD
  5
5862
102
{ACAD_REACTORS
330
173
102
}
330
173
100
AcDbXrecord
280
     1
102
MATERIAL
148
0.0
149
0.0
149
0.0
 93
        0
 94
       63
282
     0
 72
     1
 77
     1
171
     1
175
     1
179
     1
273
     0
  0
XRECORD
  5
175
102
{ACAD_REACTORS
330
173
102
}
330
173
100
AcDbXrecord
280
     1
270
     1
271
     1
  0
XRECORD
  5
174
102
{ACAD_REACTORS
330
173
102
}
330
173
100
AcDbXrecord
280
     1
270
     1
271
     1
  0
XRECORD
  5
1FB
102
{ACAD_REACTORS
330
173
102
}
330
173
100
AcDbXrecord
280
     1
 70
     0
 90
1673772943
  1
ECE7A1D2-D628-4531-984C-D00F80459256
310
504B03040A0000080000CC70623B3DEE336E79000000790000001B0000006175746F6465736B2D64657369676E2D7061636B6167652E786D6C3C3F786D6C2076657273696F6E3D22312E302220656E636F64696E673D227574662D3822203F3E3C666F726D6174733E3C666F726D61743E687474703A2F2F736368656D612E
310
6175746F6465736B2E636F6D2F64657369676E2D7061636B6167652F323030393C2F666F726D61743E3C2F666F726D6174733E504B0304140006080800CC70623BD486FD9CA0000000F4000000130000005B436F6E74656E745F54797065735D2E786D6C7D8EC10E82300C865F65E91D8A1E8C310C0EEA1BF002731658846E
310
D98AC1B77784ABF1D8FE5FBFBF75BBCE937A534CCEB38643598122B6FEE978D0B0485F9C41B54DDD7D022595594E1A469170414C76A4D9A4D207E29CF43ECE46F218070CC6BECC4078ACAA135ACF422C856C0E68EA1BF5669944DDD7BCDE7B1F8E415D77AECB980613C2E4AC91FC167A2B244592486606FC29C8FD7F045B9A
310
EF7053A7E60B504B0304140006080800CC70623BD9DDAED0EC0000007C01000008000000636F72652E786D6C8D90416EC3201045AF82665B61836D9CD8C2444DD39CA01740405C94182C03558F5F9C3852BBEB6A467FFE9B197D7EF89E6EE8CB2CC17A37002D0820E394D7D68D03A478C17B4007C117EFE32F1B20272733C0
310
2A83E0E3E2D3BC49CABB685CCCAAF3DA6CA20CC14440EA969B0182FA34932C648AD911AEC52CD5558EA6A0CF2EC329598D1E47ACCEFBECC59A050463A7EA5833865FEBDD0E37353BE3EE8DBDE3F6786A48D375FBF6CC78B9C282473B3DEFABC5C86834888A900E538A49F5419B9EB47DD5BC907D4F082F57FB1F28CDFA9F50
310
B22ED6D5F6EE030B20687EE43E10BC5CB3C8E51E54AE6B6EE207504B0304140006080800CC70623B55019EA25F0000007C00000007000000636E782E786D6C4DCB3B0E80201045D1AD90E915ED2CF8AC45050C11660C8261F98AB1B07AC9C97D42D718D865D3E909258CFD00CCE24AC6E326A164D74DC0B4128928FF326038
310
472BA13128B1252AC747C6BAB984FC68F0B87FE8960A5C09FE86CFB69FBA01504B0304140006080800CC70623BA24EB22D72010000D40300000C0000006662782F636F72652E786D6CC5535B6E833010BC8AE5DF0A6C5E49888CA3A6694ED00B38E05014B091B1518EDFE511A5A9D228FD2A1F60CDEC7A67C6986DCE4D8D7A
310
69BA4AAB0C073EC548AA5C17952A33ECECD15B61B4E1CC686DBF9561A44423333CC098B3D268D7CE50AE9595CA02AA74216750749DB418E5352C32DCE59FB211BE70162ABA93DF8AFC244AE9073ED050C759670D0840D390E18DF9F1706664C23973AE2A66B62A605A75ACA4C13C4976E1364A12EF355A2EBD384AF65EFA96
310
BC7B8BED2EA6719AAE16FB8491A199335B351775B991C2CA02F390D2D40B028F861F41BCA68B7518BFD0D59A524686F29B26D7164F36B94AD9289CE54E6D1DE6010819891F6E21228B3AD1831EC219194284CF98F06DD01008846CC5A1BEF83801D4CBDC6A1303536877A57A513B0953A94FC707FDBE6064EA84A9E3E6E0FA
310
EE8CF0E9198F7784A316AA0413C2C2F2E0ECA0934D1AE6D05A69BCDE9E91D2A611F573361E38FC1375157F5752AE6B6DFE4B11990F88CCBF0719EE23FF02504B0304140006080800CC70623B408A7D3B7C0000009D0000000B0000006662782F636E782E786D6C4DCCD10A83201886E15B91FFDC552A92A0064DBC8F581632
310
D3703A76F9ABD1C18E3E78F878E5F0D9027ABBFCF2292AE86E2D20171F69F6715550CB827B40839639A5F2770314A7CD293819B45C73AAFB45B35BA61ACAA1C1C7E7855C58C15BC331339661262CC762340413D68D77DA5B42298546CBE6573AF60CEB2F504B0304140006080800CC70623B449FB9BD290100001202000031
310
0000006662782F36394639363044362D344446342D343946362D394244322D3234314243333846323333332F636F72652E786D6C8D515B6EC32010BC0AE22B55850D98B871848994463E412FE002495162B07854397EA176A4F62F3F2C9A9D991D587EB84F37F0AD7D30CEF6905418026DA553C65E7A98E219ED203808EE9D
310
8B7F6810D871D23D2C3014FCE25D9A57483A1BB58D19B54EE9151C43D0110279CB971E06F9A5A7B11A53CC8C70ADE6515EC78BAE4895DB992778883E0700CB907242D17643D7E2538BD869608875438BBAE38922CAC8F1BDD90DB4691A5E2F42C153326A951B95E398B3D1FE599322163C9AE9115F7A3D46ADA0A018778810
310
84E907617BDCEE297BC5BB3DC6BC2EF47FA234AB2745C9D8D8D035EE220B50105E2F0DC1954B9FB747187D9F9D8FA0CCDB042D5FA0C015C65B42DF78BD10F3F3B363CB56C7109DCFDFBBB97E662ED92EB62D13BC2E1BCAE5777DB9966D8A1F504B0304140006080800CC70623BAD7543B64E01000033030000300000006662
310
782F36394639363044362D344446342D343946362D394244322D3234314243333846323333332F636E782E786D6CD593CD6EC32010845F0571AD6CE3D48AD20813A9873E410FBD12D82434182C7EAAE6EDBB2424CD25871E7B41D6EC30B3FA84F9E67BB2E40B4234DE8DB46F1925E094D7C6ED479AD3AE5951B2113C789FEE
310
6C943839C1488B4C05DF079FE72A69D8C96C13AAD6B8631503449F83828872B949AC57D26200B826A308D316B4064D6E46FCDA41C05550DC9E483A00797BFD207EFB092A45DE9514C1BBD22178396BD39D891265658C238DEA00936C654E5E433CB65A26D9F6EDB5EBC14EBF49A45CB856E66048291F6939A9A81BB5C89177
310
38143CA680F4AA299D66A042CEB3354A2684DC9D8D178FE0D9B8B41CAAD720F880EE7EF93C0C18769E099ECC04D5A102C8049A8A05632F4DDF376CF1DE0F6BB65C2F8627B65A33C6BB62177CEBBDAD973006829F89F22E814B54F4BC2BE347F8AA8F681390B50FA73F804400B5F542E796F19FF974E7F78DB802FE05E20750
310
4B0304140006080800CC70623B8D05915C650500003B100000340000006662782F36394639363044362D344446342D343946362D394244322D3234314243333846323333332F6F626A656374732E786D6CAD575B6FA33814FE2B887D06429276DA1565D4266D158D3A339A6846FB502932E050B66023DB74D2FDF5FB190C01
310
9276B2973C046C8ECFF53B17071F77456EBD502133CEAE6CDF9DD81665314F32965ED995DA3A17B6F5310C04E7AA47665B8C14F4CAD6DB7618A48257A5D94AE89654B91AEDDEDDFC61C998326A5B714EA4BCB265FC440BE2924AF184CA6737218AB8E976E7FA6E4338649B0A523E8D98964450A6A029F619B8588D52FE7039
310
B1BD30F0F4F730D0FF866AF6369557DB33949F31A9088B0F848DD8CCFCF9F2767A76E99CCDE733677E3EF59D9BBB9BA5E37F984D16E78BC5E5F5ED25044B25C0C96822E8D60EEFE11B91C581D77CEA34368A1F5329E68CD1B8B61F16D63A1B8E092D294B10C78C4A48EB593D192E7DED9BDEE7995E1B91FDEDD3ACEA9FE831
310
6A756F9F7D4D79F4274C90A7A04248AA51D5F8C718DAE06FB2F75AC4796EBE65D22A88A22223B995679120E2D50E41AA49C260C046A35368846B0BECD0DFF3EBEB8AD4F835768F69B9ADF25C43D30E6B646F807FAA64AD59F61715C7A54127C4AACA98BA3006A9D792DAE165E0D59B61A01FB3A9F9D838D2DAE62445C86166
310
F37564E842E7DE6A69879FEEA2DD5AE7E371E1A5E025154AC307D06A03D73EB5978C58FFA4C8E9033066E0F3BD53BEC1F39F91BE7B55103791EDE6BBB991A2046172CB4581D8B893FA674DDA17A77B3B7C413D1B511FD2743BFF8A38F03A658705E3ADF8015C3A3417FF3D7E439FF591DA0B5F18BC20C1B8981957AE6392A3
310
F43C640C01D1A0B4728E2DD4F26DB4B3C3152A252A3B4E913CEC1C72F012782FF88EFF8637AA552DBEF76408E8A8DE9E50F9E1CB3A2DA0DB1B6039A893B56063DC5B3E3FFB5F72E67AB9FEB4AEC496C4F4C1149625DD662C53E89D7BF0F6151A046260D1337DFDC94502430F83B0EE07A130A224BCAD7DAE1D9FB6CD422FF6
310
920702629C4BB9AE79C12F243C6432A6794E18E5552BA56B431AAB5D91317302B2B071E86C3A42B1A02F999E24061403B5D0EB639195DA655DD3EBEAB4FB862DDF579F014AD0E73C22F99E28DA57FB98E75C6CA2D74D53086D600F4786E0FE3144B771A8A7B900F03594DB8A633CBC49B2EDB69228BB479CF863B5E807AAAB
310
23872F6DFEB4129B949CA33823F58830E86D65621E10047D9DB34D862E8EAC3C2ABC2F7B2C40D67CDFE01F5545B92105AF983AC54D93D69E56FB8E797F88913F898A9FEC705D3F9D1B54EC8426FB500D40A03BD0119B06E1B95DDC7EB8F6975367793EBD70E66733DFB9BC982F9CE564727731999F5D4ECFCE3B8D6A4DC2A0
310
6D50FD148437D110834A64C6CDDF57FBACB5C307A2A477DFE4939736CFEF2B175371E0E10CF0DD1D5C15654E0BCA14D1E87DD02FF93782A162C0A3D95F1524A52770F972BF1EE9809D13CE7DD599467F8ECE9ADD85CE85A34CD45355448C64F9E8A031DC2D596ACC6E5DD93D9B82DE2EF5CAF81363A8E47996A0DE24564A79
310
4115AACE09C55E14540231FDA13C319787134EBF34E3A022514E5B4D9E0826E25C02D5805B15ABE1BEF51B26383D445DD9E875EE33FE4C22DA16427D65A3BCA92CA6D28DD01DF5DC53330704308475351050232CCD31583787BA75774AFB06E5070DD0C8EF484E19968C5D83BA5B90B244D31E54D55A372320FE4786B7EA58
310
44E135AA5467CB7EA333A61683CC6A8C3257034C10CF46F40EF9F5BE59BE5BD30C3C72D235E95D10345C1D45445A5F0BB47E46A5EBE5570F9380B5FA629579952296A773720405982B9DE04011506178964401AA8BDF1FBF0A8EAB6861DD6580C0E38217056766716DAEB2D6FA0917D3E4116581EADB879C4E7CFFB11EFACD
310
3D641311495D92C8676CB409A72D18610D803CE8A626049E8EC1887CB5B44CC39883690DDA8399B4B9855B481E7D71D4A9D22F96E5BB73BF5793020C02137BF837504B0304140006080000CC70623B000000000000000000000000350000006662782F36394639363044362D344446342D343946362D394244322D32343142
310
43333846323333332F76657274696365732E62696E504B0304140006080800CC70623BF270F1330600000004000000360000006662782F36394639363044362D344446342D343946362D394244322D3234314243333846323333332F747269616E676C65732E62696E636660600000504B0304140006080000CC70623B0000
310
00000000000000000000370000006662782F36394639363044362D344446342D343946362D394244322D3234314243333846323333332F617474726962757465732E62696E504B0304140006080800CC70623B08DA0BD19000000041010000360000006662782F36394639363044362D344446342D343946362D394244322D
310
3234314243333846323333332F6469726563746F72792E786D6C858F410AC3201045AF22B36F53E9A60B35CBEEBAE80D244E44489C6234F4F835464A48035D0DF398FF9F8AF63D0E6CC63039F212F8F9020C7D47C6792B21C5FE7403D62A1188E2E60C98D7234A5830286103A55745067B9D86B8A3CF9C7F90C11DE607FB14
310
4396D7B6A82D282E9A152AD114D5EF2CB866EEE831B8EEA07A7BB5A8D7D61A2BAAEB7FD5F70921FF497D00504B0304140006080800CC70623BCA768048FE000000A00100003B0000006662782F36394639363044362D344446342D343946362D394244322D3234314243333846323333332F7265736F75726365732F636F72
310
652E786D6C8D50596E833010BD0A9ADFCA60D600328E9AA639412F609909B1126CE4A5EAF16B0295DABFFECC8CDEA2797AECF8353F924FB44E193D409E5248504B332A3D0D10FC95B4901C39B3C6F85F3248B49871801506CE266BC2B243D2688FDA47549B11775038871E12F988C7004EDE7016A9083E2ADC3D5D84BC8B09
310
D33C8D74D471E6BC8D0192EDC93A815B742658898E651BCB59086ADC356A8C3FD555A1055ED7E7E254D615792D0F075295F585746FF53B694EE78A565DD736979A65AB9933AFE69F8CD2A2F038022F28ED489E135A7CE4554F9BBEA85E68DB53CAB255FEC71496F19FA6A0B42F8B3DEE6673C0F318E4497096AD7DC5F52C33
310
EEB55BFE0D504B010214000A0000080000CC70623B3DEE336E79000000790000001B00000000000000000000000000000000006175746F6465736B2D64657369676E2D7061636B6167652E786D6C504B01021400140006080800CC70623BD486FD9CA0000000F40000001300000000000000000000000000B20000005B436F
310
6E74656E745F54797065735D2E786D6C504B01021400140006080800CC70623BD9DDAED0EC0000007C010000080000000000000000000000000083010000636F72652E786D6C504B01021400140006080800CC70623B55019EA25F0000007C000000070000000000000000000000000095020000636E782E786D6C504B0102
310
1400140006080800CC70623BA24EB22D72010000D40300000C00000000000000000000000000190300006662782F636F72652E786D6C504B01021400140006080800CC70623B408A7D3B7C0000009D0000000B00000000000000000000000000B50400006662782F636E782E786D6C504B01021400140006080800CC70623B
310
449FB9BD290100001202000031000000000000000000000000005A0500006662782F36394639363044362D344446342D343946362D394244322D3234314243333846323333332F636F72652E786D6C504B01021400140006080800CC70623BAD7543B64E010000330300003000000000000000000000000000D20600006662
310
782F36394639363044362D344446342D343946362D394244322D3234314243333846323333332F636E782E786D6C504B01021400140006080800CC70623B8D05915C650500003B10000034000000000000000000000000006E0800006662782F36394639363044362D344446342D343946362D394244322D32343142433338
310
46323333332F6F626A656374732E786D6C504B01021400140006080000CC70623B0000000000000000000000003500000000000000000000000000250E00006662782F36394639363044362D344446342D343946362D394244322D3234314243333846323333332F76657274696365732E62696E504B010214001400060808
310
00CC70623BF270F13306000000040000003600000000000000000000000000780E00006662782F36394639363044362D344446342D343946362D394244322D3234314243333846323333332F747269616E676C65732E62696E504B01021400140006080000CC70623B00000000000000000000000037000000000000000000
310
00000000D20E00006662782F36394639363044362D344446342D343946362D394244322D3234314243333846323333332F617474726962757465732E62696E504B01021400140006080800CC70623B08DA0BD190000000410100003600000000000000000000000000270F00006662782F36394639363044362D344446342D
310
343946362D394244322D3234314243333846323333332F6469726563746F72792E786D6C504B01021400140006080800CC70623BCA768048FE000000A00100003B000000000000000000000000000B1000006662782F36394639363044362D344446342D343946362D394244322D3234314243333846323333332F7265736F
310
75726365732F636F72652E786D6C504B0506000000000E000E0080040000621100000000
  0
XRECORD
  5
176
102
{ACAD_REACTORS
330
173
102
}
330
173
100
AcDbXrecord
280
     1
270
     1
271
     1
  0
XRECORD
  5
177
102
{ACAD_REACTORS
330
173
102
}
330
173
100
AcDbXrecord
280
     1
270
     1
271
     1
  0
XRECORD
  5
5884
102
{ACAD_REACTORS
330
5883
102
}
330
5883
100
AcDbXrecord
280
     1
102
ACAD_ROUNDTRIP_2012_MLEADER_STYLE
298
     1
  0
XRECORD
  5
5896
102
{ACAD_REACTORS
330
5895
102
}
330
5895
100
AcDbXrecord
280
     1
102
DISPLAYNAME
  1
Metric50
102
FLAGS
 90
        0
  0
CELLSTYLEMAP
  5
5856
102
{ACAD_REACTORS
330
162
102
}
330
162
100
AcDbCellStyleMap
 90
        3
300
CELLSTYLE
  1
TABLEFORMAT_BEGIN
 90
        5
170
     1
 91
        0
 92
    32768
 62
   257
 93
        1
300
CONTENTFORMAT
  1
CONTENTFORMAT_BEGIN
 90
        0
 91
        0
 92
      512
 93
        0
300

 40
0.0
140
1.0
 94
        5
 62
     0
340
11
144
6.0
309
CONTENTFORMAT_END
171
     1
301
MARGIN
  1
CELLMARGIN_BEGIN
 40
1.5
 40
1.5
 40
1.5
 40
1.5
 40
4.5
 40
4.5
309
CELLMARGIN_END
 94
        6
 95
        1
302
GRIDFORMAT
  1
GRIDFORMAT_BEGIN
 90
        0
 91
        1
 62
     0
 92
       -2
340
14
 93
        0
 40
1.125
309
GRIDFORMAT_END
 95
        2
302
GRIDFORMAT
  1
GRIDFORMAT_BEGIN
 90
        0
 91
        1
 62
     0
 92
       -2
340
14
 93
        0
 40
1.125
309
GRIDFORMAT_END
 95
        4
302
GRIDFORMAT
  1
GRIDFORMAT_BEGIN
 90
        0
 91
        1
 62
     0
 92
       -2
340
14
 93
        0
 40
1.125
309
GRIDFORMAT_END
 95
        8
302
GRIDFORMAT
  1
GRIDFORMAT_BEGIN
 90
        0
 91
        1
 62
     0
 92
       -2
340
14
 93
        0
 40
1.125
309
GRIDFORMAT_END
 95
       16
302
GRIDFORMAT
  1
GRIDFORMAT_BEGIN
 90
        0
 91
        1
 62
     0
 92
       -2
340
14
 93
        0
 40
1.125
309
GRIDFORMAT_END
 95
       32
302
GRIDFORMAT
  1
GRIDFORMAT_BEGIN
 90
        0
 91
        1
 62
     0
 92
       -2
340
14
 93
        0
 40
1.125
309
GRIDFORMAT_END
309
TABLEFORMAT_END
  1
CELLSTYLE_BEGIN
 90
        1
 91
        1
300
_TITLE
309
CELLSTYLE_END
300
CELLSTYLE
  1
TABLEFORMAT_BEGIN
 90
        5
170
     1
 91
        0
 92
        0
 62
   257
 93
        1
300
CONTENTFORMAT
  1
CONTENTFORMAT_BEGIN
 90
        0
 91
        0
 92
      512
 93
        0
300

 40
0.0
140
1.0
 94
        5
 62
     0
340
11
144
4.5
309
CONTENTFORMAT_END
171
     1
301
MARGIN
  1
CELLMARGIN_BEGIN
 40
1.5
 40
1.5
 40
1.5
 40
1.5
 40
4.5
 40
4.5
309
CELLMARGIN_END
 94
        6
 95
        1
302
GRIDFORMAT
  1
GRIDFORMAT_BEGIN
 90
        0
 91
        1
 62
     0
 92
       -2
340
14
 93
        0
 40
1.125
309
GRIDFORMAT_END
 95
        2
302
GRIDFORMAT
  1
GRIDFORMAT_BEGIN
 90
        0
 91
        1
 62
     0
 92
       -2
340
14
 93
        0
 40
1.125
309
GRIDFORMAT_END
 95
        4
302
GRIDFORMAT
  1
GRIDFORMAT_BEGIN
 90
        0
 91
        1
 62
     0
 92
       -2
340
14
 93
        0
 40
1.125
309
GRIDFORMAT_END
 95
        8
302
GRIDFORMAT
  1
GRIDFORMAT_BEGIN
 90
        0
 91
        1
 62
     0
 92
       -2
340
14
 93
        0
 40
1.125
309
GRIDFORMAT_END
 95
       16
302
GRIDFORMAT
  1
GRIDFORMAT_BEGIN
 90
        0
 91
        1
 62
     0
 92
       -2
340
14
 93
        0
 40
1.125
309
GRIDFORMAT_END
 95
       32
302
GRIDFORMAT
  1
GRIDFORMAT_BEGIN
 90
        0
 91
        1
 62
     0
 92
       -2
340
14
 93
        0
 40
1.125
309
GRIDFORMAT_END
309
TABLEFORMAT_END
  1
CELLSTYLE_BEGIN
 90
        2
 91
        1
300
_HEADER
309
CELLSTYLE_END
300
CELLSTYLE
  1
TABLEFORMAT_BEGIN
 90
        5
170
     1
 91
        0
 92
        0
 62
   257
 93
        1
300
CONTENTFORMAT
  1
CONTENTFORMAT_BEGIN
 90
        0
 91
        0
 92
      512
 93
        0
300

 40
0.0
140
1.0
 94
        2
 62
     0
340
11
144
4.5
309
CONTENTFORMAT_END
171
     1
301
MARGIN
  1
CELLMARGIN_BEGIN
 40
1.5
 40
1.5
 40
1.5
 40
1.5
 40
4.5
 40
4.5
309
CELLMARGIN_END
 94
        6
 95
        1
302
GRIDFORMAT
  1
GRIDFORMAT_BEGIN
 90
        0
 91
        1
 62
     0
 92
       -2
340
14
 93
        0
 40
1.125
309
GRIDFORMAT_END
 95
        2
302
GRIDFORMAT
  1
GRIDFORMAT_BEGIN
 90
        0
 91
        1
 62
     0
 92
       -2
340
14
 93
        0
 40
1.125
309
GRIDFORMAT_END
 95
        4
302
GRIDFORMAT
  1
GRIDFORMAT_BEGIN
 90
        0
 91
        1
 62
     0
 92
       -2
340
14
 93
        0
 40
1.125
309
GRIDFORMAT_END
 95
        8
302
GRIDFORMAT
  1
GRIDFORMAT_BEGIN
 90
        0
 91
        1
 62
     0
 92
       -2
340
14
 93
        0
 40
1.125
309
GRIDFORMAT_END
 95
       16
302
GRIDFORMAT
  1
GRIDFORMAT_BEGIN
 90
        0
 91
        1
 62
     0
 92
       -2
340
14
 93
        0
 40
1.125
309
GRIDFORMAT_END
 95
       32
302
GRIDFORMAT
  1
GRIDFORMAT_BEGIN
 90
        0
 91
        1
 62
     0
 92
       -2
340
14
 93
        0
 40
1.125
309
GRIDFORMAT_END
309
TABLEFORMAT_END
  1
CELLSTYLE_BEGIN
 90
        3
 91
        2
300
_DATA
309
CELLSTYLE_END
  0
XRECORD
  5
585B
102
{ACAD_REACTORS
330
162
102
}
330
162
100
AcDbXrecord
280
     1
102
ACAD_ROUNDTRIP_PRE2007_TABLESTYLE
 90
      512
 91
        0
  1

 92
      512
 93
        0
  2

 94
      512
 95
        0
  3

  0
XRECORD
  5
586E
102
{ACAD_REACTORS
330
586D
102
}
330
586D
100
AcDbXrecord
280
     1
102
RTVSPost2010Prop28
280
     1
102
RTVSPost2010PropOp28
 70
     1
102
RTVSPost2010Prop29
280
     1
102
RTVSPost2010PropOp29
 70
     1
102
RTVSPost2010Prop30
280
     0
102
RTVSPost2010PropOp30
 70
     1
102
RTVSPost2010Prop31
280
     0
102
RTVSPost2010PropOp31
 70
     1
102
RTVSPost2010Prop32
280
     0
102
RTVSPost2010PropOp32
 70
     1
102
RTVSPost2010Prop33
280
     0
102
RTVSPost2010PropOp33
 70
     1
102
RTVSPost2010Prop34
280
     0
102
RTVSPost2010PropOp34
 70
     1
102
RTVSPost2010Prop35
280
     0
102
RTVSPost2010PropOp35
 70
     1
102
RTVSPost2010Prop36
280
     0
102
RTVSPost2010PropOp36
 70
     1
102
RTVSPost2010Prop37
 90
       50
102
RTVSPost2010PropOp37
 70
     1
102
RTVSPost2010Prop38
140
0.0
102
RTVSPost2010PropOp38
 70
     1
102
RTVSPost2010Prop39
140
1.0
102
RTVSPost2010PropOp39
 70
     1
102
RTVSPost2010Prop40
 90
        0
102
RTVSPost2010PropOp40
 70
     1
102
RTVSPost2010Prop41ColorIndex
 90
       18
102
RTVSPost2010Prop41ColorRGB
 90
        0
102
RTVSPost2010PropOp41
 70
     1
102
RTVSPost2010Prop42
 90
       50
102
RTVSPost2010PropOp42
 70
     1
102
RTVSPost2010Prop43
 90
        3
102
RTVSPost2010PropOp43
 70
     1
102
RTVSPost2010Prop44ColorIndex
 90
        5
102
RTVSPost2010Prop44ColorRGB
 90
      255
102
RTVSPost2010PropOp44
 70
     1
102
RTVSPost2010Prop45
280
     0
102
RTVSPost2010PropOp45
 70
     1
102
RTVSPost2010Prop46
 90
       50
102
RTVSPost2010PropOp46
 70
     1
102
RTVSPost2010Prop47
 90
       50
102
RTVSPost2010PropOp47
 70
     1
102
RTVSPost2010Prop48
 90
       50
102
RTVSPost2010PropOp48
 70
     1
102
RTVSPost2010Prop49
280
     0
102
RTVSPost2010PropOp49
 70
     1
102
RTVSPost2010Prop50
 90
       50
102
RTVSPost2010PropOp50
 70
     1
102
RTVSPost2010Prop51ColorIndex
 90
      256
102
RTVSPost2010Prop51ColorRGB
 90
-16777216
102
RTVSPost2010PropOp51
 70
     0
102
RTVSPost2010Prop52
140
1.0
102
RTVSPost2010PropOp52
 70
     0
102
RTVSPost2010Prop53
 90
        2
102
RTVSPost2010PropOp53
 70
     1
102
RTVSPost2010Prop54
  1
strokes_ogs.tif
102
RTVSPost2010PropOp54
 70
     1
102
RTVSPost2010Prop55
280
     0
102
RTVSPost2010PropOp55
 70
     1
102
RTVSPost2010Prop56
140
1.0
102
RTVSPost2010PropOp56
 70
     1
102
RTVSPost2010Prop57
140
1.0
102
RTVSPost2010PropOp57
 70
     1
102
RTVSPropertyOp0
 70
     1
102
RTVSPropertyOp1
 70
     1
102
RTVSPropertyOp2
 70
     1
102
RTVSPropertyOp3
 70
     1
102
RTVSPropertyOp4
 70
     1
102
RTVSPropertyOp5
 70
     1
102
RTVSPropertyOp6
 70
     1
102
RTVSPropertyOp7
 70
     1
102
RTVSPropertyOp8
 70
     1
102
RTVSPropertyOp9
 70
     1
102
RTVSPropertyOp10
 70
     1
102
RTVSPropertyOp11
 70
     1
102
RTVSPropertyOp12
 70
     1
102
RTVSPropertyOp13
 70
     1
102
RTVSPropertyOp14
 70
     1
102
RTVSPropertyOp15
 70
     1
102
RTVSPropertyOp16
 70
     1
102
RTVSPropertyOp17
 70
     1
102
RTVSPropertyOp18
 70
     1
102
RTVSPropertyOp19
 70
     1
102
RTVSPropertyOp20
 70
     1
102
RTVSPropertyOp21
 70
     1
102
RTVSPropertyOp22
 70
     1
102
RTVSPropertyOp23
 70
     1
102
RTVSPropertyOp24
 70
     1
102
RTVSPropertyOp25
 70
     1
102
RTVSPropertyOp26
 70
     1
102
RTVSPropertyOp27
 70
     1
102
RTVSPropertyOp28
 70
     1
102
RTVSPropertyOp29
 70
     1
102
RTVSPropertyOp30
 70
     1
102
RTVSPropertyOp31
 70
     1
102
RTVSPropertyOp32
 70
     1
102
RTVSPropertyOp33
 70
     1
102
RTVSPropertyOp34
 70
     1
102
RTVSPropertyOp35
 70
     1
102
RTVSPropertyOp36
 70
     1
102
RTVSPropertyOp37
 70
     1
102
RTVSPropertyOp38
 70
     1
102
RTVSPropertyOp39
 70
     1
102
RTVSPropertyOp40
 70
     1
102
RTVSPropertyOp41
 70
     1
102
RTVSPropertyOp42
 70
     1
102
RTVSPropertyOp43
 70
     1
102
RTVSPropertyOp44
 70
     1
102
RTVSPropertyOp45
 70
     1
102
RTVSPropertyOp46
 70
     1
102
RTVSPropertyOp47
 70
     1
102
RTVSPropertyOp48
 70
     1
102
RTVSPropertyOp49
 70
     1
102
RTVSPropertyOp50
 70
     1
102
RTVSPropertyOp51
 70
     0
102
RTVSPropertyOp52
 70
     0
102
RTVSPropertyOp53
 70
     1
102
RTVSPropertyOp54
 70
     1
102
RTVSPropertyOp55
 70
     1
102
RTVSPropertyOp56
 70
     1
102
RTVSPropertyOp57
 70
     1
102
RTVSPropertyOp58
 70
     1
102
RTVSPropertyOp59
 70
     1
102
RTVSPropertyOp60
 70
     1
102
RTVSPropertyOp61
 70
     1
102
RTVSPropertyOp62
 70
     1
  0
XRECORD
  5
586C
102
{ACAD_REACTORS
330
586B
102
}
330
586B
100
AcDbXrecord
280
     1
102
RTVSPost2010Prop28
280
     0
102
RTVSPost2010PropOp28
 70
     1
102
RTVSPost2010Prop29
280
     1
102
RTVSPost2010PropOp29
 70
     1
102
RTVSPost2010Prop30
280
     1
102
RTVSPost2010PropOp30
 70
     1
102
RTVSPost2010Prop31
280
     0
102
RTVSPost2010PropOp31
 70
     1
102
RTVSPost2010Prop32
280
     0
102
RTVSPost2010PropOp32
 70
     1
102
RTVSPost2010Prop33
280
     0
102
RTVSPost2010PropOp33
 70
     1
102
RTVSPost2010Prop34
280
     0
102
RTVSPost2010PropOp34
 70
     1
102
RTVSPost2010Prop35
280
     0
102
RTVSPost2010PropOp35
 70
     1
102
RTVSPost2010Prop36
280
     0
102
RTVSPost2010PropOp36
 70
     1
102
RTVSPost2010Prop37
 90
       50
102
RTVSPost2010PropOp37
 70
     1
102
RTVSPost2010Prop38
140
0.0
102
RTVSPost2010PropOp38
 70
     1
102
RTVSPost2010Prop39
140
1.0
102
RTVSPost2010PropOp39
 70
     1
102
RTVSPost2010Prop40
 90
        0
102
RTVSPost2010PropOp40
 70
     1
102
RTVSPost2010Prop41ColorIndex
 90
       18
102
RTVSPost2010Prop41ColorRGB
 90
        0
102
RTVSPost2010PropOp41
 70
     1
102
RTVSPost2010Prop42
 90
       50
102
RTVSPost2010PropOp42
 70
     1
102
RTVSPost2010Prop43
 90
        3
102
RTVSPost2010PropOp43
 70
     1
102
RTVSPost2010Prop44ColorIndex
 90
        5
102
RTVSPost2010Prop44ColorRGB
 90
      255
102
RTVSPost2010PropOp44
 70
     1
102
RTVSPost2010Prop45
280
     0
102
RTVSPost2010PropOp45
 70
     1
102
RTVSPost2010Prop46
 90
       50
102
RTVSPost2010PropOp46
 70
     1
102
RTVSPost2010Prop47
 90
       50
102
RTVSPost2010PropOp47
 70
     1
102
RTVSPost2010Prop48
 90
       50
102
RTVSPost2010PropOp48
 70
     1
102
RTVSPost2010Prop49
280
     0
102
RTVSPost2010PropOp49
 70
     1
102
RTVSPost2010Prop50
 90
       50
102
RTVSPost2010PropOp50
 70
     1
102
RTVSPost2010Prop51ColorIndex
 90
      256
102
RTVSPost2010Prop51ColorRGB
 90
-16777216
102
RTVSPost2010PropOp51
 70
     0
102
RTVSPost2010Prop52
140
1.0
102
RTVSPost2010PropOp52
 70
     0
102
RTVSPost2010Prop53
 90
        2
102
RTVSPost2010PropOp53
 70
     1
102
RTVSPost2010Prop54
  1
strokes_ogs.tif
102
RTVSPost2010PropOp54
 70
     1
102
RTVSPost2010Prop55
280
     0
102
RTVSPost2010PropOp55
 70
     1
102
RTVSPost2010Prop56
140
1.0
102
RTVSPost2010PropOp56
 70
     1
102
RTVSPost2010Prop57
140
1.0
102
RTVSPost2010PropOp57
 70
     1
102
RTVSPropertyOp0
 70
     1
102
RTVSPropertyOp1
 70
     1
102
RTVSPropertyOp2
 70
     1
102
RTVSPropertyOp3
 70
     1
102
RTVSPropertyOp4
 70
     1
102
RTVSPropertyOp5
 70
     1
102
RTVSPropertyOp6
 70
     1
102
RTVSPropertyOp7
 70
     1
102
RTVSPropertyOp8
 70
     1
102
RTVSPropertyOp9
 70
     1
102
RTVSPropertyOp10
 70
     1
102
RTVSPropertyOp11
 70
     1
102
RTVSPropertyOp12
 70
     1
102
RTVSPropertyOp13
 70
     1
102
RTVSPropertyOp14
 70
     1
102
RTVSPropertyOp15
 70
     1
102
RTVSPropertyOp16
 70
     1
102
RTVSPropertyOp17
 70
     1
102
RTVSPropertyOp18
 70
     1
102
RTVSPropertyOp19
 70
     1
102
RTVSPropertyOp20
 70
     1
102
RTVSPropertyOp21
 70
     1
102
RTVSPropertyOp22
 70
     1
102
RTVSPropertyOp23
 70
     1
102
RTVSPropertyOp24
 70
     1
102
RTVSPropertyOp25
 70
     1
102
RTVSPropertyOp26
 70
     1
102
RTVSPropertyOp27
 70
     1
102
RTVSPropertyOp28
 70
     1
102
RTVSPropertyOp29
 70
     1
102
RTVSPropertyOp30
 70
     1
102
RTVSPropertyOp31
 70
     1
102
RTVSPropertyOp32
 70
     1
102
RTVSPropertyOp33
 70
     1
102
RTVSPropertyOp34
 70
     1
102
RTVSPropertyOp35
 70
     1
102
RTVSPropertyOp36
 70
     1
102
RTVSPropertyOp37
 70
     1
102
RTVSPropertyOp38
 70
     1
102
RTVSPropertyOp39
 70
     1
102
RTVSPropertyOp40
 70
     1
102
RTVSPropertyOp41
 70
     1
102
RTVSPropertyOp42
 70
     1
102
RTVSPropertyOp43
 70
     1
102
RTVSPropertyOp44
 70
     1
102
RTVSPropertyOp45
 70
     1
102
RTVSPropertyOp46
 70
     1
102
RTVSPropertyOp47
 70
     1
102
RTVSPropertyOp48
 70
     1
102
RTVSPropertyOp49
 70
     1
102
RTVSPropertyOp50
 70
     1
102
RTVSPropertyOp51
 70
     0
102
RTVSPropertyOp52
 70
     0
102
RTVSPropertyOp53
 70
     1
102
RTVSPropertyOp54
 70
     1
102
RTVSPropertyOp55
 70
     1
102
RTVSPropertyOp56
 70
     1
102
RTVSPropertyOp57
 70
     1
102
RTVSPropertyOp58
 70
     1
102
RTVSPropertyOp59
 70
     1
102
RTVSPropertyOp60
 70
     1
102
RTVSPropertyOp61
 70
     1
102
RTVSPropertyOp62
 70
     1
  0
XRECORD
  5
587A
102
{ACAD_REACTORS
330
5879
102
}
330
5879
100
AcDbXrecord
280
     1
102
RTVSPost2010Prop28
280
     0
102
RTVSPost2010PropOp28
 70
     1
102
RTVSPost2010Prop29
280
     1
102
RTVSPost2010PropOp29
 70
     1
102
RTVSPost2010Prop30
280
     1
102
RTVSPost2010PropOp30
 70
     1
102
RTVSPost2010Prop31
280
     0
102
RTVSPost2010PropOp31
 70
     1
102
RTVSPost2010Prop32
280
     0
102
RTVSPost2010PropOp32
 70
     1
102
RTVSPost2010Prop33
280
     0
102
RTVSPost2010PropOp33
 70
     1
102
RTVSPost2010Prop34
280
     0
102
RTVSPost2010PropOp34
 70
     1
102
RTVSPost2010Prop35
280
     0
102
RTVSPost2010PropOp35
 70
     1
102
RTVSPost2010Prop36
280
     0
102
RTVSPost2010PropOp36
 70
     1
102
RTVSPost2010Prop37
 90
       50
102
RTVSPost2010PropOp37
 70
     1
102
RTVSPost2010Prop38
140
0.0
102
RTVSPost2010PropOp38
 70
     1
102
RTVSPost2010Prop39
140
1.0
102
RTVSPost2010PropOp39
 70
     1
102
RTVSPost2010Prop40
 90
        0
102
RTVSPost2010PropOp40
 70
     1
102
RTVSPost2010Prop41ColorIndex
 90
       18
102
RTVSPost2010Prop41ColorRGB
 90
        0
102
RTVSPost2010PropOp41
 70
     1
102
RTVSPost2010Prop42
 90
       50
102
RTVSPost2010PropOp42
 70
     1
102
RTVSPost2010Prop43
 90
        3
102
RTVSPost2010PropOp43
 70
     1
102
RTVSPost2010Prop44ColorIndex
 90
        5
102
RTVSPost2010Prop44ColorRGB
 90
      255
102
RTVSPost2010PropOp44
 70
     1
102
RTVSPost2010Prop45
280
     0
102
RTVSPost2010PropOp45
 70
     1
102
RTVSPost2010Prop46
 90
       50
102
RTVSPost2010PropOp46
 70
     1
102
RTVSPost2010Prop47
 90
       50
102
RTVSPost2010PropOp47
 70
     1
102
RTVSPost2010Prop48
 90
       50
102
RTVSPost2010PropOp48
 70
     1
102
RTVSPost2010Prop49
280
     0
102
RTVSPost2010PropOp49
 70
     1
102
RTVSPost2010Prop50
 90
       50
102
RTVSPost2010PropOp50
 70
     1
102
RTVSPost2010Prop51ColorIndex
 90
      256
102
RTVSPost2010Prop51ColorRGB
 90
-16777216
102
RTVSPost2010PropOp51
 70
     0
102
RTVSPost2010Prop52
140
1.0
102
RTVSPost2010PropOp52
 70
     0
102
RTVSPost2010Prop53
 90
        2
102
RTVSPost2010PropOp53
 70
     1
102
RTVSPost2010Prop54
  1
strokes_ogs.tif
102
RTVSPost2010PropOp54
 70
     1
102
RTVSPost2010Prop55
280
     0
102
RTVSPost2010PropOp55
 70
     1
102
RTVSPost2010Prop56
140
1.0
102
RTVSPost2010PropOp56
 70
     1
102
RTVSPost2010Prop57
140
1.0
102
RTVSPost2010PropOp57
 70
     1
102
RTVSPropertyOp0
 70
     1
102
RTVSPropertyOp1
 70
     1
102
RTVSPropertyOp2
 70
     1
102
RTVSPropertyOp3
 70
     1
102
RTVSPropertyOp4
 70
     1
102
RTVSPropertyOp5
 70
     1
102
RTVSPropertyOp6
 70
     1
102
RTVSPropertyOp7
 70
     1
102
RTVSPropertyOp8
 70
     1
102
RTVSPropertyOp9
 70
     1
102
RTVSPropertyOp10
 70
     1
102
RTVSPropertyOp11
 70
     1
102
RTVSPropertyOp12
 70
     1
102
RTVSPropertyOp13
 70
     1
102
RTVSPropertyOp14
 70
     1
102
RTVSPropertyOp15
 70
     1
102
RTVSPropertyOp16
 70
     1
102
RTVSPropertyOp17
 70
     1
102
RTVSPropertyOp18
 70
     1
102
RTVSPropertyOp19
 70
     1
102
RTVSPropertyOp20
 70
     1
102
RTVSPropertyOp21
 70
     1
102
RTVSPropertyOp22
 70
     1
102
RTVSPropertyOp23
 70
     1
102
RTVSPropertyOp24
 70
     1
102
RTVSPropertyOp25
 70
     1
102
RTVSPropertyOp26
 70
     1
102
RTVSPropertyOp27
 70
     1
102
RTVSPropertyOp28
 70
     1
102
RTVSPropertyOp29
 70
     1
102
RTVSPropertyOp30
 70
     1
102
RTVSPropertyOp31
 70
     1
102
RTVSPropertyOp32
 70
     1
102
RTVSPropertyOp33
 70
     1
102
RTVSPropertyOp34
 70
     1
102
RTVSPropertyOp35
 70
     1
102
RTVSPropertyOp36
 70
     1
102
RTVSPropertyOp37
 70
     1
102
RTVSPropertyOp38
 70
     1
102
RTVSPropertyOp39
 70
     1
102
RTVSPropertyOp40
 70
     1
102
RTVSPropertyOp41
 70
     1
102
RTVSPropertyOp42
 70
     1
102
RTVSPropertyOp43
 70
     1
102
RTVSPropertyOp44
 70
     1
102
RTVSPropertyOp45
 70
     1
102
RTVSPropertyOp46
 70
     1
102
RTVSPropertyOp47
 70
     1
102
RTVSPropertyOp48
 70
     1
102
RTVSPropertyOp49
 70
     1
102
RTVSPropertyOp50
 70
     1
102
RTVSPropertyOp51
 70
     0
102
RTVSPropertyOp52
 70
     0
102
RTVSPropertyOp53
 70
     1
102
RTVSPropertyOp54
 70
     1
102
RTVSPropertyOp55
 70
     1
102
RTVSPropertyOp56
 70
     1
102
RTVSPropertyOp57
 70
     1
102
RTVSPropertyOp58
 70
     1
102
RTVSPropertyOp59
 70
     1
102
RTVSPropertyOp60
 70
     1
102
RTVSPropertyOp61
 70
     1
102
RTVSPropertyOp62
 70
     1
  0
XRECORD
  5
5882
102
{ACAD_REACTORS
330
5881
102
}
330
5881
100
AcDbXrecord
280
     1
102
RTVSPost2010Prop28
280
     0
102
RTVSPost2010PropOp28
 70
     1
102
RTVSPost2010Prop29
280
     1
102
RTVSPost2010PropOp29
 70
     1
102
RTVSPost2010Prop30
280
     1
102
RTVSPost2010PropOp30
 70
     1
102
RTVSPost2010Prop31
280
     0
102
RTVSPost2010PropOp31
 70
     1
102
RTVSPost2010Prop32
280
     0
102
RTVSPost2010PropOp32
 70
     1
102
RTVSPost2010Prop33
280
     0
102
RTVSPost2010PropOp33
 70
     1
102
RTVSPost2010Prop34
280
     0
102
RTVSPost2010PropOp34
 70
     1
102
RTVSPost2010Prop35
280
     0
102
RTVSPost2010PropOp35
 70
     1
102
RTVSPost2010Prop36
280
     0
102
RTVSPost2010PropOp36
 70
     1
102
RTVSPost2010Prop37
 90
       50
102
RTVSPost2010PropOp37
 70
     1
102
RTVSPost2010Prop38
140
0.0
102
RTVSPost2010PropOp38
 70
     1
102
RTVSPost2010Prop39
140
1.0
102
RTVSPost2010PropOp39
 70
     1
102
RTVSPost2010Prop40
 90
        0
102
RTVSPost2010PropOp40
 70
     1
102
RTVSPost2010Prop41ColorIndex
 90
       18
102
RTVSPost2010Prop41ColorRGB
 90
        0
102
RTVSPost2010PropOp41
 70
     1
102
RTVSPost2010Prop42
 90
       50
102
RTVSPost2010PropOp42
 70
     1
102
RTVSPost2010Prop43
 90
        3
102
RTVSPost2010PropOp43
 70
     1
102
RTVSPost2010Prop44ColorIndex
 90
        5
102
RTVSPost2010Prop44ColorRGB
 90
      255
102
RTVSPost2010PropOp44
 70
     1
102
RTVSPost2010Prop45
280
     0
102
RTVSPost2010PropOp45
 70
     1
102
RTVSPost2010Prop46
 90
       50
102
RTVSPost2010PropOp46
 70
     1
102
RTVSPost2010Prop47
 90
       50
102
RTVSPost2010PropOp47
 70
     1
102
RTVSPost2010Prop48
 90
       50
102
RTVSPost2010PropOp48
 70
     1
102
RTVSPost2010Prop49
280
     0
102
RTVSPost2010PropOp49
 70
     1
102
RTVSPost2010Prop50
 90
       50
102
RTVSPost2010PropOp50
 70
     1
102
RTVSPost2010Prop51ColorIndex
 90
      256
102
RTVSPost2010Prop51ColorRGB
 90
-16777216
102
RTVSPost2010PropOp51
 70
     0
102
RTVSPost2010Prop52
140
1.0
102
RTVSPost2010PropOp52
 70
     0
102
RTVSPost2010Prop53
 90
        2
102
RTVSPost2010PropOp53
 70
     1
102
RTVSPost2010Prop54
  1
strokes_ogs.tif
102
RTVSPost2010PropOp54
 70
     1
102
RTVSPost2010Prop55
280
     0
102
RTVSPost2010PropOp55
 70
     1
102
RTVSPost2010Prop56
140
1.0
102
RTVSPost2010PropOp56
 70
     1
102
RTVSPost2010Prop57
140
1.0
102
RTVSPost2010PropOp57
 70
     1
102
RTVSPropertyOp0
 70
     1
102
RTVSPropertyOp1
 70
     1
102
RTVSPropertyOp2
 70
     1
102
RTVSPropertyOp3
 70
     1
102
RTVSPropertyOp4
 70
     1
102
RTVSPropertyOp5
 70
     1
102
RTVSPropertyOp6
 70
     1
102
RTVSPropertyOp7
 70
     1
102
RTVSPropertyOp8
 70
     1
102
RTVSPropertyOp9
 70
     1
102
RTVSPropertyOp10
 70
     1
102
RTVSPropertyOp11
 70
     1
102
RTVSPropertyOp12
 70
     1
102
RTVSPropertyOp13
 70
     1
102
RTVSPropertyOp14
 70
     1
102
RTVSPropertyOp15
 70
     1
102
RTVSPropertyOp16
 70
     1
102
RTVSPropertyOp17
 70
     1
102
RTVSPropertyOp18
 70
     1
102
RTVSPropertyOp19
 70
     1
102
RTVSPropertyOp20
 70
     1
102
RTVSPropertyOp21
 70
     1
102
RTVSPropertyOp22
 70
     1
102
RTVSPropertyOp23
 70
     1
102
RTVSPropertyOp24
 70
     1
102
RTVSPropertyOp25
 70
     1
102
RTVSPropertyOp26
 70
     1
102
RTVSPropertyOp27
 70
     1
102
RTVSPropertyOp28
 70
     1
102
RTVSPropertyOp29
 70
     1
102
RTVSPropertyOp30
 70
     1
102
RTVSPropertyOp31
 70
     1
102
RTVSPropertyOp32
 70
     1
102
RTVSPropertyOp33
 70
     1
102
RTVSPropertyOp34
 70
     1
102
RTVSPropertyOp35
 70
     1
102
RTVSPropertyOp36
 70
     1
102
RTVSPropertyOp37
 70
     1
102
RTVSPropertyOp38
 70
     1
102
RTVSPropertyOp39
 70
     1
102
RTVSPropertyOp40
 70
     1
102
RTVSPropertyOp41
 70
     1
102
RTVSPropertyOp42
 70
     1
102
RTVSPropertyOp43
 70
     1
102
RTVSPropertyOp44
 70
     1
102
RTVSPropertyOp45
 70
     1
102
RTVSPropertyOp46
 70
     1
102
RTVSPropertyOp47
 70
     1
102
RTVSPropertyOp48
 70
     1
102
RTVSPropertyOp49
 70
     1
102
RTVSPropertyOp50
 70
     1
102
RTVSPropertyOp51
 70
     0
102
RTVSPropertyOp52
 70
     0
102
RTVSPropertyOp53
 70
     1
102
RTVSPropertyOp54
 70
     1
102
RTVSPropertyOp55
 70
     1
102
RTVSPropertyOp56
 70
     1
102
RTVSPropertyOp57
 70
     1
102
RTVSPropertyOp58
 70
     1
102
RTVSPropertyOp59
 70
     1
102
RTVSPropertyOp60
 70
     1
102
RTVSPropertyOp61
 70
     1
102
RTVSPropertyOp62
 70
     1
  0
XRECORD
  5
5874
102
{ACAD_REACTORS
330
5873
102
}
330
5873
100
AcDbXrecord
280
     1
102
RTVSPost2010Prop28
280
     0
102
RTVSPost2010PropOp28
 70
     1
102
RTVSPost2010Prop29
280
     1
102
RTVSPost2010PropOp29
 70
     1
102
RTVSPost2010Prop30
280
     1
102
RTVSPost2010PropOp30
 70
     1
102
RTVSPost2010Prop31
280
     0
102
RTVSPost2010PropOp31
 70
     1
102
RTVSPost2010Prop32
280
     0
102
RTVSPost2010PropOp32
 70
     1
102
RTVSPost2010Prop33
280
     0
102
RTVSPost2010PropOp33
 70
     1
102
RTVSPost2010Prop34
280
     0
102
RTVSPost2010PropOp34
 70
     1
102
RTVSPost2010Prop35
280
     0
102
RTVSPost2010PropOp35
 70
     1
102
RTVSPost2010Prop36
280
     0
102
RTVSPost2010PropOp36
 70
     1
102
RTVSPost2010Prop37
 90
       50
102
RTVSPost2010PropOp37
 70
     1
102
RTVSPost2010Prop38
140
0.0
102
RTVSPost2010PropOp38
 70
     1
102
RTVSPost2010Prop39
140
1.0
102
RTVSPost2010PropOp39
 70
     1
102
RTVSPost2010Prop40
 90
        0
102
RTVSPost2010PropOp40
 70
     1
102
RTVSPost2010Prop41ColorIndex
 90
       18
102
RTVSPost2010Prop41ColorRGB
 90
        0
102
RTVSPost2010PropOp41
 70
     1
102
RTVSPost2010Prop42
 90
       50
102
RTVSPost2010PropOp42
 70
     1
102
RTVSPost2010Prop43
 90
        3
102
RTVSPost2010PropOp43
 70
     1
102
RTVSPost2010Prop44ColorIndex
 90
        5
102
RTVSPost2010Prop44ColorRGB
 90
      255
102
RTVSPost2010PropOp44
 70
     1
102
RTVSPost2010Prop45
280
     0
102
RTVSPost2010PropOp45
 70
     1
102
RTVSPost2010Prop46
 90
       50
102
RTVSPost2010PropOp46
 70
     1
102
RTVSPost2010Prop47
 90
       50
102
RTVSPost2010PropOp47
 70
     1
102
RTVSPost2010Prop48
 90
       50
102
RTVSPost2010PropOp48
 70
     1
102
RTVSPost2010Prop49
280
     0
102
RTVSPost2010PropOp49
 70
     1
102
RTVSPost2010Prop50
 90
       50
102
RTVSPost2010PropOp50
 70
     1
102
RTVSPost2010Prop51ColorIndex
 90
      256
102
RTVSPost2010Prop51ColorRGB
 90
-16777216
102
RTVSPost2010PropOp51
 70
     0
102
RTVSPost2010Prop52
140
1.0
102
RTVSPost2010PropOp52
 70
     0
102
RTVSPost2010Prop53
 90
        2
102
RTVSPost2010PropOp53
 70
     1
102
RTVSPost2010Prop54
  1
strokes_ogs.tif
102
RTVSPost2010PropOp54
 70
     1
102
RTVSPost2010Prop55
280
     0
102
RTVSPost2010PropOp55
 70
     1
102
RTVSPost2010Prop56
140
1.0
102
RTVSPost2010PropOp56
 70
     1
102
RTVSPost2010Prop57
140
1.0
102
RTVSPost2010PropOp57
 70
     1
102
RTVSPropertyOp0
 70
     1
102
RTVSPropertyOp1
 70
     1
102
RTVSPropertyOp2
 70
     1
102
RTVSPropertyOp3
 70
     1
102
RTVSPropertyOp4
 70
     1
102
RTVSPropertyOp5
 70
     1
102
RTVSPropertyOp6
 70
     1
102
RTVSPropertyOp7
 70
     1
102
RTVSPropertyOp8
 70
     1
102
RTVSPropertyOp9
 70
     1
102
RTVSPropertyOp10
 70
     1
102
RTVSPropertyOp11
 70
     1
102
RTVSPropertyOp12
 70
     1
102
RTVSPropertyOp13
 70
     1
102
RTVSPropertyOp14
 70
     1
102
RTVSPropertyOp15
 70
     1
102
RTVSPropertyOp16
 70
     1
102
RTVSPropertyOp17
 70
     1
102
RTVSPropertyOp18
 70
     1
102
RTVSPropertyOp19
 70
     1
102
RTVSPropertyOp20
 70
     1
102
RTVSPropertyOp21
 70
     1
102
RTVSPropertyOp22
 70
     1
102
RTVSPropertyOp23
 70
     1
102
RTVSPropertyOp24
 70
     1
102
RTVSPropertyOp25
 70
     1
102
RTVSPropertyOp26
 70
     1
102
RTVSPropertyOp27
 70
     1
102
RTVSPropertyOp28
 70
     1
102
RTVSPropertyOp29
 70
     1
102
RTVSPropertyOp30
 70
     1
102
RTVSPropertyOp31
 70
     1
102
RTVSPropertyOp32
 70
     1
102
RTVSPropertyOp33
 70
     1
102
RTVSPropertyOp34
 70
     1
102
RTVSPropertyOp35
 70
     1
102
RTVSPropertyOp36
 70
     1
102
RTVSPropertyOp37
 70
     1
102
RTVSPropertyOp38
 70
     1
102
RTVSPropertyOp39
 70
     1
102
RTVSPropertyOp40
 70
     1
102
RTVSPropertyOp41
 70
     1
102
RTVSPropertyOp42
 70
     1
102
RTVSPropertyOp43
 70
     1
102
RTVSPropertyOp44
 70
     1
102
RTVSPropertyOp45
 70
     1
102
RTVSPropertyOp46
 70
     1
102
RTVSPropertyOp47
 70
     1
102
RTVSPropertyOp48
 70
     1
102
RTVSPropertyOp49
 70
     1
102
RTVSPropertyOp50
 70
     1
102
RTVSPropertyOp51
 70
     0
102
RTVSPropertyOp52
 70
     0
102
RTVSPropertyOp53
 70
     1
102
RTVSPropertyOp54
 70
     1
102
RTVSPropertyOp55
 70
     1
102
RTVSPropertyOp56
 70
     1
102
RTVSPropertyOp57
 70
     1
102
RTVSPropertyOp58
 70
     1
102
RTVSPropertyOp59
 70
     1
102
RTVSPropertyOp60
 70
     1
102
RTVSPropertyOp61
 70
     1
102
RTVSPropertyOp62
 70
     1
  0
XRECORD
  5
5878
102
{ACAD_REACTORS
330
5877
102
}
330
5877
100
AcDbXrecord
280
     1
102
RTVSPost2010Prop28
280
     0
102
RTVSPost2010PropOp28
 70
     1
102
RTVSPost2010Prop29
280
     1
102
RTVSPost2010PropOp29
 70
     1
102
RTVSPost2010Prop30
280
     1
102
RTVSPost2010PropOp30
 70
     1
102
RTVSPost2010Prop31
280
     0
102
RTVSPost2010PropOp31
 70
     1
102
RTVSPost2010Prop32
280
     0
102
RTVSPost2010PropOp32
 70
     1
102
RTVSPost2010Prop33
280
     0
102
RTVSPost2010PropOp33
 70
     1
102
RTVSPost2010Prop34
280
     0
102
RTVSPost2010PropOp34
 70
     1
102
RTVSPost2010Prop35
280
     0
102
RTVSPost2010PropOp35
 70
     1
102
RTVSPost2010Prop36
280
     0
102
RTVSPost2010PropOp36
 70
     1
102
RTVSPost2010Prop37
 90
       50
102
RTVSPost2010PropOp37
 70
     1
102
RTVSPost2010Prop38
140
0.0
102
RTVSPost2010PropOp38
 70
     1
102
RTVSPost2010Prop39
140
1.0
102
RTVSPost2010PropOp39
 70
     1
102
RTVSPost2010Prop40
 90
        0
102
RTVSPost2010PropOp40
 70
     1
102
RTVSPost2010Prop41ColorIndex
 90
       18
102
RTVSPost2010Prop41ColorRGB
 90
        0
102
RTVSPost2010PropOp41
 70
     1
102
RTVSPost2010Prop42
 90
       50
102
RTVSPost2010PropOp42
 70
     1
102
RTVSPost2010Prop43
 90
        3
102
RTVSPost2010PropOp43
 70
     1
102
RTVSPost2010Prop44ColorIndex
 90
        5
102
RTVSPost2010Prop44ColorRGB
 90
      255
102
RTVSPost2010PropOp44
 70
     1
102
RTVSPost2010Prop45
280
     0
102
RTVSPost2010PropOp45
 70
     1
102
RTVSPost2010Prop46
 90
       50
102
RTVSPost2010PropOp46
 70
     1
102
RTVSPost2010Prop47
 90
       50
102
RTVSPost2010PropOp47
 70
     1
102
RTVSPost2010Prop48
 90
       50
102
RTVSPost2010PropOp48
 70
     1
102
RTVSPost2010Prop49
280
     0
102
RTVSPost2010PropOp49
 70
     1
102
RTVSPost2010Prop50
 90
       50
102
RTVSPost2010PropOp50
 70
     1
102
RTVSPost2010Prop51ColorIndex
 90
      256
102
RTVSPost2010Prop51ColorRGB
 90
-16777216
102
RTVSPost2010PropOp51
 70
     0
102
RTVSPost2010Prop52
140
1.0
102
RTVSPost2010PropOp52
 70
     0
102
RTVSPost2010Prop53
 90
        2
102
RTVSPost2010PropOp53
 70
     1
102
RTVSPost2010Prop54
  1
strokes_ogs.tif
102
RTVSPost2010PropOp54
 70
     1
102
RTVSPost2010Prop55
280
     0
102
RTVSPost2010PropOp55
 70
     1
102
RTVSPost2010Prop56
140
1.0
102
RTVSPost2010PropOp56
 70
     1
102
RTVSPost2010Prop57
140
1.0
102
RTVSPost2010PropOp57
 70
     1
102
RTVSPropertyOp0
 70
     1
102
RTVSPropertyOp1
 70
     1
102
RTVSPropertyOp2
 70
     1
102
RTVSPropertyOp3
 70
     1
102
RTVSPropertyOp4
 70
     1
102
RTVSPropertyOp5
 70
     1
102
RTVSPropertyOp6
 70
     1
102
RTVSPropertyOp7
 70
     1
102
RTVSPropertyOp8
 70
     1
102
RTVSPropertyOp9
 70
     1
102
RTVSPropertyOp10
 70
     1
102
RTVSPropertyOp11
 70
     1
102
RTVSPropertyOp12
 70
     1
102
RTVSPropertyOp13
 70
     1
102
RTVSPropertyOp14
 70
     1
102
RTVSPropertyOp15
 70
     1
102
RTVSPropertyOp16
 70
     1
102
RTVSPropertyOp17
 70
     1
102
RTVSPropertyOp18
 70
     1
102
RTVSPropertyOp19
 70
     1
102
RTVSPropertyOp20
 70
     1
102
RTVSPropertyOp21
 70
     1
102
RTVSPropertyOp22
 70
     1
102
RTVSPropertyOp23
 70
     1
102
RTVSPropertyOp24
 70
     1
102
RTVSPropertyOp25
 70
     1
102
RTVSPropertyOp26
 70
     1
102
RTVSPropertyOp27
 70
     1
102
RTVSPropertyOp28
 70
     1
102
RTVSPropertyOp29
 70
     1
102
RTVSPropertyOp30
 70
     1
102
RTVSPropertyOp31
 70
     1
102
RTVSPropertyOp32
 70
     1
102
RTVSPropertyOp33
 70
     1
102
RTVSPropertyOp34
 70
     1
102
RTVSPropertyOp35
 70
     1
102
RTVSPropertyOp36
 70
     1
102
RTVSPropertyOp37
 70
     1
102
RTVSPropertyOp38
 70
     1
102
RTVSPropertyOp39
 70
     1
102
RTVSPropertyOp40
 70
     1
102
RTVSPropertyOp41
 70
     1
102
RTVSPropertyOp42
 70
     1
102
RTVSPropertyOp43
 70
     1
102
RTVSPropertyOp44
 70
     1
102
RTVSPropertyOp45
 70
     1
102
RTVSPropertyOp46
 70
     1
102
RTVSPropertyOp47
 70
     1
102
RTVSPropertyOp48
 70
     1
102
RTVSPropertyOp49
 70
     1
102
RTVSPropertyOp50
 70
     1
102
RTVSPropertyOp51
 70
     0
102
RTVSPropertyOp52
 70
     0
102
RTVSPropertyOp53
 70
     1
102
RTVSPropertyOp54
 70
     1
102
RTVSPropertyOp55
 70
     1
102
RTVSPropertyOp56
 70
     1
102
RTVSPropertyOp57
 70
     1
102
RTVSPropertyOp58
 70
     1
102
RTVSPropertyOp59
 70
     1
102
RTVSPropertyOp60
 70
     1
102
RTVSPropertyOp61
 70
     1
102
RTVSPropertyOp62
 70
     1
  0
XRECORD
  5
588A
102
{ACAD_REACTORS
330
5889
102
}
330
5889
100
AcDbXrecord
280
     1
102
RTVSPost2010Prop28
280
     0
102
RTVSPost2010PropOp28
 70
     1
102
RTVSPost2010Prop29
280
     1
102
RTVSPost2010PropOp29
 70
     1
102
RTVSPost2010Prop30
280
     1
102
RTVSPost2010PropOp30
 70
     1
102
RTVSPost2010Prop31
280
     0
102
RTVSPost2010PropOp31
 70
     1
102
RTVSPost2010Prop32
280
     0
102
RTVSPost2010PropOp32
 70
     1
102
RTVSPost2010Prop33
280
     0
102
RTVSPost2010PropOp33
 70
     1
102
RTVSPost2010Prop34
280
     0
102
RTVSPost2010PropOp34
 70
     1
102
RTVSPost2010Prop35
280
     0
102
RTVSPost2010PropOp35
 70
     1
102
RTVSPost2010Prop36
280
     0
102
RTVSPost2010PropOp36
 70
     1
102
RTVSPost2010Prop37
 90
       50
102
RTVSPost2010PropOp37
 70
     1
102
RTVSPost2010Prop38
140
0.0
102
RTVSPost2010PropOp38
 70
     1
102
RTVSPost2010Prop39
140
1.0
102
RTVSPost2010PropOp39
 70
     1
102
RTVSPost2010Prop40
 90
        0
102
RTVSPost2010PropOp40
 70
     1
102
RTVSPost2010Prop41ColorIndex
 90
       18
102
RTVSPost2010Prop41ColorRGB
 90
        0
102
RTVSPost2010PropOp41
 70
     1
102
RTVSPost2010Prop42
 90
       50
102
RTVSPost2010PropOp42
 70
     1
102
RTVSPost2010Prop43
 90
        3
102
RTVSPost2010PropOp43
 70
     1
102
RTVSPost2010Prop44ColorIndex
 90
        5
102
RTVSPost2010Prop44ColorRGB
 90
      255
102
RTVSPost2010PropOp44
 70
     1
102
RTVSPost2010Prop45
280
     0
102
RTVSPost2010PropOp45
 70
     1
102
RTVSPost2010Prop46
 90
       50
102
RTVSPost2010PropOp46
 70
     1
102
RTVSPost2010Prop47
 90
       50
102
RTVSPost2010PropOp47
 70
     1
102
RTVSPost2010Prop48
 90
       50
102
RTVSPost2010PropOp48
 70
     1
102
RTVSPost2010Prop49
280
     0
102
RTVSPost2010PropOp49
 70
     1
102
RTVSPost2010Prop50
 90
       50
102
RTVSPost2010PropOp50
 70
     1
102
RTVSPost2010Prop51ColorIndex
 90
      256
102
RTVSPost2010Prop51ColorRGB
 90
-16777216
102
RTVSPost2010PropOp51
 70
     0
102
RTVSPost2010Prop52
140
1.0
102
RTVSPost2010PropOp52
 70
     0
102
RTVSPost2010Prop53
 90
        2
102
RTVSPost2010PropOp53
 70
     1
102
RTVSPost2010Prop54
  1
strokes_ogs.tif
102
RTVSPost2010PropOp54
 70
     1
102
RTVSPost2010Prop55
280
     0
102
RTVSPost2010PropOp55
 70
     1
102
RTVSPost2010Prop56
140
1.0
102
RTVSPost2010PropOp56
 70
     1
102
RTVSPost2010Prop57
140
1.0
102
RTVSPost2010PropOp57
 70
     1
102
RTVSPropertyOp0
 70
     0
102
RTVSPropertyOp1
 70
     0
102
RTVSPropertyOp2
 70
     0
102
RTVSPropertyOp3
 70
     0
102
RTVSPropertyOp4
 70
     0
102
RTVSPropertyOp5
 70
     0
102
RTVSPropertyOp6
 70
     0
102
RTVSPropertyOp7
 70
     0
102
RTVSPropertyOp8
 70
     0
102
RTVSPropertyOp9
 70
     0
102
RTVSPropertyOp10
 70
     0
102
RTVSPropertyOp11
 70
     0
102
RTVSPropertyOp12
 70
     0
102
RTVSPropertyOp13
 70
     0
102
RTVSPropertyOp14
 70
     2
102
RTVSPropertyOp15
 70
     0
102
RTVSPropertyOp16
 70
     0
102
RTVSPropertyOp17
 70
     0
102
RTVSPropertyOp18
 70
     0
102
RTVSPropertyOp19
 70
     0
102
RTVSPropertyOp20
 70
     0
102
RTVSPropertyOp21
 70
     0
102
RTVSPropertyOp22
 70
     0
102
RTVSPropertyOp23
 70
     0
102
RTVSPropertyOp24
 70
     0
102
RTVSPropertyOp25
 70
     0
102
RTVSPropertyOp26
 70
     0
102
RTVSPropertyOp27
 70
     0
102
RTVSPropertyOp28
 70
     1
102
RTVSPropertyOp29
 70
     1
102
RTVSPropertyOp30
 70
     1
102
RTVSPropertyOp31
 70
     1
102
RTVSPropertyOp32
 70
     1
102
RTVSPropertyOp33
 70
     1
102
RTVSPropertyOp34
 70
     1
102
RTVSPropertyOp35
 70
     1
102
RTVSPropertyOp36
 70
     1
102
RTVSPropertyOp37
 70
     1
102
RTVSPropertyOp38
 70
     1
102
RTVSPropertyOp39
 70
     1
102
RTVSPropertyOp40
 70
     1
102
RTVSPropertyOp41
 70
     1
102
RTVSPropertyOp42
 70
     1
102
RTVSPropertyOp43
 70
     1
102
RTVSPropertyOp44
 70
     1
102
RTVSPropertyOp45
 70
     1
102
RTVSPropertyOp46
 70
     1
102
RTVSPropertyOp47
 70
     1
102
RTVSPropertyOp48
 70
     1
102
RTVSPropertyOp49
 70
     1
102
RTVSPropertyOp50
 70
     1
102
RTVSPropertyOp51
 70
     0
102
RTVSPropertyOp52
 70
     0
102
RTVSPropertyOp53
 70
     1
102
RTVSPropertyOp54
 70
     1
102
RTVSPropertyOp55
 70
     1
102
RTVSPropertyOp56
 70
     1
102
RTVSPropertyOp57
 70
     1
102
RTVSPropertyOp58
 70
     1
102
RTVSPropertyOp59
 70
     1
102
RTVSPropertyOp60
 70
     1
102
RTVSPropertyOp61
 70
     1
102
RTVSPropertyOp62
 70
     1
  0
XRECORD
  5
5880
102
{ACAD_REACTORS
330
587F
102
}
330
587F
100
AcDbXrecord
280
     1
102
RTVSPost2010Prop28
280
     0
102
RTVSPost2010PropOp28
 70
     1
102
RTVSPost2010Prop29
280
     1
102
RTVSPost2010PropOp29
 70
     1
102
RTVSPost2010Prop30
280
     1
102
RTVSPost2010PropOp30
 70
     1
102
RTVSPost2010Prop31
280
     0
102
RTVSPost2010PropOp31
 70
     1
102
RTVSPost2010Prop32
280
     0
102
RTVSPost2010PropOp32
 70
     1
102
RTVSPost2010Prop33
280
     0
102
RTVSPost2010PropOp33
 70
     1
102
RTVSPost2010Prop34
280
     0
102
RTVSPost2010PropOp34
 70
     1
102
RTVSPost2010Prop35
280
     0
102
RTVSPost2010PropOp35
 70
     1
102
RTVSPost2010Prop36
280
     0
102
RTVSPost2010PropOp36
 70
     1
102
RTVSPost2010Prop37
 90
       50
102
RTVSPost2010PropOp37
 70
     1
102
RTVSPost2010Prop38
140
0.0
102
RTVSPost2010PropOp38
 70
     1
102
RTVSPost2010Prop39
140
1.0
102
RTVSPost2010PropOp39
 70
     1
102
RTVSPost2010Prop40
 90
        0
102
RTVSPost2010PropOp40
 70
     1
102
RTVSPost2010Prop41ColorIndex
 90
       18
102
RTVSPost2010Prop41ColorRGB
 90
        0
102
RTVSPost2010PropOp41
 70
     1
102
RTVSPost2010Prop42
 90
       50
102
RTVSPost2010PropOp42
 70
     1
102
RTVSPost2010Prop43
 90
        3
102
RTVSPost2010PropOp43
 70
     1
102
RTVSPost2010Prop44ColorIndex
 90
        5
102
RTVSPost2010Prop44ColorRGB
 90
      255
102
RTVSPost2010PropOp44
 70
     1
102
RTVSPost2010Prop45
280
     0
102
RTVSPost2010PropOp45
 70
     1
102
RTVSPost2010Prop46
 90
       50
102
RTVSPost2010PropOp46
 70
     1
102
RTVSPost2010Prop47
 90
       50
102
RTVSPost2010PropOp47
 70
     1
102
RTVSPost2010Prop48
 90
       50
102
RTVSPost2010PropOp48
 70
     1
102
RTVSPost2010Prop49
280
     0
102
RTVSPost2010PropOp49
 70
     1
102
RTVSPost2010Prop50
 90
       50
102
RTVSPost2010PropOp50
 70
     1
102
RTVSPost2010Prop51ColorIndex
 90
      256
102
RTVSPost2010Prop51ColorRGB
 90
-16777216
102
RTVSPost2010PropOp51
 70
     0
102
RTVSPost2010Prop52
140
1.0
102
RTVSPost2010PropOp52
 70
     0
102
RTVSPost2010Prop53
 90
        2
102
RTVSPost2010PropOp53
 70
     1
102
RTVSPost2010Prop54
  1
strokes_ogs.tif
102
RTVSPost2010PropOp54
 70
     1
102
RTVSPost2010Prop55
280
     0
102
RTVSPost2010PropOp55
 70
     1
102
RTVSPost2010Prop56
140
1.0
102
RTVSPost2010PropOp56
 70
     1
102
RTVSPost2010Prop57
140
1.0
102
RTVSPost2010PropOp57
 70
     1
102
RTVSPropertyOp0
 70
     1
102
RTVSPropertyOp1
 70
     1
102
RTVSPropertyOp2
 70
     1
102
RTVSPropertyOp3
 70
     1
102
RTVSPropertyOp4
 70
     1
102
RTVSPropertyOp5
 70
     1
102
RTVSPropertyOp6
 70
     1
102
RTVSPropertyOp7
 70
     1
102
RTVSPropertyOp8
 70
     1
102
RTVSPropertyOp9
 70
     1
102
RTVSPropertyOp10
 70
     1
102
RTVSPropertyOp11
 70
     1
102
RTVSPropertyOp12
 70
     1
102
RTVSPropertyOp13
 70
     1
102
RTVSPropertyOp14
 70
     1
102
RTVSPropertyOp15
 70
     1
102
RTVSPropertyOp16
 70
     1
102
RTVSPropertyOp17
 70
     1
102
RTVSPropertyOp18
 70
     1
102
RTVSPropertyOp19
 70
     1
102
RTVSPropertyOp20
 70
     1
102
RTVSPropertyOp21
 70
     1
102
RTVSPropertyOp22
 70
     1
102
RTVSPropertyOp23
 70
     1
102
RTVSPropertyOp24
 70
     1
102
RTVSPropertyOp25
 70
     1
102
RTVSPropertyOp26
 70
     1
102
RTVSPropertyOp27
 70
     1
102
RTVSPropertyOp28
 70
     1
102
RTVSPropertyOp29
 70
     1
102
RTVSPropertyOp30
 70
     1
102
RTVSPropertyOp31
 70
     1
102
RTVSPropertyOp32
 70
     1
102
RTVSPropertyOp33
 70
     1
102
RTVSPropertyOp34
 70
     1
102
RTVSPropertyOp35
 70
     1
102
RTVSPropertyOp36
 70
     1
102
RTVSPropertyOp37
 70
     1
102
RTVSPropertyOp38
 70
     1
102
RTVSPropertyOp39
 70
     1
102
RTVSPropertyOp40
 70
     1
102
RTVSPropertyOp41
 70
     1
102
RTVSPropertyOp42
 70
     1
102
RTVSPropertyOp43
 70
     1
102
RTVSPropertyOp44
 70
     1
102
RTVSPropertyOp45
 70
     1
102
RTVSPropertyOp46
 70
     1
102
RTVSPropertyOp47
 70
     1
102
RTVSPropertyOp48
 70
     1
102
RTVSPropertyOp49
 70
     1
102
RTVSPropertyOp50
 70
     1
102
RTVSPropertyOp51
 70
     0
102
RTVSPropertyOp52
 70
     0
102
RTVSPropertyOp53
 70
     1
102
RTVSPropertyOp54
 70
     1
102
RTVSPropertyOp55
 70
     1
102
RTVSPropertyOp56
 70
     1
102
RTVSPropertyOp57
 70
     1
102
RTVSPropertyOp58
 70
     1
102
RTVSPropertyOp59
 70
     1
102
RTVSPropertyOp60
 70
     1
102
RTVSPropertyOp61
 70
     1
102
RTVSPropertyOp62
 70
     1
  0
XRECORD
  5
5864
102
{ACAD_REACTORS
330
5863
102
}
330
5863
100
AcDbXrecord
280
     1
102
RTVSPost2010Prop28
280
     0
102
RTVSPost2010PropOp28
 70
     1
102
RTVSPost2010Prop29
280
     1
102
RTVSPost2010PropOp29
 70
     1
102
RTVSPost2010Prop30
280
     1
102
RTVSPost2010PropOp30
 70
     1
102
RTVSPost2010Prop31
280
     0
102
RTVSPost2010PropOp31
 70
     1
102
RTVSPost2010Prop32
280
     0
102
RTVSPost2010PropOp32
 70
     1
102
RTVSPost2010Prop33
280
     0
102
RTVSPost2010PropOp33
 70
     1
102
RTVSPost2010Prop34
280
     0
102
RTVSPost2010PropOp34
 70
     1
102
RTVSPost2010Prop35
280
     0
102
RTVSPost2010PropOp35
 70
     1
102
RTVSPost2010Prop36
280
     0
102
RTVSPost2010PropOp36
 70
     1
102
RTVSPost2010Prop37
 90
       50
102
RTVSPost2010PropOp37
 70
     1
102
RTVSPost2010Prop38
140
0.0
102
RTVSPost2010PropOp38
 70
     1
102
RTVSPost2010Prop39
140
1.0
102
RTVSPost2010PropOp39
 70
     1
102
RTVSPost2010Prop40
 90
        0
102
RTVSPost2010PropOp40
 70
     1
102
RTVSPost2010Prop41ColorIndex
 90
       18
102
RTVSPost2010Prop41ColorRGB
 90
        0
102
RTVSPost2010PropOp41
 70
     1
102
RTVSPost2010Prop42
 90
       50
102
RTVSPost2010PropOp42
 70
     1
102
RTVSPost2010Prop43
 90
        3
102
RTVSPost2010PropOp43
 70
     1
102
RTVSPost2010Prop44ColorIndex
 90
        5
102
RTVSPost2010Prop44ColorRGB
 90
      255
102
RTVSPost2010PropOp44
 70
     1
102
RTVSPost2010Prop45
280
     0
102
RTVSPost2010PropOp45
 70
     1
102
RTVSPost2010Prop46
 90
       50
102
RTVSPost2010PropOp46
 70
     1
102
RTVSPost2010Prop47
 90
       50
102
RTVSPost2010PropOp47
 70
     1
102
RTVSPost2010Prop48
 90
       50
102
RTVSPost2010PropOp48
 70
     1
102
RTVSPost2010Prop49
280
     0
102
RTVSPost2010PropOp49
 70
     1
102
RTVSPost2010Prop50
 90
       50
102
RTVSPost2010PropOp50
 70
     1
102
RTVSPost2010Prop51ColorIndex
 90
      256
102
RTVSPost2010Prop51ColorRGB
 90
-16777216
102
RTVSPost2010PropOp51
 70
     0
102
RTVSPost2010Prop52
140
1.0
102
RTVSPost2010PropOp52
 70
     0
102
RTVSPost2010Prop53
 90
        2
102
RTVSPost2010PropOp53
 70
     1
102
RTVSPost2010Prop54
  1
strokes_ogs.tif
102
RTVSPost2010PropOp54
 70
     1
102
RTVSPost2010Prop55
280
     0
102
RTVSPost2010PropOp55
 70
     1
102
RTVSPost2010Prop56
140
1.0
102
RTVSPost2010PropOp56
 70
     1
102
RTVSPost2010Prop57
140
1.0
102
RTVSPost2010PropOp57
 70
     1
102
RTVSPropertyOp0
 70
     1
102
RTVSPropertyOp1
 70
     1
102
RTVSPropertyOp2
 70
     1
102
RTVSPropertyOp3
 70
     1
102
RTVSPropertyOp4
 70
     1
102
RTVSPropertyOp5
 70
     1
102
RTVSPropertyOp6
 70
     1
102
RTVSPropertyOp7
 70
     1
102
RTVSPropertyOp8
 70
     1
102
RTVSPropertyOp9
 70
     1
102
RTVSPropertyOp10
 70
     1
102
RTVSPropertyOp11
 70
     1
102
RTVSPropertyOp12
 70
     1
102
RTVSPropertyOp13
 70
     1
102
RTVSPropertyOp14
 70
     1
102
RTVSPropertyOp15
 70
     1
102
RTVSPropertyOp16
 70
     1
102
RTVSPropertyOp17
 70
     1
102
RTVSPropertyOp18
 70
     1
102
RTVSPropertyOp19
 70
     1
102
RTVSPropertyOp20
 70
     1
102
RTVSPropertyOp21
 70
     1
102
RTVSPropertyOp22
 70
     1
102
RTVSPropertyOp23
 70
     1
102
RTVSPropertyOp24
 70
     1
102
RTVSPropertyOp25
 70
     1
102
RTVSPropertyOp26
 70
     1
102
RTVSPropertyOp27
 70
     1
102
RTVSPropertyOp28
 70
     1
102
RTVSPropertyOp29
 70
     1
102
RTVSPropertyOp30
 70
     1
102
RTVSPropertyOp31
 70
     1
102
RTVSPropertyOp32
 70
     1
102
RTVSPropertyOp33
 70
     1
102
RTVSPropertyOp34
 70
     1
102
RTVSPropertyOp35
 70
     1
102
RTVSPropertyOp36
 70
     1
102
RTVSPropertyOp37
 70
     1
102
RTVSPropertyOp38
 70
     1
102
RTVSPropertyOp39
 70
     1
102
RTVSPropertyOp40
 70
     1
102
RTVSPropertyOp41
 70
     1
102
RTVSPropertyOp42
 70
     1
102
RTVSPropertyOp43
 70
     1
102
RTVSPropertyOp44
 70
     1
102
RTVSPropertyOp45
 70
     1
102
RTVSPropertyOp46
 70
     1
102
RTVSPropertyOp47
 70
     1
102
RTVSPropertyOp48
 70
     1
102
RTVSPropertyOp49
 70
     1
102
RTVSPropertyOp50
 70
     1
102
RTVSPropertyOp51
 70
     0
102
RTVSPropertyOp52
 70
     0
102
RTVSPropertyOp53
 70
     1
102
RTVSPropertyOp54
 70
     1
102
RTVSPropertyOp55
 70
     1
102
RTVSPropertyOp56
 70
     1
102
RTVSPropertyOp57
 70
     1
102
RTVSPropertyOp58
 70
     1
102
RTVSPropertyOp59
 70
     1
102
RTVSPropertyOp60
 70
     1
102
RTVSPropertyOp61
 70
     1
102
RTVSPropertyOp62
 70
     1
  0
XRECORD
  5
5866
102
{ACAD_REACTORS
330
5865
102
}
330
5865
100
AcDbXrecord
280
     1
102
RTVSPost2010Prop28
280
     0
102
RTVSPost2010PropOp28
 70
     1
102
RTVSPost2010Prop29
280
     1
102
RTVSPost2010PropOp29
 70
     1
102
RTVSPost2010Prop30
280
     1
102
RTVSPost2010PropOp30
 70
     1
102
RTVSPost2010Prop31
280
     0
102
RTVSPost2010PropOp31
 70
     1
102
RTVSPost2010Prop32
280
     0
102
RTVSPost2010PropOp32
 70
     1
102
RTVSPost2010Prop33
280
     0
102
RTVSPost2010PropOp33
 70
     1
102
RTVSPost2010Prop34
280
     0
102
RTVSPost2010PropOp34
 70
     1
102
RTVSPost2010Prop35
280
     0
102
RTVSPost2010PropOp35
 70
     1
102
RTVSPost2010Prop36
280
     0
102
RTVSPost2010PropOp36
 70
     1
102
RTVSPost2010Prop37
 90
       50
102
RTVSPost2010PropOp37
 70
     1
102
RTVSPost2010Prop38
140
0.0
102
RTVSPost2010PropOp38
 70
     1
102
RTVSPost2010Prop39
140
1.0
102
RTVSPost2010PropOp39
 70
     1
102
RTVSPost2010Prop40
 90
        0
102
RTVSPost2010PropOp40
 70
     1
102
RTVSPost2010Prop41ColorIndex
 90
       18
102
RTVSPost2010Prop41ColorRGB
 90
        0
102
RTVSPost2010PropOp41
 70
     1
102
RTVSPost2010Prop42
 90
       50
102
RTVSPost2010PropOp42
 70
     1
102
RTVSPost2010Prop43
 90
        3
102
RTVSPost2010PropOp43
 70
     1
102
RTVSPost2010Prop44ColorIndex
 90
        5
102
RTVSPost2010Prop44ColorRGB
 90
      255
102
RTVSPost2010PropOp44
 70
     1
102
RTVSPost2010Prop45
280
     0
102
RTVSPost2010PropOp45
 70
     1
102
RTVSPost2010Prop46
 90
       50
102
RTVSPost2010PropOp46
 70
     1
102
RTVSPost2010Prop47
 90
       50
102
RTVSPost2010PropOp47
 70
     1
102
RTVSPost2010Prop48
 90
       50
102
RTVSPost2010PropOp48
 70
     1
102
RTVSPost2010Prop49
280
     0
102
RTVSPost2010PropOp49
 70
     1
102
RTVSPost2010Prop50
 90
       50
102
RTVSPost2010PropOp50
 70
     1
102
RTVSPost2010Prop51ColorIndex
 90
      256
102
RTVSPost2010Prop51ColorRGB
 90
-16777216
102
RTVSPost2010PropOp51
 70
     0
102
RTVSPost2010Prop52
140
1.0
102
RTVSPost2010PropOp52
 70
     0
102
RTVSPost2010Prop53
 90
        2
102
RTVSPost2010PropOp53
 70
     1
102
RTVSPost2010Prop54
  1
strokes_ogs.tif
102
RTVSPost2010PropOp54
 70
     1
102
RTVSPost2010Prop55
280
     0
102
RTVSPost2010PropOp55
 70
     1
102
RTVSPost2010Prop56
140
1.0
102
RTVSPost2010PropOp56
 70
     1
102
RTVSPost2010Prop57
140
1.0
102
RTVSPost2010PropOp57
 70
     1
102
RTVSPropertyOp0
 70
     1
102
RTVSPropertyOp1
 70
     1
102
RTVSPropertyOp2
 70
     1
102
RTVSPropertyOp3
 70
     1
102
RTVSPropertyOp4
 70
     1
102
RTVSPropertyOp5
 70
     1
102
RTVSPropertyOp6
 70
     1
102
RTVSPropertyOp7
 70
     1
102
RTVSPropertyOp8
 70
     1
102
RTVSPropertyOp9
 70
     1
102
RTVSPropertyOp10
 70
     1
102
RTVSPropertyOp11
 70
     1
102
RTVSPropertyOp12
 70
     1
102
RTVSPropertyOp13
 70
     1
102
RTVSPropertyOp14
 70
     1
102
RTVSPropertyOp15
 70
     1
102
RTVSPropertyOp16
 70
     1
102
RTVSPropertyOp17
 70
     1
102
RTVSPropertyOp18
 70
     1
102
RTVSPropertyOp19
 70
     1
102
RTVSPropertyOp20
 70
     1
102
RTVSPropertyOp21
 70
     1
102
RTVSPropertyOp22
 70
     1
102
RTVSPropertyOp23
 70
     1
102
RTVSPropertyOp24
 70
     1
102
RTVSPropertyOp25
 70
     1
102
RTVSPropertyOp26
 70
     1
102
RTVSPropertyOp27
 70
     1
102
RTVSPropertyOp28
 70
     1
102
RTVSPropertyOp29
 70
     1
102
RTVSPropertyOp30
 70
     1
102
RTVSPropertyOp31
 70
     1
102
RTVSPropertyOp32
 70
     1
102
RTVSPropertyOp33
 70
     1
102
RTVSPropertyOp34
 70
     1
102
RTVSPropertyOp35
 70
     1
102
RTVSPropertyOp36
 70
     1
102
RTVSPropertyOp37
 70
     1
102
RTVSPropertyOp38
 70
     1
102
RTVSPropertyOp39
 70
     1
102
RTVSPropertyOp40
 70
     1
102
RTVSPropertyOp41
 70
     1
102
RTVSPropertyOp42
 70
     1
102
RTVSPropertyOp43
 70
     1
102
RTVSPropertyOp44
 70
     1
102
RTVSPropertyOp45
 70
     1
102
RTVSPropertyOp46
 70
     1
102
RTVSPropertyOp47
 70
     1
102
RTVSPropertyOp48
 70
     1
102
RTVSPropertyOp49
 70
     1
102
RTVSPropertyOp50
 70
     1
102
RTVSPropertyOp51
 70
     0
102
RTVSPropertyOp52
 70
     0
102
RTVSPropertyOp53
 70
     1
102
RTVSPropertyOp54
 70
     1
102
RTVSPropertyOp55
 70
     1
102
RTVSPropertyOp56
 70
     1
102
RTVSPropertyOp57
 70
     1
102
RTVSPropertyOp58
 70
     1
102
RTVSPropertyOp59
 70
     1
102
RTVSPropertyOp60
 70
     1
102
RTVSPropertyOp61
 70
     1
102
RTVSPropertyOp62
 70
     1
  0
XRECORD
  5
5868
102
{ACAD_REACTORS
330
5867
102
}
330
5867
100
AcDbXrecord
280
     1
102
RTVSPost2010Prop28
280
     0
102
RTVSPost2010PropOp28
 70
     1
102
RTVSPost2010Prop29
280
     1
102
RTVSPost2010PropOp29
 70
     1
102
RTVSPost2010Prop30
280
     1
102
RTVSPost2010PropOp30
 70
     1
102
RTVSPost2010Prop31
280
     0
102
RTVSPost2010PropOp31
 70
     1
102
RTVSPost2010Prop32
280
     0
102
RTVSPost2010PropOp32
 70
     1
102
RTVSPost2010Prop33
280
     0
102
RTVSPost2010PropOp33
 70
     1
102
RTVSPost2010Prop34
280
     0
102
RTVSPost2010PropOp34
 70
     1
102
RTVSPost2010Prop35
280
     0
102
RTVSPost2010PropOp35
 70
     1
102
RTVSPost2010Prop36
280
     0
102
RTVSPost2010PropOp36
 70
     1
102
RTVSPost2010Prop37
 90
       50
102
RTVSPost2010PropOp37
 70
     1
102
RTVSPost2010Prop38
140
0.0
102
RTVSPost2010PropOp38
 70
     1
102
RTVSPost2010Prop39
140
1.0
102
RTVSPost2010PropOp39
 70
     1
102
RTVSPost2010Prop40
 90
        0
102
RTVSPost2010PropOp40
 70
     1
102
RTVSPost2010Prop41ColorIndex
 90
       18
102
RTVSPost2010Prop41ColorRGB
 90
        0
102
RTVSPost2010PropOp41
 70
     1
102
RTVSPost2010Prop42
 90
       50
102
RTVSPost2010PropOp42
 70
     1
102
RTVSPost2010Prop43
 90
        3
102
RTVSPost2010PropOp43
 70
     1
102
RTVSPost2010Prop44ColorIndex
 90
        5
102
RTVSPost2010Prop44ColorRGB
 90
      255
102
RTVSPost2010PropOp44
 70
     1
102
RTVSPost2010Prop45
280
     0
102
RTVSPost2010PropOp45
 70
     1
102
RTVSPost2010Prop46
 90
       50
102
RTVSPost2010PropOp46
 70
     1
102
RTVSPost2010Prop47
 90
       50
102
RTVSPost2010PropOp47
 70
     1
102
RTVSPost2010Prop48
 90
       50
102
RTVSPost2010PropOp48
 70
     1
102
RTVSPost2010Prop49
280
     0
102
RTVSPost2010PropOp49
 70
     1
102
RTVSPost2010Prop50
 90
       50
102
RTVSPost2010PropOp50
 70
     1
102
RTVSPost2010Prop51ColorIndex
 90
      256
102
RTVSPost2010Prop51ColorRGB
 90
-16777216
102
RTVSPost2010PropOp51
 70
     0
102
RTVSPost2010Prop52
140
1.0
102
RTVSPost2010PropOp52
 70
     0
102
RTVSPost2010Prop53
 90
        2
102
RTVSPost2010PropOp53
 70
     1
102
RTVSPost2010Prop54
  1
strokes_ogs.tif
102
RTVSPost2010PropOp54
 70
     1
102
RTVSPost2010Prop55
280
     0
102
RTVSPost2010PropOp55
 70
     1
102
RTVSPost2010Prop56
140
1.0
102
RTVSPost2010PropOp56
 70
     1
102
RTVSPost2010Prop57
140
1.0
102
RTVSPost2010PropOp57
 70
     1
102
RTVSPropertyOp0
 70
     1
102
RTVSPropertyOp1
 70
     1
102
RTVSPropertyOp2
 70
     1
102
RTVSPropertyOp3
 70
     1
102
RTVSPropertyOp4
 70
     1
102
RTVSPropertyOp5
 70
     1
102
RTVSPropertyOp6
 70
     1
102
RTVSPropertyOp7
 70
     1
102
RTVSPropertyOp8
 70
     1
102
RTVSPropertyOp9
 70
     1
102
RTVSPropertyOp10
 70
     1
102
RTVSPropertyOp11
 70
     1
102
RTVSPropertyOp12
 70
     1
102
RTVSPropertyOp13
 70
     1
102
RTVSPropertyOp14
 70
     1
102
RTVSPropertyOp15
 70
     1
102
RTVSPropertyOp16
 70
     1
102
RTVSPropertyOp17
 70
     1
102
RTVSPropertyOp18
 70
     1
102
RTVSPropertyOp19
 70
     1
102
RTVSPropertyOp20
 70
     1
102
RTVSPropertyOp21
 70
     1
102
RTVSPropertyOp22
 70
     1
102
RTVSPropertyOp23
 70
     1
102
RTVSPropertyOp24
 70
     1
102
RTVSPropertyOp25
 70
     1
102
RTVSPropertyOp26
 70
     1
102
RTVSPropertyOp27
 70
     1
102
RTVSPropertyOp28
 70
     1
102
RTVSPropertyOp29
 70
     1
102
RTVSPropertyOp30
 70
     1
102
RTVSPropertyOp31
 70
     1
102
RTVSPropertyOp32
 70
     1
102
RTVSPropertyOp33
 70
     1
102
RTVSPropertyOp34
 70
     1
102
RTVSPropertyOp35
 70
     1
102
RTVSPropertyOp36
 70
     1
102
RTVSPropertyOp37
 70
     1
102
RTVSPropertyOp38
 70
     1
102
RTVSPropertyOp39
 70
     1
102
RTVSPropertyOp40
 70
     1
102
RTVSPropertyOp41
 70
     1
102
RTVSPropertyOp42
 70
     1
102
RTVSPropertyOp43
 70
     1
102
RTVSPropertyOp44
 70
     1
102
RTVSPropertyOp45
 70
     1
102
RTVSPropertyOp46
 70
     1
102
RTVSPropertyOp47
 70
     1
102
RTVSPropertyOp48
 70
     1
102
RTVSPropertyOp49
 70
     1
102
RTVSPropertyOp50
 70
     1
102
RTVSPropertyOp51
 70
     0
102
RTVSPropertyOp52
 70
     0
102
RTVSPropertyOp53
 70
     1
102
RTVSPropertyOp54
 70
     1
102
RTVSPropertyOp55
 70
     1
102
RTVSPropertyOp56
 70
     1
102
RTVSPropertyOp57
 70
     1
102
RTVSPropertyOp58
 70
     1
102
RTVSPropertyOp59
 70
     1
102
RTVSPropertyOp60
 70
     1
102
RTVSPropertyOp61
 70
     1
102
RTVSPropertyOp62
 70
     1
  0
XRECORD
  5
586A
102
{ACAD_REACTORS
330
5869
102
}
330
5869
100
AcDbXrecord
280
     1
102
RTVSPost2010Prop28
280
     0
102
RTVSPost2010PropOp28
 70
     1
102
RTVSPost2010Prop29
280
     1
102
RTVSPost2010PropOp29
 70
     1
102
RTVSPost2010Prop30
280
     1
102
RTVSPost2010PropOp30
 70
     1
102
RTVSPost2010Prop31
280
     0
102
RTVSPost2010PropOp31
 70
     1
102
RTVSPost2010Prop32
280
     0
102
RTVSPost2010PropOp32
 70
     1
102
RTVSPost2010Prop33
280
     0
102
RTVSPost2010PropOp33
 70
     1
102
RTVSPost2010Prop34
280
     0
102
RTVSPost2010PropOp34
 70
     1
102
RTVSPost2010Prop35
280
     0
102
RTVSPost2010PropOp35
 70
     1
102
RTVSPost2010Prop36
280
     0
102
RTVSPost2010PropOp36
 70
     1
102
RTVSPost2010Prop37
 90
       50
102
RTVSPost2010PropOp37
 70
     1
102
RTVSPost2010Prop38
140
0.0
102
RTVSPost2010PropOp38
 70
     1
102
RTVSPost2010Prop39
140
1.0
102
RTVSPost2010PropOp39
 70
     1
102
RTVSPost2010Prop40
 90
        0
102
RTVSPost2010PropOp40
 70
     1
102
RTVSPost2010Prop41ColorIndex
 90
       18
102
RTVSPost2010Prop41ColorRGB
 90
        0
102
RTVSPost2010PropOp41
 70
     1
102
RTVSPost2010Prop42
 90
       50
102
RTVSPost2010PropOp42
 70
     1
102
RTVSPost2010Prop43
 90
        3
102
RTVSPost2010PropOp43
 70
     1
102
RTVSPost2010Prop44ColorIndex
 90
        5
102
RTVSPost2010Prop44ColorRGB
 90
      255
102
RTVSPost2010PropOp44
 70
     1
102
RTVSPost2010Prop45
280
     0
102
RTVSPost2010PropOp45
 70
     1
102
RTVSPost2010Prop46
 90
       50
102
RTVSPost2010PropOp46
 70
     1
102
RTVSPost2010Prop47
 90
       50
102
RTVSPost2010PropOp47
 70
     1
102
RTVSPost2010Prop48
 90
       50
102
RTVSPost2010PropOp48
 70
     1
102
RTVSPost2010Prop49
280
     0
102
RTVSPost2010PropOp49
 70
     1
102
RTVSPost2010Prop50
 90
       50
102
RTVSPost2010PropOp50
 70
     1
102
RTVSPost2010Prop51ColorIndex
 90
      256
102
RTVSPost2010Prop51ColorRGB
 90
-16777216
102
RTVSPost2010PropOp51
 70
     0
102
RTVSPost2010Prop52
140
1.0
102
RTVSPost2010PropOp52
 70
     0
102
RTVSPost2010Prop53
 90
        2
102
RTVSPost2010PropOp53
 70
     1
102
RTVSPost2010Prop54
  1
strokes_ogs.tif
102
RTVSPost2010PropOp54
 70
     1
102
RTVSPost2010Prop55
280
     0
102
RTVSPost2010PropOp55
 70
     1
102
RTVSPost2010Prop56
140
1.0
102
RTVSPost2010PropOp56
 70
     1
102
RTVSPost2010Prop57
140
1.0
102
RTVSPost2010PropOp57
 70
     1
102
RTVSPropertyOp0
 70
     1
102
RTVSPropertyOp1
 70
     1
102
RTVSPropertyOp2
 70
     1
102
RTVSPropertyOp3
 70
     1
102
RTVSPropertyOp4
 70
     1
102
RTVSPropertyOp5
 70
     1
102
RTVSPropertyOp6
 70
     1
102
RTVSPropertyOp7
 70
     1
102
RTVSPropertyOp8
 70
     1
102
RTVSPropertyOp9
 70
     1
102
RTVSPropertyOp10
 70
     1
102
RTVSPropertyOp11
 70
     1
102
RTVSPropertyOp12
 70
     1
102
RTVSPropertyOp13
 70
     1
102
RTVSPropertyOp14
 70
     1
102
RTVSPropertyOp15
 70
     1
102
RTVSPropertyOp16
 70
     1
102
RTVSPropertyOp17
 70
     1
102
RTVSPropertyOp18
 70
     1
102
RTVSPropertyOp19
 70
     1
102
RTVSPropertyOp20
 70
     1
102
RTVSPropertyOp21
 70
     1
102
RTVSPropertyOp22
 70
     1
102
RTVSPropertyOp23
 70
     1
102
RTVSPropertyOp24
 70
     1
102
RTVSPropertyOp25
 70
     1
102
RTVSPropertyOp26
 70
     1
102
RTVSPropertyOp27
 70
     1
102
RTVSPropertyOp28
 70
     1
102
RTVSPropertyOp29
 70
     1
102
RTVSPropertyOp30
 70
     1
102
RTVSPropertyOp31
 70
     1
102
RTVSPropertyOp32
 70
     1
102
RTVSPropertyOp33
 70
     1
102
RTVSPropertyOp34
 70
     1
102
RTVSPropertyOp35
 70
     1
102
RTVSPropertyOp36
 70
     1
102
RTVSPropertyOp37
 70
     1
102
RTVSPropertyOp38
 70
     1
102
RTVSPropertyOp39
 70
     1
102
RTVSPropertyOp40
 70
     1
102
RTVSPropertyOp41
 70
     1
102
RTVSPropertyOp42
 70
     1
102
RTVSPropertyOp43
 70
     1
102
RTVSPropertyOp44
 70
     1
102
RTVSPropertyOp45
 70
     1
102
RTVSPropertyOp46
 70
     1
102
RTVSPropertyOp47
 70
     1
102
RTVSPropertyOp48
 70
     1
102
RTVSPropertyOp49
 70
     1
102
RTVSPropertyOp50
 70
     1
102
RTVSPropertyOp51
 70
     0
102
RTVSPropertyOp52
 70
     0
102
RTVSPropertyOp53
 70
     1
102
RTVSPropertyOp54
 70
     1
102
RTVSPropertyOp55
 70
     1
102
RTVSPropertyOp56
 70
     1
102
RTVSPropertyOp57
 70
     1
102
RTVSPropertyOp58
 70
     1
102
RTVSPropertyOp59
 70
     1
102
RTVSPropertyOp60
 70
     1
102
RTVSPropertyOp61
 70
     1
102
RTVSPropertyOp62
 70
     1
  0
XRECORD
  5
5872
102
{ACAD_REACTORS
330
5871
102
}
330
5871
100
AcDbXrecord
280
     1
102
RTVSPost2010Prop28
280
     0
102
RTVSPost2010PropOp28
 70
     1
102
RTVSPost2010Prop29
280
     1
102
RTVSPost2010PropOp29
 70
     1
102
RTVSPost2010Prop30
280
     1
102
RTVSPost2010PropOp30
 70
     1
102
RTVSPost2010Prop31
280
     0
102
RTVSPost2010PropOp31
 70
     1
102
RTVSPost2010Prop32
280
     0
102
RTVSPost2010PropOp32
 70
     1
102
RTVSPost2010Prop33
280
     0
102
RTVSPost2010PropOp33
 70
     1
102
RTVSPost2010Prop34
280
     0
102
RTVSPost2010PropOp34
 70
     1
102
RTVSPost2010Prop35
280
     0
102
RTVSPost2010PropOp35
 70
     1
102
RTVSPost2010Prop36
280
     0
102
RTVSPost2010PropOp36
 70
     1
102
RTVSPost2010Prop37
 90
       50
102
RTVSPost2010PropOp37
 70
     1
102
RTVSPost2010Prop38
140
0.0
102
RTVSPost2010PropOp38
 70
     1
102
RTVSPost2010Prop39
140
1.0
102
RTVSPost2010PropOp39
 70
     1
102
RTVSPost2010Prop40
 90
        0
102
RTVSPost2010PropOp40
 70
     1
102
RTVSPost2010Prop41ColorIndex
 90
       18
102
RTVSPost2010Prop41ColorRGB
 90
        0
102
RTVSPost2010PropOp41
 70
     1
102
RTVSPost2010Prop42
 90
       50
102
RTVSPost2010PropOp42
 70
     1
102
RTVSPost2010Prop43
 90
        3
102
RTVSPost2010PropOp43
 70
     1
102
RTVSPost2010Prop44ColorIndex
 90
        5
102
RTVSPost2010Prop44ColorRGB
 90
      255
102
RTVSPost2010PropOp44
 70
     1
102
RTVSPost2010Prop45
280
     0
102
RTVSPost2010PropOp45
 70
     1
102
RTVSPost2010Prop46
 90
       50
102
RTVSPost2010PropOp46
 70
     1
102
RTVSPost2010Prop47
 90
       50
102
RTVSPost2010PropOp47
 70
     1
102
RTVSPost2010Prop48
 90
       50
102
RTVSPost2010PropOp48
 70
     1
102
RTVSPost2010Prop49
280
     0
102
RTVSPost2010PropOp49
 70
     1
102
RTVSPost2010Prop50
 90
       50
102
RTVSPost2010PropOp50
 70
     1
102
RTVSPost2010Prop51ColorIndex
 90
      256
102
RTVSPost2010Prop51ColorRGB
 90
-16777216
102
RTVSPost2010PropOp51
 70
     0
102
RTVSPost2010Prop52
140
1.0
102
RTVSPost2010PropOp52
 70
     0
102
RTVSPost2010Prop53
 90
        2
102
RTVSPost2010PropOp53
 70
     1
102
RTVSPost2010Prop54
  1
strokes_ogs.tif
102
RTVSPost2010PropOp54
 70
     1
102
RTVSPost2010Prop55
280
     0
102
RTVSPost2010PropOp55
 70
     1
102
RTVSPost2010Prop56
140
1.0
102
RTVSPost2010PropOp56
 70
     1
102
RTVSPost2010Prop57
140
1.0
102
RTVSPost2010PropOp57
 70
     1
102
RTVSPropertyOp0
 70
     1
102
RTVSPropertyOp1
 70
     1
102
RTVSPropertyOp2
 70
     1
102
RTVSPropertyOp3
 70
     1
102
RTVSPropertyOp4
 70
     1
102
RTVSPropertyOp5
 70
     1
102
RTVSPropertyOp6
 70
     1
102
RTVSPropertyOp7
 70
     1
102
RTVSPropertyOp8
 70
     1
102
RTVSPropertyOp9
 70
     1
102
RTVSPropertyOp10
 70
     1
102
RTVSPropertyOp11
 70
     1
102
RTVSPropertyOp12
 70
     1
102
RTVSPropertyOp13
 70
     1
102
RTVSPropertyOp14
 70
     1
102
RTVSPropertyOp15
 70
     1
102
RTVSPropertyOp16
 70
     1
102
RTVSPropertyOp17
 70
     1
102
RTVSPropertyOp18
 70
     1
102
RTVSPropertyOp19
 70
     1
102
RTVSPropertyOp20
 70
     1
102
RTVSPropertyOp21
 70
     1
102
RTVSPropertyOp22
 70
     1
102
RTVSPropertyOp23
 70
     1
102
RTVSPropertyOp24
 70
     1
102
RTVSPropertyOp25
 70
     1
102
RTVSPropertyOp26
 70
     1
102
RTVSPropertyOp27
 70
     1
102
RTVSPropertyOp28
 70
     1
102
RTVSPropertyOp29
 70
     1
102
RTVSPropertyOp30
 70
     1
102
RTVSPropertyOp31
 70
     1
102
RTVSPropertyOp32
 70
     1
102
RTVSPropertyOp33
 70
     1
102
RTVSPropertyOp34
 70
     1
102
RTVSPropertyOp35
 70
     1
102
RTVSPropertyOp36
 70
     1
102
RTVSPropertyOp37
 70
     1
102
RTVSPropertyOp38
 70
     1
102
RTVSPropertyOp39
 70
     1
102
RTVSPropertyOp40
 70
     1
102
RTVSPropertyOp41
 70
     1
102
RTVSPropertyOp42
 70
     1
102
RTVSPropertyOp43
 70
     1
102
RTVSPropertyOp44
 70
     1
102
RTVSPropertyOp45
 70
     1
102
RTVSPropertyOp46
 70
     1
102
RTVSPropertyOp47
 70
     1
102
RTVSPropertyOp48
 70
     1
102
RTVSPropertyOp49
 70
     1
102
RTVSPropertyOp50
 70
     1
102
RTVSPropertyOp51
 70
     0
102
RTVSPropertyOp52
 70
     0
102
RTVSPropertyOp53
 70
     1
102
RTVSPropertyOp54
 70
     1
102
RTVSPropertyOp55
 70
     1
102
RTVSPropertyOp56
 70
     1
102
RTVSPropertyOp57
 70
     1
102
RTVSPropertyOp58
 70
     1
102
RTVSPropertyOp59
 70
     1
102
RTVSPropertyOp60
 70
     1
102
RTVSPropertyOp61
 70
     1
102
RTVSPropertyOp62
 70
     1
  0
XRECORD
  5
5886
102
{ACAD_REACTORS
330
5885
102
}
330
5885
100
AcDbXrecord
280
     1
102
RTVSPost2010Prop28
280
     0
102
RTVSPost2010PropOp28
 70
     1
102
RTVSPost2010Prop29
280
     1
102
RTVSPost2010PropOp29
 70
     1
102
RTVSPost2010Prop30
280
     1
102
RTVSPost2010PropOp30
 70
     1
102
RTVSPost2010Prop31
280
     0
102
RTVSPost2010PropOp31
 70
     1
102
RTVSPost2010Prop32
280
     0
102
RTVSPost2010PropOp32
 70
     1
102
RTVSPost2010Prop33
280
     0
102
RTVSPost2010PropOp33
 70
     1
102
RTVSPost2010Prop34
280
     0
102
RTVSPost2010PropOp34
 70
     1
102
RTVSPost2010Prop35
280
     0
102
RTVSPost2010PropOp35
 70
     1
102
RTVSPost2010Prop36
280
     0
102
RTVSPost2010PropOp36
 70
     1
102
RTVSPost2010Prop37
 90
       50
102
RTVSPost2010PropOp37
 70
     1
102
RTVSPost2010Prop38
140
0.0
102
RTVSPost2010PropOp38
 70
     1
102
RTVSPost2010Prop39
140
1.0
102
RTVSPost2010PropOp39
 70
     1
102
RTVSPost2010Prop40
 90
        0
102
RTVSPost2010PropOp40
 70
     1
102
RTVSPost2010Prop41ColorIndex
 90
       18
102
RTVSPost2010Prop41ColorRGB
 90
        0
102
RTVSPost2010PropOp41
 70
     1
102
RTVSPost2010Prop42
 90
       50
102
RTVSPost2010PropOp42
 70
     1
102
RTVSPost2010Prop43
 90
        3
102
RTVSPost2010PropOp43
 70
     1
102
RTVSPost2010Prop44ColorIndex
 90
        5
102
RTVSPost2010Prop44ColorRGB
 90
      255
102
RTVSPost2010PropOp44
 70
     1
102
RTVSPost2010Prop45
280
     0
102
RTVSPost2010PropOp45
 70
     1
102
RTVSPost2010Prop46
 90
       50
102
RTVSPost2010PropOp46
 70
     1
102
RTVSPost2010Prop47
 90
       50
102
RTVSPost2010PropOp47
 70
     1
102
RTVSPost2010Prop48
 90
       50
102
RTVSPost2010PropOp48
 70
     1
102
RTVSPost2010Prop49
280
     0
102
RTVSPost2010PropOp49
 70
     1
102
RTVSPost2010Prop50
 90
       50
102
RTVSPost2010PropOp50
 70
     1
102
RTVSPost2010Prop51ColorIndex
 90
      256
102
RTVSPost2010Prop51ColorRGB
 90
-16777216
102
RTVSPost2010PropOp51
 70
     0
102
RTVSPost2010Prop52
140
1.0
102
RTVSPost2010PropOp52
 70
     0
102
RTVSPost2010Prop53
 90
        2
102
RTVSPost2010PropOp53
 70
     1
102
RTVSPost2010Prop54
  1
strokes_ogs.tif
102
RTVSPost2010PropOp54
 70
     1
102
RTVSPost2010Prop55
280
     0
102
RTVSPost2010PropOp55
 70
     1
102
RTVSPost2010Prop56
140
1.0
102
RTVSPost2010PropOp56
 70
     1
102
RTVSPost2010Prop57
140
1.0
102
RTVSPost2010PropOp57
 70
     1
102
RTVSPropertyOp0
 70
     0
102
RTVSPropertyOp1
 70
     0
102
RTVSPropertyOp2
 70
     0
102
RTVSPropertyOp3
 70
     0
102
RTVSPropertyOp4
 70
     0
102
RTVSPropertyOp5
 70
     0
102
RTVSPropertyOp6
 70
     0
102
RTVSPropertyOp7
 70
     0
102
RTVSPropertyOp8
 70
     0
102
RTVSPropertyOp9
 70
     0
102
RTVSPropertyOp10
 70
     0
102
RTVSPropertyOp11
 70
     0
102
RTVSPropertyOp12
 70
     0
102
RTVSPropertyOp13
 70
     0
102
RTVSPropertyOp14
 70
     2
102
RTVSPropertyOp15
 70
     0
102
RTVSPropertyOp16
 70
     0
102
RTVSPropertyOp17
 70
     0
102
RTVSPropertyOp18
 70
     0
102
RTVSPropertyOp19
 70
     0
102
RTVSPropertyOp20
 70
     0
102
RTVSPropertyOp21
 70
     0
102
RTVSPropertyOp22
 70
     0
102
RTVSPropertyOp23
 70
     0
102
RTVSPropertyOp24
 70
     0
102
RTVSPropertyOp25
 70
     0
102
RTVSPropertyOp26
 70
     0
102
RTVSPropertyOp27
 70
     0
102
RTVSPropertyOp28
 70
     1
102
RTVSPropertyOp29
 70
     1
102
RTVSPropertyOp30
 70
     1
102
RTVSPropertyOp31
 70
     1
102
RTVSPropertyOp32
 70
     1
102
RTVSPropertyOp33
 70
     1
102
RTVSPropertyOp34
 70
     1
102
RTVSPropertyOp35
 70
     1
102
RTVSPropertyOp36
 70
     1
102
RTVSPropertyOp37
 70
     1
102
RTVSPropertyOp38
 70
     1
102
RTVSPropertyOp39
 70
     1
102
RTVSPropertyOp40
 70
     1
102
RTVSPropertyOp41
 70
     1
102
RTVSPropertyOp42
 70
     1
102
RTVSPropertyOp43
 70
     1
102
RTVSPropertyOp44
 70
     1
102
RTVSPropertyOp45
 70
     1
102
RTVSPropertyOp46
 70
     1
102
RTVSPropertyOp47
 70
     1
102
RTVSPropertyOp48
 70
     1
102
RTVSPropertyOp49
 70
     1
102
RTVSPropertyOp50
 70
     1
102
RTVSPropertyOp51
 70
     0
102
RTVSPropertyOp52
 70
     0
102
RTVSPropertyOp53
 70
     1
102
RTVSPropertyOp54
 70
     1
102
RTVSPropertyOp55
 70
     1
102
RTVSPropertyOp56
 70
     1
102
RTVSPropertyOp57
 70
     1
102
RTVSPropertyOp58
 70
     1
102
RTVSPropertyOp59
 70
     1
102
RTVSPropertyOp60
 70
     1
102
RTVSPropertyOp61
 70
     1
102
RTVSPropertyOp62
 70
     1
  0
XRECORD
  5
587E
102
{ACAD_REACTORS
330
587D
102
}
330
587D
100
AcDbXrecord
280
     1
102
RTVSPost2010Prop28
280
     0
102
RTVSPost2010PropOp28
 70
     1
102
RTVSPost2010Prop29
280
     1
102
RTVSPost2010PropOp29
 70
     1
102
RTVSPost2010Prop30
280
     1
102
RTVSPost2010PropOp30
 70
     1
102
RTVSPost2010Prop31
280
     0
102
RTVSPost2010PropOp31
 70
     1
102
RTVSPost2010Prop32
280
     0
102
RTVSPost2010PropOp32
 70
     1
102
RTVSPost2010Prop33
280
     0
102
RTVSPost2010PropOp33
 70
     1
102
RTVSPost2010Prop34
280
     0
102
RTVSPost2010PropOp34
 70
     1
102
RTVSPost2010Prop35
280
     0
102
RTVSPost2010PropOp35
 70
     1
102
RTVSPost2010Prop36
280
     0
102
RTVSPost2010PropOp36
 70
     1
102
RTVSPost2010Prop37
 90
       50
102
RTVSPost2010PropOp37
 70
     1
102
RTVSPost2010Prop38
140
0.0
102
RTVSPost2010PropOp38
 70
     1
102
RTVSPost2010Prop39
140
1.0
102
RTVSPost2010PropOp39
 70
     1
102
RTVSPost2010Prop40
 90
        0
102
RTVSPost2010PropOp40
 70
     1
102
RTVSPost2010Prop41ColorIndex
 90
       18
102
RTVSPost2010Prop41ColorRGB
 90
        0
102
RTVSPost2010PropOp41
 70
     1
102
RTVSPost2010Prop42
 90
       50
102
RTVSPost2010PropOp42
 70
     1
102
RTVSPost2010Prop43
 90
        3
102
RTVSPost2010PropOp43
 70
     1
102
RTVSPost2010Prop44ColorIndex
 90
        5
102
RTVSPost2010Prop44ColorRGB
 90
      255
102
RTVSPost2010PropOp44
 70
     1
102
RTVSPost2010Prop45
280
     0
102
RTVSPost2010PropOp45
 70
     1
102
RTVSPost2010Prop46
 90
       50
102
RTVSPost2010PropOp46
 70
     1
102
RTVSPost2010Prop47
 90
       50
102
RTVSPost2010PropOp47
 70
     1
102
RTVSPost2010Prop48
 90
       50
102
RTVSPost2010PropOp48
 70
     1
102
RTVSPost2010Prop49
280
     0
102
RTVSPost2010PropOp49
 70
     1
102
RTVSPost2010Prop50
 90
       50
102
RTVSPost2010PropOp50
 70
     1
102
RTVSPost2010Prop51ColorIndex
 90
      256
102
RTVSPost2010Prop51ColorRGB
 90
-16777216
102
RTVSPost2010PropOp51
 70
     0
102
RTVSPost2010Prop52
140
1.0
102
RTVSPost2010PropOp52
 70
     0
102
RTVSPost2010Prop53
 90
        2
102
RTVSPost2010PropOp53
 70
     1
102
RTVSPost2010Prop54
  1
strokes_ogs.tif
102
RTVSPost2010PropOp54
 70
     1
102
RTVSPost2010Prop55
280
     0
102
RTVSPost2010PropOp55
 70
     1
102
RTVSPost2010Prop56
140
1.0
102
RTVSPost2010PropOp56
 70
     1
102
RTVSPost2010Prop57
140
1.0
102
RTVSPost2010PropOp57
 70
     1
102
RTVSPropertyOp0
 70
     1
102
RTVSPropertyOp1
 70
     1
102
RTVSPropertyOp2
 70
     1
102
RTVSPropertyOp3
 70
     1
102
RTVSPropertyOp4
 70
     1
102
RTVSPropertyOp5
 70
     1
102
RTVSPropertyOp6
 70
     1
102
RTVSPropertyOp7
 70
     1
102
RTVSPropertyOp8
 70
     1
102
RTVSPropertyOp9
 70
     1
102
RTVSPropertyOp10
 70
     1
102
RTVSPropertyOp11
 70
     1
102
RTVSPropertyOp12
 70
     1
102
RTVSPropertyOp13
 70
     1
102
RTVSPropertyOp14
 70
     1
102
RTVSPropertyOp15
 70
     1
102
RTVSPropertyOp16
 70
     1
102
RTVSPropertyOp17
 70
     1
102
RTVSPropertyOp18
 70
     1
102
RTVSPropertyOp19
 70
     1
102
RTVSPropertyOp20
 70
     1
102
RTVSPropertyOp21
 70
     1
102
RTVSPropertyOp22
 70
     1
102
RTVSPropertyOp23
 70
     1
102
RTVSPropertyOp24
 70
     1
102
RTVSPropertyOp25
 70
     1
102
RTVSPropertyOp26
 70
     1
102
RTVSPropertyOp27
 70
     1
102
RTVSPropertyOp28
 70
     1
102
RTVSPropertyOp29
 70
     1
102
RTVSPropertyOp30
 70
     1
102
RTVSPropertyOp31
 70
     1
102
RTVSPropertyOp32
 70
     1
102
RTVSPropertyOp33
 70
     1
102
RTVSPropertyOp34
 70
     1
102
RTVSPropertyOp35
 70
     1
102
RTVSPropertyOp36
 70
     1
102
RTVSPropertyOp37
 70
     1
102
RTVSPropertyOp38
 70
     1
102
RTVSPropertyOp39
 70
     1
102
RTVSPropertyOp40
 70
     1
102
RTVSPropertyOp41
 70
     1
102
RTVSPropertyOp42
 70
     1
102
RTVSPropertyOp43
 70
     1
102
RTVSPropertyOp44
 70
     1
102
RTVSPropertyOp45
 70
     1
102
RTVSPropertyOp46
 70
     1
102
RTVSPropertyOp47
 70
     1
102
RTVSPropertyOp48
 70
     1
102
RTVSPropertyOp49
 70
     1
102
RTVSPropertyOp50
 70
     1
102
RTVSPropertyOp51
 70
     0
102
RTVSPropertyOp52
 70
     0
102
RTVSPropertyOp53
 70
     1
102
RTVSPropertyOp54
 70
     1
102
RTVSPropertyOp55
 70
     1
102
RTVSPropertyOp56
 70
     1
102
RTVSPropertyOp57
 70
     1
102
RTVSPropertyOp58
 70
     1
102
RTVSPropertyOp59
 70
     1
102
RTVSPropertyOp60
 70
     1
102
RTVSPropertyOp61
 70
     1
102
RTVSPropertyOp62
 70
     1
  0
XRECORD
  5
5888
102
{ACAD_REACTORS
330
5887
102
}
330
5887
100
AcDbXrecord
280
     1
102
RTVSPost2010Prop28
280
     0
102
RTVSPost2010PropOp28
 70
     1
102
RTVSPost2010Prop29
280
     1
102
RTVSPost2010PropOp29
 70
     1
102
RTVSPost2010Prop30
280
     1
102
RTVSPost2010PropOp30
 70
     1
102
RTVSPost2010Prop31
280
     0
102
RTVSPost2010PropOp31
 70
     1
102
RTVSPost2010Prop32
280
     0
102
RTVSPost2010PropOp32
 70
     1
102
RTVSPost2010Prop33
280
     0
102
RTVSPost2010PropOp33
 70
     1
102
RTVSPost2010Prop34
280
     0
102
RTVSPost2010PropOp34
 70
     1
102
RTVSPost2010Prop35
280
     0
102
RTVSPost2010PropOp35
 70
     1
102
RTVSPost2010Prop36
280
     0
102
RTVSPost2010PropOp36
 70
     1
102
RTVSPost2010Prop37
 90
       50
102
RTVSPost2010PropOp37
 70
     1
102
RTVSPost2010Prop38
140
0.0
102
RTVSPost2010PropOp38
 70
     1
102
RTVSPost2010Prop39
140
1.0
102
RTVSPost2010PropOp39
 70
     1
102
RTVSPost2010Prop40
 90
        0
102
RTVSPost2010PropOp40
 70
     1
102
RTVSPost2010Prop41ColorIndex
 90
       18
102
RTVSPost2010Prop41ColorRGB
 90
        0
102
RTVSPost2010PropOp41
 70
     1
102
RTVSPost2010Prop42
 90
       50
102
RTVSPost2010PropOp42
 70
     1
102
RTVSPost2010Prop43
 90
        3
102
RTVSPost2010PropOp43
 70
     1
102
RTVSPost2010Prop44ColorIndex
 90
        5
102
RTVSPost2010Prop44ColorRGB
 90
      255
102
RTVSPost2010PropOp44
 70
     1
102
RTVSPost2010Prop45
280
     0
102
RTVSPost2010PropOp45
 70
     1
102
RTVSPost2010Prop46
 90
       50
102
RTVSPost2010PropOp46
 70
     1
102
RTVSPost2010Prop47
 90
       50
102
RTVSPost2010PropOp47
 70
     1
102
RTVSPost2010Prop48
 90
       50
102
RTVSPost2010PropOp48
 70
     1
102
RTVSPost2010Prop49
280
     0
102
RTVSPost2010PropOp49
 70
     1
102
RTVSPost2010Prop50
 90
       50
102
RTVSPost2010PropOp50
 70
     1
102
RTVSPost2010Prop51ColorIndex
 90
      256
102
RTVSPost2010Prop51ColorRGB
 90
-16777216
102
RTVSPost2010PropOp51
 70
     0
102
RTVSPost2010Prop52
140
1.0
102
RTVSPost2010PropOp52
 70
     0
102
RTVSPost2010Prop53
 90
        2
102
RTVSPost2010PropOp53
 70
     1
102
RTVSPost2010Prop54
  1
strokes_ogs.tif
102
RTVSPost2010PropOp54
 70
     1
102
RTVSPost2010Prop55
280
     0
102
RTVSPost2010PropOp55
 70
     1
102
RTVSPost2010Prop56
140
1.0
102
RTVSPost2010PropOp56
 70
     1
102
RTVSPost2010Prop57
140
1.0
102
RTVSPost2010PropOp57
 70
     1
102
RTVSPropertyOp0
 70
     0
102
RTVSPropertyOp1
 70
     0
102
RTVSPropertyOp2
 70
     0
102
RTVSPropertyOp3
 70
     0
102
RTVSPropertyOp4
 70
     0
102
RTVSPropertyOp5
 70
     0
102
RTVSPropertyOp6
 70
     0
102
RTVSPropertyOp7
 70
     0
102
RTVSPropertyOp8
 70
     0
102
RTVSPropertyOp9
 70
     0
102
RTVSPropertyOp10
 70
     0
102
RTVSPropertyOp11
 70
     0
102
RTVSPropertyOp12
 70
     0
102
RTVSPropertyOp13
 70
     0
102
RTVSPropertyOp14
 70
     2
102
RTVSPropertyOp15
 70
     0
102
RTVSPropertyOp16
 70
     0
102
RTVSPropertyOp17
 70
     0
102
RTVSPropertyOp18
 70
     0
102
RTVSPropertyOp19
 70
     0
102
RTVSPropertyOp20
 70
     0
102
RTVSPropertyOp21
 70
     0
102
RTVSPropertyOp22
 70
     0
102
RTVSPropertyOp23
 70
     0
102
RTVSPropertyOp24
 70
     0
102
RTVSPropertyOp25
 70
     0
102
RTVSPropertyOp26
 70
     0
102
RTVSPropertyOp27
 70
     0
102
RTVSPropertyOp28
 70
     1
102
RTVSPropertyOp29
 70
     1
102
RTVSPropertyOp30
 70
     1
102
RTVSPropertyOp31
 70
     1
102
RTVSPropertyOp32
 70
     1
102
RTVSPropertyOp33
 70
     1
102
RTVSPropertyOp34
 70
     1
102
RTVSPropertyOp35
 70
     1
102
RTVSPropertyOp36
 70
     1
102
RTVSPropertyOp37
 70
     1
102
RTVSPropertyOp38
 70
     1
102
RTVSPropertyOp39
 70
     1
102
RTVSPropertyOp40
 70
     1
102
RTVSPropertyOp41
 70
     1
102
RTVSPropertyOp42
 70
     1
102
RTVSPropertyOp43
 70
     1
102
RTVSPropertyOp44
 70
     1
102
RTVSPropertyOp45
 70
     1
102
RTVSPropertyOp46
 70
     1
102
RTVSPropertyOp47
 70
     1
102
RTVSPropertyOp48
 70
     1
102
RTVSPropertyOp49
 70
     1
102
RTVSPropertyOp50
 70
     1
102
RTVSPropertyOp51
 70
     0
102
RTVSPropertyOp52
 70
     0
102
RTVSPropertyOp53
 70
     1
102
RTVSPropertyOp54
 70
     1
102
RTVSPropertyOp55
 70
     1
102
RTVSPropertyOp56
 70
     1
102
RTVSPropertyOp57
 70
     1
102
RTVSPropertyOp58
 70
     1
102
RTVSPropertyOp59
 70
     1
102
RTVSPropertyOp60
 70
     1
102
RTVSPropertyOp61
 70
     1
102
RTVSPropertyOp62
 70
     1
  0
XRECORD
  5
5876
102
{ACAD_REACTORS
330
5875
102
}
330
5875
100
AcDbXrecord
280
     1
102
RTVSPost2010Prop28
280
     0
102
RTVSPost2010PropOp28
 70
     1
102
RTVSPost2010Prop29
280
     1
102
RTVSPost2010PropOp29
 70
     1
102
RTVSPost2010Prop30
280
     1
102
RTVSPost2010PropOp30
 70
     1
102
RTVSPost2010Prop31
280
     0
102
RTVSPost2010PropOp31
 70
     1
102
RTVSPost2010Prop32
280
     0
102
RTVSPost2010PropOp32
 70
     1
102
RTVSPost2010Prop33
280
     0
102
RTVSPost2010PropOp33
 70
     1
102
RTVSPost2010Prop34
280
     0
102
RTVSPost2010PropOp34
 70
     1
102
RTVSPost2010Prop35
280
     0
102
RTVSPost2010PropOp35
 70
     1
102
RTVSPost2010Prop36
280
     0
102
RTVSPost2010PropOp36
 70
     1
102
RTVSPost2010Prop37
 90
       50
102
RTVSPost2010PropOp37
 70
     1
102
RTVSPost2010Prop38
140
0.0
102
RTVSPost2010PropOp38
 70
     1
102
RTVSPost2010Prop39
140
1.0
102
RTVSPost2010PropOp39
 70
     1
102
RTVSPost2010Prop40
 90
        0
102
RTVSPost2010PropOp40
 70
     1
102
RTVSPost2010Prop41ColorIndex
 90
       18
102
RTVSPost2010Prop41ColorRGB
 90
        0
102
RTVSPost2010PropOp41
 70
     1
102
RTVSPost2010Prop42
 90
       50
102
RTVSPost2010PropOp42
 70
     1
102
RTVSPost2010Prop43
 90
        3
102
RTVSPost2010PropOp43
 70
     1
102
RTVSPost2010Prop44ColorIndex
 90
        5
102
RTVSPost2010Prop44ColorRGB
 90
      255
102
RTVSPost2010PropOp44
 70
     1
102
RTVSPost2010Prop45
280
     0
102
RTVSPost2010PropOp45
 70
     1
102
RTVSPost2010Prop46
 90
       50
102
RTVSPost2010PropOp46
 70
     1
102
RTVSPost2010Prop47
 90
       50
102
RTVSPost2010PropOp47
 70
     1
102
RTVSPost2010Prop48
 90
       50
102
RTVSPost2010PropOp48
 70
     1
102
RTVSPost2010Prop49
280
     0
102
RTVSPost2010PropOp49
 70
     1
102
RTVSPost2010Prop50
 90
       50
102
RTVSPost2010PropOp50
 70
     1
102
RTVSPost2010Prop51ColorIndex
 90
      256
102
RTVSPost2010Prop51ColorRGB
 90
-16777216
102
RTVSPost2010PropOp51
 70
     0
102
RTVSPost2010Prop52
140
1.0
102
RTVSPost2010PropOp52
 70
     0
102
RTVSPost2010Prop53
 90
        2
102
RTVSPost2010PropOp53
 70
     1
102
RTVSPost2010Prop54
  1
strokes_ogs.tif
102
RTVSPost2010PropOp54
 70
     1
102
RTVSPost2010Prop55
280
     0
102
RTVSPost2010PropOp55
 70
     1
102
RTVSPost2010Prop56
140
1.0
102
RTVSPost2010PropOp56
 70
     1
102
RTVSPost2010Prop57
140
1.0
102
RTVSPost2010PropOp57
 70
     1
102
RTVSPropertyOp0
 70
     1
102
RTVSPropertyOp1
 70
     1
102
RTVSPropertyOp2
 70
     1
102
RTVSPropertyOp3
 70
     1
102
RTVSPropertyOp4
 70
     1
102
RTVSPropertyOp5
 70
     1
102
RTVSPropertyOp6
 70
     1
102
RTVSPropertyOp7
 70
     1
102
RTVSPropertyOp8
 70
     1
102
RTVSPropertyOp9
 70
     1
102
RTVSPropertyOp10
 70
     1
102
RTVSPropertyOp11
 70
     1
102
RTVSPropertyOp12
 70
     1
102
RTVSPropertyOp13
 70
     1
102
RTVSPropertyOp14
 70
     1
102
RTVSPropertyOp15
 70
     1
102
RTVSPropertyOp16
 70
     1
102
RTVSPropertyOp17
 70
     1
102
RTVSPropertyOp18
 70
     1
102
RTVSPropertyOp19
 70
     1
102
RTVSPropertyOp20
 70
     1
102
RTVSPropertyOp21
 70
     1
102
RTVSPropertyOp22
 70
     1
102
RTVSPropertyOp23
 70
     1
102
RTVSPropertyOp24
 70
     1
102
RTVSPropertyOp25
 70
     1
102
RTVSPropertyOp26
 70
     1
102
RTVSPropertyOp27
 70
     1
102
RTVSPropertyOp28
 70
     1
102
RTVSPropertyOp29
 70
     1
102
RTVSPropertyOp30
 70
     1
102
RTVSPropertyOp31
 70
     1
102
RTVSPropertyOp32
 70
     1
102
RTVSPropertyOp33
 70
     1
102
RTVSPropertyOp34
 70
     1
102
RTVSPropertyOp35
 70
     1
102
RTVSPropertyOp36
 70
     1
102
RTVSPropertyOp37
 70
     1
102
RTVSPropertyOp38
 70
     1
102
RTVSPropertyOp39
 70
     1
102
RTVSPropertyOp40
 70
     1
102
RTVSPropertyOp41
 70
     1
102
RTVSPropertyOp42
 70
     1
102
RTVSPropertyOp43
 70
     1
102
RTVSPropertyOp44
 70
     1
102
RTVSPropertyOp45
 70
     1
102
RTVSPropertyOp46
 70
     1
102
RTVSPropertyOp47
 70
     1
102
RTVSPropertyOp48
 70
     1
102
RTVSPropertyOp49
 70
     1
102
RTVSPropertyOp50
 70
     1
102
RTVSPropertyOp51
 70
     0
102
RTVSPropertyOp52
 70
     0
102
RTVSPropertyOp53
 70
     1
102
RTVSPropertyOp54
 70
     1
102
RTVSPropertyOp55
 70
     1
102
RTVSPropertyOp56
 70
     1
102
RTVSPropertyOp57
 70
     1
102
RTVSPropertyOp58
 70
     1
102
RTVSPropertyOp59
 70
     1
102
RTVSPropertyOp60
 70
     1
102
RTVSPropertyOp61
 70
     1
102
RTVSPropertyOp62
 70
     1
  0
XRECORD
  5
5894
102
{ACAD_REACTORS
330
5893
102
}
330
5893
100
AcDbXrecord
280
     1
102
RTVSPost2010Prop28
280
     0
102
RTVSPost2010PropOp28
 70
     1
102
RTVSPost2010Prop29
280
     1
102
RTVSPost2010PropOp29
 70
     1
102
RTVSPost2010Prop30
280
     1
102
RTVSPost2010PropOp30
 70
     1
102
RTVSPost2010Prop31
280
     0
102
RTVSPost2010PropOp31
 70
     1
102
RTVSPost2010Prop32
280
     0
102
RTVSPost2010PropOp32
 70
     1
102
RTVSPost2010Prop33
280
     0
102
RTVSPost2010PropOp33
 70
     1
102
RTVSPost2010Prop34
280
     0
102
RTVSPost2010PropOp34
 70
     1
102
RTVSPost2010Prop35
280
     0
102
RTVSPost2010PropOp35
 70
     1
102
RTVSPost2010Prop36
280
     0
102
RTVSPost2010PropOp36
 70
     1
102
RTVSPost2010Prop37
 90
       50
102
RTVSPost2010PropOp37
 70
     1
102
RTVSPost2010Prop38
140
0.0
102
RTVSPost2010PropOp38
 70
     1
102
RTVSPost2010Prop39
140
1.0
102
RTVSPost2010PropOp39
 70
     1
102
RTVSPost2010Prop40
 90
        0
102
RTVSPost2010PropOp40
 70
     1
102
RTVSPost2010Prop41ColorIndex
 90
       18
102
RTVSPost2010Prop41ColorRGB
 90
        0
102
RTVSPost2010PropOp41
 70
     1
102
RTVSPost2010Prop42
 90
       50
102
RTVSPost2010PropOp42
 70
     1
102
RTVSPost2010Prop43
 90
        3
102
RTVSPost2010PropOp43
 70
     1
102
RTVSPost2010Prop44ColorIndex
 90
        5
102
RTVSPost2010Prop44ColorRGB
 90
      255
102
RTVSPost2010PropOp44
 70
     1
102
RTVSPost2010Prop45
280
     0
102
RTVSPost2010PropOp45
 70
     1
102
RTVSPost2010Prop46
 90
       50
102
RTVSPost2010PropOp46
 70
     1
102
RTVSPost2010Prop47
 90
       50
102
RTVSPost2010PropOp47
 70
     1
102
RTVSPost2010Prop48
 90
       50
102
RTVSPost2010PropOp48
 70
     1
102
RTVSPost2010Prop49
280
     0
102
RTVSPost2010PropOp49
 70
     1
102
RTVSPost2010Prop50
 90
       50
102
RTVSPost2010PropOp50
 70
     1
102
RTVSPost2010Prop51ColorIndex
 90
      256
102
RTVSPost2010Prop51ColorRGB
 90
-16777216
102
RTVSPost2010PropOp51
 70
     0
102
RTVSPost2010Prop52
140
1.0
102
RTVSPost2010PropOp52
 70
     0
102
RTVSPost2010Prop53
 90
        2
102
RTVSPost2010PropOp53
 70
     1
102
RTVSPost2010Prop54
  1
strokes_ogs.tif
102
RTVSPost2010PropOp54
 70
     1
102
RTVSPost2010Prop55
280
     0
102
RTVSPost2010PropOp55
 70
     1
102
RTVSPost2010Prop56
140
1.0
102
RTVSPost2010PropOp56
 70
     1
102
RTVSPost2010Prop57
140
1.0
102
RTVSPost2010PropOp57
 70
     1
102
RTVSPropertyOp0
 70
     1
102
RTVSPropertyOp1
 70
     1
102
RTVSPropertyOp2
 70
     1
102
RTVSPropertyOp3
 70
     1
102
RTVSPropertyOp4
 70
     1
102
RTVSPropertyOp5
 70
     1
102
RTVSPropertyOp6
 70
     1
102
RTVSPropertyOp7
 70
     1
102
RTVSPropertyOp8
 70
     1
102
RTVSPropertyOp9
 70
     1
102
RTVSPropertyOp10
 70
     1
102
RTVSPropertyOp11
 70
     1
102
RTVSPropertyOp12
 70
     1
102
RTVSPropertyOp13
 70
     1
102
RTVSPropertyOp14
 70
     1
102
RTVSPropertyOp15
 70
     1
102
RTVSPropertyOp16
 70
     1
102
RTVSPropertyOp17
 70
     1
102
RTVSPropertyOp18
 70
     1
102
RTVSPropertyOp19
 70
     1
102
RTVSPropertyOp20
 70
     1
102
RTVSPropertyOp21
 70
     1
102
RTVSPropertyOp22
 70
     1
102
RTVSPropertyOp23
 70
     1
102
RTVSPropertyOp24
 70
     1
102
RTVSPropertyOp25
 70
     1
102
RTVSPropertyOp26
 70
     1
102
RTVSPropertyOp27
 70
     1
102
RTVSPropertyOp28
 70
     1
102
RTVSPropertyOp29
 70
     1
102
RTVSPropertyOp30
 70
     1
102
RTVSPropertyOp31
 70
     1
102
RTVSPropertyOp32
 70
     1
102
RTVSPropertyOp33
 70
     1
102
RTVSPropertyOp34
 70
     1
102
RTVSPropertyOp35
 70
     1
102
RTVSPropertyOp36
 70
     1
102
RTVSPropertyOp37
 70
     1
102
RTVSPropertyOp38
 70
     1
102
RTVSPropertyOp39
 70
     1
102
RTVSPropertyOp40
 70
     1
102
RTVSPropertyOp41
 70
     1
102
RTVSPropertyOp42
 70
     1
102
RTVSPropertyOp43
 70
     1
102
RTVSPropertyOp44
 70
     1
102
RTVSPropertyOp45
 70
     1
102
RTVSPropertyOp46
 70
     1
102
RTVSPropertyOp47
 70
     1
102
RTVSPropertyOp48
 70
     1
102
RTVSPropertyOp49
 70
     1
102
RTVSPropertyOp50
 70
     1
102
RTVSPropertyOp51
 70
     0
102
RTVSPropertyOp52
 70
     0
102
RTVSPropertyOp53
 70
     1
102
RTVSPropertyOp54
 70
     1
102
RTVSPropertyOp55
 70
     1
102
RTVSPropertyOp56
 70
     1
102
RTVSPropertyOp57
 70
     1
102
RTVSPropertyOp58
 70
     1
102
RTVSPropertyOp59
 70
     1
102
RTVSPropertyOp60
 70
     1
102
RTVSPropertyOp61
 70
     1
102
RTVSPropertyOp62
 70
     1
  0
XRECORD
  5
5892
102
{ACAD_REACTORS
330
5891
102
}
330
5891
100
AcDbXrecord
280
     1
102
RTVSPost2010Prop28
280
     0
102
RTVSPost2010PropOp28
 70
     1
102
RTVSPost2010Prop29
280
     1
102
RTVSPost2010PropOp29
 70
     1
102
RTVSPost2010Prop30
280
     1
102
RTVSPost2010PropOp30
 70
     1
102
RTVSPost2010Prop31
280
     0
102
RTVSPost2010PropOp31
 70
     1
102
RTVSPost2010Prop32
280
     0
102
RTVSPost2010PropOp32
 70
     1
102
RTVSPost2010Prop33
280
     0
102
RTVSPost2010PropOp33
 70
     1
102
RTVSPost2010Prop34
280
     0
102
RTVSPost2010PropOp34
 70
     1
102
RTVSPost2010Prop35
280
     0
102
RTVSPost2010PropOp35
 70
     1
102
RTVSPost2010Prop36
280
     0
102
RTVSPost2010PropOp36
 70
     1
102
RTVSPost2010Prop37
 90
       50
102
RTVSPost2010PropOp37
 70
     1
102
RTVSPost2010Prop38
140
0.0
102
RTVSPost2010PropOp38
 70
     1
102
RTVSPost2010Prop39
140
1.0
102
RTVSPost2010PropOp39
 70
     1
102
RTVSPost2010Prop40
 90
        0
102
RTVSPost2010PropOp40
 70
     1
102
RTVSPost2010Prop41ColorIndex
 90
       18
102
RTVSPost2010Prop41ColorRGB
 90
        0
102
RTVSPost2010PropOp41
 70
     1
102
RTVSPost2010Prop42
 90
       50
102
RTVSPost2010PropOp42
 70
     1
102
RTVSPost2010Prop43
 90
        3
102
RTVSPost2010PropOp43
 70
     1
102
RTVSPost2010Prop44ColorIndex
 90
        5
102
RTVSPost2010Prop44ColorRGB
 90
      255
102
RTVSPost2010PropOp44
 70
     1
102
RTVSPost2010Prop45
280
     0
102
RTVSPost2010PropOp45
 70
     1
102
RTVSPost2010Prop46
 90
       50
102
RTVSPost2010PropOp46
 70
     1
102
RTVSPost2010Prop47
 90
       50
102
RTVSPost2010PropOp47
 70
     1
102
RTVSPost2010Prop48
 90
       50
102
RTVSPost2010PropOp48
 70
     1
102
RTVSPost2010Prop49
280
     0
102
RTVSPost2010PropOp49
 70
     1
102
RTVSPost2010Prop50
 90
       50
102
RTVSPost2010PropOp50
 70
     1
102
RTVSPost2010Prop51ColorIndex
 90
      256
102
RTVSPost2010Prop51ColorRGB
 90
-16777216
102
RTVSPost2010PropOp51
 70
     0
102
RTVSPost2010Prop52
140
1.0
102
RTVSPost2010PropOp52
 70
     0
102
RTVSPost2010Prop53
 90
        2
102
RTVSPost2010PropOp53
 70
     1
102
RTVSPost2010Prop54
  1
strokes_ogs.tif
102
RTVSPost2010PropOp54
 70
     1
102
RTVSPost2010Prop55
280
     0
102
RTVSPost2010PropOp55
 70
     1
102
RTVSPost2010Prop56
140
1.0
102
RTVSPost2010PropOp56
 70
     1
102
RTVSPost2010Prop57
140
1.0
102
RTVSPost2010PropOp57
 70
     1
102
RTVSPropertyOp0
 70
     1
102
RTVSPropertyOp1
 70
     1
102
RTVSPropertyOp2
 70
     1
102
RTVSPropertyOp3
 70
     1
102
RTVSPropertyOp4
 70
     1
102
RTVSPropertyOp5
 70
     1
102
RTVSPropertyOp6
 70
     1
102
RTVSPropertyOp7
 70
     1
102
RTVSPropertyOp8
 70
     1
102
RTVSPropertyOp9
 70
     1
102
RTVSPropertyOp10
 70
     1
102
RTVSPropertyOp11
 70
     1
102
RTVSPropertyOp12
 70
     1
102
RTVSPropertyOp13
 70
     1
102
RTVSPropertyOp14
 70
     1
102
RTVSPropertyOp15
 70
     1
102
RTVSPropertyOp16
 70
     1
102
RTVSPropertyOp17
 70
     1
102
RTVSPropertyOp18
 70
     1
102
RTVSPropertyOp19
 70
     1
102
RTVSPropertyOp20
 70
     1
102
RTVSPropertyOp21
 70
     1
102
RTVSPropertyOp22
 70
     1
102
RTVSPropertyOp23
 70
     1
102
RTVSPropertyOp24
 70
     1
102
RTVSPropertyOp25
 70
     1
102
RTVSPropertyOp26
 70
     1
102
RTVSPropertyOp27
 70
     1
102
RTVSPropertyOp28
 70
     1
102
RTVSPropertyOp29
 70
     1
102
RTVSPropertyOp30
 70
     1
102
RTVSPropertyOp31
 70
     1
102
RTVSPropertyOp32
 70
     1
102
RTVSPropertyOp33
 70
     1
102
RTVSPropertyOp34
 70
     1
102
RTVSPropertyOp35
 70
     1
102
RTVSPropertyOp36
 70
     1
102
RTVSPropertyOp37
 70
     1
102
RTVSPropertyOp38
 70
     1
102
RTVSPropertyOp39
 70
     1
102
RTVSPropertyOp40
 70
     1
102
RTVSPropertyOp41
 70
     1
102
RTVSPropertyOp42
 70
     1
102
RTVSPropertyOp43
 70
     1
102
RTVSPropertyOp44
 70
     1
102
RTVSPropertyOp45
 70
     1
102
RTVSPropertyOp46
 70
     1
102
RTVSPropertyOp47
 70
     1
102
RTVSPropertyOp48
 70
     1
102
RTVSPropertyOp49
 70
     1
102
RTVSPropertyOp50
 70
     1
102
RTVSPropertyOp51
 70
     0
102
RTVSPropertyOp52
 70
     0
102
RTVSPropertyOp53
 70
     1
102
RTVSPropertyOp54
 70
     1
102
RTVSPropertyOp55
 70
     1
102
RTVSPropertyOp56
 70
     1
102
RTVSPropertyOp57
 70
     1
102
RTVSPropertyOp58
 70
     1
102
RTVSPropertyOp59
 70
     1
102
RTVSPropertyOp60
 70
     1
102
RTVSPropertyOp61
 70
     1
102
RTVSPropertyOp62
 70
     1
  0
XRECORD
  5
588C
102
{ACAD_REACTORS
330
588B
102
}
330
588B
100
AcDbXrecord
280
     1
102
RTVSPost2010Prop28
280
     0
102
RTVSPost2010PropOp28
 70
     1
102
RTVSPost2010Prop29
280
     1
102
RTVSPost2010PropOp29
 70
     1
102
RTVSPost2010Prop30
280
     1
102
RTVSPost2010PropOp30
 70
     1
102
RTVSPost2010Prop31
280
     0
102
RTVSPost2010PropOp31
 70
     1
102
RTVSPost2010Prop32
280
     0
102
RTVSPost2010PropOp32
 70
     1
102
RTVSPost2010Prop33
280
     0
102
RTVSPost2010PropOp33
 70
     1
102
RTVSPost2010Prop34
280
     0
102
RTVSPost2010PropOp34
 70
     1
102
RTVSPost2010Prop35
280
     0
102
RTVSPost2010PropOp35
 70
     1
102
RTVSPost2010Prop36
280
     0
102
RTVSPost2010PropOp36
 70
     1
102
RTVSPost2010Prop37
 90
       50
102
RTVSPost2010PropOp37
 70
     1
102
RTVSPost2010Prop38
140
0.0
102
RTVSPost2010PropOp38
 70
     1
102
RTVSPost2010Prop39
140
1.0
102
RTVSPost2010PropOp39
 70
     1
102
RTVSPost2010Prop40
 90
        0
102
RTVSPost2010PropOp40
 70
     1
102
RTVSPost2010Prop41ColorIndex
 90
       18
102
RTVSPost2010Prop41ColorRGB
 90
        0
102
RTVSPost2010PropOp41
 70
     1
102
RTVSPost2010Prop42
 90
       50
102
RTVSPost2010PropOp42
 70
     1
102
RTVSPost2010Prop43
 90
        3
102
RTVSPost2010PropOp43
 70
     1
102
RTVSPost2010Prop44ColorIndex
 90
        5
102
RTVSPost2010Prop44ColorRGB
 90
      255
102
RTVSPost2010PropOp44
 70
     1
102
RTVSPost2010Prop45
280
     0
102
RTVSPost2010PropOp45
 70
     1
102
RTVSPost2010Prop46
 90
       50
102
RTVSPost2010PropOp46
 70
     1
102
RTVSPost2010Prop47
 90
       50
102
RTVSPost2010PropOp47
 70
     1
102
RTVSPost2010Prop48
 90
       50
102
RTVSPost2010PropOp48
 70
     1
102
RTVSPost2010Prop49
280
     0
102
RTVSPost2010PropOp49
 70
     1
102
RTVSPost2010Prop50
 90
       50
102
RTVSPost2010PropOp50
 70
     1
102
RTVSPost2010Prop51ColorIndex
 90
      256
102
RTVSPost2010Prop51ColorRGB
 90
-16777216
102
RTVSPost2010PropOp51
 70
     0
102
RTVSPost2010Prop52
140
1.0
102
RTVSPost2010PropOp52
 70
     0
102
RTVSPost2010Prop53
 90
        2
102
RTVSPost2010PropOp53
 70
     1
102
RTVSPost2010Prop54
  1
strokes_ogs.tif
102
RTVSPost2010PropOp54
 70
     1
102
RTVSPost2010Prop55
280
     0
102
RTVSPost2010PropOp55
 70
     1
102
RTVSPost2010Prop56
140
1.0
102
RTVSPost2010PropOp56
 70
     1
102
RTVSPost2010Prop57
140
1.0
102
RTVSPost2010PropOp57
 70
     1
102
RTVSPropertyOp0
 70
     1
102
RTVSPropertyOp1
 70
     1
102
RTVSPropertyOp2
 70
     1
102
RTVSPropertyOp3
 70
     1
102
RTVSPropertyOp4
 70
     1
102
RTVSPropertyOp5
 70
     1
102
RTVSPropertyOp6
 70
     1
102
RTVSPropertyOp7
 70
     1
102
RTVSPropertyOp8
 70
     1
102
RTVSPropertyOp9
 70
     1
102
RTVSPropertyOp10
 70
     1
102
RTVSPropertyOp11
 70
     1
102
RTVSPropertyOp12
 70
     1
102
RTVSPropertyOp13
 70
     1
102
RTVSPropertyOp14
 70
     1
102
RTVSPropertyOp15
 70
     1
102
RTVSPropertyOp16
 70
     1
102
RTVSPropertyOp17
 70
     1
102
RTVSPropertyOp18
 70
     1
102
RTVSPropertyOp19
 70
     1
102
RTVSPropertyOp20
 70
     1
102
RTVSPropertyOp21
 70
     1
102
RTVSPropertyOp22
 70
     1
102
RTVSPropertyOp23
 70
     1
102
RTVSPropertyOp24
 70
     1
102
RTVSPropertyOp25
 70
     1
102
RTVSPropertyOp26
 70
     1
102
RTVSPropertyOp27
 70
     1
102
RTVSPropertyOp28
 70
     1
102
RTVSPropertyOp29
 70
     1
102
RTVSPropertyOp30
 70
     1
102
RTVSPropertyOp31
 70
     1
102
RTVSPropertyOp32
 70
     1
102
RTVSPropertyOp33
 70
     1
102
RTVSPropertyOp34
 70
     1
102
RTVSPropertyOp35
 70
     1
102
RTVSPropertyOp36
 70
     1
102
RTVSPropertyOp37
 70
     1
102
RTVSPropertyOp38
 70
     1
102
RTVSPropertyOp39
 70
     1
102
RTVSPropertyOp40
 70
     1
102
RTVSPropertyOp41
 70
     1
102
RTVSPropertyOp42
 70
     1
102
RTVSPropertyOp43
 70
     1
102
RTVSPropertyOp44
 70
     1
102
RTVSPropertyOp45
 70
     1
102
RTVSPropertyOp46
 70
     1
102
RTVSPropertyOp47
 70
     1
102
RTVSPropertyOp48
 70
     1
102
RTVSPropertyOp49
 70
     1
102
RTVSPropertyOp50
 70
     1
102
RTVSPropertyOp51
 70
     0
102
RTVSPropertyOp52
 70
     0
102
RTVSPropertyOp53
 70
     1
102
RTVSPropertyOp54
 70
     1
102
RTVSPropertyOp55
 70
     1
102
RTVSPropertyOp56
 70
     1
102
RTVSPropertyOp57
 70
     1
102
RTVSPropertyOp58
 70
     1
102
RTVSPropertyOp59
 70
     1
102
RTVSPropertyOp60
 70
     1
102
RTVSPropertyOp61
 70
     1
102
RTVSPropertyOp62
 70
     1
  0
XRECORD
  5
588E
102
{ACAD_REACTORS
330
588D
102
}
330
588D
100
AcDbXrecord
280
     1
102
RTVSPost2010Prop28
280
     0
102
RTVSPost2010PropOp28
 70
     1
102
RTVSPost2010Prop29
280
     1
102
RTVSPost2010PropOp29
 70
     1
102
RTVSPost2010Prop30
280
     1
102
RTVSPost2010PropOp30
 70
     1
102
RTVSPost2010Prop31
280
     0
102
RTVSPost2010PropOp31
 70
     1
102
RTVSPost2010Prop32
280
     0
102
RTVSPost2010PropOp32
 70
     1
102
RTVSPost2010Prop33
280
     0
102
RTVSPost2010PropOp33
 70
     1
102
RTVSPost2010Prop34
280
     0
102
RTVSPost2010PropOp34
 70
     1
102
RTVSPost2010Prop35
280
     0
102
RTVSPost2010PropOp35
 70
     1
102
RTVSPost2010Prop36
280
     0
102
RTVSPost2010PropOp36
 70
     1
102
RTVSPost2010Prop37
 90
       50
102
RTVSPost2010PropOp37
 70
     1
102
RTVSPost2010Prop38
140
0.0
102
RTVSPost2010PropOp38
 70
     1
102
RTVSPost2010Prop39
140
1.0
102
RTVSPost2010PropOp39
 70
     1
102
RTVSPost2010Prop40
 90
        0
102
RTVSPost2010PropOp40
 70
     1
102
RTVSPost2010Prop41ColorIndex
 90
       18
102
RTVSPost2010Prop41ColorRGB
 90
        0
102
RTVSPost2010PropOp41
 70
     1
102
RTVSPost2010Prop42
 90
       50
102
RTVSPost2010PropOp42
 70
     1
102
RTVSPost2010Prop43
 90
        3
102
RTVSPost2010PropOp43
 70
     1
102
RTVSPost2010Prop44ColorIndex
 90
        5
102
RTVSPost2010Prop44ColorRGB
 90
      255
102
RTVSPost2010PropOp44
 70
     1
102
RTVSPost2010Prop45
280
     0
102
RTVSPost2010PropOp45
 70
     1
102
RTVSPost2010Prop46
 90
       50
102
RTVSPost2010PropOp46
 70
     1
102
RTVSPost2010Prop47
 90
       50
102
RTVSPost2010PropOp47
 70
     1
102
RTVSPost2010Prop48
 90
       50
102
RTVSPost2010PropOp48
 70
     1
102
RTVSPost2010Prop49
280
     0
102
RTVSPost2010PropOp49
 70
     1
102
RTVSPost2010Prop50
 90
       50
102
RTVSPost2010PropOp50
 70
     1
102
RTVSPost2010Prop51ColorIndex
 90
      256
102
RTVSPost2010Prop51ColorRGB
 90
-16777216
102
RTVSPost2010PropOp51
 70
     0
102
RTVSPost2010Prop52
140
1.0
102
RTVSPost2010PropOp52
 70
     0
102
RTVSPost2010Prop53
 90
        2
102
RTVSPost2010PropOp53
 70
     1
102
RTVSPost2010Prop54
  1
strokes_ogs.tif
102
RTVSPost2010PropOp54
 70
     1
102
RTVSPost2010Prop55
280
     0
102
RTVSPost2010PropOp55
 70
     1
102
RTVSPost2010Prop56
140
1.0
102
RTVSPost2010PropOp56
 70
     1
102
RTVSPost2010Prop57
140
1.0
102
RTVSPost2010PropOp57
 70
     1
102
RTVSPropertyOp0
 70
     1
102
RTVSPropertyOp1
 70
     1
102
RTVSPropertyOp2
 70
     1
102
RTVSPropertyOp3
 70
     1
102
RTVSPropertyOp4
 70
     1
102
RTVSPropertyOp5
 70
     1
102
RTVSPropertyOp6
 70
     1
102
RTVSPropertyOp7
 70
     1
102
RTVSPropertyOp8
 70
     1
102
RTVSPropertyOp9
 70
     1
102
RTVSPropertyOp10
 70
     1
102
RTVSPropertyOp11
 70
     1
102
RTVSPropertyOp12
 70
     1
102
RTVSPropertyOp13
 70
     1
102
RTVSPropertyOp14
 70
     1
102
RTVSPropertyOp15
 70
     1
102
RTVSPropertyOp16
 70
     1
102
RTVSPropertyOp17
 70
     1
102
RTVSPropertyOp18
 70
     1
102
RTVSPropertyOp19
 70
     1
102
RTVSPropertyOp20
 70
     1
102
RTVSPropertyOp21
 70
     1
102
RTVSPropertyOp22
 70
     1
102
RTVSPropertyOp23
 70
     1
102
RTVSPropertyOp24
 70
     1
102
RTVSPropertyOp25
 70
     1
102
RTVSPropertyOp26
 70
     1
102
RTVSPropertyOp27
 70
     1
102
RTVSPropertyOp28
 70
     1
102
RTVSPropertyOp29
 70
     1
102
RTVSPropertyOp30
 70
     1
102
RTVSPropertyOp31
 70
     1
102
RTVSPropertyOp32
 70
     1
102
RTVSPropertyOp33
 70
     1
102
RTVSPropertyOp34
 70
     1
102
RTVSPropertyOp35
 70
     1
102
RTVSPropertyOp36
 70
     1
102
RTVSPropertyOp37
 70
     1
102
RTVSPropertyOp38
 70
     1
102
RTVSPropertyOp39
 70
     1
102
RTVSPropertyOp40
 70
     1
102
RTVSPropertyOp41
 70
     1
102
RTVSPropertyOp42
 70
     1
102
RTVSPropertyOp43
 70
     1
102
RTVSPropertyOp44
 70
     1
102
RTVSPropertyOp45
 70
     1
102
RTVSPropertyOp46
 70
     1
102
RTVSPropertyOp47
 70
     1
102
RTVSPropertyOp48
 70
     1
102
RTVSPropertyOp49
 70
     1
102
RTVSPropertyOp50
 70
     1
102
RTVSPropertyOp51
 70
     0
102
RTVSPropertyOp52
 70
     0
102
RTVSPropertyOp53
 70
     1
102
RTVSPropertyOp54
 70
     1
102
RTVSPropertyOp55
 70
     1
102
RTVSPropertyOp56
 70
     1
102
RTVSPropertyOp57
 70
     1
102
RTVSPropertyOp58
 70
     1
102
RTVSPropertyOp59
 70
     1
102
RTVSPropertyOp60
 70
     1
102
RTVSPropertyOp61
 70
     1
102
RTVSPropertyOp62
 70
     1
  0
XRECORD
  5
587C
102
{ACAD_REACTORS
330
587B
102
}
330
587B
100
AcDbXrecord
280
     1
102
RTVSPost2010Prop28
280
     0
102
RTVSPost2010PropOp28
 70
     1
102
RTVSPost2010Prop29
280
     1
102
RTVSPost2010PropOp29
 70
     1
102
RTVSPost2010Prop30
280
     1
102
RTVSPost2010PropOp30
 70
     1
102
RTVSPost2010Prop31
280
     0
102
RTVSPost2010PropOp31
 70
     1
102
RTVSPost2010Prop32
280
     0
102
RTVSPost2010PropOp32
 70
     1
102
RTVSPost2010Prop33
280
     0
102
RTVSPost2010PropOp33
 70
     1
102
RTVSPost2010Prop34
280
     0
102
RTVSPost2010PropOp34
 70
     1
102
RTVSPost2010Prop35
280
     0
102
RTVSPost2010PropOp35
 70
     1
102
RTVSPost2010Prop36
280
     0
102
RTVSPost2010PropOp36
 70
     1
102
RTVSPost2010Prop37
 90
       50
102
RTVSPost2010PropOp37
 70
     1
102
RTVSPost2010Prop38
140
0.0
102
RTVSPost2010PropOp38
 70
     1
102
RTVSPost2010Prop39
140
1.0
102
RTVSPost2010PropOp39
 70
     1
102
RTVSPost2010Prop40
 90
        0
102
RTVSPost2010PropOp40
 70
     1
102
RTVSPost2010Prop41ColorIndex
 90
       18
102
RTVSPost2010Prop41ColorRGB
 90
        0
102
RTVSPost2010PropOp41
 70
     1
102
RTVSPost2010Prop42
 90
       50
102
RTVSPost2010PropOp42
 70
     1
102
RTVSPost2010Prop43
 90
        3
102
RTVSPost2010PropOp43
 70
     1
102
RTVSPost2010Prop44ColorIndex
 90
        5
102
RTVSPost2010Prop44ColorRGB
 90
      255
102
RTVSPost2010PropOp44
 70
     1
102
RTVSPost2010Prop45
280
     0
102
RTVSPost2010PropOp45
 70
     1
102
RTVSPost2010Prop46
 90
       50
102
RTVSPost2010PropOp46
 70
     1
102
RTVSPost2010Prop47
 90
       50
102
RTVSPost2010PropOp47
 70
     1
102
RTVSPost2010Prop48
 90
       50
102
RTVSPost2010PropOp48
 70
     1
102
RTVSPost2010Prop49
280
     0
102
RTVSPost2010PropOp49
 70
     1
102
RTVSPost2010Prop50
 90
       50
102
RTVSPost2010PropOp50
 70
     1
102
RTVSPost2010Prop51ColorIndex
 90
      256
102
RTVSPost2010Prop51ColorRGB
 90
-16777216
102
RTVSPost2010PropOp51
 70
     0
102
RTVSPost2010Prop52
140
1.0
102
RTVSPost2010PropOp52
 70
     0
102
RTVSPost2010Prop53
 90
        2
102
RTVSPost2010PropOp53
 70
     1
102
RTVSPost2010Prop54
  1
strokes_ogs.tif
102
RTVSPost2010PropOp54
 70
     1
102
RTVSPost2010Prop55
280
     0
102
RTVSPost2010PropOp55
 70
     1
102
RTVSPost2010Prop56
140
1.0
102
RTVSPost2010PropOp56
 70
     1
102
RTVSPost2010Prop57
140
1.0
102
RTVSPost2010PropOp57
 70
     1
102
RTVSPropertyOp0
 70
     1
102
RTVSPropertyOp1
 70
     1
102
RTVSPropertyOp2
 70
     1
102
RTVSPropertyOp3
 70
     1
102
RTVSPropertyOp4
 70
     1
102
RTVSPropertyOp5
 70
     1
102
RTVSPropertyOp6
 70
     1
102
RTVSPropertyOp7
 70
     1
102
RTVSPropertyOp8
 70
     1
102
RTVSPropertyOp9
 70
     1
102
RTVSPropertyOp10
 70
     1
102
RTVSPropertyOp11
 70
     1
102
RTVSPropertyOp12
 70
     1
102
RTVSPropertyOp13
 70
     1
102
RTVSPropertyOp14
 70
     1
102
RTVSPropertyOp15
 70
     1
102
RTVSPropertyOp16
 70
     1
102
RTVSPropertyOp17
 70
     1
102
RTVSPropertyOp18
 70
     1
102
RTVSPropertyOp19
 70
     1
102
RTVSPropertyOp20
 70
     1
102
RTVSPropertyOp21
 70
     1
102
RTVSPropertyOp22
 70
     1
102
RTVSPropertyOp23
 70
     1
102
RTVSPropertyOp24
 70
     1
102
RTVSPropertyOp25
 70
     1
102
RTVSPropertyOp26
 70
     1
102
RTVSPropertyOp27
 70
     1
102
RTVSPropertyOp28
 70
     1
102
RTVSPropertyOp29
 70
     1
102
RTVSPropertyOp30
 70
     1
102
RTVSPropertyOp31
 70
     1
102
RTVSPropertyOp32
 70
     1
102
RTVSPropertyOp33
 70
     1
102
RTVSPropertyOp34
 70
     1
102
RTVSPropertyOp35
 70
     1
102
RTVSPropertyOp36
 70
     1
102
RTVSPropertyOp37
 70
     1
102
RTVSPropertyOp38
 70
     1
102
RTVSPropertyOp39
 70
     1
102
RTVSPropertyOp40
 70
     1
102
RTVSPropertyOp41
 70
     1
102
RTVSPropertyOp42
 70
     1
102
RTVSPropertyOp43
 70
     1
102
RTVSPropertyOp44
 70
     1
102
RTVSPropertyOp45
 70
     1
102
RTVSPropertyOp46
 70
     1
102
RTVSPropertyOp47
 70
     1
102
RTVSPropertyOp48
 70
     1
102
RTVSPropertyOp49
 70
     1
102
RTVSPropertyOp50
 70
     1
102
RTVSPropertyOp51
 70
     0
102
RTVSPropertyOp52
 70
     0
102
RTVSPropertyOp53
 70
     1
102
RTVSPropertyOp54
 70
     1
102
RTVSPropertyOp55
 70
     1
102
RTVSPropertyOp56
 70
     1
102
RTVSPropertyOp57
 70
     1
102
RTVSPropertyOp58
 70
     1
102
RTVSPropertyOp59
 70
     1
102
RTVSPropertyOp60
 70
     1
102
RTVSPropertyOp61
 70
     1
102
RTVSPropertyOp62
 70
     1
  0
XRECORD
  5
5870
102
{ACAD_REACTORS
330
586F
102
}
330
586F
100
AcDbXrecord
280
     1
102
RTVSPost2010Prop28
280
     0
102
RTVSPost2010PropOp28
 70
     1
102
RTVSPost2010Prop29
280
     1
102
RTVSPost2010PropOp29
 70
     1
102
RTVSPost2010Prop30
280
     1
102
RTVSPost2010PropOp30
 70
     1
102
RTVSPost2010Prop31
280
     0
102
RTVSPost2010PropOp31
 70
     1
102
RTVSPost2010Prop32
280
     0
102
RTVSPost2010PropOp32
 70
     1
102
RTVSPost2010Prop33
280
     0
102
RTVSPost2010PropOp33
 70
     1
102
RTVSPost2010Prop34
280
     0
102
RTVSPost2010PropOp34
 70
     1
102
RTVSPost2010Prop35
280
     0
102
RTVSPost2010PropOp35
 70
     1
102
RTVSPost2010Prop36
280
     0
102
RTVSPost2010PropOp36
 70
     1
102
RTVSPost2010Prop37
 90
       50
102
RTVSPost2010PropOp37
 70
     1
102
RTVSPost2010Prop38
140
0.0
102
RTVSPost2010PropOp38
 70
     1
102
RTVSPost2010Prop39
140
1.0
102
RTVSPost2010PropOp39
 70
     1
102
RTVSPost2010Prop40
 90
        0
102
RTVSPost2010PropOp40
 70
     1
102
RTVSPost2010Prop41ColorIndex
 90
       18
102
RTVSPost2010Prop41ColorRGB
 90
        0
102
RTVSPost2010PropOp41
 70
     1
102
RTVSPost2010Prop42
 90
       50
102
RTVSPost2010PropOp42
 70
     1
102
RTVSPost2010Prop43
 90
        3
102
RTVSPost2010PropOp43
 70
     1
102
RTVSPost2010Prop44ColorIndex
 90
        5
102
RTVSPost2010Prop44ColorRGB
 90
      255
102
RTVSPost2010PropOp44
 70
     1
102
RTVSPost2010Prop45
280
     0
102
RTVSPost2010PropOp45
 70
     1
102
RTVSPost2010Prop46
 90
       50
102
RTVSPost2010PropOp46
 70
     1
102
RTVSPost2010Prop47
 90
       50
102
RTVSPost2010PropOp47
 70
     1
102
RTVSPost2010Prop48
 90
       50
102
RTVSPost2010PropOp48
 70
     1
102
RTVSPost2010Prop49
280
     0
102
RTVSPost2010PropOp49
 70
     1
102
RTVSPost2010Prop50
 90
       50
102
RTVSPost2010PropOp50
 70
     1
102
RTVSPost2010Prop51ColorIndex
 90
      256
102
RTVSPost2010Prop51ColorRGB
 90
-16777216
102
RTVSPost2010PropOp51
 70
     0
102
RTVSPost2010Prop52
140
1.0
102
RTVSPost2010PropOp52
 70
     0
102
RTVSPost2010Prop53
 90
        2
102
RTVSPost2010PropOp53
 70
     1
102
RTVSPost2010Prop54
  1
strokes_ogs.tif
102
RTVSPost2010PropOp54
 70
     1
102
RTVSPost2010Prop55
280
     0
102
RTVSPost2010PropOp55
 70
     1
102
RTVSPost2010Prop56
140
1.0
102
RTVSPost2010PropOp56
 70
     1
102
RTVSPost2010Prop57
140
1.0
102
RTVSPost2010PropOp57
 70
     1
102
RTVSPropertyOp0
 70
     1
102
RTVSPropertyOp1
 70
     1
102
RTVSPropertyOp2
 70
     1
102
RTVSPropertyOp3
 70
     1
102
RTVSPropertyOp4
 70
     1
102
RTVSPropertyOp5
 70
     1
102
RTVSPropertyOp6
 70
     1
102
RTVSPropertyOp7
 70
     1
102
RTVSPropertyOp8
 70
     1
102
RTVSPropertyOp9
 70
     1
102
RTVSPropertyOp10
 70
     1
102
RTVSPropertyOp11
 70
     1
102
RTVSPropertyOp12
 70
     1
102
RTVSPropertyOp13
 70
     1
102
RTVSPropertyOp14
 70
     1
102
RTVSPropertyOp15
 70
     1
102
RTVSPropertyOp16
 70
     1
102
RTVSPropertyOp17
 70
     1
102
RTVSPropertyOp18
 70
     1
102
RTVSPropertyOp19
 70
     1
102
RTVSPropertyOp20
 70
     1
102
RTVSPropertyOp21
 70
     1
102
RTVSPropertyOp22
 70
     1
102
RTVSPropertyOp23
 70
     1
102
RTVSPropertyOp24
 70
     1
102
RTVSPropertyOp25
 70
     1
102
RTVSPropertyOp26
 70
     1
102
RTVSPropertyOp27
 70
     1
102
RTVSPropertyOp28
 70
     1
102
RTVSPropertyOp29
 70
     1
102
RTVSPropertyOp30
 70
     1
102
RTVSPropertyOp31
 70
     1
102
RTVSPropertyOp32
 70
     1
102
RTVSPropertyOp33
 70
     1
102
RTVSPropertyOp34
 70
     1
102
RTVSPropertyOp35
 70
     1
102
RTVSPropertyOp36
 70
     1
102
RTVSPropertyOp37
 70
     1
102
RTVSPropertyOp38
 70
     1
102
RTVSPropertyOp39
 70
     1
102
RTVSPropertyOp40
 70
     1
102
RTVSPropertyOp41
 70
     1
102
RTVSPropertyOp42
 70
     1
102
RTVSPropertyOp43
 70
     1
102
RTVSPropertyOp44
 70
     1
102
RTVSPropertyOp45
 70
     1
102
RTVSPropertyOp46
 70
     1
102
RTVSPropertyOp47
 70
     1
102
RTVSPropertyOp48
 70
     1
102
RTVSPropertyOp49
 70
     1
102
RTVSPropertyOp50
 70
     1
102
RTVSPropertyOp51
 70
     0
102
RTVSPropertyOp52
 70
     0
102
RTVSPropertyOp53
 70
     1
102
RTVSPropertyOp54
 70
     1
102
RTVSPropertyOp55
 70
     1
102
RTVSPropertyOp56
 70
     1
102
RTVSPropertyOp57
 70
     1
102
RTVSPropertyOp58
 70
     1
102
RTVSPropertyOp59
 70
     1
102
RTVSPropertyOp60
 70
     1
102
RTVSPropertyOp61
 70
     1
102
RTVSPropertyOp62
 70
     1
  0
XRECORD
  5
5890
102
{ACAD_REACTORS
330
588F
102
}
330
588F
100
AcDbXrecord
280
     1
102
RTVSPost2010Prop28
280
     0
102
RTVSPost2010PropOp28
 70
     1
102
RTVSPost2010Prop29
280
     1
102
RTVSPost2010PropOp29
 70
     1
102
RTVSPost2010Prop30
280
     1
102
RTVSPost2010PropOp30
 70
     1
102
RTVSPost2010Prop31
280
     0
102
RTVSPost2010PropOp31
 70
     1
102
RTVSPost2010Prop32
280
     0
102
RTVSPost2010PropOp32
 70
     1
102
RTVSPost2010Prop33
280
     0
102
RTVSPost2010PropOp33
 70
     1
102
RTVSPost2010Prop34
280
     0
102
RTVSPost2010PropOp34
 70
     1
102
RTVSPost2010Prop35
280
     0
102
RTVSPost2010PropOp35
 70
     1
102
RTVSPost2010Prop36
280
     0
102
RTVSPost2010PropOp36
 70
     1
102
RTVSPost2010Prop37
 90
       50
102
RTVSPost2010PropOp37
 70
     1
102
RTVSPost2010Prop38
140
0.0
102
RTVSPost2010PropOp38
 70
     1
102
RTVSPost2010Prop39
140
1.0
102
RTVSPost2010PropOp39
 70
     1
102
RTVSPost2010Prop40
 90
        0
102
RTVSPost2010PropOp40
 70
     1
102
RTVSPost2010Prop41ColorIndex
 90
       18
102
RTVSPost2010Prop41ColorRGB
 90
        0
102
RTVSPost2010PropOp41
 70
     1
102
RTVSPost2010Prop42
 90
       50
102
RTVSPost2010PropOp42
 70
     1
102
RTVSPost2010Prop43
 90
        3
102
RTVSPost2010PropOp43
 70
     1
102
RTVSPost2010Prop44ColorIndex
 90
        5
102
RTVSPost2010Prop44ColorRGB
 90
      255
102
RTVSPost2010PropOp44
 70
     1
102
RTVSPost2010Prop45
280
     0
102
RTVSPost2010PropOp45
 70
     1
102
RTVSPost2010Prop46
 90
       50
102
RTVSPost2010PropOp46
 70
     1
102
RTVSPost2010Prop47
 90
       50
102
RTVSPost2010PropOp47
 70
     1
102
RTVSPost2010Prop48
 90
       50
102
RTVSPost2010PropOp48
 70
     1
102
RTVSPost2010Prop49
280
     0
102
RTVSPost2010PropOp49
 70
     1
102
RTVSPost2010Prop50
 90
       50
102
RTVSPost2010PropOp50
 70
     1
102
RTVSPost2010Prop51ColorIndex
 90
      256
102
RTVSPost2010Prop51ColorRGB
 90
-16777216
102
RTVSPost2010PropOp51
 70
     0
102
RTVSPost2010Prop52
140
1.0
102
RTVSPost2010PropOp52
 70
     0
102
RTVSPost2010Prop53
 90
        2
102
RTVSPost2010PropOp53
 70
     1
102
RTVSPost2010Prop54
  1
strokes_ogs.tif
102
RTVSPost2010PropOp54
 70
     1
102
RTVSPost2010Prop55
280
     0
102
RTVSPost2010PropOp55
 70
     1
102
RTVSPost2010Prop56
140
1.0
102
RTVSPost2010PropOp56
 70
     1
102
RTVSPost2010Prop57
140
1.0
102
RTVSPost2010PropOp57
 70
     1
102
RTVSPropertyOp0
 70
     1
102
RTVSPropertyOp1
 70
     1
102
RTVSPropertyOp2
 70
     1
102
RTVSPropertyOp3
 70
     1
102
RTVSPropertyOp4
 70
     1
102
RTVSPropertyOp5
 70
     1
102
RTVSPropertyOp6
 70
     1
102
RTVSPropertyOp7
 70
     1
102
RTVSPropertyOp8
 70
     1
102
RTVSPropertyOp9
 70
     1
102
RTVSPropertyOp10
 70
     1
102
RTVSPropertyOp11
 70
     1
102
RTVSPropertyOp12
 70
     1
102
RTVSPropertyOp13
 70
     1
102
RTVSPropertyOp14
 70
     1
102
RTVSPropertyOp15
 70
     1
102
RTVSPropertyOp16
 70
     1
102
RTVSPropertyOp17
 70
     1
102
RTVSPropertyOp18
 70
     1
102
RTVSPropertyOp19
 70
     1
102
RTVSPropertyOp20
 70
     1
102
RTVSPropertyOp21
 70
     1
102
RTVSPropertyOp22
 70
     1
102
RTVSPropertyOp23
 70
     1
102
RTVSPropertyOp24
 70
     1
102
RTVSPropertyOp25
 70
     1
102
RTVSPropertyOp26
 70
     1
102
RTVSPropertyOp27
 70
     1
102
RTVSPropertyOp28
 70
     1
102
RTVSPropertyOp29
 70
     1
102
RTVSPropertyOp30
 70
     1
102
RTVSPropertyOp31
 70
     1
102
RTVSPropertyOp32
 70
     1
102
RTVSPropertyOp33
 70
     1
102
RTVSPropertyOp34
 70
     1
102
RTVSPropertyOp35
 70
     1
102
RTVSPropertyOp36
 70
     1
102
RTVSPropertyOp37
 70
     1
102
RTVSPropertyOp38
 70
     1
102
RTVSPropertyOp39
 70
     1
102
RTVSPropertyOp40
 70
     1
102
RTVSPropertyOp41
 70
     1
102
RTVSPropertyOp42
 70
     1
102
RTVSPropertyOp43
 70
     1
102
RTVSPropertyOp44
 70
     1
102
RTVSPropertyOp45
 70
     1
102
RTVSPropertyOp46
 70
     1
102
RTVSPropertyOp47
 70
     1
102
RTVSPropertyOp48
 70
     1
102
RTVSPropertyOp49
 70
     1
102
RTVSPropertyOp50
 70
     1
102
RTVSPropertyOp51
 70
     0
102
RTVSPropertyOp52
 70
     0
102
RTVSPropertyOp53
 70
     1
102
RTVSPropertyOp54
 70
     1
102
RTVSPropertyOp55
 70
     1
102
RTVSPropertyOp56
 70
     1
102
RTVSPropertyOp57
 70
     1
102
RTVSPropertyOp58
 70
     1
102
RTVSPropertyOp59
 70
     1
102
RTVSPropertyOp60
 70
     1
102
RTVSPropertyOp61
 70
     1
102
RTVSPropertyOp62
 70
     1
  0
ENDSEC
  0
EOF
