  0
SECTION
  2
HEADER
  9
$ACADVER
  1
AC1015
  9
$ACADMAINTVER
 70
    18
  9
$DWGCODEPAGE
  3
ANSI_1252
  9
$INSBASE
 10
0.0
 20
0.0
 30
0.0
  9
$EXTMIN
 10
-181.5069572412257
 20
-188.6930689861684
 30
-0.0015258207003583
  9
$EXTMAX
 10
207.3403937967266
 20
241.5164343427359
 30
0.0000000349246037
  9
$LIMMIN
 10
0.0
 20
0.0
  9
$LIMMAX
 10
420.0
 20
297.0
  9
$ORTHOMODE
 70
     0
  9
$REGENMODE
 70
     1
  9
$FILLMODE
 70
     1
  9
$QTEXTMODE
 70
     0
  9
$MIRRTEXT
 70
     0
  9
$LTSCALE
 40
1.0
  9
$ATTMODE
 70
     1
  9
$TEXTSIZE
 40
2.5
  9
$TRACEWID
 40
1.0
  9
$TEXTSTYLE
  7
Standard
  9
$CLAYER
  8
0
  9
$CELTYPE
  6
ByLayer
  9
$CECOLOR
 62
   256
  9
$CELTSCALE
 40
1.0
  9
$DISPSILH
 70
     0
  9
$DIMSCALE
 40
1.0
  9
$DIMASZ
 40
2.5
  9
$DIMEXO
 40
0.625
  9
$DIMDLI
 40
3.75
  9
$DIMRND
 40
0.0
  9
$DIMDLE
 40
0.0
  9
$DIMEXE
 40
1.25
  9
$DIMTP
 40
0.0
  9
$DIMTM
 40
0.0
  9
$DIMTXT
 40
2.5
  9
$DIMCEN
 40
2.5
  9
$DIMTSZ
 40
0.0
  9
$DIMTOL
 70
     0
  9
$DIMLIM
 70
     0
  9
$DIMTIH
 70
     0
  9
$DIMTOH
 70
     0
  9
$DIMSE1
 70
     0
  9
$DIMSE2
 70
     0
  9
$DIMTAD
 70
     1
  9
$DIMZIN
 70
     8
  9
$DIMBLK
  1

  9
$DIMASO
 70
     1
  9
$DIMSHO
 70
     1
  9
$DIMPOST
  1

  9
$DIMAPOST
  1

  9
$DIMALT
 70
     0
  9
$DIMALTD
 70
     3
  9
$DIMALTF
 40
0.03937007874016
  9
$DIMLFAC
 40
1.0
  9
$DIMTOFL
 70
     1
  9
$DIMTVP
 40
0.0
  9
$DIMTIX
 70
     0
  9
$DIMSOXD
 70
     0
  9
$DIMSAH
 70
     0
  9
$DIMBLK1
  1

  9
$DIMBLK2
  1

  9
$DIMSTYLE
  2
ISO-25
  9
$DIMCLRD
 70
     0
  9
$DIMCLRE
 70
     0
  9
$DIMCLRT
 70
     0
  9
$DIMTFAC
 40
1.0
  9
$DIMGAP
 40
0.625
  9
$DIMJUST
 70
     0
  9
$DIMSD1
 70
     0
  9
$DIMSD2
 70
     0
  9
$DIMTOLJ
 70
     0
  9
$DIMTZIN
 70
     8
  9
$DIMALTZ
 70
     0
  9
$DIMALTTZ
 70
     0
  9
$DIMUPT
 70
     0
  9
$DIMDEC
 70
     2
  9
$DIMTDEC
 70
     2
  9
$DIMALTU
 70
     2
  9
$DIMALTTD
 70
     3
  9
$DIMTXSTY
  7
Standard
  9
$DIMAUNIT
 70
     0
  9
$DIMADEC
 70
     0
  9
$DIMALTRND
 40
0.0
  9
$DIMAZIN
 70
     0
  9
$DIMDSEP
 70
    44
  9
$DIMATFIT
 70
     3
  9
$DIMFRAC
 70
     0
  9
$DIMLDRBLK
  1

  9
$DIMLUNIT
 70
     2
  9
$DIMLWD
 70
    -2
  9
$DIMLWE
 70
    -2
  9
$DIMTMOVE
 70
     0
  9
$LUNITS
 70
     2
  9
$LUPREC
 70
     4
  9
$SKETCHINC
 40
1.0
  9
$FILLETRAD
 40
0.0
  9
$AUNITS
 70
     0
  9
$AUPREC
 70
     0
  9
$MENU
  1
.
  9
$ELEVATION
 40
0.0
  9
$PELEVATION
 40
0.0
  9
$THICKNESS
 40
0.0
  9
$LIMCHECK
 70
     0
  9
$CHAMFERA
 40
0.0
  9
$CHAMFERB
 40
0.0
  9
$CHAMFERC
 40
0.0
  9
$CHAMFERD
 40
0.0
  9
$SKPOLY
 70
     0
  9
$TDCREATE
 40
2460367.705740741
  9
$TDUCREATE
 40
2460367.414074074
  9
$TDUPDATE
 40
2460367.711712963
  9
$TDUUPDATE
 40
2460367.420046297
  9
$TDINDWG
 40
0.0035532407
  9
$TDUSRTIMER
 40
0.0035532407
  9
$USRTIMER
 70
     1
  9
$ANGBASE
 50
0.0
  9
$ANGDIR
 70
     0
  9
$PDMODE
 70
     0
  9
$PDSIZE
 40
0.0
  9
$PLINEWID
 40
0.0
  9
$SPLFRAME
 70
     0
  9
$SPLINETYPE
 70
     6
  9
$SPLINESEGS
 70
     8
  9
$HANDSEED
  5
3522
  9
$SURFTAB1
 70
     6
  9
$SURFTAB2
 70
     6
  9
$SURFTYPE
 70
     6
  9
$SURFU
 70
     6
  9
$SURFV
 70
     6
  9
$UCSBASE
  2

  9
$UCSNAME
  2

  9
$UCSORG
 10
0.0
 20
0.0
 30
0.0
  9
$UCSXDIR
 10
1.0
 20
0.0
 30
0.0
  9
$UCSYDIR
 10
0.0
 20
1.0
 30
0.0
  9
$UCSORTHOREF
  2

  9
$UCSORTHOVIEW
 70
     0
  9
$UCSORGTOP
 10
0.0
 20
0.0
 30
0.0
  9
$UCSORGBOTTOM
 10
0.0
 20
0.0
 30
0.0
  9
$UCSORGLEFT
 10
0.0
 20
0.0
 30
0.0
  9
$UCSORGRIGHT
 10
0.0
 20
0.0
 30
0.0
  9
$UCSORGFRONT
 10
0.0
 20
0.0
 30
0.0
  9
$UCSORGBACK
 10
0.0
 20
0.0
 30
0.0
  9
$PUCSBASE
  2

  9
$PUCSNAME
  2

  9
$PUCSORG
 10
0.0
 20
0.0
 30
0.0
  9
$PUCSXDIR
 10
1.0
 20
0.0
 30
0.0
  9
$PUCSYDIR
 10
0.0
 20
1.0
 30
0.0
  9
$PUCSORTHOREF
  2

  9
$PUCSORTHOVIEW
 70
     0
  9
$PUCSORGTOP
 10
0.0
 20
0.0
 30
0.0
  9
$PUCSORGBOTTOM
 10
0.0
 20
0.0
 30
0.0
  9
$PUCSORGLEFT
 10
0.0
 20
0.0
 30
0.0
  9
$PUCSORGRIGHT
 10
0.0
 20
0.0
 30
0.0
  9
$PUCSORGFRONT
 10
0.0
 20
0.0
 30
0.0
  9
$PUCSORGBACK
 10
0.0
 20
0.0
 30
0.0
  9
$USERI1
 70
     0
  9
$USERI2
 70
     0
  9
$USERI3
 70
     0
  9
$USERI4
 70
     0
  9
$USERI5
 70
     0
  9
$USERR1
 40
0.0
  9
$USERR2
 40
0.0
  9
$USERR3
 40
0.0
  9
$USERR4
 40
0.0
  9
$USERR5
 40
0.0
  9
$WORLDVIEW
 70
     1
  9
$SHADEDGE
 70
     3
  9
$SHADEDIF
 70
    70
  9
$TILEMODE
 70
     1
  9
$MAXACTVP
 70
    48
  9
$PINSBASE
 10
0.0
 20
0.0
 30
0.0
  9
$PLIMCHECK
 70
     0
  9
$PEXTMIN
 10
0.0
 20
0.0
 30
0.0
  9
$PEXTMAX
 10
0.0
 20
0.0
 30
0.0
  9
$PLIMMIN
 10
0.0
 20
0.0
  9
$PLIMMAX
 10
12.0
 20
9.0
  9
$UNITMODE
 70
     0
  9
$VISRETAIN
 70
     1
  9
$PLINEGEN
 70
     0
  9
$PSLTSCALE
 70
     1
  9
$TREEDEPTH
 70
  3020
  9
$CMLSTYLE
  2
Standard
  9
$CMLJUST
 70
     0
  9
$CMLSCALE
 40
20.0
  9
$PROXYGRAPHICS
 70
     1
  9
$MEASUREMENT
 70
     1
  9
$CELWEIGHT
370
    -1
  9
$ENDCAPS
280
     0
  9
$JOINSTYLE
280
     0
  9
$LWDISPLAY
290
     0
  9
$INSUNITS
 70
     4
  9
$HYPERLINKBASE
  1

  9
$STYLESHEET
  1

  9
$XEDIT
290
     1
  9
$CEPSNTYPE
380
     0
  9
$PSTYLEMODE
290
     1
  9
$FINGERPRINTGUID
  2
{09ACAAAA-6FF3-F94C-B944-1C0D1F37C415}
  9
$VERSIONGUID
  2
{D5ABABB7-79AE-F241-8B1E-83697E5B91BA}
  9
$EXTNAMES
290
     1
  9
$PSVPSCALE
 40
0.0
  9
$OLESTARTUP
290
     0
  0
ENDSEC
  0
SECTION
  2
CLASSES
  0
CLASS
  1
ACDBDICTIONARYWDFLT
  2
AcDbDictionaryWithDefault
  3
ObjectDBX Classes
 90
        0
280
     0
281
     0
  0
CLASS
  1
ACDBPLACEHOLDER
  2
AcDbPlaceHolder
  3
ObjectDBX Classes
 90
        0
280
     0
281
     0
  0
CLASS
  1
LAYOUT
  2
AcDbLayout
  3
ObjectDBX Classes
 90
        0
280
     0
281
     0
  0
CLASS
  1
DICTIONARYVAR
  2
AcDbDictionaryVar
  3
ObjectDBX Classes
 90
        0
280
     0
281
     0
  0
CLASS
  1
TABLESTYLE
  2
AcDbTableStyle
  3
ObjectDBX Classes
 90
     4095
280
     0
281
     0
  0
CLASS
  1
MATERIAL
  2
AcDbMaterial
  3
ObjectDBX Classes
 90
     1153
280
     0
281
     0
  0
CLASS
  1
VISUALSTYLE
  2
AcDbVisualStyle
  3
ObjectDBX Classes
 90
     4095
280
     0
281
     0
  0
CLASS
  1
SCALE
  2
AcDbScale
  3
ObjectDBX Classes
 90
     1153
280
     0
281
     0
  0
CLASS
  1
MLEADERSTYLE
  2
AcDbMLeaderStyle
  3
ACDB_MLEADERSTYLE_CLASS
 90
     4095
280
     0
281
     0
  0
CLASS
  1
CELLSTYLEMAP
  2
AcDbCellStyleMap
  3
ObjectDBX Classes
 90
     1152
280
     0
281
     0
  0
CLASS
  1
EXACXREFPANELOBJECT
  2
ExAcXREFPanelObject
  3
EXAC_ESW
 90
    33793
280
     0
281
     0
  0
CLASS
  1
NPOCOLLECTION
  2
AcDbImpNonPersistentObjectsCollection
  3
ObjectDBX Classes
 90
    33921
280
     0
281
     0
  0
CLASS
  1
LAYER_INDEX
  2
AcDbLayerIndex
  3
ObjectDBX Classes
 90
    32768
280
     0
281
     0
  0
CLASS
  1
SPATIAL_INDEX
  2
AcDbSpatialIndex
  3
ObjectDBX Classes
 90
    32768
280
     0
281
     0
  0
CLASS
  1
IDBUFFER
  2
AcDbIdBuffer
  3
ObjectDBX Classes
 90
    32768
280
     0
281
     0
  0
CLASS
  1
ACDBSECTIONVIEWSTYLE
  2
AcDbSectionViewStyle
  3
ObjectDBX Classes
 90
     1025
280
     0
281
     0
  0
CLASS
  1
ACDBDETAILVIEWSTYLE
  2
AcDbDetailViewStyle
  3
ObjectDBX Classes
 90
     1025
280
     0
281
     0
  0
CLASS
  1
XRECORD
  2
AcDbXrecord
  3
ObjectDBX Classes
 90
        0
280
     0
281
     0
  0
ENDSEC
  0
SECTION
  2
TABLES
  0
TABLE
  2
VPORT
  5
8
102
{ACAD_XDICTIONARY
360
3430
102
}
330
0
100
AcDbSymbolTable
 70
     1
  0
VPORT
  5
EA
330
8
100
AcDbSymbolTableRecord
100
AcDbViewportTableRecord
  2
*Active
 70
     0
 10
0.0
 20
0.0
 11
1.0
 21
1.0
 12
12.91671827775046
 22
26.41168267828374
 13
0.0
 23
0.0
 14
10.0
 24
10.0
 15
10.0
 25
10.0
 16
0.0
 26
0.0
 36
1.0
 17
0.0
 27
0.0
 37
0.0
 40
457.4888197785367
 41
0.9846153846153846
 42
50.0
 43
0.0
 44
0.0
 50
0.0
 51
0.0
 71
     0
 72
  1000
 73
     1
 74
     3
 75
     0
 76
     1
 77
     0
 78
     0
281
     0
 65
     1
110
0.0
120
0.0
130
0.0
111
1.0
121
0.0
131
0.0
112
0.0
122
1.0
132
0.0
 79
     0
146
0.0
1001
ACAD_NAV_VCDISPLAY
1070
     3
  0
ENDTAB
  0
TABLE
  2
LTYPE
  5
5
330
0
100
AcDbSymbolTable
 70
     1
  0
LTYPE
  5
14
330
5
100
AcDbSymbolTableRecord
100
AcDbLinetypeTableRecord
  2
ByBlock
 70
     0
  3

 72
    65
 73
     0
 40
0.0
  0
LTYPE
  5
15
330
5
100
AcDbSymbolTableRecord
100
AcDbLinetypeTableRecord
  2
ByLayer
 70
     0
  3

 72
    65
 73
     0
 40
0.0
  0
LTYPE
  5
16
330
5
100
AcDbSymbolTableRecord
100
AcDbLinetypeTableRecord
  2
Continuous
 70
     0
  3
Solid line
 72
    65
 73
     0
 40
0.0
  0
ENDTAB
  0
TABLE
  2
LAYER
  5
2
102
{ACAD_XDICTIONARY
360
1FF
102
}
330
0
100
AcDbSymbolTable
 70
     1
  0
LAYER
  5
10
102
{ACAD_XDICTIONARY
360
13C
102
}
330
2
100
AcDbSymbolTableRecord
100
AcDbLayerTableRecord
  2
0
 70
     0
 62
     7
  6
Continuous
370
    -3
390
F
  0
ENDTAB
  0
TABLE
  2
STYLE
  5
3
330
0
100
AcDbSymbolTable
 70
     1
  0
STYLE
  5
11
330
3
100
AcDbSymbolTableRecord
100
AcDbTextStyleTableRecord
  2
Standard
 70
     0
 40
0.0
 41
1.0
 50
0.0
 71
     0
 42
2.5
  3
arial.ttf
  4

1001
ACAD
1000
Arial
1071
       34
  0
ENDTAB
  0
TABLE
  2
VIEW
  5
6
330
0
100
AcDbSymbolTable
 70
     0
  0
ENDTAB
  0
TABLE
  2
UCS
  5
7
330
0
100
AcDbSymbolTable
 70
     0
  0
ENDTAB
  0
TABLE
  2
APPID
  5
9
330
0
100
AcDbSymbolTable
 70
     8
  0
APPID
  5
12
330
9
100
AcDbSymbolTableRecord
100
AcDbRegAppTableRecord
  2
ACAD
 70
     0
  0
APPID
  5
9E
330
9
100
AcDbSymbolTableRecord
100
AcDbRegAppTableRecord
  2
ACAD_PSEXT
 70
     0
  0
APPID
  5
133
330
9
100
AcDbSymbolTableRecord
100
AcDbRegAppTableRecord
  2
AcadAnnoPO
 70
     0
  0
APPID
  5
134
330
9
100
AcDbSymbolTableRecord
100
AcDbRegAppTableRecord
  2
AcadAnnotative
 70
     0
  0
APPID
  5
135
330
9
100
AcDbSymbolTableRecord
100
AcDbRegAppTableRecord
  2
ACAD_DSTYLE_DIMJAG
 70
     0
  0
APPID
  5
136
330
9
100
AcDbSymbolTableRecord
100
AcDbRegAppTableRecord
  2
ACAD_DSTYLE_DIMTALN
 70
     0
  0
APPID
  5
165
330
9
100
AcDbSymbolTableRecord
100
AcDbRegAppTableRecord
  2
ACAD_MLEADERVER
 70
     0
  0
APPID
  5
217
330
9
100
AcDbSymbolTableRecord
100
AcDbRegAppTableRecord
  2
ACAD_NAV_VCDISPLAY
 70
     0
  0
ENDTAB
  0
TABLE
  2
DIMSTYLE
  5
A
330
0
100
AcDbSymbolTable
 70
     1
100
AcDbDimStyleTable
 71
     0
  0
DIMSTYLE
105
27
330
A
100
AcDbSymbolTableRecord
100
AcDbDimStyleTableRecord
  2
ISO-25
 70
     0
 41
2.5
 42
0.625
 43
3.75
 44
1.25
 73
     0
 74
     0
 77
     1
 78
     8
140
2.5
141
2.5
143
0.03937007874016
147
0.625
171
     3
172
     1
271
     2
272
     2
274
     3
278
    44
283
     0
284
     8
340
11
  0
ENDTAB
  0
TABLE
  2
BLOCK_RECORD
  5
1
330
0
100
AcDbSymbolTable
 70
     7
  0
BLOCK_RECORD
  5
1F
102
{ACAD_XDICTIONARY
360
1CE
102
}
330
1
100
AcDbSymbolTableRecord
100
AcDbBlockTableRecord
  2
*Model_Space
340
22
  0
BLOCK_RECORD
  5
D2
102
{ACAD_XDICTIONARY
360
33E3
102
}
330
1
100
AcDbSymbolTableRecord
100
AcDbBlockTableRecord
  2
*Paper_Space
340
D3
  0
BLOCK_RECORD
  5
D6
102
{ACAD_XDICTIONARY
360
33E5
102
}
330
1
100
AcDbSymbolTableRecord
100
AcDbBlockTableRecord
  2
*Paper_Space0
340
D7
  0
BLOCK_RECORD
  5
3227
330
1
100
AcDbSymbolTableRecord
100
AcDbBlockTableRecord
  2
ACRL10520-Front
340
0
102
{BLKREFS
331
33D9
102
}
  0
BLOCK_RECORD
  5
325F
330
1
100
AcDbSymbolTableRecord
100
AcDbBlockTableRecord
  2
ACRL10520-Left
340
0
102
{BLKREFS
331
33DA
102
}
  0
BLOCK_RECORD
  5
3283
330
1
100
AcDbSymbolTableRecord
100
AcDbBlockTableRecord
  2
ACRL10520-Right
340
0
102
{BLKREFS
331
33DB
102
}
  0
BLOCK_RECORD
  5
32A7
330
1
100
AcDbSymbolTableRecord
100
AcDbBlockTableRecord
  2
ACRL10520-Top
340
0
102
{BLKREFS
331
33DC
102
}
  0
BLOCK_RECORD
  5
32E1
330
1
100
AcDbSymbolTableRecord
100
AcDbBlockTableRecord
  2
ACRL10520-Bottom
340
0
102
{BLKREFS
331
33DD
102
}
  0
BLOCK_RECORD
  5
3332
330
1
100
AcDbSymbolTableRecord
100
AcDbBlockTableRecord
  2
ACRL10520-ISO
340
0
102
{BLKREFS
331
33DE
102
}
  0
ENDTAB
  0
ENDSEC
  0
SECTION
  2
BLOCKS
  0
BLOCK
  5
20
330
1F
100
AcDbEntity
  8
0
100
AcDbBlockBegin
  2
*Model_Space
 70
     0
 10
0.0
 20
0.0
 30
0.0
  3
*Model_Space
  1

  0
ENDBLK
  5
21
330
1F
100
AcDbEntity
  8
0
100
AcDbBlockEnd
  0
BLOCK
  5
D4
330
D2
100
AcDbEntity
 67
     1
  8
0
100
AcDbBlockBegin
  2
*Paper_Space
 70
     0
 10
0.0
 20
0.0
 30
0.0
  3
*Paper_Space
  1

  0
ENDBLK
  5
D5
330
D2
100
AcDbEntity
 67
     1
  8
0
100
AcDbBlockEnd
  0
BLOCK
  5
D8
330
D6
100
AcDbEntity
 67
     1
  8
0
100
AcDbBlockBegin
  2
*Paper_Space0
 70
     0
 10
0.0
 20
0.0
 30
0.0
  3
*Paper_Space0
  1

  0
ENDBLK
  5
D9
330
D6
100
AcDbEntity
 67
     1
  8
0
100
AcDbBlockEnd
  0
BLOCK
  5
3228
330
3227
100
AcDbEntity
  8
0
100
AcDbBlockBegin
  2
ACRL10520-Front
 70
     0
 10
0.0
 20
0.0
 30
0.0
  3
ACRL10520-Front
  1

  0
LINE
  5
322A
330
3227
100
AcDbEntity
  8
0
100
AcDbLine
 10
-10.0
 20
90.49999999999998
 30
0.0
 11
9.999999999999992
 21
90.5
 31
0.0
  0
ARC
  5
322B
330
3227
100
AcDbEntity
  8
0
100
AcDbCircle
 10
9.999999999999992
 20
85.0
 30
0.0
 40
5.499999999999998
100
AcDbArc
 50
269.9999999999999
 51
90.0
  0
ARC
  5
322C
330
3227
100
AcDbEntity
  8
0
100
AcDbCircle
 10
-10.0
 20
85.0
 30
0.0
 40
5.499999999999991
100
AcDbArc
 50
90.0
 51
270.0
  0
LINE
  5
322D
330
3227
100
AcDbEntity
  8
0
100
AcDbLine
 10
9.999999999999984
 20
79.5
 30
0.0
 11
-10.0
 21
79.5
 31
0.0
  0
ARC
  5
322E
330
3227
100
AcDbEntity
  8
0
100
AcDbCircle
 10
10.83544991043272
 20
11.0
 30
0.0
 40
9.0
100
AcDbArc
 50
255.0303445086602
 51
270.0000000000001
  0
ARC
  5
322F
330
3227
100
AcDbEntity
  8
0
100
AcDbCircle
 10
-10.83544991043274
 20
11.0
 30
0.0
 40
9.000000000000001
100
AcDbArc
 50
270.0
 51
284.9696554913398
  0
LINE
  5
3230
330
3227
100
AcDbEntity
  8
0
100
AcDbLine
 10
8.510682920555215
 20
2.305435120560903
 30
0.0
 11
2.066459546557781
 21
4.028502115056984
 31
0.0
  0
SPLINE
  5
3231
330
3227
100
AcDbEntity
  8
0
100
AcDbSpline
210
0.0
220
0.0
230
1.0
 70
     8
 71
     3
 72
    17
 73
    13
 74
     0
 42
0.000000001
 43
0.0000000001
 40
-3.141592653589793
 40
-3.141592653589793
 40
-3.141592653589793
 40
-3.141592653589793
 40
-2.548095788573845
 40
-2.548095788573845
 40
-2.548095788573845
 40
-1.429864819156154
 40
-1.429864819156154
 40
-1.429864819156154
 40
-0.5548076615011101
 40
-0.5548076615011101
 40
-0.5548076615011101
 40
0.0
 40
0.0
 40
0.0
 40
0.0
 10
-2.066459546557786
 20
4.028502115056987
 30
0.0
 10
-2.065193316748927
 20
4.023427339648776
 30
0.0
 10
-1.940332109482722
 20
4.028729853799756
 30
0.0
 10
-1.712324323985578
 20
4.028612021958249
 30
0.0
 10
-1.282725817168864
 20
4.028390010314844
 30
0.0
 10
-0.472814281121084
 20
4.028518647547926
 30
0.0
 10
0.290348344617318
 20
4.028502261156969
 30
0.0
 10
0.8875513700843759
 20
4.028489438199024
 30
0.0
 10
1.439079235293418
 20
4.028449861864565
 30
0.0
 10
1.755677784667519
 20
4.028624946489049
 30
0.0
 10
1.956409016080556
 20
4.028735954427475
 30
0.0
 10
2.065202443814672
 20
4.02345875978722
 30
0.0
 10
2.06645954655766
 20
4.028502115057014
 30
0.0
  0
LINE
  5
3232
330
3227
100
AcDbEntity
  8
0
100
AcDbLine
 10
-2.066459546557787
 20
4.028502115056985
 30
0.0
 11
-8.510682920555222
 21
2.305435120560908
 31
0.0
  0
SPLINE
  5
3233
330
3227
100
AcDbEntity
  8
0
100
AcDbSpline
210
0.0
220
0.0
230
1.0
 70
     8
 71
     3
 72
    10
 73
     6
 74
     0
 42
0.000000001
 43
0.0000000001
 40
-0.1284815926717146
 40
-0.1284815926717146
 40
-0.1284815926717146
 40
-0.1284815926717146
 40
-0.1054590100333171
 40
-0.1054590100333171
 40
0.0
 40
0.0
 40
0.0
 40
0.0
 10
-9.398503441862423
 20
2.410127694919978
 30
0.0
 10
-9.33349740771499
 20
2.450566409683097
 30
0.0
 10
-9.27015260834991
 20
2.493788712275364
 30
0.0
 10
-8.926946011969969
 20
2.750014977782111
 30
0.0
 10
-8.688863771014586
 20
3.013135936039417
 30
0.0
 10
-8.507946180132904
 20
3.314536317132378
 30
0.0
  0
SPLINE
  5
3234
330
3227
100
AcDbEntity
  8
0
100
AcDbSpline
210
0.0
220
0.0
230
1.0
 70
     8
 71
     3
 72
    10
 73
     6
 74
     0
 42
0.000000001
 43
0.0000000001
 40
-0.2802127595624377
 40
-0.2802127595624377
 40
-0.2802127595624377
 40
-0.2802127595624377
 40
-0.1933598217657068
 40
-0.1933598217657068
 40
-0.1517941777114591
 40
-0.1517941777114591
 40
-0.1517941777114591
 40
-0.1517941777114591
 10
8.507946180132885
 20
3.314536317132379
 30
0.0
 10
8.656928214478371
 20
3.06633910364472
 30
0.0
 10
8.844885835001193
 20
2.843751751897476
 30
0.0
 10
9.169629630244923
 20
2.564910146303671
 30
0.0
 10
9.281343975131159
 20
2.483002089670178
 30
0.0
 10
9.398615717353852
 20
2.410058023674915
 30
0.0
  0
LINE
  5
3235
330
3227
100
AcDbEntity
  8
0
100
AcDbLine
 10
10.83544991043271
 20
19.37319032770545
 30
0.0
 11
8.507946180132874
 21
19.37319032770545
 31
0.0
  0
LINE
  5
3236
330
3227
100
AcDbEntity
  8
0
100
AcDbLine
 10
10.83544991043272
 20
59.16455008956724
 30
0.0
 11
10.8354499104327
 21
19.37319032770544
 31
0.0
  0
LINE
  5
3237
330
3227
100
AcDbEntity
  8
0
100
AcDbLine
 10
-8.507946180132901
 20
19.37319032770544
 30
0.0
 11
-10.83544991043274
 21
19.37319032770544
 31
0.0
  0
LINE
  5
3238
330
3227
100
AcDbEntity
  8
0
100
AcDbLine
 10
-10.83544991043274
 20
19.37319032770544
 30
0.0
 11
-10.83544991043275
 21
59.16455008956724
 31
0.0
  0
SPLINE
  5
3239
330
3227
100
AcDbEntity
  8
0
100
AcDbSpline
210
0.0
220
0.0
230
1.0
 70
     8
 71
     3
 72
    14
 73
    10
 74
     0
 42
0.000000001
 43
0.0000000001
 40
0.0
 40
0.0
 40
0.0
 40
0.0
 40
0.2684830658975453
 40
0.2684830658975453
 40
0.5357969719974057
 40
0.5357969719974057
 40
1.061389097447126
 40
1.061389097447126
 40
1.211988284454084
 40
1.211988284454084
 40
1.211988284454084
 40
1.211988284454084
 10
-10.83544991043273
 20
2.000000000000001
 30
0.0
 10
-10.6125250850623
 20
2.009525052023264
 30
0.0
 10
-10.37610212838641
 20
2.063586695360762
 30
0.0
 10
-9.966290573029167
 20
2.183987407073683
 30
0.0
 10
-9.798024421539805
 20
2.247171970595593
 30
0.0
 10
-9.40743519506905
 20
2.40088163829821
 30
0.0
 10
-9.287348738207811
 20
2.459490910549746
 30
0.0
 10
-9.235537895156252
 20
2.483791645553793
 30
0.0
 10
-9.230449265995581
 20
2.486248957055388
 30
0.0
 10
-9.230449266000979
 20
2.486248957052792
 30
0.0
  0
SPLINE
  5
323A
330
3227
100
AcDbEntity
  8
0
100
AcDbSpline
210
0.0
220
0.0
230
1.0
 70
     8
 71
     3
 72
     8
 73
     4
 74
     0
 42
0.000000001
 43
0.0000000001
 40
0.0
 40
0.0
 40
0.0
 40
0.0
 40
0.1533333386399489
 40
0.1533333386399489
 40
0.1533333386399489
 40
0.1533333386399489
 10
-7.756728909508323
 20
3.09603313059652
 30
0.0
 10
-7.744692106681298
 20
3.086148105710779
 30
0.0
 10
-7.733282497263894
 20
3.075449263609522
 30
0.0
 10
-7.722653012220344
 20
3.063139127582418
 30
0.0
  0
SPLINE
  5
323B
330
3227
100
AcDbEntity
  8
0
100
AcDbSpline
210
0.0
220
0.0
230
1.0
 70
     8
 71
     3
 72
    14
 73
    10
 74
     0
 42
0.000000001
 43
0.0000000001
 40
0.8812574546103194
 40
0.8812574546103194
 40
0.8812574546103194
 40
0.8812574546103194
 40
1.032003227321649
 40
1.032003227321649
 40
1.557576445345263
 40
1.557576445345263
 40
1.824893823186674
 40
1.824893823186674
 40
2.093412566173385
 40
2.093412566173385
 40
2.093412566173385
 40
2.093412566173385
 10
9.230799169306379
 20
2.486094555369924
 30
0.0
 10
9.230799169300821
 20
2.486094555372597
 30
0.0
 10
9.235890958832769
 20
2.483635206143277
 30
0.0
 10
9.28768265086529
 20
2.459338192723333
 30
0.0
 10
9.406701972033509
 20
2.401192585034578
 30
0.0
 10
9.795859655032373
 20
2.247939419972263
 30
0.0
 10
9.963809154781751
 20
2.1847910165153
 30
0.0
 10
10.37418886323728
 20
2.064028052173418
 30
0.0
 10
10.61178076817358
 20
2.009556845246805
 30
0.0
 10
10.83544991043271
 20
2.000000000000003
 30
0.0
  0
SPLINE
  5
323C
330
3227
100
AcDbEntity
  8
0
100
AcDbSpline
210
0.0
220
0.0
230
1.0
 70
     8
 71
     3
 72
     8
 73
     4
 74
     0
 42
0.000000001
 43
0.0000000001
 40
0.0
 40
0.0
 40
0.0
 40
0.0
 40
0.1534315448684801
 40
0.1534315448684801
 40
0.1534315448684801
 40
0.1534315448684801
 10
7.72264446988508
 20
3.063129234035682
 30
0.0
 10
7.733281733819909
 20
3.07544978434977
 30
0.0
 10
7.744699210220885
 20
3.086154991998033
 30
0.0
 10
7.756742459764903
 20
3.09604425792771
 30
0.0
  0
LINE
  5
323D
330
3227
100
AcDbEntity
  8
0
100
AcDbLine
 10
-35.0
 20
1.999999999999987
 30
0.0
 11
-45.0
 21
1.999999999999988
 31
0.0
  0
LINE
  5
323E
330
3227
100
AcDbEntity
  8
0
100
AcDbLine
 10
45.0
 20
1.999999999999988
 30
0.0
 11
35.00000000000001
 21
1.999999999999987
 31
0.0
  0
LINE
  5
323F
330
3227
100
AcDbEntity
  8
0
100
AcDbLine
 10
34.99999999999999
 20
105.0
 30
0.0
 11
44.99999999999999
 21
95.0
 31
0.0
  0
LINE
  5
3240
330
3227
100
AcDbEntity
  8
0
100
AcDbLine
 10
-45.00000000000001
 20
95.0
 30
0.0
 11
-35.00000000000002
 21
105.0
 31
0.0
  0
LINE
  5
3241
330
3227
100
AcDbEntity
  8
0
100
AcDbLine
 10
35.00000000000001
 20
0.0
 30
0.0
 11
45.0
 21
0.0
 31
0.0
  0
LINE
  5
3242
330
3227
100
AcDbEntity
  8
0
100
AcDbLine
 10
-45.0
 20
0.0
 30
0.0
 11
-35.0
 21
0.0
 31
0.0
  0
LINE
  5
3243
330
3227
100
AcDbEntity
  8
0
100
AcDbLine
 10
-35.0
 20
0.0
 30
0.0
 11
-35.0
 21
1.999999999999987
 31
0.0
  0
LINE
  5
3244
330
3227
100
AcDbEntity
  8
0
100
AcDbLine
 10
35.00000000000001
 20
1.999999999999987
 30
0.0
 11
35.00000000000001
 21
0.0
 31
0.0
  0
LINE
  5
3245
330
3227
100
AcDbEntity
  8
0
100
AcDbLine
 10
-35.0
 20
1.999999999999987
 30
0.0
 11
35.00000000000001
 21
1.999999999999987
 31
0.0
  0
LINE
  5
3246
330
3227
100
AcDbEntity
  8
0
100
AcDbLine
 10
-35.00000000000002
 20
105.0
 30
0.0
 11
34.99999999999999
 21
105.0
 31
0.0
  0
LINE
  5
3247
330
3227
100
AcDbEntity
  8
0
100
AcDbLine
 10
-35.0
 20
0.0
 30
0.0
 11
35.00000000000001
 21
0.0
 31
0.0
  0
ARC
  5
3248
330
3227
100
AcDbEntity
  8
0
100
AcDbCircle
 10
-0.0000000000000151
 20
59.16455008956724
 30
0.0
 40
2.066459546557784
100
AcDbArc
 50
0.0
 51
180.0
  0
LINE
  5
3249
330
3227
100
AcDbEntity
  8
0
100
AcDbLine
 10
10.83544991043271
 20
59.16455008956724
 30
0.0
 11
8.510682920555201
 21
59.16455008956724
 31
0.0
  0
LINE
  5
324A
330
3227
100
AcDbEntity
  8
0
100
AcDbLine
 10
-8.510682920555234
 20
59.16455008956724
 30
0.0
 11
-10.83544991043274
 21
59.16455008956724
 31
0.0
  0
LINE
  5
324B
330
3227
100
AcDbEntity
  8
0
100
AcDbLine
 10
8.510682920555202
 20
59.16455008956724
 30
0.0
 11
2.06645954655777
 21
59.16455008956724
 31
0.0
  0
LINE
  5
324C
330
3227
100
AcDbEntity
  8
0
100
AcDbLine
 10
-2.0664595465578
 20
59.16455008956724
 30
0.0
 11
-8.510682920555234
 21
59.16455008956724
 31
0.0
  0
CIRCLE
  5
324D
330
3227
100
AcDbEntity
  8
0
100
AcDbCircle
 10
27.29999999999999
 20
21.49999999999999
 30
0.0
 40
5.5
  0
CIRCLE
  5
324E
330
3227
100
AcDbEntity
  8
0
100
AcDbCircle
 10
-27.30000000000002
 20
21.49999999999999
 30
0.0
 40
5.5
  0
CIRCLE
  5
324F
330
3227
100
AcDbEntity
  8
0
100
AcDbCircle
 10
19.02958663123768
 20
32.5
 30
0.0
 40
2.5
  0
CIRCLE
  5
3250
330
3227
100
AcDbEntity
  8
0
100
AcDbCircle
 10
19.73764637317116
 20
62.5
 30
0.0
 40
2.5
  0
CIRCLE
  5
3251
330
3227
100
AcDbEntity
  8
0
100
AcDbCircle
 10
14.99844771223108
 20
97.5
 30
0.0
 40
2.5
  0
CIRCLE
  5
3252
330
3227
100
AcDbEntity
  8
0
100
AcDbCircle
 10
-15.00000000000001
 20
95.0
 30
0.0
 40
2.5
  0
CIRCLE
  5
3253
330
3227
100
AcDbEntity
  8
0
100
AcDbCircle
 10
-19.28933374738454
 20
62.5
 30
0.0
 40
2.5
  0
CIRCLE
  5
3254
330
3227
100
AcDbEntity
  8
0
100
AcDbCircle
 10
-33.90666730366852
 20
45.0
 30
0.0
 40
2.5
  0
CIRCLE
  5
3255
330
3227
100
AcDbEntity
  8
0
100
AcDbCircle
 10
-24.72666682591715
 20
82.5
 30
0.0
 40
2.5
  0
CIRCLE
  5
3256
330
3227
100
AcDbEntity
  8
0
100
AcDbCircle
 10
-18.63333412958564
 20
32.5
 30
0.0
 40
2.5
  0
CIRCLE
  5
3257
330
3227
100
AcDbEntity
  8
0
100
AcDbCircle
 10
24.97516325205053
 20
85.0
 30
0.0
 40
2.5
  0
CIRCLE
  5
3258
330
3227
100
AcDbEntity
  8
0
100
AcDbCircle
 10
34.37898934812266
 20
45.0
 30
0.0
 40
2.5
  0
ARC
  5
3259
330
3227
100
AcDbEntity
  8
0
100
AcDbCircle
 10
-1968.158427085429
 20
95.00000000044595
 30
0.0
 40
2013.158427085429
100
AcDbArc
 50
357.4946652940278
 51
0.0
  0
LINE
  5
325A
330
3227
100
AcDbEntity
  8
0
100
AcDbLine
 10
-45.00000000000001
 20
95.0
 30
0.0
 11
-43.07573445446485
 21
7.000000000379262
 31
0.0
  0
SPLINE
  5
325B
330
3227
100
AcDbEntity
  8
0
100
AcDbSpline
210
0.0
220
0.0
230
1.0
 70
     8
 71
     3
 72
    11
 73
     7
 74
     0
 42
0.000000001
 43
0.0000000001
 40
-1.0
 40
-1.0
 40
-1.0
 40
-1.0
 40
-0.9394681376702754
 40
-0.9394681376702754
 40
-0.9394681376702754
 40
0.0
 40
0.0
 40
0.0
 40
0.0
 10
-43.07573445446479
 20
7.00000000037971
 30
0.0
 10
-43.07165996583061
 20
6.841553205957807
 30
0.0
 10
-43.06783207442728
 20
6.683102022895548
 30
0.0
 10
-43.06425079366293
 20
6.525362168752383
 30
0.0
 10
-43.00866850954584
 20
4.07720410282272
 30
0.0
 10
-43.01249747311931
 20
1.999999999999997
 30
0.0
 10
-43.07573445446451
 20
1.999999999999992
 30
0.0
  0
SPLINE
  5
325C
330
3227
100
AcDbEntity
  8
0
100
AcDbSpline
210
0.0
220
0.0
230
1.0
 70
     8
 71
     3
 72
    11
 73
     7
 74
     0
 42
0.000000001
 43
0.0000000001
 40
-1.0
 40
-1.0
 40
-1.0
 40
-1.0
 40
-0.9376145186213978
 40
-0.9376145186213978
 40
-0.9376145186213978
 40
0.0
 40
0.0
 40
0.0
 40
0.0
 10
43.07573445446468
 20
1.999999999999992
 30
0.0
 10
43.06733593755082
 20
1.999999999999994
 30
0.0
 10
43.05946103348698
 20
2.007998765864476
 30
0.0
 10
43.05210985947319
 20
2.023963218446657
 30
0.0
 10
42.94162634100181
 20
2.26389889245478
 30
0.0
 10
42.94951003141983
 20
4.546895566569996
 30
0.0
 10
43.07573445446471
 20
7.000000000379261
 30
0.0
  0
LINE
  5
325D
330
3227
100
AcDbEntity
  8
0
100
AcDbLine
 10
45.0
 20
0.0
 30
0.0
 11
45.0
 21
1.999999999999988
 31
0.0
  0
LINE
  5
325E
330
3227
100
AcDbEntity
  8
0
100
AcDbLine
 10
-45.0
 20
1.999999999999988
 30
0.0
 11
-45.0
 21
0.0
 31
0.0
  0
ENDBLK
  5
3229
330
3227
100
AcDbEntity
  8
0
100
AcDbBlockEnd
  0
BLOCK
  5
3260
330
325F
100
AcDbEntity
  8
0
100
AcDbBlockBegin
  2
ACRL10520-Left
 70
     0
 10
0.0
 20
0.0
 30
0.0
  3
ACRL10520-Left
  1

  0
LINE
  5
3262
330
325F
100
AcDbEntity
  8
0
100
AcDbLine
 10
59.16455008956725
 20
2.305435120560908
 30
0.0
 11
59.16455008956725
 21
2.000000000000006
 31
0.0
  0
ARC
  5
3263
330
325F
100
AcDbEntity
  8
0
100
AcDbCircle
 10
69.99999999999999
 20
11.00000000000001
 30
0.0
 40
9.0
100
AcDbArc
 50
255.0303445086602
 51
270.0000000000001
  0
SPLINE
  5
3264
330
325F
100
AcDbEntity
  8
0
100
AcDbSpline
210
0.0
220
0.0
230
1.0
 70
     8
 71
     3
 72
    11
 73
     7
 74
     0
 42
0.000000001
 43
0.0000000001
 40
-3.141592653589793
 40
-3.141592653589793
 40
-3.141592653589793
 40
-3.141592653589793
 40
-2.548095788573845
 40
-2.548095788573845
 40
-2.548095788573845
 40
-1.570735843324098
 40
-1.570735843324098
 40
-1.570735843324098
 40
-1.570735843324098
 10
59.16455008956725
 20
4.028502115056987
 30
0.0
 10
59.57196616299761
 20
4.023427339648776
 30
0.0
 10
59.98133023793053
 20
4.028729853799756
 30
0.0
 10
60.32024251143494
 20
4.028612021958249
 30
0.0
 10
60.87835713781604
 20
4.028417978604435
 30
0.0
 10
61.22359930559717
 20
4.028491801806072
 30
0.0
 10
61.22948982990537
 20
4.028502540418678
 30
0.0
  0
LINE
  5
3265
330
325F
100
AcDbEntity
  8
0
100
AcDbLine
 10
59.16455008956725
 20
4.028502115056985
 30
0.0
 11
59.16455008956725
 21
2.305435120560908
 31
0.0
  0
LINE
  5
3266
330
325F
100
AcDbEntity
  8
0
100
AcDbLine
 10
61.23100428118114
 20
4.02850354687065
 30
0.0
 11
67.67523301012245
 21
2.30543512056091
 31
0.0
  0
LINE
  5
3267
330
325F
100
AcDbEntity
  8
0
100
AcDbLine
 10
19.37319032770546
 20
1.999999999999992
 30
0.0
 11
19.37319032770544
 21
3.314536317132379
 31
0.0
  0
LINE
  5
3268
330
325F
100
AcDbEntity
  8
0
100
AcDbLine
 10
3.314536317132388
 20
19.37319032770544
 30
0.0
 11
2.000000000000002
 21
19.37319032770544
 31
0.0
  0
SPLINE
  5
3269
330
325F
100
AcDbEntity
  8
0
100
AcDbSpline
210
0.0
220
0.0
230
1.0
 70
     8
 71
     3
 72
     8
 73
     4
 74
     0
 42
0.000000001
 43
0.0000000001
 40
0.0
 40
0.0
 40
0.0
 40
0.0
 40
4.020141761522282
 40
4.020141761522282
 40
4.020141761522282
 40
4.020141761522282
 10
19.37319032770544
 20
10.0272739218264
 30
0.0
 10
32.42581004843251
 20
6.993829892558144
 30
0.0
 10
45.78650548575275
 20
5.074975374425676
 30
0.0
 10
59.16455008956725
 20
4.300000000000006
 30
0.0
  0
SPLINE
  5
326A
330
325F
100
AcDbEntity
  8
0
100
AcDbSpline
210
0.0
220
0.0
230
1.0
 70
     8
 71
     3
 72
     8
 73
     4
 74
     0
 42
0.000000001
 43
0.0000000001
 40
0.0
 40
0.0
 40
0.0
 40
0.0
 40
2.607302722201894
 40
2.607302722201894
 40
2.607302722201894
 40
2.607302722201894
 10
29.81816720415793
 20
3.162000142251613
 30
0.0
 10
38.50534392283036
 20
3.001807782050756
 30
0.0
 10
47.20387151205276
 20
2.758087022102736
 30
0.0
 10
55.87802007309069
 20
2.432672141522598
 30
0.0
  0
SPLINE
  5
326B
330
325F
100
AcDbEntity
  8
0
100
AcDbSpline
210
0.0
220
0.0
230
1.0
 70
     8
 71
     3
 72
     8
 73
     4
 74
     0
 42
0.000000001
 43
0.0000000001
 40
0.0
 40
0.0
 40
0.0
 40
0.0
 40
4.020141761522281
 40
4.020141761522281
 40
4.020141761522281
 40
4.020141761522281
 10
4.299999999999998
 20
59.16455008956724
 30
0.0
 10
5.074975374425672
 20
45.78650548575274
 30
0.0
 10
6.993829892558149
 20
32.42581004843251
 30
0.0
 10
10.02727392182641
 20
19.37319032770544
 30
0.0
  0
SPLINE
  5
326C
330
325F
100
AcDbEntity
  8
0
100
AcDbSpline
210
0.0
220
0.0
230
1.0
 70
     8
 71
     3
 72
    12
 73
     8
 74
     0
 42
0.000000001
 43
0.0000000001
 40
0.0
 40
0.0
 40
0.0
 40
0.0
 40
0.4196278750901794
 40
0.4196278750901794
 40
1.47747709251326
 40
1.47747709251326
 40
2.607793152737273
 40
2.607793152737273
 40
2.607793152737273
 40
2.607793152737273
 10
2.432672141522594
 20
55.87802007309069
 30
0.0
 10
2.485045482637832
 20
54.48197407586528
 30
0.0
 10
2.554798481240773
 20
53.08257410596822
 30
0.0
 10
2.767480202162178
 20
48.16627107002147
 30
0.0
 10
2.887236234364256
 20
44.6442883113501
 30
0.0
 10
3.058192066437854
 20
37.3535778654664
 30
0.0
 10
3.092553661826317
 20
33.58422600488945
 30
0.0
 10
3.162000142251616
 20
29.81816720415797
 30
0.0
  0
LINE
  5
326D
330
325F
100
AcDbEntity
  8
0
100
AcDbLine
 10
7.000000000000003
 20
1.999999999999993
 30
0.0
 11
95.00000000000001
 21
1.999999999999988
 31
0.0
  0
LINE
  5
326E
330
325F
100
AcDbEntity
  8
0
100
AcDbLine
 10
0.0
 20
7.000000000530965
 30
0.0
 11
0.0
 21
95.0
 31
0.0
  0
LINE
  5
326F
330
325F
100
AcDbEntity
  8
0
100
AcDbLine
 10
2.00000000000001
 20
95.0
 30
0.0
 11
2.000000000000009
 21
7.000000000379262
 31
0.0
  0
SPLINE
  5
3270
330
325F
100
AcDbEntity
  8
0
100
AcDbSpline
210
0.0
220
0.0
230
1.0
 70
     8
 71
     3
 72
    11
 73
     7
 74
     0
 42
0.000000001
 43
0.0000000001
 40
0.0
 40
0.0
 40
0.0
 40
0.0
 40
0.9394681376702752
 40
0.9394681376702752
 40
0.9394681376702752
 40
1.0
 40
1.0
 40
1.0
 40
1.0
 10
6.999999999999997
 20
-0.0000000000000072
 30
0.0
 10
3.557218086396221
 20
-0.0000000000000013
 30
0.0
 10
0.3584434026451998
 20
2.908085743951811
 30
0.0
 10
0.0316107240531501
 20
6.33550703625334
 30
0.0
 10
0.0105522230650809
 20
6.556342832053769
 30
0.0
 10
-0.0000000000168369
 20
6.778174488340933
 30
0.0
 10
0.0000000000000094
 20
7.000000000530962
 30
0.0
  0
LINE
  5
3271
330
325F
100
AcDbEntity
  8
0
100
AcDbLine
 10
95.00000000000001
 20
0.0
 30
0.0
 11
7.00000000000001
 21
0.0
 31
0.0
  0
SPLINE
  5
3272
330
325F
100
AcDbEntity
  8
0
100
AcDbSpline
210
0.0
220
0.0
230
1.0
 70
     8
 71
     3
 72
    11
 73
     7
 74
     0
 42
0.000000001
 43
0.0000000001
 40
-1.0
 40
-1.0
 40
-1.0
 40
-1.0
 40
-0.9394681376702754
 40
-0.9394681376702754
 40
-0.9394681376702754
 40
0.0
 40
0.0
 40
0.0
 40
0.0
 10
2.000000000000009
 20
7.00000000037971
 30
0.0
 10
1.999999999987976
 20
6.841553205957807
 30
0.0
 10
2.007537302189346
 20
6.683102022895548
 30
0.0
 10
2.022579088609395
 20
6.525362168752383
 30
0.0
 10
2.256031001889431
 20
4.07720410282272
 30
0.0
 10
4.540870061711588
 20
1.999999999999997
 30
0.0
 10
7.0
 20
1.999999999999992
 30
0.0
  0
LINE
  5
3273
330
325F
100
AcDbEntity
  8
0
100
AcDbLine
 10
0.0
 20
95.0
 30
0.0
 11
2.00000000000001
 21
95.0
 31
0.0
  0
LINE
  5
3274
330
325F
100
AcDbEntity
  8
0
100
AcDbLine
 10
95.00000000000001
 20
1.999999999999988
 30
0.0
 11
95.00000000000001
 21
0.0
 31
0.0
  0
LINE
  5
3275
330
325F
100
AcDbEntity
  8
0
100
AcDbLine
 10
105.0
 20
1.999999999999987
 30
0.0
 11
95.00000000000001
 21
1.999999999999988
 31
0.0
  0
LINE
  5
3276
330
325F
100
AcDbEntity
  8
0
100
AcDbLine
 10
0.0
 20
105.0
 30
0.0
 11
0.0
 21
95.0
 31
0.0
  0
LINE
  5
3277
330
325F
100
AcDbEntity
  8
0
100
AcDbLine
 10
2.00000000000001
 20
95.0
 30
0.0
 11
2.000000000000007
 21
105.0
 31
0.0
  0
LINE
  5
3278
330
325F
100
AcDbEntity
  8
0
100
AcDbLine
 10
95.00000000000001
 20
0.0
 30
0.0
 11
105.0
 21
0.0
 31
0.0
  0
LINE
  5
3279
330
325F
100
AcDbEntity
  8
0
100
AcDbLine
 10
105.0
 20
0.0
 30
0.0
 11
105.0
 21
1.999999999999987
 31
0.0
  0
LINE
  5
327A
330
325F
100
AcDbEntity
  8
0
100
AcDbLine
 10
2.000000000000007
 20
105.0
 30
0.0
 11
0.0
 21
105.0
 31
0.0
  0
LINE
  5
327B
330
325F
100
AcDbEntity
  8
0
100
AcDbLine
 10
4.028502115056979
 20
59.16455008956724
 30
0.0
 11
4.028502115056978
 21
61.23100963612502
 31
0.0
  0
SPLINE
  5
327C
330
325F
100
AcDbEntity
  8
0
100
AcDbSpline
210
0.0
220
0.0
230
1.0
 70
     8
 71
     3
 72
     8
 73
     4
 74
     0
 42
0.000000001
 43
0.0000000001
 40
0.0
 40
0.0
 40
0.0
 40
0.0
 40
0.2084218356935739
 40
0.2084218356935739
 40
0.2084218356935739
 40
0.2084218356935739
 10
4.028502119176663
 20
61.23100963673954
 30
0.0
 10
4.131015728610772
 20
60.54387552387261
 30
0.0
 10
4.263010573371475
 20
59.85830411498292
 30
0.0
 10
4.299999999989871
 20
59.16455008956668
 30
0.0
  0
LINE
  5
327D
330
325F
100
AcDbEntity
  8
0
100
AcDbLine
 10
2.305435120560902
 20
59.16455008956724
 30
0.0
 11
2.0
 21
59.16455008956724
 31
0.0
  0
ARC
  5
327E
330
325F
100
AcDbEntity
  8
0
100
AcDbCircle
 10
11.0
 20
69.99999999999997
 30
0.0
 40
8.999999999999998
100
AcDbArc
 50
180.0
 51
194.9696554913398
  0
LINE
  5
327F
330
325F
100
AcDbEntity
  8
0
100
AcDbLine
 10
4.028502115056979
 20
59.16455008956724
 30
0.0
 11
2.305435120560904
 21
59.16455008956724
 31
0.0
  0
LINE
  5
3280
330
325F
100
AcDbEntity
  8
0
100
AcDbLine
 10
4.02850211505698
 20
61.23100963612502
 30
0.0
 11
2.305435120560901
 21
67.67523301012245
 31
0.0
  0
SPLINE
  5
3281
330
325F
100
AcDbEntity
  8
0
100
AcDbSpline
210
0.0
220
0.0
230
1.0
 70
     8
 71
     3
 72
     8
 73
     4
 74
     0
 42
0.000000001
 43
0.0000000001
 40
0.0
 40
0.0
 40
0.0
 40
0.0
 40
0.2084217431305723
 40
0.2084217431305723
 40
0.2084217431305723
 40
0.2084217431305723
 10
59.16455008956673
 20
4.299999999989878
 30
0.0
 10
59.85830380687727
 20
4.26301058979897
 30
0.0
 10
60.54387491560614
 20
4.131015834459302
 30
0.0
 10
61.23100872110232
 20
4.028502255780697
 30
0.0
  0
ARC
  5
3282
330
325F
100
AcDbEntity
  8
0
100
AcDbCircle
 10
22.20279579551077
 20
22.20279579551077
 30
0.0
 40
12.5
100
AcDbArc
 50
193.0833602563197
 51
256.9166397436802
  0
ENDBLK
  5
3261
330
325F
100
AcDbEntity
  8
0
100
AcDbBlockEnd
  0
BLOCK
  5
3284
330
3283
100
AcDbEntity
  8
0
100
AcDbBlockBegin
  2
ACRL10520-Right
 70
     0
 10
0.0
 20
0.0
 30
0.0
  3
ACRL10520-Right
  1

  0
LINE
  5
3286
330
3283
100
AcDbEntity
  8
0
100
AcDbLine
 10
-59.16455008956725
 20
2.000000000000007
 30
0.0
 11
-59.16455008956725
 21
2.305435120560907
 31
0.0
  0
ARC
  5
3287
330
3283
100
AcDbEntity
  8
0
100
AcDbCircle
 10
-69.99999999999999
 20
11.00000000000001
 30
0.0
 40
9.0
100
AcDbArc
 50
269.9999999999999
 51
284.9696554913399
  0
LINE
  5
3288
330
3283
100
AcDbEntity
  8
0
100
AcDbLine
 10
-59.16455008956725
 20
2.305435120560903
 30
0.0
 11
-59.16455008956725
 21
4.028502115056984
 31
0.0
  0
SPLINE
  5
3289
330
3283
100
AcDbEntity
  8
0
100
AcDbSpline
210
0.0
220
0.0
230
1.0
 70
     8
 71
     3
 72
    14
 73
    10
 74
     0
 42
0.000000001
 43
0.0000000001
 40
-1.57073583593831
 40
-1.57073583593831
 40
-1.57073583593831
 40
-1.57073583593831
 40
-1.429864819156154
 40
-1.429864819156154
 40
-1.429864819156154
 40
-0.5548076615011101
 40
-0.5548076615011101
 40
-0.5548076615011101
 40
0.0
 40
0.0
 40
0.0
 40
0.0
 10
-61.2294898300389
 20
4.028502540418922
 30
0.0
 10
-61.23033885544678
 20
4.028504088220373
 30
0.0
 10
-61.22413796094065
 20
4.028504325459978
 30
0.0
 10
-61.21050842464071
 20
4.028502261156969
 30
0.0
 10
-61.12584499587286
 20
4.028489438199024
 30
0.0
 10
-60.76546917633693
 20
4.028449861864565
 30
0.0
 10
-60.25312793348732
 20
4.028624946489049
 30
0.0
 10
-59.92829104214904
 20
4.028735954427475
 30
0.0
 10
-59.54709739480971
 20
4.02345875978722
 30
0.0
 10
-59.16455008956727
 20
4.028502115057014
 30
0.0
  0
LINE
  5
328A
330
3283
100
AcDbEntity
  8
0
100
AcDbLine
 10
-61.23100428118114
 20
4.02850354687065
 30
0.0
 11
-67.67523301012245
 21
2.30543512056091
 31
0.0
  0
LINE
  5
328B
330
3283
100
AcDbEntity
  8
0
100
AcDbLine
 10
-19.37319032770544
 20
3.314536317132379
 30
0.0
 11
-19.37319032770544
 21
1.999999999999992
 31
0.0
  0
LINE
  5
328C
330
3283
100
AcDbEntity
  8
0
100
AcDbLine
 10
-1.999999999999997
 20
19.37319032770545
 30
0.0
 11
-3.314536317132384
 21
19.37319032770545
 31
0.0
  0
SPLINE
  5
328D
330
3283
100
AcDbEntity
  8
0
100
AcDbSpline
210
0.0
220
0.0
230
1.0
 70
     8
 71
     3
 72
     8
 73
     4
 74
     0
 42
0.000000001
 43
0.0000000001
 40
0.0
 40
0.0
 40
0.0
 40
0.0
 40
4.020141761522282
 40
4.020141761522282
 40
4.020141761522282
 40
4.020141761522282
 10
-59.16455008956725
 20
4.300000000000006
 30
0.0
 10
-45.78650548575275
 20
5.074975374425676
 30
0.0
 10
-32.42581004843251
 20
6.993829892558144
 30
0.0
 10
-19.37319032770544
 20
10.0272739218264
 30
0.0
  0
SPLINE
  5
328E
330
3283
100
AcDbEntity
  8
0
100
AcDbSpline
210
0.0
220
0.0
230
1.0
 70
     8
 71
     3
 72
    12
 73
     8
 74
     0
 42
0.000000001
 43
0.0000000001
 40
0.0
 40
0.0
 40
0.0
 40
0.0
 40
0.4196188569961242
 40
0.4196188569961242
 40
1.477457639098227
 40
1.477457639098227
 40
2.60780405553987
 40
2.60780405553987
 40
2.60780405553987
 40
2.60780405553987
 10
-55.87803143831525
 20
2.43267171515065
 30
0.0
 10
-54.48201688680224
 20
2.485043888146117
 30
0.0
 10
-53.08264540435431
 20
2.554800445565896
 30
0.0
 10
-48.16640503721068
 20
2.767504733157077
 30
0.0
 10
-44.64445704299996
 20
2.887291740956727
 30
0.0
 10
-37.35368029526831
 20
3.058264412256146
 30
0.0
 10
-33.58422930337902
 20
3.092553881727578
 30
0.0
 10
-29.81806565490694
 20
3.162002014825619
 30
0.0
  0
SPLINE
  5
328F
330
3283
100
AcDbEntity
  8
0
100
AcDbSpline
210
0.0
220
0.0
230
1.0
 70
     8
 71
     3
 72
     8
 73
     4
 74
     0
 42
0.000000001
 43
0.0000000001
 40
0.0
 40
0.0
 40
0.0
 40
0.0
 40
2.607314009509418
 40
2.607314009509418
 40
2.607314009509418
 40
2.607314009509418
 10
-3.162002014825619
 20
29.81806565490698
 30
0.0
 10
-3.001809451088546
 20
38.50528852741239
 30
0.0
 10
-2.758087739914262
 20
47.20385429647985
 30
0.0
 10
-2.432671715150642
 20
55.87803143831522
 30
0.0
  0
SPLINE
  5
3290
330
3283
100
AcDbEntity
  8
0
100
AcDbSpline
210
0.0
220
0.0
230
1.0
 70
     8
 71
     3
 72
     8
 73
     4
 74
     0
 42
0.000000001
 43
0.0000000001
 40
0.0
 40
0.0
 40
0.0
 40
0.0
 40
4.020141761522281
 40
4.020141761522281
 40
4.020141761522281
 40
4.020141761522281
 10
-10.02727392182641
 20
19.37319032770544
 30
0.0
 10
-6.993829892558149
 20
32.42581004843251
 30
0.0
 10
-5.074975374425672
 20
45.78650548575274
 30
0.0
 10
-4.299999999999998
 20
59.16455008956724
 30
0.0
  0
LINE
  5
3291
330
3283
100
AcDbEntity
  8
0
100
AcDbLine
 10
-94.99999999999998
 20
1.999999999999988
 30
0.0
 11
-105.0
 21
1.999999999999987
 31
0.0
  0
LINE
  5
3292
330
3283
100
AcDbEntity
  8
0
100
AcDbLine
 10
0.0
 20
95.0
 30
0.0
 11
0.0
 21
105.0
 31
0.0
  0
LINE
  5
3293
330
3283
100
AcDbEntity
  8
0
100
AcDbLine
 10
-1.999999999999992
 20
105.0
 30
0.0
 11
-1.999999999999989
 21
95.0
 31
0.0
  0
LINE
  5
3294
330
3283
100
AcDbEntity
  8
0
100
AcDbLine
 10
-105.0
 20
0.0
 30
0.0
 11
-94.99999999999998
 21
0.0
 31
0.0
  0
LINE
  5
3295
330
3283
100
AcDbEntity
  8
0
100
AcDbLine
 10
-105.0
 20
1.999999999999987
 30
0.0
 11
-105.0
 21
0.0
 31
0.0
  0
LINE
  5
3296
330
3283
100
AcDbEntity
  8
0
100
AcDbLine
 10
0.0
 20
105.0
 30
0.0
 11
-1.999999999999992
 21
105.0
 31
0.0
  0
LINE
  5
3297
330
3283
100
AcDbEntity
  8
0
100
AcDbLine
 10
-6.999999999999637
 20
1.999999999999998
 30
0.0
 11
-94.99999999999973
 21
1.999999999999993
 31
0.0
  0
LINE
  5
3298
330
3283
100
AcDbEntity
  8
0
100
AcDbLine
 10
0.0
 20
7.000000000531105
 30
0.0
 11
0.0
 21
94.99999999999976
 31
0.0
  0
LINE
  5
3299
330
3283
100
AcDbEntity
  8
0
100
AcDbLine
 10
-1.999999999999989
 20
94.99999999999976
 30
0.0
 11
-1.999999999999989
 21
7.000000000380151
 31
0.0
  0
SPLINE
  5
329A
330
3283
100
AcDbEntity
  8
0
100
AcDbSpline
210
0.0
220
0.0
230
1.0
 70
     8
 71
     3
 72
    11
 73
     7
 74
     0
 42
0.000000001
 43
0.0000000001
 40
0.0
 40
0.0
 40
0.0
 40
0.0
 40
0.9376145186213978
 40
0.9376145186213978
 40
0.9376145186213978
 40
0.9999999999999998
 40
0.9999999999999998
 40
0.9999999999999998
 40
0.9999999999999998
 10
0.0000000000000105
 20
7.000000000530956
 30
0.0
 10
0.0000000002605187
 20
3.565653793197994
 30
0.0
 10
-2.896838630218274
 20
0.3694584494366921
 30
0.0
 10
-6.315490263537811
 20
0.0335485058253232
 30
0.0
 10
-6.542954987659156
 20
0.0111982722102695
 30
0.0
 10
-6.77149101564645
 20
-0.0000000000000047
 30
0.0
 10
-6.99999999999992
 20
-0.0000000000000069
 30
0.0
  0
LINE
  5
329B
330
3283
100
AcDbEntity
  8
0
100
AcDbLine
 10
-94.99999999999971
 20
0.0
 30
0.0
 11
-6.999999999999619
 21
0.0
 31
0.0
  0
LINE
  5
329C
330
3283
100
AcDbEntity
  8
0
100
AcDbLine
 10
-1.999999999999989
 20
95.0
 30
0.0
 11
0.0
 21
95.0
 31
0.0
  0
SPLINE
  5
329D
330
3283
100
AcDbEntity
  8
0
100
AcDbSpline
210
0.0
220
0.0
230
1.0
 70
     8
 71
     3
 72
    11
 73
     7
 74
     0
 42
0.000000001
 43
0.0000000001
 40
-1.0
 40
-1.0
 40
-1.0
 40
-1.0
 40
-0.9376145186213978
 40
-0.9376145186213978
 40
-0.9376145186213978
 40
0.0
 40
0.0
 40
0.0
 40
0.0
 10
-6.999999999999939
 20
1.999999999999992
 30
0.0
 10
-6.836779296890318
 20
1.999999999999994
 30
0.0
 10
-6.673539276899393
 20
2.007998765864476
 30
0.0
 10
-6.511064473955575
 20
2.023963218446657
 30
0.0
 10
-4.069170450155893
 20
2.26389889245478
 30
0.0
 10
-1.999999999813912
 20
4.546895566569996
 30
0.0
 10
-1.999999999999989
 20
7.000000000379261
 30
0.0
  0
LINE
  5
329E
330
3283
100
AcDbEntity
  8
0
100
AcDbLine
 10
-94.99999999999998
 20
0.0
 30
0.0
 11
-94.99999999999998
 21
1.999999999999988
 31
0.0
  0
LINE
  5
329F
330
3283
100
AcDbEntity
  8
0
100
AcDbLine
 10
-4.028502115056978
 20
61.23100963612502
 30
0.0
 11
-4.028502115056978
 21
59.16455008956724
 31
0.0
  0
SPLINE
  5
32A0
330
3283
100
AcDbEntity
  8
0
100
AcDbSpline
210
0.0
220
0.0
230
1.0
 70
     8
 71
     3
 72
     8
 73
     4
 74
     0
 42
0.000000001
 43
0.0000000001
 40
0.0
 40
0.0
 40
0.0
 40
0.0
 40
0.2084218356935704
 40
0.2084218356935704
 40
0.2084218356935704
 40
0.2084218356935704
 10
-4.299999999989872
 20
59.1645500895667
 30
0.0
 10
-4.263010573371465
 20
59.85830411498294
 30
0.0
 10
-4.131015728610788
 20
60.54387552387261
 30
0.0
 10
-4.028502119176662
 20
61.23100963673953
 30
0.0
  0
LINE
  5
32A1
330
3283
100
AcDbEntity
  8
0
100
AcDbLine
 10
-1.999999999999998
 20
59.16455008956724
 30
0.0
 11
-2.305435120560897
 21
59.16455008956724
 31
0.0
  0
ARC
  5
32A2
330
3283
100
AcDbEntity
  8
0
100
AcDbCircle
 10
-11.0
 20
69.99999999999997
 30
0.0
 40
9.0
100
AcDbArc
 50
345.0303445086602
 51
0.0
  0
LINE
  5
32A3
330
3283
100
AcDbEntity
  8
0
100
AcDbLine
 10
-2.305435120560895
 20
59.16455008956724
 30
0.0
 11
-4.028502115056978
 21
59.16455008956724
 31
0.0
  0
LINE
  5
32A4
330
3283
100
AcDbEntity
  8
0
100
AcDbLine
 10
-4.02850211505698
 20
61.23100963612502
 30
0.0
 11
-2.305435120560901
 21
67.67523301012245
 31
0.0
  0
SPLINE
  5
32A5
330
3283
100
AcDbEntity
  8
0
100
AcDbSpline
210
0.0
220
0.0
230
1.0
 70
     8
 71
     3
 72
     8
 73
     4
 74
     0
 42
0.000000001
 43
0.0000000001
 40
0.0
 40
0.0
 40
0.0
 40
0.0
 40
0.2084217431305706
 40
0.2084217431305706
 40
0.2084217431305706
 40
0.2084217431305706
 10
-61.2310087211023
 20
4.028502255780694
 30
0.0
 10
-60.54387491560612
 20
4.131015834459301
 30
0.0
 10
-59.85830380687726
 20
4.263010589798955
 30
0.0
 10
-59.16455008956671
 20
4.299999999989875
 30
0.0
  0
ARC
  5
32A6
330
3283
100
AcDbEntity
  8
0
100
AcDbCircle
 10
-22.20279579551077
 20
22.20279579551077
 30
0.0
 40
12.5
100
AcDbArc
 50
283.0833602563198
 51
346.9166397436801
  0
ENDBLK
  5
3285
330
3283
100
AcDbEntity
  8
0
100
AcDbBlockEnd
  0
BLOCK
  5
32A8
330
32A7
100
AcDbEntity
  8
0
100
AcDbBlockBegin
  2
ACRL10520-Top
 70
     0
 10
0.0
 20
0.0
 30
0.0
  3
ACRL10520-Top
  1

  0
LINE
  5
32AA
330
32A7
100
AcDbEntity
  8
0
100
AcDbLine
 10
10.00000000000001
 20
-90.5
 30
0.0
 11
-9.999999999999985
 21
-90.5
 31
0.0
  0
ARC
  5
32AB
330
32A7
100
AcDbEntity
  8
0
100
AcDbCircle
 10
10.00000000000001
 20
-85.0
 30
0.0
 40
5.499999999999991
100
AcDbArc
 50
270.0
 51
90.0
  0
LINE
  5
32AC
330
32A7
100
AcDbEntity
  8
0
100
AcDbLine
 10
-9.999999999999989
 20
-79.5
 30
0.0
 11
10.00000000000001
 21
-79.5
 31
0.0
  0
ARC
  5
32AD
330
32A7
100
AcDbEntity
  8
0
100
AcDbCircle
 10
-9.999999999999987
 20
-85.0
 30
0.0
 40
5.499999999999989
100
AcDbArc
 50
90.00000000000003
 51
270.0
  0
LINE
  5
32AE
330
32A7
100
AcDbEntity
  8
0
100
AcDbLine
 10
10.83544991043273
 20
-59.16455008956725
 30
0.0
 11
8.510682920555215
 21
-59.16455008956725
 31
0.0
  0
LINE
  5
32AF
330
32A7
100
AcDbEntity
  8
0
100
AcDbLine
 10
-8.510682920555222
 20
-59.16455008956725
 30
0.0
 11
-10.83544991043274
 21
-59.16455008956725
 31
0.0
  0
LINE
  5
32B0
330
32A7
100
AcDbEntity
  8
0
100
AcDbLine
 10
8.510682920555215
 20
-59.16455008956725
 30
0.0
 11
2.066459546557781
 21
-59.16455008956725
 31
0.0
  0
SPLINE
  5
32B1
330
32A7
100
AcDbEntity
  8
0
100
AcDbSpline
210
0.0
220
0.0
230
1.0
 70
     8
 71
     3
 72
    17
 73
    13
 74
     0
 42
0.000000001
 43
0.0000000001
 40
-3.141592653589793
 40
-3.141592653589793
 40
-3.141592653589793
 40
-3.141592653589793
 40
-2.548095788573845
 40
-2.548095788573845
 40
-2.548095788573845
 40
-1.429864819156154
 40
-1.429864819156154
 40
-1.429864819156154
 40
-0.5548076615011101
 40
-0.5548076615011101
 40
-0.5548076615011101
 40
0.0
 40
0.0
 40
0.0
 40
0.0
 10
-2.066459546557786
 20
-59.16455008956725
 30
0.0
 10
-2.065193316748927
 20
-59.57196616299761
 30
0.0
 10
-1.940332109482722
 20
-59.98133023793053
 30
0.0
 10
-1.712324323985578
 20
-60.32024251143494
 30
0.0
 10
-1.282725817168864
 20
-60.95880056032742
 30
0.0
 10
-0.472814281121084
 20
-61.31869937787968
 30
0.0
 10
0.290348344617318
 20
-61.21050842464071
 30
0.0
 10
0.8875513700843759
 20
-61.12584499587286
 30
0.0
 10
1.439079235293418
 20
-60.76546917633693
 30
0.0
 10
1.755677784667519
 20
-60.25312793348732
 30
0.0
 10
1.956409016080556
 20
-59.92829104214904
 30
0.0
 10
2.065202443814672
 20
-59.54709739480971
 30
0.0
 10
2.06645954655766
 20
-59.16455008956727
 30
0.0
  0
LINE
  5
32B2
330
32A7
100
AcDbEntity
  8
0
100
AcDbLine
 10
-2.066459546557787
 20
-59.16455008956725
 30
0.0
 11
-8.510682920555222
 21
-59.16455008956725
 31
0.0
  0
LINE
  5
32B3
330
32A7
100
AcDbEntity
  8
0
100
AcDbLine
 10
-10.83544991043273
 20
-19.37319032770546
 30
0.0
 11
-8.507946180132902
 21
-19.37319032770544
 31
0.0
  0
LINE
  5
32B4
330
32A7
100
AcDbEntity
  8
0
100
AcDbLine
 10
-10.83544991043274
 20
-59.16455008956725
 30
0.0
 11
-10.83544991043273
 21
-19.37319032770545
 31
0.0
  0
LINE
  5
32B5
330
32A7
100
AcDbEntity
  8
0
100
AcDbLine
 10
8.507946180132885
 20
-19.37319032770544
 30
0.0
 11
10.83544991043272
 21
-19.37319032770544
 31
0.0
  0
LINE
  5
32B6
330
32A7
100
AcDbEntity
  8
0
100
AcDbLine
 10
10.83544991043271
 20
-19.37319032770544
 30
0.0
 11
10.83544991043273
 21
-59.16455008956725
 31
0.0
  0
SPLINE
  5
32B7
330
32A7
100
AcDbEntity
  8
0
100
AcDbSpline
210
0.0
220
0.0
230
1.0
 70
     8
 71
     3
 72
    10
 73
     6
 74
     0
 42
0.000000001
 43
0.0000000001
 40
-0.1284948380573038
 40
-0.1284948380573038
 40
-0.1284948380573038
 40
-0.1284948380573038
 40
-0.1054590100335353
 40
-0.1054590100335353
 40
0.0
 40
0.0
 40
0.0
 40
0.0
 10
9.39861564160908
 20
-2.410057901904228
 30
0.0
 10
9.333570295569913
 20
-2.450516677137918
 30
0.0
 10
9.270187990101952
 20
-2.493762297473704
 30
0.0
 10
8.926946011970924
 20
-2.750014977781034
 30
0.0
 10
8.688863771014933
 20
-3.013135936038799
 30
0.0
 10
8.507946180132876
 20
-3.314536317132384
 30
0.0
  0
SPLINE
  5
32B8
330
32A7
100
AcDbEntity
  8
0
100
AcDbSpline
210
0.0
220
0.0
230
1.0
 70
     8
 71
     3
 72
    10
 73
     6
 74
     0
 42
0.000000001
 43
0.0000000001
 40
-0.2802127595624377
 40
-0.2802127595624377
 40
-0.2802127595624377
 40
-0.2802127595624377
 40
-0.1933598217658854
 40
-0.1933598217658854
 40
-0.1518074338880952
 40
-0.1518074338880952
 40
-0.1518074338880952
 40
-0.1518074338880952
 10
-8.507946180132901
 20
-3.314536317132387
 30
0.0
 10
-8.656928214478087
 20
-3.066339103645228
 30
0.0
 10
-8.844885835000455
 20
-2.843751751898381
 30
0.0
 10
-9.169596108139575
 20
-2.56493893009503
 30
0.0
 10
-9.281272719594372
 20
-2.483054334996279
 30
0.0
 10
-9.398503517617593
 20
-2.410127816698119
 30
0.0
  0
SPLINE
  5
32B9
330
32A7
100
AcDbEntity
  8
0
100
AcDbSpline
210
0.0
220
0.0
230
1.0
 70
     8
 71
     3
 72
    14
 73
    10
 74
     0
 42
0.000000001
 43
0.0000000001
 40
0.0
 40
0.0
 40
0.0
 40
0.0
 40
0.2685187429867097
 40
0.2685187429867097
 40
0.535836120828124
 40
0.535836120828124
 40
1.061409338851747
 40
1.061409338851747
 40
1.212155111563129
 40
1.212155111563129
 40
1.212155111563129
 40
1.212155111563129
 10
10.83544991043271
 20
-1.999999999999997
 30
0.0
 10
10.61178076817368
 20
-2.009556845246795
 30
0.0
 10
10.37418886323765
 20
-2.064028052173315
 30
0.0
 10
9.963809154781937
 20
-2.184791016515225
 30
0.0
 10
9.795859655032533
 20
-2.247939419972198
 30
0.0
 10
9.406701972033582
 20
-2.401192585034541
 30
0.0
 10
9.287682650865365
 20
-2.459338192723295
 30
0.0
 10
9.235890958832811
 20
-2.483635206143254
 30
0.0
 10
9.230799169300839
 20
-2.486094555372583
 30
0.0
 10
9.230799169306397
 20
-2.48609455536991
 30
0.0
  0
SPLINE
  5
32BA
330
32A7
100
AcDbEntity
  8
0
100
AcDbSpline
210
0.0
220
0.0
230
1.0
 70
     8
 71
     3
 72
     8
 73
     4
 74
     0
 42
0.000000001
 43
0.0000000001
 40
0.0
 40
0.0
 40
0.0
 40
0.0
 40
0.153431544868692
 40
0.153431544868692
 40
0.153431544868692
 40
0.153431544868692
 10
7.756742459764954
 20
-3.096044257927755
 30
0.0
 10
7.744699210220916
 20
-3.086154991998068
 30
0.0
 10
7.733281733819922
 20
-3.07544978434979
 30
0.0
 10
7.722644469885077
 20
-3.063129234035685
 30
0.0
  0
SPLINE
  5
32BB
330
32A7
100
AcDbEntity
  8
0
100
AcDbSpline
210
0.0
220
0.0
230
1.0
 70
     8
 71
     3
 72
    14
 73
    10
 74
     0
 42
0.000000001
 43
0.0000000001
 40
0.8813954406205809
 40
0.8813954406205809
 40
0.8813954406205809
 40
0.8813954406205809
 40
1.031994627627601
 40
1.031994627627601
 40
1.557586753077323
 40
1.557586753077323
 40
1.824900659177184
 40
1.824900659177184
 40
2.093383725074724
 40
2.093383725074724
 40
2.093383725074724
 40
2.093383725074724
 10
-9.230449266001022
 20
-2.486248957052778
 30
0.0
 10
-9.230449265995622
 20
-2.486248957055375
 30
0.0
 10
-9.235537895156301
 20
-2.483791645553777
 30
0.0
 10
-9.287348738207892
 20
-2.459490910549715
 30
0.0
 10
-9.407435195069133
 20
-2.400881638298175
 30
0.0
 10
-9.798024421540004
 20
-2.247171970595521
 30
0.0
 10
-9.966290573029382
 20
-2.183987407073606
 30
0.0
 10
-10.37610212838685
 20
-2.06358669536065
 30
0.0
 10
-10.61252508506242
 20
-2.00952505202326
 30
0.0
 10
-10.83544991043274
 20
-2.000000000000002
 30
0.0
  0
SPLINE
  5
32BC
330
32A7
100
AcDbEntity
  8
0
100
AcDbSpline
210
0.0
220
0.0
230
1.0
 70
     8
 71
     3
 72
     8
 73
     4
 74
     0
 42
0.000000001
 43
0.0000000001
 40
0.0
 40
0.0
 40
0.0
 40
0.0
 40
0.1533333386401533
 40
0.1533333386401533
 40
0.1533333386401533
 40
0.1533333386401533
 10
-7.722653012220353
 20
-3.063139127582425
 30
0.0
 10
-7.733282497263918
 20
-3.075449263609545
 30
0.0
 10
-7.744692106681347
 20
-3.086148105710817
 30
0.0
 10
-7.756728909508392
 20
-3.096033130596569
 30
0.0
  0
CIRCLE
  5
32BD
330
32A7
100
AcDbEntity
  8
0
100
AcDbCircle
 10
21.61733355628555
 20
-77.49999999999999
 30
0.0
 40
2.5
  0
CIRCLE
  5
32BE
330
32A7
100
AcDbEntity
  8
0
100
AcDbCircle
 10
29.50000000000001
 20
-95.0
 30
0.0
 40
2.5
  0
CIRCLE
  5
32BF
330
32A7
100
AcDbEntity
  8
0
100
AcDbCircle
 10
28.78933374738745
 20
-62.5
 30
0.0
 40
2.5
  0
CIRCLE
  5
32C0
330
32A7
100
AcDbEntity
  8
0
100
AcDbCircle
 10
28.13333412959126
 20
-32.50000000000001
 30
0.0
 40
2.5
  0
CIRCLE
  5
32C1
330
32A7
100
AcDbEntity
  8
0
100
AcDbCircle
 10
20.30533432069316
 20
-17.50000000000001
 30
0.0
 40
2.5
  0
CIRCLE
  5
32C2
330
32A7
100
AcDbEntity
  8
0
100
AcDbCircle
 10
35.30533432069316
 20
-17.49999999999997
 30
0.0
 40
2.5
  0
CIRCLE
  5
32C3
330
32A7
100
AcDbEntity
  8
0
100
AcDbCircle
 10
20.96133393848935
 20
-47.5
 30
0.0
 40
2.5
  0
CIRCLE
  5
32C4
330
32A7
100
AcDbEntity
  8
0
100
AcDbCircle
 10
-21.61733355628555
 20
-77.50000000000001
 30
0.0
 40
2.5
  0
CIRCLE
  5
32C5
330
32A7
100
AcDbEntity
  8
0
100
AcDbCircle
 10
-20.96133393848937
 20
-47.50000000000001
 30
0.0
 40
2.5
  0
CIRCLE
  5
32C6
330
32A7
100
AcDbEntity
  8
0
100
AcDbCircle
 10
-35.30533432069319
 20
-17.49999999999999
 30
0.0
 40
2.5
  0
CIRCLE
  5
32C7
330
32A7
100
AcDbEntity
  8
0
100
AcDbCircle
 10
-20.30533432069319
 20
-17.50000000000002
 30
0.0
 40
2.5
  0
CIRCLE
  5
32C8
330
32A7
100
AcDbEntity
  8
0
100
AcDbCircle
 10
-28.13333412959128
 20
-32.50000000000002
 30
0.0
 40
2.5
  0
CIRCLE
  5
32C9
330
32A7
100
AcDbEntity
  8
0
100
AcDbCircle
 10
-28.78933374738747
 20
-62.50000000000001
 30
0.0
 40
2.5
  0
CIRCLE
  5
32CA
330
32A7
100
AcDbEntity
  8
0
100
AcDbCircle
 10
-29.5
 20
-95.0
 30
0.0
 40
2.5
  0
LINE
  5
32CB
330
32A7
100
AcDbEntity
  8
0
100
AcDbLine
 10
-43.07573445446451
 20
-7.000000000000003
 30
0.0
 11
-45.0
 21
-95.00000000000001
 31
0.0
  0
ARC
  5
32CC
330
32A7
100
AcDbEntity
  8
0
100
AcDbCircle
 10
-1968.158427085439
 20
-94.99999999999756
 30
0.0
 40
2013.158427085439
100
AcDbArc
 50
0.0
 51
2.505334705970163
  0
SPLINE
  5
32CD
330
32A7
100
AcDbEntity
  8
0
100
AcDbSpline
210
0.0
220
0.0
230
1.0
 70
     8
 71
     3
 72
    11
 73
     7
 74
     0
 42
0.000000001
 43
0.0000000001
 40
-1.0
 40
-1.0
 40
-1.0
 40
-1.0
 40
-0.9394681376702754
 40
-0.9394681376702754
 40
-0.9394681376702754
 40
0.0
 40
0.0
 40
0.0
 40
0.0
 10
-43.07573445446479
 20
-2.000000000000008
 30
0.0
 10
-43.07165996583061
 20
-1.999999999987975
 30
0.0
 10
-43.06783207442728
 20
-2.007537302189345
 30
0.0
 10
-43.06425079366293
 20
-2.022579088609395
 30
0.0
 10
-43.00866850954584
 20
-2.25603100188943
 30
0.0
 10
-43.01249747311931
 20
-4.540870061711588
 30
0.0
 10
-43.07573445446451
 20
-7.0
 30
0.0
  0
LINE
  5
32CE
330
32A7
100
AcDbEntity
  8
0
100
AcDbLine
 10
44.99999999999999
 20
-1.99999999999999
 30
0.0
 11
44.99999999999999
 21
0.0
 31
0.0
  0
SPLINE
  5
32CF
330
32A7
100
AcDbEntity
  8
0
100
AcDbSpline
210
0.0
220
0.0
230
1.0
 70
     8
 71
     3
 72
    11
 73
     7
 74
     0
 42
0.000000001
 43
0.0000000001
 40
-1.0
 40
-1.0
 40
-1.0
 40
-1.0
 40
-0.9376145186213978
 40
-0.9376145186213978
 40
-0.9376145186213978
 40
0.0
 40
0.0
 40
0.0
 40
0.0
 10
43.07573445446468
 20
-6.999999999999939
 30
0.0
 10
43.06733593755082
 20
-6.836779296890318
 30
0.0
 10
43.05946103348698
 20
-6.673539276899393
 30
0.0
 10
43.05210985947319
 20
-6.511064473955575
 30
0.0
 10
42.94162634100181
 20
-4.069170450155893
 30
0.0
 10
42.94951003141983
 20
-1.999999999813912
 30
0.0
 10
43.07573445446471
 20
-1.99999999999999
 30
0.0
  0
LINE
  5
32D0
330
32A7
100
AcDbEntity
  8
0
100
AcDbLine
 10
-45.00000000000001
 20
0.0
 30
0.0
 11
-45.00000000000001
 21
-2.00000000000001
 31
0.0
  0
LINE
  5
32D1
330
32A7
100
AcDbEntity
  8
0
100
AcDbLine
 10
-35.0
 20
-105.0
 30
0.0
 11
-45.0
 21
-95.00000000000001
 31
0.0
  0
LINE
  5
32D2
330
32A7
100
AcDbEntity
  8
0
100
AcDbLine
 10
45.0
 20
-94.99999999999998
 30
0.0
 11
35.00000000000001
 21
-105.0
 31
0.0
  0
LINE
  5
32D3
330
32A7
100
AcDbEntity
  8
0
100
AcDbLine
 10
-35.00000000000002
 20
0.0
 30
0.0
 11
-45.00000000000001
 21
0.0
 31
0.0
  0
LINE
  5
32D4
330
32A7
100
AcDbEntity
  8
0
100
AcDbLine
 10
44.99999999999999
 20
0.0
 30
0.0
 11
34.99999999999999
 21
0.0
 31
0.0
  0
LINE
  5
32D5
330
32A7
100
AcDbEntity
  8
0
100
AcDbLine
 10
34.99999999999999
 20
-1.999999999999992
 30
0.0
 11
44.99999999999999
 21
-1.99999999999999
 31
0.0
  0
LINE
  5
32D6
330
32A7
100
AcDbEntity
  8
0
100
AcDbLine
 10
-45.00000000000001
 20
-2.00000000000001
 30
0.0
 11
-35.00000000000002
 21
-2.000000000000007
 31
0.0
  0
LINE
  5
32D7
330
32A7
100
AcDbEntity
  8
0
100
AcDbLine
 10
34.99999999999999
 20
0.0
 30
0.0
 11
34.99999999999999
 21
-1.999999999999992
 31
0.0
  0
LINE
  5
32D8
330
32A7
100
AcDbEntity
  8
0
100
AcDbLine
 10
-35.00000000000002
 20
-2.000000000000007
 30
0.0
 11
-35.00000000000002
 21
0.0
 31
0.0
  0
LINE
  5
32D9
330
32A7
100
AcDbEntity
  8
0
100
AcDbLine
 10
-35.0
 20
-105.0
 30
0.0
 11
35.00000000000001
 21
-105.0
 31
0.0
  0
LINE
  5
32DA
330
32A7
100
AcDbEntity
  8
0
100
AcDbLine
 10
34.99999999999999
 20
0.0
 30
0.0
 11
-35.00000000000002
 21
0.0
 31
0.0
  0
LINE
  5
32DB
330
32A7
100
AcDbEntity
  8
0
100
AcDbLine
 10
-35.00000000000002
 20
-2.000000000000007
 30
0.0
 11
34.99999999999999
 21
-1.999999999999992
 31
0.0
  0
LINE
  5
32DC
330
32A7
100
AcDbEntity
  8
0
100
AcDbLine
 10
-2.066459546557799
 20
-4.028502115056979
 30
0.0
 11
2.06645954655777
 21
-4.028502115056978
 31
0.0
  0
ARC
  5
32DD
330
32A7
100
AcDbEntity
  8
0
100
AcDbCircle
 10
10.83544991043271
 20
-11.0
 30
0.0
 40
9.0
100
AcDbArc
 50
90.0
 51
104.9696554913398
  0
ARC
  5
32DE
330
32A7
100
AcDbEntity
  8
0
100
AcDbCircle
 10
-10.83544991043275
 20
-11.0
 30
0.0
 40
9.000000000000001
100
AcDbArc
 50
75.03034450866015
 51
89.99999999999992
  0
LINE
  5
32DF
330
32A7
100
AcDbEntity
  8
0
100
AcDbLine
 10
8.510682920555202
 20
-2.305435120560895
 30
0.0
 11
2.06645954655777
 21
-4.028502115056978
 31
0.0
  0
LINE
  5
32E0
330
32A7
100
AcDbEntity
  8
0
100
AcDbLine
 10
-2.0664595465578
 20
-4.028502115056979
 30
0.0
 11
-8.510682920555234
 21
-2.305435120560904
 31
0.0
  0
ENDBLK
  5
32A9
330
32A7
100
AcDbEntity
  8
0
100
AcDbBlockEnd
  0
BLOCK
  5
32E2
330
32E1
100
AcDbEntity
  8
0
100
AcDbBlockBegin
  2
ACRL10520-Bottom
 70
     0
 10
0.0
 20
0.0
 30
0.0
  3
ACRL10520-Bottom
  1

  0
LINE
  5
32E4
330
32E1
100
AcDbEntity
  8
0
100
AcDbLine
 10
-9.999999999999985
 20
90.5
 30
0.0
 11
10.00000000000001
 21
90.5
 31
0.0
  0
ARC
  5
32E5
330
32E1
100
AcDbEntity
  8
0
100
AcDbCircle
 10
10.00000000000001
 20
85.0
 30
0.0
 40
5.499999999999991
100
AcDbArc
 50
270.0
 51
90.0
  0
LINE
  5
32E6
330
32E1
100
AcDbEntity
  8
0
100
AcDbLine
 10
10.00000000000001
 20
79.5
 30
0.0
 11
-9.999999999999989
 21
79.5
 31
0.0
  0
ARC
  5
32E7
330
32E1
100
AcDbEntity
  8
0
100
AcDbCircle
 10
-9.999999999999987
 20
85.0
 30
0.0
 40
5.499999999999989
100
AcDbArc
 50
89.99999999999998
 51
270.0
  0
LINE
  5
32E8
330
32E1
100
AcDbEntity
  8
0
100
AcDbLine
 10
10.83544991043273
 20
59.16455008956725
 30
0.0
 11
7.994068033915768
 21
59.16455008956725
 31
0.0
  0
LINE
  5
32E9
330
32E1
100
AcDbEntity
  8
0
100
AcDbLine
 10
-7.994068033915771
 20
59.16455008956725
 30
0.0
 11
-10.83544991043274
 21
59.16455008956725
 31
0.0
  0
ARC
  5
32EA
330
32E1
100
AcDbEntity
  8
0
100
AcDbCircle
 10
10.83544991043271
 20
11.0
 30
0.0
 40
11.0
100
AcDbArc
 50
255.0303445086602
 51
269.9999999999999
  0
ARC
  5
32EB
330
32E1
100
AcDbEntity
  8
0
100
AcDbCircle
 10
-10.83544991043275
 20
11.0
 30
0.0
 40
11.0
100
AcDbArc
 50
270.0000000000001
 51
284.9696554913398
  0
LINE
  5
32EC
330
32E1
100
AcDbEntity
  8
0
100
AcDbLine
 10
10.83544991043272
 20
0.0
 30
0.0
 11
-10.83544991043275
 21
0.0
 31
0.0
  0
SPLINE
  5
32ED
330
32E1
100
AcDbEntity
  8
0
100
AcDbSpline
210
0.0
220
0.0
230
1.0
 70
     8
 71
     3
 72
    48
 73
    44
 74
     0
 42
0.000000001
 43
0.0000000001
 40
-0.1058907528673962
 40
-0.1058907528673962
 40
-0.1058907528673962
 40
-0.1058907528673962
 40
-0.1057440938164478
 40
-0.1057440938164478
 40
-0.1016228988554535
 40
-0.1016228988554535
 40
-0.0869170472991544
 40
-0.0869170472991544
 40
-0.0795688150812805
 40
-0.0795688150812805
 40
-0.0751839653888985
 40
-0.0751839653888985
 40
-0.0708978168622031
 40
-0.0708978168622031
 40
-0.0672968058567065
 40
-0.0672968058567065
 40
-0.0634568749452546
 40
-0.0634568749452546
 40
-0.0608603305042864
 40
-0.0608603305042864
 40
-0.0585531563039454
 40
-0.0585531563039454
 40
-0.055999375773034
 40
-0.055999375773034
 40
-0.052620449110391
 40
-0.052620449110391
 40
-0.0486748211120318
 40
-0.0486748211120318
 40
-0.0448082276653126
 40
-0.0448082276653126
 40
-0.0402955038597209
 40
-0.0402955038597209
 40
-0.0321810155317152
 40
-0.0321810155317152
 40
-0.0288003806863278
 40
-0.0288003806863278
 40
-0.0237690026565699
 40
-0.0237690026565699
 40
-0.0209972319851305
 40
-0.0209972319851305
 40
-0.0187225600186931
 40
-0.0187225600186931
 40
-0.0182099443439507
 40
-0.0182099443439507
 40
-0.0182099443439507
 40
-0.0182099443439507
 10
1.572814687953886
 20
59.16455008956725
 30
0.0
 10
1.572964074798235
 20
59.16479869157583
 30
0.0
 10
1.573111911969168
 20
59.16504858833492
 30
0.0
 10
1.577368475884137
 20
59.17235852172812
 30
0.0
 10
1.579998967018753
 20
59.1800134785462
 30
0.0
 10
1.585841578200252
 20
59.21728233922578
 30
0.0
 10
1.570620157383739
 20
59.23604088724771
 30
0.0
 10
1.57240467682179
 20
59.30882718894878
 30
0.0
 10
1.576806160818244
 20
59.32749938281503
 30
0.0
 10
1.574247994172868
 20
59.40069002068582
 30
0.0
 10
1.570274392794654
 20
59.4618941309352
 30
0.0
 10
1.554415259855597
 20
59.57334650081262
 30
0.0
 10
1.52934906595058
 20
59.7352889211201
 30
0.0
 10
1.351614846085403
 20
60.10258736079159
 30
0.0
 10
1.239958465912167
 20
60.25442900168575
 30
0.0
 10
0.9602186603722003
 20
60.52027778609205
 30
0.0
 10
0.7910257672488962
 20
60.62910630277141
 30
0.0
 10
0.481612840863067
 20
60.75489491793667
 30
0.0
 10
0.3508665336929838
 20
60.7897513227647
 30
0.0
 10
0.0985858740548525
 20
60.82406987763151
 30
0.0
 10
-0.0215821836813765
 20
60.82693972419161
 30
0.0
 10
-0.2730152716494743
 20
60.80493029171472
 30
0.0
 10
-0.4032008330543842
 20
60.77713035942025
 30
0.0
 10
-0.6942048621656312
 20
60.67622619982346
 30
0.0
 10
-0.84947254193785
 20
60.59202481654152
 30
0.0
 10
-1.149130430193252
 20
60.35840726782317
 30
0.0
 10
-1.284872800567692
 20
60.2022861381754
 30
0.0
 10
-1.484602926601854
 20
59.85025667282861
 30
0.0
 10
-1.526698854850785
 20
59.69613060108788
 30
0.0
 10
-1.569780995220745
 20
59.49284729760453
 30
0.0
 10
-1.571634564982945
 20
59.42408654246158
 30
0.0
 10
-1.576954443123271
 20
59.33188175054482
 30
0.0
 10
-1.572466721157485
 20
59.31782099471357
 30
0.0
 10
-1.570951023997961
 20
59.2783846448897
 30
0.0
 10
-1.571254766729674
 20
59.26875406420662
 30
0.0
 10
-1.574689668302126
 20
59.24268375152237
 30
0.0
 10
-1.578590294800082
 20
59.22933576609172
 30
0.0
 10
-1.581433268139853
 20
59.20709667873584
 30
0.0
 10
-1.581869308372803
 20
59.19850154391077
 30
0.0
 10
-1.579637486884415
 20
59.18232955767549
 30
0.0
 10
-1.577583916552517
 20
59.17538435672837
 30
0.0
 10
-1.57360767960099
 20
59.16737943667836
 30
0.0
 10
-1.57282437244667
 20
59.16594570827178
 30
0.0
 10
-1.57199139187669
 20
59.16455008956725
 30
0.0
  0
SPLINE
  5
32EE
330
32E1
100
AcDbEntity
  8
0
100
AcDbSpline
210
0.0
220
0.0
230
1.0
 70
     8
 71
     3
 72
     8
 73
     4
 74
     0
 42
0.000000001
 43
0.0000000001
 40
-0.0011157162695794
 40
-0.0011157162695794
 40
-0.0011157162695794
 40
-0.0011157162695794
 40
0.0
 40
0.0
 40
0.0
 40
0.0
 10
-1.582563185110572
 20
59.16215348162395
 30
0.0
 10
-1.579049009428979
 20
59.16300553100636
 30
0.0
 10
-1.575526123294871
 20
59.1638025760276
 30
0.0
 10
-1.571991391876639
 20
59.16455008956725
 30
0.0
  0
SPLINE
  5
32EF
330
32E1
100
AcDbEntity
  8
0
100
AcDbSpline
210
0.0
220
0.0
230
1.0
 70
     8
 71
     3
 72
     8
 73
     4
 74
     0
 42
0.000000001
 43
0.0000000001
 40
-0.0011361254348787
 40
-0.0011361254348787
 40
-0.0011361254348787
 40
-0.0011361254348787
 40
-0.0000254986133307
 40
-0.0000254986133307
 40
-0.0000254986133307
 40
-0.0000254986133307
 10
1.572814687953866
 20
59.16455008956725
 30
0.0
 10
1.57632944016447
 20
59.1637835376585
 30
0.0
 10
1.579832161123849
 20
59.16296770999346
 30
0.0
 10
1.583325823957506
 20
59.16209725184248
 30
0.0
  0
SPLINE
  5
32F0
330
32E1
100
AcDbEntity
  8
0
100
AcDbSpline
210
0.0
220
0.0
230
1.0
 70
     8
 71
     3
 72
     8
 73
     4
 74
     0
 42
0.000000001
 43
0.0000000001
 40
-0.0011395572967115
 40
-0.0011395572967115
 40
-0.0011395572967115
 40
-0.0011395572967115
 40
-0.0000239109035252
 40
-0.0000239109035252
 40
-0.0000239109035252
 40
-0.0000239109035252
 10
-1.571991391876681
 20
2.09045495684902
 30
0.0
 10
-1.575526123297096
 20
2.089572765435531
 30
0.0
 10
-1.579049009430045
 20
2.088697893189658
 30
0.0
 10
-1.582563185110578
 20
2.087829956013163
 30
0.0
  0
SPLINE
  5
32F1
330
32E1
100
AcDbEntity
  8
0
100
AcDbSpline
210
0.0
220
0.0
230
1.0
 70
     8
 71
     3
 72
    48
 73
    44
 74
     0
 42
0.000000001
 43
0.0000000001
 40
0.0178598573014067
 40
0.0178598573014067
 40
0.0178598573014067
 40
0.0178598573014067
 40
0.0184368786369859
 40
0.0184368786369859
 40
0.0206701185334789
 40
0.0206701185334789
 40
0.0233908309768963
 40
0.0233908309768963
 40
0.0283255672206557
 40
0.0283255672206557
 40
0.0356782765428638
 40
0.0356782765428638
 40
0.0399741239823479
 40
0.0399741239823479
 40
0.0525449943957763
 40
0.0525449943957763
 40
0.0796874342347023
 40
0.0796874342347023
 40
0.1159638291006678
 40
0.1159638291006678
 40
0.1470717638619497
 40
0.1470717638619497
 40
0.1698491951358777
 40
0.1698491951358777
 40
0.1910471560808337
 40
0.1910471560808337
 40
0.2152779423344699
 40
0.2152779423344699
 40
0.2482814140447336
 40
0.2482814140447336
 40
0.2808069912196072
 40
0.2808069912196072
 40
0.3135070222685328
 40
0.3135070222685328
 40
0.3431152339916912
 40
0.3431152339916912
 40
0.4127021273285985
 40
0.4127021273285985
 40
0.5550624227349369
 40
0.5550624227349369
 40
0.5913083771706643
 40
0.5913083771706643
 40
0.6027063510366747
 40
0.6027063510366747
 40
0.6027063510366747
 40
0.6027063510366747
 10
1.572814687953838
 20
2.090234822596221
 30
0.0
 10
1.573765878582793
 20
2.089980491688816
 30
0.0
 10
1.574652231890481
 20
2.089742858906023
 30
0.0
 10
1.578636185902206
 20
2.088670821731017
 30
0.0
 10
1.580615865668347
 20
2.088124980276334
 30
0.0
 10
1.582697588902985
 20
2.087499065370374
 30
0.0
 10
1.582196738090824
 20
2.087575997291343
 30
0.0
 10
1.579207516378936
 20
2.088185997665118
 30
0.0
 10
1.575247940524223
 20
2.089086711439237
 30
0.0
 10
1.570086476505827
 20
2.089862750901132
 30
0.0
 10
1.572567583283245
 20
2.088843039786514
 30
0.0
 10
1.57535809692769
 20
2.087062938973538
 30
0.0
 10
1.576051542339561
 20
2.086447869459661
 30
0.0
 10
1.572305915066274
 20
2.084058617129509
 30
0.0
 10
1.564294719199703
 20
2.082395923864828
 30
0.0
 10
1.519896022453514
 20
2.078417624924264
 30
0.0
 10
1.466038665710062
 20
2.076427213049854
 30
0.0
 10
1.290814927267987
 20
2.072720736019796
 30
0.0
 10
1.155358616713395
 20
2.071270913317032
 30
0.0
 10
0.8553983330892005
 20
2.069228772038044
 30
0.0
 10
0.699623519945837
 20
2.068565796133884
 30
0.0
 10
0.4111651351612903
 20
2.067791301087529
 30
0.0
 10
0.2845304948126488
 20
2.0675846114688
 30
0.0
 10
0.0361779206782716
 20
2.067404813703447
 30
0.0
 10
-0.0845037488653034
 20
2.067414583436192
 30
0.0
 10
-0.340238625956339
 20
2.067639081924166
 30
0.0
 10
-0.4738854908920574
 20
2.067881679501319
 30
0.0
 10
-0.7751180904788001
 20
2.068777292546398
 30
0.0
 10
-0.9354646197068156
 20
2.069535890921996
 30
0.0
 10
-1.211453134385604
 20
2.071782715631079
 30
0.0
 10
-1.325986166167275
 20
2.073231664293308
 30
0.0
 10
-1.497072339596285
 20
2.077350139687697
 30
0.0
 10
-1.534749460433425
 20
2.079727268645636
 30
0.0
 10
-1.570615871768144
 20
2.083401671946797
 30
0.0
 10
-1.572366360659133
 20
2.085212405175095
 30
0.0
 10
-1.576718327269864
 20
2.087030454644807
 30
0.0
 10
-1.572638558688015
 20
2.088331855019402
 30
0.0
 10
-1.569060097398129
 20
2.091051660968137
 30
0.0
 10
-1.582652678548039
 20
2.087364540577673
 30
0.0
 10
-1.580940346298368
 20
2.088014186056164
 30
0.0
 10
-1.579613128159552
 20
2.088400411610712
 30
0.0
 10
-1.57480241924477
 20
2.089701759672307
 30
0.0
 10
-1.573478306674779
 20
2.090057383136326
 30
0.0
 10
-1.571991391876684
 20
2.090454956849018
 30
0.0
  0
SPLINE
  5
32F2
330
32E1
100
AcDbEntity
  8
0
100
AcDbSpline
210
0.0
220
0.0
230
1.0
 70
     8
 71
     3
 72
     8
 73
     4
 74
     0
 42
0.000000001
 43
0.0000000001
 40
-0.0011106948218138
 40
-0.0011106948218138
 40
-0.0011106948218138
 40
-0.0011106948218138
 40
0.0
 40
0.0
 40
0.0
 40
0.0
 10
1.583325823957511
 20
2.087630767654439
 30
0.0
 10
1.579832161122934
 20
2.088491673025641
 30
0.0
 10
1.576329440162614
 20
2.089359574411488
 30
0.0
 10
1.572814687953829
 20
2.090234822596223
 30
0.0
  0
LINE
  5
32F3
330
32E1
100
AcDbEntity
  8
0
100
AcDbLine
 10
1.572814687953886
 20
59.16455008956725
 30
0.0
 11
7.994068033915768
 21
59.16455008956725
 31
0.0
  0
LINE
  5
32F4
330
32E1
100
AcDbEntity
  8
0
100
AcDbLine
 10
-7.994068033915771
 20
59.16455008956725
 30
0.0
 11
-1.57199139187669
 21
59.16455008956725
 31
0.0
  0
LINE
  5
32F5
330
32E1
100
AcDbEntity
  8
0
100
AcDbLine
 10
-7.994068033915784
 20
0.3733095917966551
 30
0.0
 11
-1.571991391876684
 21
2.090454956849018
 31
0.0
  0
LINE
  5
32F6
330
32E1
100
AcDbEntity
  8
0
100
AcDbLine
 10
1.572814687953838
 20
2.090234822596221
 30
0.0
 11
7.994068033915755
 21
0.3733095917966528
 31
0.0
  0
SPLINE
  5
32F7
330
32E1
100
AcDbEntity
  8
0
100
AcDbSpline
210
0.0
220
0.0
230
1.0
 70
     8
 71
     3
 72
     8
 73
     4
 74
     0
 42
0.000000001
 43
0.0000000001
 40
0.0
 40
0.0
 40
0.0
 40
0.0
 40
0.0023280932060188
 40
0.0023280932060188
 40
0.0023280932060188
 40
0.0023280932060188
 10
-1.582712408649403
 20
59.13889750308694
 30
0.0
 10
-1.582577110091018
 20
59.14663219898461
 30
0.0
 10
-1.582518681585503
 20
59.15441772829463
 30
0.0
 10
-1.582563185110572
 20
59.16215348162396
 30
0.0
  0
LINE
  5
32F8
330
32E1
100
AcDbEntity
  8
0
100
AcDbLine
 10
-1.582712408649214
 20
59.13889750308682
 30
0.0
 11
-1.582315025356956
 21
59.13887643028147
 31
0.0
  0
SPLINE
  5
32F9
330
32E1
100
AcDbEntity
  8
0
100
AcDbSpline
210
0.0
220
0.0
230
1.0
 70
     8
 71
     3
 72
     8
 73
     4
 74
     0
 42
0.000000001
 43
0.0000000001
 40
-3.141592653589793
 40
-3.141592653589793
 40
-3.141592653589793
 40
-3.141592653589793
 40
-3.133736151632894
 40
-3.133736151632894
 40
-3.133736151632894
 40
-3.133736151632894
 10
-1.582315025357149
 20
59.13887643028161
 30
0.0
 10
-1.582307729077495
 20
59.14707290688316
 30
0.0
 10
-1.582390169452101
 20
59.15471728750759
 30
0.0
 10
-1.582563185110572
 20
59.16215348162395
 30
0.0
  0
SPLINE
  5
32FA
330
32E1
100
AcDbEntity
  8
0
100
AcDbSpline
210
0.0
220
0.0
230
1.0
 70
     8
 71
     3
 72
     8
 73
     4
 74
     0
 42
0.000000001
 43
0.0000000001
 40
0.0
 40
0.0
 40
0.0
 40
0.0
 40
0.0024736285973503
 40
0.0024736285973503
 40
0.0024736285973503
 40
0.0024736285973503
 10
1.583325823957506
 20
59.16209725184248
 30
0.0
 10
1.583181119234621
 20
59.15388546061885
 30
0.0
 10
1.583149859081607
 20
59.14561622101437
 30
0.0
 10
1.583205768428838
 20
59.1374021921214
 30
0.0
  0
SPLINE
  5
32FB
330
32E1
100
AcDbEntity
  8
0
100
AcDbSpline
210
0.0
220
0.0
230
1.0
 70
     8
 71
     3
 72
     8
 73
     4
 74
     0
 42
0.000000001
 43
0.0000000001
 40
-0.0080939008864807
 40
-0.0080939008864807
 40
-0.0080939008864807
 40
-0.0080939008864807
 40
0.0
 40
0.0
 40
0.0
 40
0.0
 10
1.583325823957506
 20
59.16209725184248
 30
0.0
 10
1.583053655149899
 20
59.15433858496254
 30
0.0
 10
1.582870197291714
 20
59.14610270396384
 30
0.0
 10
1.582786089204784
 20
59.13737861567139
 30
0.0
  0
LINE
  5
32FC
330
32E1
100
AcDbEntity
  8
0
100
AcDbLine
 10
1.5832057684293
 20
59.13740219212115
 30
0.0
 11
1.582786089205245
 21
59.13737861567114
 31
0.0
  0
SPLINE
  5
32FD
330
32E1
100
AcDbEntity
  8
0
100
AcDbSpline
210
0.0
220
0.0
230
1.0
 70
     8
 71
     3
 72
    26
 73
    22
 74
     0
 42
0.000000001
 43
0.0000000001
 40
-3.141592653589793
 40
-3.141592653589793
 40
-3.141592653589793
 40
-3.141592653589793
 40
-3.108933931563151
 40
-3.108933931563151
 40
-3.108933931563151
 40
-3.050210873679179
 40
-3.050210873679179
 40
-3.050210873679179
 40
-2.834631987421357
 40
-2.834631987421357
 40
-2.834631987421357
 40
-2.726842544292446
 40
-2.726842544292446
 40
-2.726842544292446
 40
-2.67294782272799
 40
-2.67294782272799
 40
-2.67294782272799
 40
-2.646000461945763
 40
-2.646000461945763
 40
-2.646000461945763
 40
-2.619053101163535
 40
-2.619053101163535
 40
-2.619053101163535
 40
-2.619053101163535
 10
1.582786089205024
 20
59.13737861567124
 30
0.0
 10
1.434660759655528
 20
59.13554204372665
 30
0.0
 10
1.412044466874271
 20
59.12188931397452
 30
0.0
 10
1.361759787690148
 20
59.11266306176766
 30
0.0
 10
1.271343814768812
 20
59.09607350440674
 30
0.0
 10
1.130903975044386
 20
59.08687510081438
 30
0.0
 10
1.014782137586775
 20
59.08029164494011
 30
0.0
 10
0.5884859382508074
 20
59.05612304513889
 30
0.0
 10
0.1567260694559376
 20
59.05575437923703
 30
0.0
 10
-0.2741817573112406
 20
59.06029285140316
 30
0.0
 10
-0.4896356706948303
 20
59.06256208748622
 30
0.0
 10
-0.7045753599004768
 20
59.0661463045111
 30
0.0
 10
-0.9175890707366276
 20
59.07560669565949
 30
0.0
 10
-1.024095926154702
 20
59.0803368912337
 30
0.0
 10
-1.123207413828691
 20
59.08609659011262
 30
0.0
 10
-1.241381035754041
 20
59.09655680613682
 30
0.0
 10
-1.300467846716716
 20
59.10178691414892
 30
0.0
 10
-1.347422540113778
 20
59.10888462154412
 30
0.0
 10
-1.387468073986534
 20
59.11766521500748
 30
0.0
 10
-1.42751360785929
 20
59.12644580847082
 30
0.0
 10
-1.460882388442462
 20
59.13837616643861
 30
0.0
 10
-1.58231502535677
 20
59.13887643028148
 30
0.0
  0
LINE
  5
32FE
330
32E1
100
AcDbEntity
  8
0
100
AcDbLine
 10
1.315216529690114
 20
59.10511513932904
 30
0.0
 11
1.314203050877543
 21
59.10497325946324
 31
0.0
  0
LINE
  5
32FF
330
32E1
100
AcDbEntity
  8
0
100
AcDbLine
 10
-6.786355937676837
 20
19.37319032770544
 30
0.0
 11
-10.83544991043274
 21
19.37319032770545
 31
0.0
  0
LINE
  5
3300
330
32E1
100
AcDbEntity
  8
0
100
AcDbLine
 10
-10.83544991043273
 20
19.37319032770545
 30
0.0
 11
-10.83544991043274
 21
59.16455008956725
 31
0.0
  0
LINE
  5
3301
330
32E1
100
AcDbEntity
  8
0
100
AcDbLine
 10
10.83544991043272
 20
19.37319032770544
 30
0.0
 11
6.786355937676821
 21
19.37319032770545
 31
0.0
  0
LINE
  5
3302
330
32E1
100
AcDbEntity
  8
0
100
AcDbLine
 10
10.83544991043273
 20
59.16455008956725
 30
0.0
 11
10.83544991043271
 21
19.37319032770545
 31
0.0
  0
SPLINE
  5
3303
330
32E1
100
AcDbEntity
  8
0
100
AcDbSpline
210
0.0
220
0.0
230
1.0
 70
     8
 71
     3
 72
    12
 73
     8
 74
     0
 42
0.000000001
 43
0.0000000001
 40
-0.4874005594701098
 40
-0.4874005594701098
 40
-0.4874005594701098
 40
-0.4874005594701098
 40
-0.3363686942698709
 40
-0.3363686942698709
 40
-0.1850959279601238
 40
-0.1850959279601238
 40
0.0
 40
0.0
 40
0.0
 40
0.0
 10
6.786355937676809
 20
2.285598379536982
 30
0.0
 10
7.045636044971333
 20
1.854127068012478
 30
0.0
 10
7.372599344543491
 20
1.467175483595175
 30
0.0
 10
8.137202522500452
 20
0.8109355418880365
 30
0.0
 10
8.570050049680629
 20
0.5460944595533515
 30
0.0
 10
9.60726344888107
 20
0.1203617809931641
 30
0.0
 10
10.21846348389897
 20
-0.0000000000000031
 30
0.0
 10
10.83544991043272
 20
-0.000000000000003
 30
0.0
  0
SPLINE
  5
3304
330
32E1
100
AcDbEntity
  8
0
100
AcDbSpline
210
0.0
220
0.0
230
1.0
 70
     8
 71
     3
 72
    12
 73
     8
 74
     0
 42
0.000000001
 43
0.0000000001
 40
-0.4873404689981016
 40
-0.4873404689981016
 40
-0.4873404689981016
 40
-0.4873404689981016
 40
-0.3353036539623557
 40
-0.3353036539623557
 40
-0.1835682323213504
 40
-0.1835682323213504
 40
0.0
 40
0.0
 40
0.0
 40
0.0
 10
-10.83544991043274
 20
0.0000000000000019
 30
0.0
 10
-10.32859780809281
 20
0.0000000000000017
 30
0.0
 10
-9.824945085606479
 20
0.0812269021173581
 30
0.0
 10
-8.863732742154313
 20
0.399963094178263
 30
0.0
 10
-8.412212256693695
 20
0.6351321212709273
 30
0.0
 10
-7.516162423805539
 20
1.303317192407081
 30
0.0
 10
-7.101527911020188
 20
1.761116705592954
 30
0.0
 10
-6.786355937676837
 20
2.285598379536991
 30
0.0
  0
SPLINE
  5
3305
330
32E1
100
AcDbEntity
  8
0
100
AcDbSpline
210
0.0
220
0.0
230
1.0
 70
     8
 71
     3
 72
     8
 73
     4
 74
     0
 42
0.000000001
 43
0.0000000001
 40
0.0
 40
0.0
 40
0.0
 40
0.0
 40
1.06458857360778
 40
1.06458857360778
 40
1.06458857360778
 40
1.06458857360778
 10
8.611876353982886
 20
0.5540917497393377
 30
0.0
 10
8.381516569273815
 20
0.6766066667447179
 30
0.0
 10
8.180700997317062
 20
0.7790967537928797
 30
0.0
 10
8.180701007646105
 20
0.7790967487269106
 30
0.0
  0
SPLINE
  5
3306
330
32E1
100
AcDbEntity
  8
0
100
AcDbSpline
210
0.0
220
0.0
230
1.0
 70
     8
 71
     3
 72
     8
 73
     4
 74
     0
 42
0.000000001
 43
0.0000000001
 40
1.290523875360936
 40
1.290523875360936
 40
1.290523875360936
 40
1.290523875360936
 40
2.355178996265796
 40
2.355178996265796
 40
2.355178996265796
 40
2.355178996265796
 10
-8.18042750255589
 20
0.7793053035307845
 30
0.0
 10
-8.180427492796068
 20
0.7793053083191786
 30
0.0
 10
-8.381185380349229
 20
0.6768096021595632
 30
0.0
 10
-8.611498478339308
 20
0.5542927416901906
 30
0.0
  0
SPLINE
  5
3307
330
32E1
100
AcDbEntity
  8
0
100
AcDbSpline
210
0.0
220
0.0
230
1.0
 70
     8
 71
     3
 72
     8
 73
     4
 74
     0
 42
0.000000001
 43
0.0000000001
 40
-0.0080939008864889
 40
-0.0080939008864889
 40
-0.0080939008864889
 40
-0.0080939008864889
 40
0.0
 40
0.0
 40
0.0
 40
0.0
 10
1.583325823957511
 20
2.087630767654439
 30
0.0
 10
1.583053655149905
 20
2.087775230678275
 30
0.0
 10
1.582870197291721
 20
2.087915303673244
 30
0.0
 10
1.582786089204792
 20
2.0880584292834
 30
0.0
  0
SPLINE
  5
3308
330
32E1
100
AcDbEntity
  8
0
100
AcDbSpline
210
0.0
220
0.0
230
1.0
 70
     8
 71
     3
 72
    26
 73
    22
 74
     0
 42
0.000000001
 43
0.0000000001
 40
-3.141592653589793
 40
-3.141592653589793
 40
-3.141592653589793
 40
-3.141592653589793
 40
-3.108933931563151
 40
-3.108933931563151
 40
-3.108933931563151
 40
-3.050210873679223
 40
-3.050210873679223
 40
-3.050210873679223
 40
-2.834631987421379
 40
-2.834631987421379
 40
-2.834631987421379
 40
-2.726842544292457
 40
-2.726842544292457
 40
-2.726842544292457
 40
-2.672947822727996
 40
-2.672947822727996
 40
-2.672947822727996
 40
-2.646000461945765
 40
-2.646000461945765
 40
-2.646000461945765
 40
-2.619053101163535
 40
-2.619053101163535
 40
-2.619053101163535
 40
-2.619053101163535
 10
1.582786089205001
 20
2.088058429283349
 30
0.0
 10
1.434660759655507
 20
2.125005748680971
 30
0.0
 10
1.41204446687426
 20
2.132996555648468
 30
0.0
 10
1.361759787690137
 20
2.144893151945616
 30
0.0
 10
1.271343814768868
 20
2.16628420675815
 30
0.0
 10
1.130903975044549
 20
2.195164895106722
 30
0.0
 10
1.014782137587018
 20
2.215363767970573
 30
0.0
 10
0.5884859382509823
 20
2.289516080070189
 30
0.0
 10
0.1567260694561072
 20
2.31639362633966
 30
0.0
 10
-0.2741817573111207
 20
2.296453734812743
 30
0.0
 10
-0.4896356706947348
 20
2.286483789049284
 30
0.0
 10
-0.7045753599003878
 20
2.264801575900144
 30
0.0
 10
-0.9175890707365786
 20
2.231423350735639
 30
0.0
 10
-1.024095926154673
 20
2.214734238153387
 30
0.0
 10
-1.123207413828654
 20
2.196324496298203
 30
0.0
 10
-1.24138103575402
 20
2.171464717956868
 30
0.0
 10
-1.300467846716703
 20
2.159034828786201
 30
0.0
 10
-1.347422540113778
 20
2.148563977355339
 30
0.0
 10
-1.387468073986538
 20
2.138669316994511
 30
0.0
 10
-1.427513607859298
 20
2.128774656633684
 30
0.0
 10
-1.460882388442467
 20
2.118461327679966
 30
0.0
 10
-1.582315025356783
 20
2.088155510501516
 30
0.0
  0
SPLINE
  5
3309
330
32E1
100
AcDbEntity
  8
0
100
AcDbSpline
210
0.0
220
0.0
230
1.0
 70
     8
 71
     3
 72
     8
 73
     4
 74
     0
 42
0.000000001
 43
0.0000000001
 40
-3.141592653589793
 40
-3.141592653589793
 40
-3.141592653589793
 40
-3.141592653589793
 40
-3.133736151632886
 40
-3.133736151632886
 40
-3.133736151632886
 40
-3.133736151632886
 10
-1.582315025357151
 20
2.088155510501424
 30
0.0
 10
-1.582307729077499
 20
2.088048879503999
 30
0.0
 10
-1.582390169452106
 20
2.087944322137336
 30
0.0
 10
-1.582563185110578
 20
2.087829956013163
 30
0.0
  0
SPLINE
  5
330A
330
32E1
100
AcDbEntity
  8
0
100
AcDbSpline
210
0.0
220
0.0
230
1.0
 70
     8
 71
     3
 72
     8
 73
     4
 74
     0
 42
0.000000001
 43
0.0000000001
 40
0.0
 40
0.0
 40
0.0
 40
0.0
 40
0.0024726194234881
 40
0.0024726194234881
 40
0.0024726194234881
 40
0.0024726194234881
 10
1.583205768428845
 20
2.089742135279635
 30
0.0
 10
1.583149859081614
 20
2.089065204892065
 30
0.0
 10
1.583181119234628
 20
2.088360588998487
 30
0.0
 10
1.583325823957512
 20
2.087630767654439
 30
0.0
  0
LINE
  5
330B
330
32E1
100
AcDbEntity
  8
0
100
AcDbLine
 10
1.583205768428678
 20
2.089742135279687
 30
0.0
 11
1.582786089204622
 21
2.088058429283443
 31
0.0
  0
SPLINE
  5
330C
330
32E1
100
AcDbEntity
  8
0
100
AcDbSpline
210
0.0
220
0.0
230
1.0
 70
     8
 71
     3
 72
     8
 73
     4
 74
     0
 42
0.000000001
 43
0.0000000001
 40
-0.0034493350349152
 40
-0.0034493350349152
 40
-0.0034493350349152
 40
-0.0034493350349152
 40
0.0
 40
0.0
 40
0.0
 40
0.0
 10
-1.582712408649042
 20
2.089748136851866
 30
0.0
 10
-1.571608375923645
 20
2.092721618996524
 30
0.0
 10
-1.560444067282824
 20
2.095721317345729
 30
0.0
 10
-1.549347545787418
 20
2.098715605806545
 30
0.0
  0
LINE
  5
330D
330
32E1
100
AcDbEntity
  8
0
100
AcDbLine
 10
-1.582712408649226
 20
2.089748136851815
 30
0.0
 11
-1.582315025356968
 21
2.08815551050147
 31
0.0
  0
SPLINE
  5
330E
330
32E1
100
AcDbEntity
  8
0
100
AcDbSpline
210
0.0
220
0.0
230
1.0
 70
     8
 71
     3
 72
     8
 73
     4
 74
     0
 42
0.000000001
 43
0.0000000001
 40
-0.0035063553129976
 40
-0.0035063553129976
 40
-0.0035063553129976
 40
-0.0035063553129976
 40
0.0
 40
0.0
 40
0.0
 40
0.0
 10
1.549314108008108
 20
2.09887308039196
 30
0.0
 10
1.560590402353646
 20
2.095823932476236
 30
0.0
 10
1.571918472508133
 20
2.092772623600547
 30
0.0
 10
1.583205768429056
 20
2.089742135279593
 30
0.0
  0
SPLINE
  5
330F
330
32E1
100
AcDbEntity
  8
0
100
AcDbSpline
210
0.0
220
0.0
230
1.0
 70
     8
 71
     3
 72
    24
 73
    20
 74
     0
 42
0.000000001
 43
0.0000000001
 40
-0.3503097366835481
 40
-0.3503097366835481
 40
-0.3503097366835481
 40
-0.3503097366835481
 40
-0.32453881781219
 40
-0.32453881781219
 40
-0.2948369028609206
 40
-0.2948369028609206
 40
-0.2671288486223247
 40
-0.2671288486223247
 40
-0.2215871085623351
 40
-0.2215871085623351
 40
-0.1333344531032099
 40
-0.1333344531032099
 40
-0.0602486644910263
 40
-0.0602486644910263
 40
-0.0417211374100491
 40
-0.0417211374100491
 40
-0.0201595547363124
 40
-0.0201595547363124
 40
0.0
 40
0.0
 40
0.0
 40
0.0
 10
-1.549347545787427
 20
2.098715605806538
 30
0.0
 10
-1.49181942615271
 20
2.114239009682786
 30
0.0
 10
-1.454991020446877
 20
2.123794723335299
 30
0.0
 10
-1.387065514834484
 20
2.141543225940587
 30
0.0
 10
-1.36033968933074
 20
2.148779659151388
 30
0.0
 10
-1.237433713745794
 20
2.177270323645205
 30
0.0
 10
-1.143584517157354
 20
2.197492932990157
 30
0.0
 10
-0.8753953050478649
 20
2.246203530392812
 30
0.0
 10
-0.7028201319945467
 20
2.269731852701455
 30
0.0
 10
-0.1892345816023293
 20
2.316011586421221
 30
0.0
 10
0.1626402713041257
 20
2.317333888022726
 30
0.0
 10
0.7934641781442553
 20
2.26261535194326
 30
0.0
 10
1.021671438083618
 20
2.222297847055792
 30
0.0
 10
1.235316262147491
 20
2.177501848741218
 30
0.0
 10
1.271737076116831
 20
2.16940938015889
 30
0.0
 10
1.357114192142642
 20
2.149272498670562
 30
0.0
 10
1.384140457386471
 20
2.142282818900909
 30
0.0
 10
1.444347719264277
 20
2.126719567833209
 30
0.0
 10
1.484482715839239
 20
2.116403706876833
 30
0.0
 10
1.549314108008106
 20
2.098873080391956
 30
0.0
  0
SPLINE
  5
3310
330
32E1
100
AcDbEntity
  8
0
100
AcDbSpline
210
0.0
220
0.0
230
1.0
 70
     8
 71
     3
 72
     8
 73
     4
 74
     0
 42
0.000000001
 43
0.0000000001
 40
0.0
 40
0.0
 40
0.0
 40
0.0
 40
0.0023292715969862
 40
0.0023292715969862
 40
0.0023292715969862
 40
0.0023292715969862
 10
-1.582563185110578
 20
2.087829956013163
 30
0.0
 10
-1.582518681585508
 20
2.088492935485866
 30
0.0
 10
-1.582577110091021
 20
2.089132835604075
 30
0.0
 10
-1.582712408649406
 20
2.089748136851758
 30
0.0
  0
LINE
  5
3311
330
32E1
100
AcDbEntity
  8
0
100
AcDbLine
 10
10.83544991043272
 20
0.0
 30
0.0
 11
14.14542678357352
 21
0.0
 31
0.0
  0
LINE
  5
3312
330
32E1
100
AcDbEntity
  8
0
100
AcDbLine
 10
-14.14542678357355
 20
0.0
 30
0.0
 11
-10.83544991043274
 21
0.0
 31
0.0
  0
LINE
  5
3313
330
32E1
100
AcDbEntity
  8
0
100
AcDbLine
 10
-43.07573445446485
 20
0.0
 30
0.0
 11
-14.14542678357355
 21
0.0
 31
0.0
  0
LINE
  5
3314
330
32E1
100
AcDbEntity
  8
0
100
AcDbLine
 10
14.14542678357352
 20
0.0
 30
0.0
 11
43.07573445446482
 21
0.0
 31
0.0
  0
LINE
  5
3315
330
32E1
100
AcDbEntity
  8
0
100
AcDbLine
 10
-43.07573445446485
 20
0.0
 30
0.0
 11
-45.00000000000001
 21
0.0
 31
0.0
  0
LINE
  5
3316
330
32E1
100
AcDbEntity
  8
0
100
AcDbLine
 10
43.07573445446859
 20
0.0
 30
0.0
 11
45.00000000000028
 21
0.0
 31
0.0
  0
LINE
  5
3317
330
32E1
100
AcDbEntity
  8
0
100
AcDbLine
 10
45.00000000000056
 20
1.999999999999989
 30
0.0
 11
43.07573445446223
 21
1.99999999999999
 31
0.0
  0
LINE
  5
3318
330
32E1
100
AcDbEntity
  8
0
100
AcDbLine
 10
-45.00000000000001
 20
2.00000000000001
 30
0.0
 11
-43.07573445446485
 21
2.000000000000008
 31
0.0
  0
SPLINE
  5
3319
330
32E1
100
AcDbEntity
  8
0
100
AcDbSpline
210
0.0
220
0.0
230
1.0
 70
     8
 71
     3
 72
    11
 73
     7
 74
     0
 42
0.000000001
 43
0.0000000001
 40
0.0
 40
0.0
 40
0.0
 40
0.0
 40
0.9376145186213978
 40
0.9376145186213978
 40
0.9376145186213978
 40
0.9999999999999998
 40
0.9999999999999998
 40
0.9999999999999998
 40
0.9999999999999998
 10
43.07573445446466
 20
-0.0000000000000101
 30
0.0
 10
42.94951003141983
 20
-0.0000000002605183
 30
0.0
 10
42.94162634100181
 20
2.896838630218274
 30
0.0
 10
43.05210985947319
 20
6.315490263537811
 30
0.0
 10
43.05946103348698
 20
6.542954987659156
 30
0.0
 10
43.06733593755082
 20
6.77149101564645
 30
0.0
 10
43.07573445446468
 20
6.99999999999992
 30
0.0
  0
SPLINE
  5
331A
330
32E1
100
AcDbEntity
  8
0
100
AcDbSpline
210
0.0
220
0.0
230
1.0
 70
     8
 71
     3
 72
    11
 73
     7
 74
     0
 42
0.000000001
 43
0.0000000001
 40
0.0
 40
0.0
 40
0.0
 40
0.0
 40
0.9394681376702752
 40
0.9394681376702752
 40
0.9394681376702752
 40
1.0
 40
1.0
 40
1.0
 40
1.0
 10
-43.07573445446451
 20
6.999999999999997
 30
0.0
 10
-43.01249747311931
 20
3.55721808639622
 30
0.0
 10
-43.00866850954584
 20
0.3584434026451994
 30
0.0
 10
-43.06425079366293
 20
0.0316107240531498
 30
0.0
 10
-43.06783207442728
 20
0.0105522230650805
 30
0.0
 10
-43.07165996583061
 20
-0.0000000000168372
 30
0.0
 10
-43.07573445446479
 20
0.000000000000009
 30
0.0
  0
ARC
  5
331B
330
32E1
100
AcDbEntity
  8
0
100
AcDbCircle
 10
-1968.158427085439
 20
94.99999999999756
 30
0.0
 40
2013.15842708544
100
AcDbArc
 50
357.4946652940297
 51
0.0
  0
LINE
  5
331C
330
32E1
100
AcDbEntity
  8
0
100
AcDbLine
 10
-45.0
 20
95.00000000000001
 30
0.0
 11
-43.07573445446451
 21
7.00000000000001
 31
0.0
  0
SPLINE
  5
331D
330
32E1
100
AcDbEntity
  8
0
100
AcDbSpline
210
0.0
220
0.0
230
1.0
 70
     8
 71
     3
 72
    11
 73
     7
 74
     0
 42
0.000000001
 43
0.0000000001
 40
-1.0
 40
-1.0
 40
-1.0
 40
-1.0
 40
-0.9394681376702754
 40
-0.9394681376702754
 40
-0.9394681376702754
 40
-0.6051289080040531
 40
-0.6051289080040531
 40
-0.6051289080040531
 40
-0.6051289080040531
 10
-43.07573445446479
 20
2.000000000000008
 30
0.0
 10
-43.07165996583061
 20
1.999999999987975
 30
0.0
 10
-43.06783207442728
 20
2.007537302189345
 30
0.0
 10
-43.06425079366293
 20
2.022579088609395
 30
0.0
 10
-43.04447009295617
 20
2.105660280744031
 30
0.0
 10
-43.0322139198074
 20
2.448552867459562
 30
0.0
 10
-43.0274821286347
 20
2.9666506092606
 30
0.0
  0
LINE
  5
331E
330
32E1
100
AcDbEntity
  8
0
100
AcDbLine
 10
44.99999999999999
 20
1.99999999999999
 30
0.0
 11
44.99999999999999
 21
0.0
 31
0.0
  0
SPLINE
  5
331F
330
32E1
100
AcDbEntity
  8
0
100
AcDbSpline
210
0.0
220
0.0
230
1.0
 70
     8
 71
     3
 72
     8
 73
     4
 74
     0
 42
0.000000001
 43
0.0000000001
 40
-0.3948951068740261
 40
-0.3948951068740261
 40
-0.3948951068740261
 40
-0.3948951068740261
 40
0.0
 40
0.0
 40
0.0
 40
0.0
 10
42.97922592922194
 20
2.974374578273677
 30
0.0
 10
42.99040234645032
 20
2.367038080645764
 30
0.0
 10
43.02257251420197
 20
1.99999999992162
 30
0.0
 10
43.07573445446471
 20
1.99999999999999
 30
0.0
  0
LINE
  5
3320
330
32E1
100
AcDbEntity
  8
0
100
AcDbLine
 10
-45.00000000000001
 20
0.0
 30
0.0
 11
-45.00000000000001
 21
2.00000000000001
 31
0.0
  0
LINE
  5
3321
330
32E1
100
AcDbEntity
  8
0
100
AcDbLine
 10
35.00000000000001
 20
105.0
 30
0.0
 11
45.0
 21
94.99999999999998
 31
0.0
  0
LINE
  5
3322
330
32E1
100
AcDbEntity
  8
0
100
AcDbLine
 10
-45.0
 20
95.00000000000001
 30
0.0
 11
-35.0
 21
105.0
 31
0.0
  0
LINE
  5
3323
330
32E1
100
AcDbEntity
  8
0
100
AcDbLine
 10
-35.0
 20
105.0
 30
0.0
 11
35.00000000000001
 21
105.0
 31
0.0
  0
CIRCLE
  5
3324
330
32E1
100
AcDbEntity
  8
0
100
AcDbCircle
 10
21.61733355628555
 20
77.49999999999999
 30
0.0
 40
2.5
  0
CIRCLE
  5
3325
330
32E1
100
AcDbEntity
  8
0
100
AcDbCircle
 10
29.50000000000001
 20
95.0
 30
0.0
 40
2.5
  0
CIRCLE
  5
3326
330
32E1
100
AcDbEntity
  8
0
100
AcDbCircle
 10
28.78933374738745
 20
62.5
 30
0.0
 40
2.5
  0
CIRCLE
  5
3327
330
32E1
100
AcDbEntity
  8
0
100
AcDbCircle
 10
28.13333412959126
 20
32.50000000000001
 30
0.0
 40
2.5
  0
CIRCLE
  5
3328
330
32E1
100
AcDbEntity
  8
0
100
AcDbCircle
 10
20.96133393848935
 20
47.5
 30
0.0
 40
2.5
  0
CIRCLE
  5
3329
330
32E1
100
AcDbEntity
  8
0
100
AcDbCircle
 10
35.30533432069316
 20
17.49999999999997
 30
0.0
 40
2.5
  0
CIRCLE
  5
332A
330
32E1
100
AcDbEntity
  8
0
100
AcDbCircle
 10
20.30533432069316
 20
17.50000000000001
 30
0.0
 40
2.5
  0
CIRCLE
  5
332B
330
32E1
100
AcDbEntity
  8
0
100
AcDbCircle
 10
-21.61733355628555
 20
77.50000000000001
 30
0.0
 40
2.5
  0
CIRCLE
  5
332C
330
32E1
100
AcDbEntity
  8
0
100
AcDbCircle
 10
-20.96133393848937
 20
47.50000000000001
 30
0.0
 40
2.5
  0
CIRCLE
  5
332D
330
32E1
100
AcDbEntity
  8
0
100
AcDbCircle
 10
-28.13333412959128
 20
32.50000000000002
 30
0.0
 40
2.5
  0
CIRCLE
  5
332E
330
32E1
100
AcDbEntity
  8
0
100
AcDbCircle
 10
-28.78933374738747
 20
62.50000000000001
 30
0.0
 40
2.5
  0
CIRCLE
  5
332F
330
32E1
100
AcDbEntity
  8
0
100
AcDbCircle
 10
-29.5
 20
95.0
 30
0.0
 40
2.5
  0
CIRCLE
  5
3330
330
32E1
100
AcDbEntity
  8
0
100
AcDbCircle
 10
-35.30533432069319
 20
17.49999999999999
 30
0.0
 40
2.5
  0
CIRCLE
  5
3331
330
32E1
100
AcDbEntity
  8
0
100
AcDbCircle
 10
-20.30533432069319
 20
17.50000000000002
 30
0.0
 40
2.5
  0
ENDBLK
  5
32E3
330
32E1
100
AcDbEntity
  8
0
100
AcDbBlockEnd
  0
BLOCK
  5
3333
330
3332
100
AcDbEntity
  8
0
100
AcDbBlockBegin
  2
ACRL10520-ISO
 70
     0
 10
0.0
 20
0.0
 30
0.0
  3
ACRL10520-ISO
  1

  0
LINE
  5
3335
330
3332
100
AcDbEntity
  8
0
100
AcDbLine
 10
-19.82858117792804
 20
-60.81191073148501
 30
0.0
 11
-33.97071680165899
 21
-52.64694492220775
 31
0.0
  0
ELLIPSE
  5
3336
330
3332
100
AcDbEntity
  8
0
100
AcDbEllipse
 10
-15.93949388140203
 20
-58.56654513393376
 30
0.0
 11
5.499999999999989
 21
0.0000000000000008
 31
0.0
210
0.0
220
0.0
230
1.0
 40
0.577350269189626
 41
3.926990816987241
 42
7.068583470577034
  0
LINE
  5
3337
330
3332
100
AcDbEntity
  8
0
100
AcDbLine
 10
-12.05040658487601
 20
-56.32117953638251
 30
0.0
 11
-12.05040658487601
 21
-57.95417269823797
 31
0.0
  0
ELLIPSE
  5
3338
330
3332
100
AcDbEntity
  8
0
100
AcDbEllipse
 10
-15.93949388140203
 20
-60.1995382957892
 30
0.0
 11
5.499999999999989
 21
0.0000000000000004
 31
0.0
210
0.0
220
0.0
230
1.0
 40
0.5773502691896258
 41
0.2600508977278988
 42
0.7853981633974491
  0
LINE
  5
3339
330
3332
100
AcDbEntity
  8
0
100
AcDbLine
 10
-26.19254220860696
 20
-48.15621372710525
 30
0.0
 11
-12.05040658487601
 21
-56.32117953638251
 31
0.0
  0
LINE
  5
333A
330
3332
100
AcDbEntity
  8
0
100
AcDbLine
 10
-26.19254220860696
 20
-48.15621372710525
 30
0.0
 11
-26.19254220860696
 21
-49.78920688896071
 31
0.0
  0
LINE
  5
333B
330
3332
100
AcDbEntity
  8
0
100
AcDbLine
 10
-12.05040658487601
 20
-57.95417269823797
 30
0.0
 11
-26.19254220860696
 21
-49.78920688896071
 31
0.0
  0
ELLIPSE
  5
333C
330
3332
100
AcDbEntity
  8
0
100
AcDbEllipse
 10
-30.08162950513298
 20
-50.4015793246565
 30
0.0
 11
-5.499999999999987
 21
-0.0000000000000003
 31
0.0
210
0.0
220
0.0
230
1.0
 40
0.577350269189626
 41
3.926990816987242
 42
7.068583470577035
  0
ELLIPSE
  5
333D
330
3332
100
AcDbEntity
  8
0
100
AcDbEllipse
 10
-30.08162950513298
 20
-52.03457248651194
 30
0.0
 11
-5.499999999999987
 21
-0.0000000000003278
 31
0.0
210
0.0
220
0.0
230
1.0
 40
0.577350269189626
 41
3.926990816987
 42
6.023134409451332
  0
LINE
  5
333E
330
3332
100
AcDbEntity
  8
0
100
AcDbLine
 10
28.60823333335045
 20
55.74297619594787
 30
0.0
 11
42.75036895708139
 21
47.57801038667063
 31
0.0
  0
ELLIPSE
  5
333F
330
3332
100
AcDbEntity
  8
0
100
AcDbEllipse
 10
42.75036895708139
 20
43.08727919156813
 30
0.0
 11
2.749999999999714
 21
-4.763139720814574
 31
0.0
210
0.0
220
0.0
230
0.9999999999999998
 40
0.5773502691896258
 41
5.497787143782375
 42
8.639379797372173
  0
ELLIPSE
  5
3340
330
3332
100
AcDbEntity
  8
0
100
AcDbEllipse
 10
44.16458251945448
 20
43.90377577249586
 30
0.0
 11
2.749999999999998
 21
-4.763139720814411
 31
0.0
210
0.0
220
0.0
230
1.0
 40
0.5773502691896258
 41
5.497787143782135
 42
6.023134409451688
  0
LINE
  5
3341
330
3332
100
AcDbEntity
  8
0
100
AcDbLine
 10
42.75036895708139
 20
38.59654799646564
 30
0.0
 11
44.16458251945448
 21
39.41304457739337
 31
0.0
  0
ELLIPSE
  5
3342
330
3332
100
AcDbEntity
  8
0
100
AcDbEllipse
 10
28.60823333335045
 20
51.25224500084539
 30
0.0
 11
-2.74999999999971
 21
4.763139720814567
 31
0.0
210
0.0
220
0.0
230
1.0
 40
0.577350269189626
 41
5.497787143782379
 42
8.639379797372171
  0
LINE
  5
3343
330
3332
100
AcDbEntity
  8
0
100
AcDbLine
 10
28.60823333335045
 20
46.76151380574289
 30
0.0
 11
30.02244689572354
 21
47.57801038667061
 31
0.0
  0
ELLIPSE
  5
3344
330
3332
100
AcDbEntity
  8
0
100
AcDbEllipse
 10
30.02244689572354
 20
52.06874158177311
 30
0.0
 11
-2.749999999999994
 21
4.763139720814406
 31
0.0
210
0.0
220
0.0
230
0.9999999999999998
 40
0.5773502691896257
 41
0.2600508977278952
 42
2.356194490192345
  0
LINE
  5
3345
330
3332
100
AcDbEntity
  8
0
100
AcDbLine
 10
42.75036895708139
 20
38.59654799646564
 30
0.0
 11
28.60823333335045
 21
46.76151380574289
 31
0.0
  0
LINE
  5
3346
330
3332
100
AcDbEntity
  8
0
100
AcDbLine
 10
30.02244689572354
 20
47.57801038667061
 30
0.0
 11
44.16458251945448
 21
39.41304457739337
 31
0.0
  0
ELLIPSE
  5
3347
330
3332
100
AcDbEntity
  8
0
100
AcDbEllipse
 10
2.919680242279016
 20
-41.01186864398762
 30
0.0
 11
-4.499999999999534
 21
7.794228634060213
 31
0.0
210
0.0
220
0.0
230
1.0
 40
0.5773502691896259
 41
2.094924713979388
 42
2.356194490192587
  0
ELLIPSE
  5
3348
330
3332
100
AcDbEntity
  8
0
100
AcDbEllipse
 10
-4.742139866595129
 20
-43.68739723836295
 30
0.0
 11
-8.510682920555215
 21
0.000000000000509
 31
0.0
210
0.0
220
0.0
230
1.0
 40
0.5773502691896258
 41
5.497787143782378
 42
8.639379797372171
  0
ELLIPSE
  5
3349
330
3332
100
AcDbEntity
  8
0
100
AcDbEllipse
 10
-12.40395997546929
 20
-32.16476083930567
 30
0.0
 11
-4.499999999999534
 21
7.794228634060216
 31
0.0
210
0.0
220
0.0
230
0.9999999999999998
 40
0.5773502691896257
 41
2.356194490192654
 42
2.617464266405852
  0
ELLIPSE
  5
334A
330
3332
100
AcDbEntity
  8
0
100
AcDbEllipse
 10
-4.742139866595129
 20
-43.93678396999618
 30
0.0
 11
-10.83544991043273
 21
0.0000000000006456
 31
0.0
210
0.0
220
0.0
230
1.0
 40
0.5773502691896259
 41
5.497787143782378
 42
8.639379797372171
  0
LINE
  5
334B
330
3332
100
AcDbEntity
  8
0
100
AcDbLine
 10
1.275821739057994
 20
-47.16186899135962
 30
0.0
 11
-3.28093230817644
 21
-43.12414750584244
 31
0.0
  0
SPLINE
  5
334C
330
3332
100
AcDbEntity
  8
0
100
AcDbSpline
210
0.0
220
0.0
230
1.0
 70
     8
 71
     3
 72
    17
 73
    13
 74
     0
 42
0.000000001
 43
0.0000000001
 40
-3.141592653589793
 40
-3.141592653589793
 40
-3.141592653589793
 40
-3.141592653589793
 40
-2.548095788573845
 40
-2.548095788573845
 40
-2.548095788573845
 40
-1.429864819156154
 40
-1.429864819156154
 40
-1.429864819156154
 40
-0.5548076615011101
 40
-0.5548076615011101
 40
-0.5548076615011101
 40
0.0
 40
0.0
 40
0.0
 40
0.0
 10
-6.203347425013818
 20
-41.43689035145256
 30
0.0
 10
-6.490538733616437
 20
-41.60787773986257
 30
0.0
 10
-6.691712640610605
 20
-41.82164481336835
 30
0.0
 10
-6.770133956144555
 20
-42.05318516758111
 30
0.0
 10
-6.917890665339969
 20
-42.48943952714492
 30
0.0
 10
-6.599683620471585
 20
-42.96690757230808
 30
0.0
 10
-5.983543595965521
 20
-43.23431201734042
 30
0.0
 10
-5.501391202312388
 20
-43.44356590138922
 30
0.0
 10
-4.856577923040221
 20
-43.52163571119572
 30
0.0
 10
-4.270428974763458
 20
-43.44158113521629
 30
0.0
 10
-3.898796191190525
 20
-43.39082457411274
 30
0.0
 10
-3.552323007712336
 20
-43.28392646151759
 30
0.0
 10
-3.280932308176556
 20
-43.12414750584238
 30
0.0
  0
LINE
  5
334D
330
3332
100
AcDbEntity
  8
0
100
AcDbLine
 10
-6.203347425013818
 20
-41.43689035145256
 30
0.0
 11
-10.76010147224825
 21
-40.2129254853663
 31
0.0
  0
ELLIPSE
  5
334E
330
3332
100
AcDbEntity
  8
0
100
AcDbEllipse
 10
-4.742139866595129
 20
-48.59081448128422
 30
0.0
 11
-3.999999999999999
 21
6.928203230275511
 31
0.0
210
0.0
220
0.0
230
1.0
 40
0.5773502691896258
 41
5.236517367569009
 42
5.759056919995266
  0
SPLINE
  5
334F
330
3332
100
AcDbEntity
  8
0
100
AcDbSpline
210
0.0
220
0.0
230
1.0
 70
    12
 71
     2
 72
     6
 73
     3
 74
     0
 42
0.000000001
 43
0.0000000001
 40
0.0
 40
0.0
 40
0.0
 40
0.3572899531936541
 40
0.3572899531936541
 40
0.3572899531936541
 10
28.23041204836855
 20
-27.13601680773302
 30
0.0
 41
1.0
 10
28.77353651497001
 20
-28.49868842989357
 30
0.0
 41
1.00675197327739
 10
29.41062689159302
 20
-30.09206944693744
 30
0.0
 41
1.007289448734108
  0
SPLINE
  5
3350
330
3332
100
AcDbEntity
  8
0
100
AcDbSpline
210
0.0
220
0.0
230
1.0
 70
     8
 71
     3
 72
    16
 73
    12
 74
     0
 42
0.000000001
 43
0.0000000001
 40
2.590610813040512
 40
2.590610813040512
 40
2.590610813040512
 40
2.590610813040512
 40
2.67687710132953
 40
2.67687710132953
 40
2.82592868424336
 40
2.82592868424336
 40
2.974980267157191
 40
2.974980267157191
 40
3.125245660670134
 40
3.125245660670134
 40
3.159256371748055
 40
3.159256371748055
 40
3.159256371748055
 40
3.159256371748055
 10
24.94408228857619
 20
-22.28869117550986
 30
0.0
 10
25.15381045071054
 20
-22.48108667910884
 30
0.0
 10
25.35593540059215
 20
-22.68116115739728
 30
0.0
 10
25.8672104363907
 20
-23.22463058998019
 30
0.0
 10
26.20714546999682
 20
-23.63008581466456
 30
0.0
 10
26.84112712465719
 20
-24.49278601105431
 30
0.0
 10
27.13520390352583
 20
-24.94999706534437
 30
0.0
 10
27.63098612158312
 20
-25.81580683248564
 30
0.0
 10
27.87801766613125
 20
-26.3044920961233
 30
0.0
 10
28.13918843504935
 20
-26.9115708006044
 30
0.0
 10
28.1857375201455
 20
-27.02393069195943
 30
0.0
 10
28.23041204836856
 20
-27.13601680773302
 30
0.0
  0
SPLINE
  5
3351
330
3332
100
AcDbEntity
  8
0
100
AcDbSpline
210
0.0
220
0.0
230
1.0
 70
     8
 71
     3
 72
    11
 73
     7
 74
     0
 42
0.000000001
 43
0.0000000001
 40
0.0
 40
0.0
 40
0.0
 40
0.0
 40
1.00556548052795
 40
2.010219686203361
 40
3.015805587964018
 40
4.024161048178771
 40
4.024161048178771
 40
4.024161048178771
 40
4.024161048178771
 10
24.94408228857619
 20
-22.28869117550986
 30
0.0
 10
22.61298753179464
 20
-24.22577912742997
 30
0.0
 10
17.93678451372215
 20
-28.00269531300635
 30
0.0
 10
10.88789182017541
 20
-33.36866660610248
 30
0.0
 10
3.811483122930843
 20
-38.42956693034546
 30
0.0
 10
-0.9153689596131275
 20
-41.59400682492044
 30
0.0
 10
-3.28093230817644
 20
-43.12414750584244
 30
0.0
  0
SPLINE
  5
3352
330
3332
100
AcDbEntity
  8
0
100
AcDbSpline
210
0.0
220
0.0
230
1.0
 70
     8
 71
     2
 72
     6
 73
     3
 74
     0
 42
0.000000001
 43
0.0000000001
 40
0.0
 40
0.0
 40
0.0
 40
0.3667074218489457
 40
0.3667074218489457
 40
0.3667074218489457
 10
29.41062689159301
 20
-30.09206944693745
 30
0.0
 10
23.82900904541768
 20
-32.88217202047984
 30
0.0
 10
18.55762341577723
 20
-35.92142186340783
 30
0.0
  0
SPLINE
  5
3353
330
3332
100
AcDbEntity
  8
0
100
AcDbSpline
210
0.0
220
0.0
230
1.0
 70
     8
 71
     2
 72
     6
 73
     3
 74
     0
 42
0.000000001
 43
0.0000000001
 40
0.6875541472981867
 40
0.6875541472981867
 40
0.6875541472981867
 40
1.0
 40
1.0
 40
1.0
 10
9.570827357457577
 20
-41.43046686770925
 30
0.0
 10
5.310717122816956
 20
-44.20573298736599
 30
0.0
 10
1.275821739057994
 20
-47.16186899135962
 30
0.0
  0
SPLINE
  5
3354
330
3332
100
AcDbEntity
  8
0
100
AcDbSpline
210
0.0
220
0.0
230
1.0
 70
     8
 71
     3
 72
    14
 73
    10
 74
     0
 42
0.000000001
 43
0.0000000001
 40
2.174556446286937
 40
2.174556446286937
 40
2.174556446286937
 40
2.174556446286937
 40
2.235436893830822
 40
2.235436893830822
 40
2.382583629663725
 40
2.382583629663725
 40
2.529730365496627
 40
2.529730365496627
 40
2.590610813040512
 40
2.590610813040512
 40
2.590610813040512
 40
2.590610813040512
 10
21.84511861872552
 20
-20.49950366651271
 30
0.0
 10
21.99331361740826
 20
-20.53546643773825
 30
0.0
 10
22.14524120256868
 20
-20.5793811131231
 30
0.0
 10
22.66911080858748
 20
-20.75926338380134
 30
0.0
 10
23.04777227119449
 20
-20.93754631613826
 30
0.0
 10
23.74142863610723
 20
-21.33802900514574
 30
0.0
 10
24.12009009871424
 20
-21.59698666754459
 30
0.0
 10
24.64395970473305
 20
-22.0220169129768
 30
0.0
 10
24.79588728989347
 20
-22.15353310197134
 30
0.0
 10
24.94408228857619
 20
-22.28869117550986
 30
0.0
  0
SPLINE
  5
3355
330
3332
100
AcDbEntity
  8
0
100
AcDbSpline
210
0.0
220
0.0
230
1.0
 70
     8
 71
     3
 72
    11
 73
     7
 74
     0
 42
0.000000001
 43
0.0000000001
 40
0.0
 40
0.0
 40
0.0
 40
0.0
 40
1.00556548052795
 40
2.010219686203361
 40
3.015805587964017
 40
4.02416104817877
 40
4.02416104817877
 40
4.02416104817877
 40
4.02416104817877
 10
21.84511861872553
 20
-20.49950366651271
 30
0.0
 10
19.5580316450375
 20
-22.46199952384831
 30
0.0
 10
14.95529235313473
 20
-26.28133001150445
 30
0.0
 10
7.972604339469211
 20
-31.6855245943516
 30
0.0
 10
0.918304310965281
 20
-36.75918936444342
 30
0.0
 10
-3.82318088965504
 20
-39.91518082435795
 30
0.0
 10
-6.203347425013818
 20
-41.43689035145256
 30
0.0
  0
SPLINE
  5
3356
330
3332
100
AcDbEntity
  8
0
100
AcDbSpline
210
0.0
220
0.0
230
1.0
 70
     8
 71
     3
 72
     8
 73
     4
 74
     0
 42
0.000000001
 43
0.0000000001
 40
1.723464406063071
 40
1.723464406063071
 40
1.723464406063071
 40
1.723464406063071
 40
1.727358811686095
 40
1.727358811686095
 40
1.727358811686095
 40
1.727358811686095
 10
19.07947950797792
 20
-21.00526420660197
 30
0.0
 10
19.08572266646263
 20
-21.0002083503877
 30
0.0
 10
19.0919766807172
 20
-20.9951870975516
 30
0.0
 10
19.09824099023071
 20
-20.99020063081419
 30
0.0
  0
SPLINE
  5
3357
330
3332
100
AcDbEntity
  8
0
100
AcDbSpline
210
0.0
220
0.0
230
1.0
 70
     8
 71
     3
 72
    14
 73
    10
 74
     0
 42
0.000000001
 43
0.0000000001
 40
1.727358811686095
 40
1.727358811686095
 40
1.727358811686095
 40
1.727358811686095
 40
1.790186992170259
 40
1.790186992170259
 40
1.939238575084089
 40
1.939238575084089
 40
2.088290157997919
 40
2.088290157997919
 40
2.174556446286937
 40
2.174556446286937
 40
2.174556446286937
 40
2.174556446286937
 10
19.09824099023071
 20
-20.99020063081419
 30
0.0
 10
19.1993026686538
 20
-20.90975430280369
 30
0.0
 10
19.3030439094578
 20
-20.83836180452875
 30
0.0
 10
19.65399700377589
 20
-20.63072024791046
 30
0.0
 10
19.94807378264453
 20
-20.51307980850486
 30
0.0
 10
20.5820554373049
 20
-20.382438570074
 30
0.0
 10
20.92199047091103
 20
-20.36950651170859
 30
0.0
 10
21.43326550670958
 20
-20.41640663822214
 30
0.0
 10
21.63539045659119
 20
-20.44972594838187
 30
0.0
 10
21.84511861872552
 20
-20.49950366651271
 30
0.0
  0
SPLINE
  5
3358
330
3332
100
AcDbEntity
  8
0
100
AcDbSpline
210
0.0
220
0.0
230
1.0
 70
     8
 71
     2
 72
     6
 73
     3
 74
     0
 42
0.000000001
 43
0.0000000001
 40
0.3991805552259335
 40
0.3991805552259335
 40
0.3991805552259335
 40
1.0
 40
1.0
 40
1.0
 10
6.718618856344558
 20
-30.16400174687996
 30
0.0
 10
-1.589929662076441
 20
-35.34319208694108
 30
0.0
 10
-10.76010147224825
 20
-40.2129254853663
 30
0.0
  0
SPLINE
  5
3359
330
3332
100
AcDbEntity
  8
0
100
AcDbSpline
210
0.0
220
0.0
230
1.0
 70
     8
 71
     3
 72
     8
 73
     4
 74
     0
 42
0.000000001
 43
0.0000000001
 40
-0.2801793351621386
 40
-0.2801793351621386
 40
-0.2801793351621386
 40
-0.2801793351621386
 40
-0.2366562297821511
 40
-0.2366562297821511
 40
-0.2366562297821511
 40
-0.2366562297821511
 10
15.7327803447767
 20
-23.26847546964259
 30
0.0
 10
15.83537778937323
 20
-23.32771013189856
 30
0.0
 10
15.93765336399712
 20
-23.37729813909121
 30
0.0
 10
16.03863295872157
 20
-23.41684930057574
 30
0.0
  0
LINE
  5
335A
330
3332
100
AcDbEntity
  8
0
100
AcDbLine
 10
-12.40395997546929
 20
-39.5132300676552
 30
0.0
 11
15.73278034477671
 21
-23.26847546964259
 31
0.0
  0
SPLINE
  5
335B
330
3332
100
AcDbEntity
  8
0
100
AcDbSpline
210
0.0
220
0.0
230
1.0
 70
     8
 71
     3
 72
    12
 73
     8
 74
     0
 42
0.000000001
 43
0.0000000001
 40
-0.2802127595624377
 40
-0.2802127595624377
 40
-0.2802127595624377
 40
-0.2802127595624377
 40
-0.1933598217657068
 40
-0.1933598217657068
 40
-0.106369164593545
 40
-0.106369164593545
 40
0.0
 40
0.0
 40
0.0
 40
0.0
 10
29.41062689159302
 20
-30.09206944693745
 30
0.0
 10
29.51597309835367
 20
-30.35554328397729
 30
0.0
 10
29.64887920640094
 20
-30.61401847289483
 30
0.0
 10
29.95973337006509
 20
-31.10169740082687
 30
0.0
 10
30.13573557792817
 20
-31.32769229973313
 30
0.0
 10
30.55733523866495
 20
-31.77094060067688
 30
0.0
 10
30.8057060372142
 20
-31.9708331756466
 30
0.0
 10
31.05642056252501
 20
-32.11558327432455
 30
0.0
  0
LINE
  5
335C
330
3332
100
AcDbEntity
  8
0
100
AcDbLine
 10
31.05642056252501
 20
-32.11558327432454
 30
0.0
 11
2.91968024227903
 21
-48.36033787233716
 31
0.0
  0
SPLINE
  5
335D
330
3332
100
AcDbEntity
  8
0
100
AcDbSpline
210
0.0
220
0.0
230
1.0
 70
     8
 71
     3
 72
    12
 73
     8
 74
     0
 42
0.000000001
 43
0.0000000001
 40
-0.2801793351621427
 40
-0.2801793351621427
 40
-0.2801793351621427
 40
-0.2801793351621427
 40
-0.1927494981122395
 40
-0.1927494981122395
 40
-0.1054590100335353
 40
-0.1054590100335353
 40
0.0
 40
0.0
 40
0.0
 40
0.0
 10
43.34112125409006
 20
-10.83785752075733
 30
0.0
 10
43.13502203886874
 20
-10.71886608336952
 30
0.0
 10
42.89715891307371
 20
-10.61971333473198
 30
0.0
 10
42.3765307327099
 20
-10.46892742329023
 30
0.0
 10
42.09714852446012
 20
-10.41817824882113
 30
0.0
 10
41.46126452878632
 20
-10.36490639936817
 30
0.0
 10
41.10686034786988
 20
-10.37512841290194
 30
0.0
 10
40.76581003919776
 20
-10.42431530603612
 30
0.0
  0
LINE
  5
335E
330
3332
100
AcDbEntity
  8
0
100
AcDbLine
 10
43.34112125409006
 20
21.65165167526792
 30
0.0
 11
43.34112125409006
 21
-10.83785752075733
 31
0.0
  0
SPLINE
  5
335F
330
3332
100
AcDbEntity
  8
0
100
AcDbSpline
210
0.0
220
0.0
230
1.0
 70
     8
 71
     2
 72
     6
 73
     3
 74
     0
 42
0.000000001
 43
0.0000000001
 40
0.0
 40
0.0
 40
0.0
 40
0.3667074218489457
 40
0.3667074218489457
 40
0.3667074218489457
 10
40.76581003919776
 20
-10.42431530603612
 30
0.0
 10
40.39130082396215
 20
-4.19544117026051
 30
0.0
 10
40.38767558156543
 20
1.889337619616346
 30
0.0
  0
SPLINE
  5
3360
330
3332
100
AcDbEntity
  8
0
100
AcDbSpline
210
0.0
220
0.0
230
1.0
 70
     8
 71
     2
 72
     6
 73
     3
 74
     0
 42
0.000000001
 43
0.0000000001
 40
0.6875541472981865
 40
0.6875541472981865
 40
0.6875541472981865
 40
1.0
 40
1.0
 40
1.0
 10
40.66525047672238
 20
12.42665380690173
 30
0.0
 10
40.93864632128706
 20
17.50365055285096
 30
0.0
 10
41.48128750590789
 20
22.47604045879562
 30
0.0
  0
SPLINE
  5
3361
330
3332
100
AcDbEntity
  8
0
100
AcDbSpline
210
0.0
220
0.0
230
1.0
 70
    12
 71
     2
 72
     6
 73
     3
 74
     0
 42
0.000000001
 43
0.0000000001
 40
0.4190917528593755
 40
0.4190917528593755
 40
0.4190917528593755
 40
0.7763816820519918
 40
0.7763816820519918
 40
0.7763816820519918
 10
40.76581003919776
 20
-10.42431530603613
 30
0.0
 41
1.007289443596369
 10
39.06735641221435
 20
-10.66926936389652
 30
0.0
 41
1.006751970710422
 10
37.61568593711047
 20
-10.88024558948249
 30
0.0
 41
1.0
  0
SPLINE
  5
3362
330
3332
100
AcDbEntity
  8
0
100
AcDbSpline
210
0.0
220
0.0
230
1.0
 70
     8
 71
     3
 72
    11
 73
     7
 74
     0
 42
0.000000001
 43
0.0000000001
 40
0.0
 40
0.0
 40
0.0
 40
0.0
 40
1.00556548052795
 40
2.010219686203361
 40
3.015805587964018
 40
4.024161048178771
 40
4.024161048178771
 40
4.024161048178771
 40
4.024161048178771
 10
31.77461391929357
 20
-10.45786334840107
 30
0.0
 10
32.28663391663037
 20
-7.470532094439485
 30
0.0
 10
33.21943777226789
 20
-1.532363394747062
 30
0.0
 10
34.34205888129381
 20
7.255142392963005
 30
0.0
 10
35.18672277948685
 20
15.91394225445944
 30
0.0
 10
35.56378207566575
 20
21.58973618516139
 30
0.0
 10
35.70614110242656
 20
24.40344447973961
 30
0.0
  0
SPLINE
  5
3363
330
3332
100
AcDbEntity
  8
0
100
AcDbSpline
210
0.0
220
0.0
230
1.0
 70
     8
 71
     3
 72
    16
 73
    12
 74
     0
 42
0.000000001
 43
0.0000000001
 40
1.605910887579394
 40
1.605910887579394
 40
1.605910887579394
 40
1.605910887579394
 40
1.639921598657315
 40
1.639921598657315
 40
1.790186992170258
 40
1.790186992170258
 40
1.939238575084088
 40
1.939238575084088
 40
2.088290157997918
 40
2.088290157997918
 40
2.174556446286937
 40
2.174556446286937
 40
2.174556446286937
 40
2.174556446286937
 10
37.61568593711048
 20
-10.88024558948249
 30
0.0
 10
37.49627924932749
 20
-10.89759937102603
 30
0.0
 10
37.37569818649951
 20
-10.91346662648736
 30
0.0
 10
36.71936722186327
 20
-10.99082545811893
 30
0.0
 10
36.1726375968239
 20
-11.02123249682296
 30
0.0
 10
35.17493323460622
 20
-11.02477738481139
 30
0.0
 10
34.63193845726565
 20
-10.99870495079307
 30
0.0
 10
33.56782734401212
 20
-10.88101083051878
 30
0.0
 10
33.04672530253526
 20
-10.78934606812174
 30
0.0
 10
32.32042944983888
 20
-10.61830361509086
 30
0.0
 10
32.04609739405135
 20
-10.54329551289895
 30
0.0
 10
31.77461391929357
 20
-10.45786334840107
 30
0.0
  0
SPLINE
  5
3364
330
3332
100
AcDbEntity
  8
0
100
AcDbSpline
210
0.0
220
0.0
230
1.0
 70
     8
 71
     3
 72
    14
 73
    10
 74
     0
 42
0.000000001
 43
0.0000000001
 40
2.174556446286937
 40
2.174556446286937
 40
2.174556446286937
 40
2.174556446286937
 40
2.235436893830821
 40
2.235436893830821
 40
2.382583629663725
 40
2.382583629663725
 40
2.529730365496627
 40
2.529730365496627
 40
2.590610813040512
 40
2.590610813040512
 40
2.590610813040512
 40
2.590610813040512
 10
31.77461391929357
 20
-10.45786334840107
 30
0.0
 10
31.58346609474127
 20
-10.39710175159728
 30
0.0
 10
31.39360594148288
 20
-10.33128669781001
 30
0.0
 10
30.76358414855246
 20
-10.09011743344328
 30
0.0
 10
30.3499895031069
 20
-9.891665818590876
 30
0.0
 10
29.65633313819417
 20
-9.491183129583404
 30
0.0
 10
29.3126048584257
 20
-9.25239414970003
 30
0.0
 10
28.89488743931851
 20
-8.888650897956313
 30
0.0
 10
28.78089242225608
 20
-8.779035087364199
 30
0.0
 10
28.67565024944291
 20
-8.668675839403917
 30
0.0
  0
SPLINE
  5
3365
330
3332
100
AcDbEntity
  8
0
100
AcDbSpline
210
0.0
220
0.0
230
1.0
 70
     8
 71
     3
 72
    11
 73
     7
 74
     0
 42
0.000000001
 43
0.0000000001
 40
0.0
 40
0.0
 40
0.0
 40
0.0
 40
1.00556548052795
 40
2.010219686203361
 40
3.015805587964018
 40
4.024161048178771
 40
4.024161048178771
 40
4.024161048178771
 40
4.024161048178771
 10
28.67565024944291
 20
-8.668675839403917
 30
0.0
 10
29.23167802987324
 20
-5.706752490857819
 30
0.0
 10
30.23794561168048
 20
0.1890019067548376
 30
0.0
 10
31.4267714005876
 20
8.938284404713883
 30
0.0
 10
32.29354396752128
 20
17.58431982036148
 30
0.0
 10
32.65597014562383
 20
23.26856218572389
 30
0.0
 10
32.78372598558918
 20
26.0907016341295
 30
0.0
  0
SPLINE
  5
3366
330
3332
100
AcDbEntity
  8
0
100
AcDbSpline
210
0.0
220
0.0
230
1.0
 70
     8
 71
     3
 72
    14
 73
    10
 74
     0
 42
0.000000001
 43
0.0000000001
 40
2.590610813040512
 40
2.590610813040512
 40
2.590610813040512
 40
2.590610813040512
 40
2.67687710132953
 40
2.67687710132953
 40
2.82592868424336
 40
2.82592868424336
 40
2.97498026715719
 40
2.97498026715719
 40
3.037808447641355
 40
3.037808447641355
 40
3.037808447641355
 40
3.037808447641355
 10
28.67565024944291
 20
-8.668675839403917
 30
0.0
 10
28.527677399932
 20
-8.51193478217198
 30
0.0
 10
28.3977595559563
 20
-8.353549095915708
 30
0.0
 10
28.10150533705559
 20
-7.93422198985014
 30
0.0
 10
27.9427373113202
 20
-7.63336358592822
 30
0.0
 10
27.73888511525299
 20
-7.018998748243618
 30
0.0
 10
27.69372633485629
 20
-6.705500567377478
 30
0.0
 10
27.69807265061003
 20
-6.297745493852109
 30
0.0
 10
27.70802974735377
 20
-6.172206694758255
 30
0.0
 10
27.72716747184049
 20
-6.044461549889503
 30
0.0
  0
SPLINE
  5
3367
330
3332
100
AcDbEntity
  8
0
100
AcDbSpline
210
0.0
220
0.0
230
1.0
 70
     8
 71
     3
 72
     8
 73
     4
 74
     0
 42
0.000000001
 43
0.0000000001
 40
3.037808447641355
 40
3.037808447641355
 40
3.037808447641355
 40
3.037808447641355
 40
3.041702853264378
 40
3.041702853264378
 40
3.041702853264378
 40
3.041702853264378
 10
27.72716747184049
 20
-6.044461549889503
 30
0.0
 10
27.72835372395345
 20
-6.03654326534494
 30
0.0
 10
27.72957524934106
 20
-6.0286165037068
 30
0.0
 10
27.73083217001814
 20
-6.02068184175205
 30
0.0
  0
SPLINE
  5
3368
330
3332
100
AcDbEntity
  8
0
100
AcDbSpline
210
0.0
220
0.0
230
1.0
 70
     8
 71
     2
 72
     6
 73
     3
 74
     0
 42
0.000000001
 43
0.0000000001
 40
0.3991765914413414
 40
0.3991765914413414
 40
0.3991765914413414
 40
1.0
 40
1.0
 40
1.0
 10
29.48209685275813
 20
9.26337715613338
 30
0.0
 10
29.81313979330215
 20
19.04844706425079
 30
0.0
 10
29.44536429460165
 20
29.42498396478895
 30
0.0
  0
SPLINE
  5
3369
330
3332
100
AcDbEntity
  8
0
100
AcDbSpline
210
0.0
220
0.0
230
1.0
 70
     8
 71
     3
 72
     8
 73
     4
 74
     0
 42
0.000000001
 43
0.0000000001
 40
-0.0435747765730572
 40
-0.0435747765730572
 40
-0.0435747765730572
 40
-0.0435747765730572
 40
0.0
 40
0.0
 40
0.0
 40
0.0
 10
28.29900163839449
 20
-2.181518409905365
 30
0.0
 10
28.21429040521868
 20
-2.113858647956026
 30
0.0
 10
28.12018776968676
 20
-2.0500474762197
 30
0.0
 10
28.01748103634177
 20
-1.990749716075383
 30
0.0
  0
LINE
  5
336A
330
3332
100
AcDbEntity
  8
0
100
AcDbLine
 10
28.01748103634177
 20
-1.990749716075381
 30
0.0
 11
28.01748103634176
 21
30.49875947994987
 31
0.0
  0
SPLINE
  5
336B
330
3332
100
AcDbEntity
  8
0
100
AcDbSpline
210
0.0
220
0.0
230
1.0
 70
     8
 71
     3
 72
    26
 73
    22
 74
     0
 42
0.000000001
 43
0.0000000001
 40
1.241855034869382
 40
1.241855034869382
 40
1.241855034869382
 40
1.241855034869382
 40
1.242890262151543
 40
1.242890262151543
 40
1.244675296731307
 40
1.244675296731307
 40
1.246464402148188
 40
1.246464402148188
 40
1.248245400520544
 40
1.248245400520544
 40
1.251824738351608
 40
1.251824738351608
 40
1.266281466865744
 40
1.266281466865744
 40
1.381191840817774
 40
1.381191840817774
 40
1.607495497960057
 40
1.607495497960057
 40
2.286447492062344
 40
2.286447492062344
 40
3.040240531032695
 40
3.040240531032695
 40
3.040240531032695
 40
3.040240531032695
 10
5.829191636278796
 20
-30.74820796808078
 30
0.0
 10
5.829191636306259
 20
-30.74820796806319
 30
0.0
 10
5.829383262109386
 20
-30.74808524030324
 30
0.0
 10
5.830528548189573
 20
-30.74735114667625
 30
0.0
 10
5.831976381051129
 20
-30.74642283726621
 30
0.0
 10
5.836395756134296
 20
-30.74358605708735
 30
0.0
 10
5.839422951712163
 20
-30.74164174340454
 30
0.0
 10
5.846474406290074
 20
-30.73710846352036
 30
0.0
 10
5.850542984109248
 20
-30.73449101952403
 30
0.0
 10
5.863475177301165
 20
-30.72616481508991
 30
0.0
 10
5.873186162436803
 20
-30.71990414905968
 30
0.0
 10
5.922319715401154
 20
-30.68818784907789
 30
0.0
 10
5.964113749455091
 20
-30.66108850429166
 30
0.0
 10
6.323234360118199
 20
-30.4275320267602
 30
0.0
 10
6.623171215150982
 20
-30.22825956941149
 30
0.0
 10
7.496660868081521
 20
-29.64288408819556
 30
0.0
 10
8.054125860964225
 20
-29.26167491614744
 30
0.0
 10
10.25815683253144
 20
-27.7368865555972
 30
0.0
 10
11.95648154498543
 20
-26.5133205977529
 30
0.0
 10
15.45941152292344
 20
-23.88426320569469
 30
0.0
 10
17.2794980643185
 20
-22.46055224729872
 30
0.0
 10
19.07917374237475
 20
-21.00479377483099
 30
0.0
  0
SPLINE
  5
336C
330
3332
100
AcDbEntity
  8
0
100
AcDbSpline
210
0.0
220
0.0
230
1.0
 70
     8
 71
     3
 72
     8
 73
     4
 74
     0
 42
0.000000001
 43
0.0000000001
 40
0.0
 40
0.0
 40
0.0
 40
0.0
 40
1.277241042657162
 40
1.277241042657162
 40
1.277241042657162
 40
1.277241042657162
 10
9.570827357457577
 20
-41.43046686770924
 30
0.0
 10
12.50461007959914
 20
-39.51924219446306
 30
0.0
 10
15.49319556907826
 20
-37.68823660740509
 30
0.0
 10
18.55762341577726
 20
-35.92142186340782
 30
0.0
  0
SPLINE
  5
336D
330
3332
100
AcDbEntity
  8
0
100
AcDbSpline
210
0.0
220
0.0
230
1.0
 70
     8
 71
     3
 72
     8
 73
     4
 74
     0
 42
0.000000001
 43
0.0000000001
 40
0.0
 40
0.0
 40
0.0
 40
0.0
 40
1.27724104265716
 40
1.27724104265716
 40
1.27724104265716
 40
1.27724104265716
 10
40.38767558156543
 20
1.889337619616306
 30
0.0
 10
40.38556811029846
 20
5.426617354920724
 30
0.0
 10
40.47697271842235
 20
8.930311103720169
 30
0.0
 10
40.66525047672238
 20
12.42665380690172
 30
0.0
  0
SPLINE
  5
336E
330
3332
100
AcDbEntity
  8
0
100
AcDbSpline
210
0.0
220
0.0
230
1.0
 70
     8
 71
     3
 72
    28
 73
    24
 74
     0
 42
0.000000001
 43
0.0000000001
 40
0.0
 40
0.0
 40
0.0
 40
0.0
 40
1.086299013100604
 40
1.086299013100604
 40
1.493720752672371
 40
1.493720752672371
 40
1.646489123558627
 40
1.646489123558627
 40
1.761271216014591
 40
1.761271216014591
 40
1.774858478532677
 40
1.774858478532677
 40
1.788535845259357
 40
1.788535845259357
 40
1.791954563049024
 40
1.791954563049024
 40
1.79366144762571
 40
1.79366144762571
 40
1.795376398533558
 40
1.795376398533558
 40
1.797093852480263
 40
1.797093852480263
 40
1.798536515536532
 40
1.798536515536532
 40
1.798536515536532
 40
1.798536515536532
 10
27.73027188135214
 20
-6.020652256857596
 30
0.0
 10
28.25034843226636
 20
-2.725633820436519
 30
0.0
 10
28.69244133426658
 20
0.5756096614716899
 30
0.0
 10
29.15393983042172
 20
5.103429266704582
 30
0.0
 10
29.26230587601833
 20
6.319494331552517
 30
0.0
 10
29.3927732567049
 20
7.983368253818658
 30
0.0
 10
29.42676152891743
 20
8.441279168772958
 30
0.0
 10
29.48246892358005
 20
9.260666340449436
 30
0.0
 10
29.50526500186342
 20
9.617495819808645
 30
0.0
 10
29.52839749451156
 20
10.03558029878554
 30
0.0
 10
29.53081975140055
 20
10.08022042492671
 30
0.0
 10
29.53559601767977
 20
10.17046050576298
 30
0.0
 10
29.53802093187603
 20
10.21745342621564
 30
0.0
 10
29.54077160216463
 20
10.27283895640595
 30
0.0
 10
29.54131239237073
 20
10.28384870586096
 30
0.0
 10
29.54203461086068
 20
10.29872837751798
 30
0.0
 10
29.54226232846706
 20
10.30345253246537
 30
0.0
 10
29.54266314874526
 20
10.31182069470421
 30
0.0
 10
29.54283863555034
 20
10.31551498169854
 30
0.0
 10
29.54310695699245
 20
10.32119669611209
 30
0.0
 10
29.54320225146688
 20
10.32323473139473
 30
0.0
 10
29.54330459768751
 20
10.32543201953787
 30
0.0
 10
29.5433250389057
 20
10.32587593581556
 30
0.0
 10
29.54332503925233
 20
10.32587594333562
 30
0.0
  0
ELLIPSE
  5
336F
330
3332
100
AcDbEntity
  8
0
100
AcDbEllipse
 10
-2.421497685547389
 20
-60.24743951955682
 30
0.0
 11
2.499999999999999
 21
-0.000000000000149
 31
0.0
210
0.0
220
0.0
230
1.0
 40
0.577350269189626
 41
0.0
 42
6.283185307179586
  0
ELLIPSE
  5
3370
330
3332
100
AcDbEntity
  8
0
100
AcDbEllipse
 10
-9.221979460129832
 20
-70.60986970261772
 30
0.0
 11
2.499999999999999
 21
-0.000000000000149
 31
0.0
210
0.0
220
0.0
230
1.0
 40
0.577350269189626
 41
0.0
 42
6.283185307179586
  0
ELLIPSE
  5
3371
330
3332
100
AcDbEntity
  8
0
100
AcDbEllipse
 10
13.25647400205018
 20
-57.05167197982273
 30
0.0
 11
2.499999999999999
 21
-0.000000000000149
 31
0.0
210
0.0
220
0.0
230
1.0
 40
0.577350269189626
 41
0.0
 42
6.283185307179586
  0
ELLIPSE
  5
3372
330
3332
100
AcDbEntity
  8
0
100
AcDbEllipse
 10
34.00581565944713
 20
-44.53641254339659
 30
0.0
 11
2.499999999999999
 21
-0.000000000000149
 31
0.0
210
0.0
220
0.0
230
1.0
 40
0.577350269189626
 41
0.0
 42
6.283185307179586
  0
ELLIPSE
  5
3373
330
3332
100
AcDbEntity
  8
0
100
AcDbEllipse
 10
39.0771856292465
 20
-35.21692064670457
 30
0.0
 11
2.499999999999999
 21
-0.000000000000149
 31
0.0
210
0.0
220
0.0
230
1.0
 40
0.577350269189626
 41
0.0
 42
6.283185307179586
  0
ELLIPSE
  5
3374
330
3332
100
AcDbEntity
  8
0
100
AcDbEllipse
 10
49.68378734704472
 20
-41.3406450036625
 30
0.0
 11
2.499999999999999
 21
-0.000000000000149
 31
0.0
210
0.0
220
0.0
230
1.0
 40
0.577350269189626
 41
0.0
 42
6.283185307179586
  0
ELLIPSE
  5
3375
330
3332
100
AcDbEntity
  8
0
100
AcDbEllipse
 10
18.32784397184955
 20
-47.73218008313069
 30
0.0
 11
2.499999999999999
 21
-0.000000000000149
 31
0.0
210
0.0
220
0.0
230
1.0
 40
0.577350269189626
 41
0.0
 42
6.283185307179586
  0
ELLIPSE
  5
3376
330
3332
100
AcDbEntity
  8
0
100
AcDbEllipse
 10
-2.421497685547389
 20
-61.88043268141227
 30
0.0
 11
-2.499999999999999
 21
-0.00000000000015
 31
0.0
210
0.0
220
0.0
230
1.0
 40
0.5773502691896259
 41
3.742856870268573
 42
5.681921090500114
  0
ELLIPSE
  5
3377
330
3332
100
AcDbEntity
  8
0
100
AcDbEllipse
 10
-9.221979460129832
 20
-72.24286286447315
 30
0.0
 11
-2.499999999999999
 21
-0.00000000000015
 31
0.0
210
0.0
220
0.0
230
1.0
 40
0.5773502691896259
 41
3.742856870268573
 42
5.681921090500114
  0
ELLIPSE
  5
3378
330
3332
100
AcDbEntity
  8
0
100
AcDbEllipse
 10
13.25647400205018
 20
-58.68466514167818
 30
0.0
 11
-2.499999999999999
 21
-0.00000000000015
 31
0.0
210
0.0
220
0.0
230
1.0
 40
0.5773502691896259
 41
3.742856870268573
 42
5.681921090500114
  0
ELLIPSE
  5
3379
330
3332
100
AcDbEntity
  8
0
100
AcDbEllipse
 10
34.00581565944713
 20
-46.16940570525205
 30
0.0
 11
-2.499999999999999
 21
-0.00000000000015
 31
0.0
210
0.0
220
0.0
230
1.0
 40
0.5773502691896259
 41
3.742856870268573
 42
5.681921090500114
  0
ELLIPSE
  5
337A
330
3332
100
AcDbEntity
  8
0
100
AcDbEllipse
 10
18.32784397184955
 20
-49.36517324498614
 30
0.0
 11
-2.499999999999999
 21
-0.00000000000015
 31
0.0
210
0.0
220
0.0
230
1.0
 40
0.5773502691896259
 41
3.742856870268573
 42
5.681921090500114
  0
ELLIPSE
  5
337B
330
3332
100
AcDbEntity
  8
0
100
AcDbEllipse
 10
49.68378734704472
 20
-42.97363816551794
 30
0.0
 11
-2.499999999999999
 21
-0.00000000000015
 31
0.0
210
0.0
220
0.0
230
1.0
 40
0.5773502691896259
 41
3.742856870268573
 42
5.681921090500116
  0
ELLIPSE
  5
337C
330
3332
100
AcDbEntity
  8
0
100
AcDbEllipse
 10
39.0771856292465
 20
-36.84991380856002
 30
0.0
 11
-2.499999999999999
 21
-0.00000000000015
 31
0.0
210
0.0
220
0.0
230
1.0
 40
0.5773502691896259
 41
3.742856870268578
 42
5.68192109050012
  0
ELLIPSE
  5
337D
330
3332
100
AcDbEntity
  8
0
100
AcDbEllipse
 10
-32.99302398318943
 20
-42.59696058207548
 30
0.0
 11
-2.499999999999999
 21
0.000000000000149
 31
0.0
210
0.0
220
0.0
230
1.0
 40
0.577350269189626
 41
0.0
 42
6.283185307179586
  0
ELLIPSE
  5
337E
330
3332
100
AcDbEntity
  8
0
100
AcDbEllipse
 10
-11.31595876939353
 20
-30.61732259066984
 30
0.0
 11
-2.499999999999999
 21
0.000000000000149
 31
0.0
210
0.0
220
0.0
230
1.0
 40
0.577350269189626
 41
0.0
 42
6.283185307179586
  0
ELLIPSE
  5
337F
330
3332
100
AcDbEntity
  8
0
100
AcDbEllipse
 10
-0.2454952733958393
 20
-12.51396024230623
 30
0.0
 11
-2.499999999999999
 21
0.000000000000149
 31
0.0
210
0.0
220
0.0
230
1.0
 40
0.577350269189626
 41
0.0
 42
6.283185307179586
  0
ELLIPSE
  5
3380
330
3332
100
AcDbEntity
  8
0
100
AcDbEllipse
 10
10.36110644440235
 20
-18.63768459926419
 30
0.0
 11
-2.499999999999999
 21
0.000000000000149
 31
0.0
210
0.0
220
0.0
230
1.0
 40
0.577350269189626
 41
0.0
 42
6.283185307179586
  0
ELLIPSE
  5
3381
330
3332
100
AcDbEntity
  8
0
100
AcDbEllipse
 10
-5.780727021394698
 20
-21.56564141648804
 30
0.0
 11
-2.499999999999999
 21
0.000000000000149
 31
0.0
210
0.0
220
0.0
230
1.0
 40
0.577350269189626
 41
0.0
 42
6.283185307179586
  0
ELLIPSE
  5
3382
330
3332
100
AcDbEntity
  8
0
100
AcDbEllipse
 10
-27.45779223519059
 20
-33.54527940789368
 30
0.0
 11
-2.499999999999999
 21
0.000000000000149
 31
0.0
210
0.0
220
0.0
230
1.0
 40
0.577350269189626
 41
0.0
 42
6.283185307179586
  0
ELLIPSE
  5
3383
330
3332
100
AcDbEntity
  8
0
100
AcDbEllipse
 10
-50.94127955013612
 20
-46.5232205652498
 30
0.0
 11
-2.499999999999999
 21
0.000000000000149
 31
0.0
210
0.0
220
0.0
230
1.0
 40
0.577350269189626
 41
0.0
 42
6.283185307179586
  0
ELLIPSE
  5
3384
330
3332
100
AcDbEntity
  8
0
100
AcDbEllipse
 10
-32.99302398318943
 20
-44.22995374393092
 30
0.0
 11
-2.499999999999999
 21
-0.00000000000015
 31
0.0
210
0.0
220
0.0
230
1.0
 40
0.5773502691896259
 41
3.742856870268573
 42
5.681921090500114
  0
ELLIPSE
  5
3385
330
3332
100
AcDbEntity
  8
0
100
AcDbEllipse
 10
-11.31595876939353
 20
-32.25031575252528
 30
0.0
 11
-2.499999999999999
 21
-0.00000000000015
 31
0.0
210
0.0
220
0.0
230
1.0
 40
0.5773502691896259
 41
3.742856870268576
 42
5.681921090500117
  0
ELLIPSE
  5
3386
330
3332
100
AcDbEntity
  8
0
100
AcDbEllipse
 10
-5.780727021394698
 20
-23.19863457834348
 30
0.0
 11
-2.499999999999999
 21
-0.00000000000015
 31
0.0
210
0.0
220
0.0
230
1.0
 40
0.5773502691896259
 41
3.742856870268576
 42
5.681921090500117
  0
ELLIPSE
  5
3387
330
3332
100
AcDbEntity
  8
0
100
AcDbEllipse
 10
-27.45779223519059
 20
-35.17827256974913
 30
0.0
 11
-2.499999999999999
 21
-0.00000000000015
 31
0.0
210
0.0
220
0.0
230
1.0
 40
0.5773502691896259
 41
3.742856870268576
 42
5.681921090500117
  0
ELLIPSE
  5
3388
330
3332
100
AcDbEntity
  8
0
100
AcDbEllipse
 10
-50.94127955013612
 20
-48.15621372710524
 30
0.0
 11
-2.499999999999999
 21
-0.00000000000015
 31
0.0
210
0.0
220
0.0
230
1.0
 40
0.5773502691896259
 41
3.742856870268575
 42
5.681921090500121
  0
ELLIPSE
  5
3389
330
3332
100
AcDbEntity
  8
0
100
AcDbEllipse
 10
-0.2454952733958393
 20
-14.14695340416168
 30
0.0
 11
-2.499999999999999
 21
-0.00000000000015
 31
0.0
210
0.0
220
0.0
230
1.0
 40
0.5773502691896259
 41
3.742856870268576
 42
5.681921090500119
  0
ELLIPSE
  5
338A
330
3332
100
AcDbEntity
  8
0
100
AcDbEllipse
 10
10.36110644440235
 20
-20.27067776111964
 30
0.0
 11
-2.499999999999999
 21
-0.00000000000015
 31
0.0
210
0.0
220
0.0
230
1.0
 40
0.5773502691896259
 41
3.742856870268576
 42
5.681921090500119
  0
SPLINE
  5
338B
330
3332
100
AcDbEntity
  8
0
100
AcDbSpline
210
0.0
220
0.0
230
1.0
 70
     8
 71
     3
 72
    12
 73
     8
 74
     0
 42
0.000000001
 43
0.0000000001
 40
-10.12912199103394
 40
-10.12912199103394
 40
-10.12912199103394
 40
-10.12912199103394
 40
-9.37191672010098
 40
-9.37191672010098
 40
-8.934973613038435
 40
-8.934973613038435
 40
-8.844000165124763
 40
-8.844000165124763
 40
-8.844000165124763
 40
-8.844000165124763
 10
22.14144003788594
 20
-16.86584927077728
 30
0.0
 10
21.1432136216872
 20
-18.20428227427349
 30
0.0
 10
20.04322540803167
 20
-19.51953811519175
 30
0.0
 10
18.00456029683756
 20
-21.49338223026573
 30
0.0
 10
17.19292170428726
 20
-22.19353219704175
 30
0.0
 10
16.11477964400672
 20
-22.99649357066067
 30
0.0
 10
15.92552321454251
 20
-23.13331994713318
 30
0.0
 10
15.7327803447767
 20
-23.26847546964259
 30
0.0
  0
SPLINE
  5
338C
330
3332
100
AcDbEntity
  8
0
100
AcDbSpline
210
0.0
220
0.0
230
1.0
 70
     8
 71
     3
 72
    12
 73
     8
 74
     0
 42
0.000000001
 43
0.0000000001
 40
-1.285121826198311
 40
-1.285121826198311
 40
-1.285121826198311
 40
-1.285121826198311
 40
-1.194148377984692
 40
-1.194148377984692
 40
-0.7572045941570882
 40
-0.7572045941570882
 40
0.0
 40
0.0
 40
0.0
 40
0.0
 10
31.05642056252501
 20
-32.11558327432455
 30
0.0
 10
31.29051679714071
 20
-32.0043031252629
 30
0.0
 10
31.52750703179425
 20
-31.89503587539651
 30
0.0
 10
32.91827871021303
 20
-31.2725694688544
 30
0.0
 10
34.13097599606619
 20
-30.8039690574966
 30
0.0
 10
37.54977461705379
 20
-29.62694552384872
 30
0.0
 10
39.82786254814843
 20
-28.99186765038359
 30
0.0
 10
42.14609444073559
 20
-28.41554187538702
 30
0.0
  0
ELLIPSE
  5
338D
330
3332
100
AcDbEntity
  8
0
100
AcDbEllipse
 10
22.14144003788594
 20
-14.66130850227242
 30
0.0
 11
-2.164337617852532
 21
1.614200320885987
 31
0.0
210
0.0
220
0.0
230
0.9999999999999998
 40
0.7499274682437349
 41
2.080758335652681
 42
2.41400015083904
  0
SPLINE
  5
338E
330
3332
100
AcDbEntity
  8
0
100
AcDbSpline
210
0.0
220
0.0
230
1.0
 70
     8
 71
     3
 72
    12
 73
     8
 74
     0
 42
0.000000001
 43
0.0000000001
 40
-1.285121852990641
 40
-1.285121852990641
 40
-1.285121852990641
 40
-1.285121852990641
 40
-1.194148377984695
 40
-1.194148377984695
 40
-0.7571443329287849
 40
-0.7571443329287849
 40
0.0
 40
0.0
 40
0.0
 40
0.0
 10
28.01748103634177
 20
-1.990749716075383
 30
0.0
 10
27.99680719613367
 20
-2.225257577709203
 30
0.0
 10
27.97293743837127
 20
-2.457561895130169
 30
0.0
 10
27.81660546970041
 20
-3.792895092159418
 30
0.0
 10
27.61603919398277
 20
-4.84600892221403
 30
0.0
 10
26.92593313427576
 20
-7.598432443044902
 30
0.0
 10
26.33692460249173
 20
-9.208542405833576
 30
0.0
 10
25.67697394377049
 20
-10.74212491388669
 30
0.0
  0
ELLIPSE
  5
338F
330
3332
100
AcDbEntity
  8
0
100
AcDbEllipse
 10
23.7677856345668
 20
-11.84439529813912
 30
0.0
 11
-2.480107293608772
 21
1.067271198987671
 31
0.0
210
0.0
220
0.0
230
1.0
 40
0.7499274682299984
 41
3.869185156341812
 42
4.202426971520708
  0
SPLINE
  5
3390
330
3332
100
AcDbEntity
  8
0
100
AcDbSpline
210
0.0
220
0.0
230
1.0
 70
     8
 71
     3
 72
    12
 73
     8
 74
     0
 42
0.000000001
 43
0.0000000001
 40
-10.12912192722581
 40
-10.12912192722581
 40
-10.12912192722581
 40
-10.12912192722581
 40
-9.371978210384989
 40
-9.371978210384989
 40
-8.934973549230281
 40
-8.934973549230281
 40
-8.844000073949569
 40
-8.844000073949569
 40
-8.844000073949569
 40
-8.844000073949569
 10
45.68162834668867
 20
-22.29181751853618
 30
0.0
 10
45.02167822496686
 20
-19.9961914975049
 30
0.0
 10
44.43267012116431
 20
-17.70595493202586
 30
0.0
 10
43.74256366242479
 20
-14.15666545862967
 30
0.0
 10
43.54199700337129
 20
-12.87195579198858
 30
0.0
 10
43.38566485219963
 20
-11.35610421787278
 30
0.0
 10
43.36179509435146
 20
-11.09623747747594
 30
0.0
 10
43.34112125409006
 20
-10.83785752075733
 30
0.0
  0
SPLINE
  5
3391
330
3332
100
AcDbEntity
  8
0
100
AcDbSpline
210
0.0
220
0.0
230
1.0
 70
     8
 71
     3
 72
    14
 73
    10
 74
     0
 42
0.000000001
 43
0.0000000001
 40
0.0
 40
0.0
 40
0.0
 40
0.0
 40
0.0618495917365337
 40
0.0618495917365337
 40
0.1784258413984106
 40
0.1784258413984106
 40
0.2970616077705658
 40
0.2970616077705658
 40
0.3712089617531627
 40
0.3712089617531627
 40
0.3712089617531627
 40
0.3712089617531627
 10
25.67697394377049
 20
-10.74212491389615
 30
0.0
 10
25.62306390702616
 20
-11.05100044556234
 30
0.0
 10
25.53832513804042
 20
-11.39131736239486
 30
0.0
 10
25.2030286412506
 20
-12.43710055194264
 30
0.0
 10
24.86774193968671
 20
-13.20229548096859
 30
0.0
 10
24.03312279732477
 20
-14.6874154603896
 30
0.0
 10
23.53559696006526
 20
-15.39742602899304
 30
0.0
 10
22.73529840284243
 20
-16.32237698616511
 30
0.0
 10
22.42980626226899
 20
-16.62473363853781
 30
0.0
 10
22.14144003792643
 20
-16.86584927076635
 30
0.0
  0
SPLINE
  5
3392
330
3332
100
AcDbEntity
  8
0
100
AcDbSpline
210
0.0
220
0.0
230
1.0
 70
     8
 71
     3
 72
    12
 73
     8
 74
     0
 42
0.000000001
 43
0.0000000001
 40
8.823154320464148
 40
8.823154320464148
 40
8.823154320464148
 40
8.823154320464148
 40
8.934973549230281
 40
8.934973549230281
 40
9.371978210384989
 40
9.371978210384989
 40
10.12912192722581
 40
10.12912192722581
 40
10.12912192722581
 40
10.12912192722581
 10
40.76581003919776
 20
-10.42431530603613
 30
0.0
 10
40.78637026048455
 20
-10.76627493049701
 30
0.0
 10
40.81119928869123
 20
-11.11051848077608
 30
0.0
 10
40.95320679312869
 20
-12.80900407414681
 30
0.0
 10
41.12932222120591
 20
-14.18813502422805
 30
0.0
 10
41.74422373988059
 20
-17.97029865085037
 30
0.0
 10
42.27788237731234
 20
-20.37989926705486
 30
0.0
 10
42.8882281052241
 20
-22.77010812367805
 30
0.0
  0
ELLIPSE
  5
3393
330
3332
100
AcDbEntity
  8
0
100
AcDbEllipse
 10
43.772440037485
 20
-23.39408790278861
 30
0.0
 11
2.594899835200525
 21
0.7459858210960043
 31
0.0
210
0.0
220
0.0
230
1.0
 40
0.3229171086563163
 41
0.6561001224515586
 42
1.824392085653229
  0
SPLINE
  5
3394
330
3332
100
AcDbEntity
  8
0
100
AcDbSpline
210
0.0
220
0.0
230
1.0
 70
     8
 71
     3
 72
    14
 73
    10
 74
     0
 42
0.000000001
 43
0.0000000001
 40
-0.3712089617531473
 40
-0.3712089617531473
 40
-0.3712089617531473
 40
-0.3712089617531473
 40
-0.2970616077705527
 40
-0.2970616077705527
 40
-0.1784258413984012
 40
-0.1784258413984012
 40
-0.0618495917364938
 40
-0.0618495917364938
 40
0.0
 40
0.0
 40
0.0
 40
0.0
 10
42.88822810521411
 20
-22.77010812363894
 30
0.0
 10
42.94799947982548
 20
-23.00418212867196
 30
0.0
 10
42.97360414007607
 20
-23.25287793517536
 30
0.0
 10
42.93736926812798
 20
-23.90871953473591
 30
0.0
 10
42.81030802490186
 20
-24.32108912454262
 30
0.0
 10
42.37365327194048
 20
-25.0270669599227
 30
0.0
 10
42.07000358104586
 20
-25.3188573438346
 30
0.0
 10
41.54853179269678
 20
-25.62276647521223
 30
0.0
 10
41.35762786378431
 20
-25.70279350559913
 30
0.0
 10
41.16360613444523
 20
-25.75724100077393
 30
0.0
  0
ELLIPSE
  5
3395
330
3332
100
AcDbEntity
  8
0
100
AcDbEllipse
 10
42.1460944407356
 20
-26.21100110688216
 30
0.0
 11
0.6514072457246899
 21
-2.620242088093651
 31
0.0
210
0.0
220
0.0
230
1.0
 40
0.3229171086524311
 41
4.458793221520551
 42
5.627085184713623
  0
SPLINE
  5
3396
330
3332
100
AcDbEntity
  8
0
100
AcDbSpline
210
0.0
220
0.0
230
1.0
 70
     8
 71
     3
 72
    14
 73
    10
 74
     0
 42
0.000000001
 43
0.0000000001
 40
0.0
 40
0.0
 40
0.0
 40
0.0
 40
0.0618495917364938
 40
0.0618495917364938
 40
0.1784258413984012
 40
0.1784258413984012
 40
0.2970616077705527
 40
0.2970616077705527
 40
0.3712089617531473
 40
0.3712089617531473
 40
0.3712089617531473
 40
0.3712089617531473
 10
42.14609444074379
 20
-28.41554187538229
 30
0.0
 10
42.49445355288786
 20
-28.276666596661
 30
0.0
 10
42.84225130747572
 20
-28.08822685597889
 30
0.0
 10
43.80785389157682
 20
-27.40635105561236
 30
0.0
 10
44.39098920929509
 20
-26.78425159184119
 30
0.0
 10
45.27880776594064
 20
-25.32984630857731
 30
0.0
 10
45.57264956033222
 20
-24.50223870299449
 30
0.0
 10
45.74861370623949
 20
-23.21682810538501
 30
0.0
 10
45.74625749724501
 20
-22.7367351255197
 30
0.0
 10
45.68162834667787
 20
-22.29181751856432
 30
0.0
  0
SPLINE
  5
3397
330
3332
100
AcDbEntity
  8
0
100
AcDbSpline
210
0.0
220
0.0
230
1.0
 70
     8
 71
     3
 72
    12
 73
     8
 74
     0
 42
0.000000001
 43
0.0000000001
 40
0.0
 40
0.0
 40
0.0
 40
0.0
 40
0.7572045941570882
 40
0.7572045941570882
 40
1.194148377984692
 40
1.194148377984692
 40
1.305967580013172
 40
1.305967580013172
 40
1.305967580013172
 40
1.305967580013172
 10
41.16360613444523
 20
-25.75724100077393
 30
0.0
 10
38.78826070859578
 20
-26.42382411520537
 30
0.0
 10
36.4344674414747
 20
-27.16652853043082
 30
0.0
 10
32.85158947207726
 20
-28.52511976123993
 30
0.0
 10
31.56935515287368
 20
-29.062096026581
 30
0.0
 10
30.02759074930887
 20
-29.78827617453092
 30
0.0
 10
29.71705357981976
 20
-29.93890120867709
 30
0.0
 10
29.41062689159302
 20
-30.09206944693745
 30
0.0
  0
LINE
  5
3398
330
3332
100
AcDbEntity
  8
0
100
AcDbLine
 10
22.14144003784821
 20
-16.86584927079906
 30
0.0
 11
1.684623301940333
 21
-5.055100621603356
 31
0.0
  0
LINE
  5
3399
330
3332
100
AcDbEntity
  8
0
100
AcDbLine
 10
62.60291117662603
 20
-40.22629052462426
 30
0.0
 11
42.1460944407362
 21
-28.41554187538667
 31
0.0
  0
LINE
  5
339A
330
3332
100
AcDbEntity
  8
0
100
AcDbLine
 10
66.13844508255901
 20
-34.10256616735678
 30
0.0
 11
45.68162834668867
 21
-22.29181751849253
 31
0.0
  0
LINE
  5
339B
330
3332
100
AcDbEntity
  8
0
100
AcDbLine
 10
25.67697394377049
 20
-10.74212491388739
 30
0.0
 11
5.220157207872837
 21
1.068623735664386
 31
0.0
  0
LINE
  5
339C
330
3332
100
AcDbEntity
  8
0
100
AcDbLine
 10
1.684623301940333
 20
-5.055100621603356
 30
0.0
 11
-61.90143465852759
 21
-40.19537206305992
 31
0.0
  0
ELLIPSE
  5
339D
330
3332
100
AcDbEntity
  8
0
100
AcDbEllipse
 10
-1421.779799746694
 20
744.9307680857434
 30
0.0
 11
2013.158427085438
 21
-0.0000000000000711
 31
0.0
210
0.0
220
0.0
230
1.0
 40
0.5773502691896261
 41
5.497787143782137
 42
5.541513483265806
  0
ELLIPSE
  5
339E
330
3332
100
AcDbEntity
  8
0
100
AcDbEllipse
 10
-1354.604655533967
 20
859.6485377064476
 30
0.0
 11
1006.579213542714
 21
-1743.446339698703
 31
0.0
210
0.0
220
0.0
230
1.0
 40
0.5773502691896259
 41
0.7416718239138227
 42
0.7853981633972272
  0
ELLIPSE
  5
339F
330
3332
100
AcDbEntity
  8
0
100
AcDbEllipse
 10
-1356.01886909634
 20
858.83204112552
 30
0.0
 11
-1006.579213542819
 21
1743.446339698644
 31
0.0
210
0.0
220
0.0
230
1.0
 40
0.5773502691896258
 41
3.883264477503274
 42
3.926990816986766
  0
LINE
  5
33A0
330
3332
100
AcDbEntity
  8
0
100
AcDbLine
 10
3.859495991821284
 20
73.70590097635785
 30
0.0
 11
5.220157207872837
 21
1.068623735664386
 31
0.0
  0
SPLINE
  5
33A1
330
3332
100
AcDbEntity
  8
0
100
AcDbSpline
210
0.0
220
0.0
230
1.0
 70
     8
 71
     3
 72
    11
 73
     7
 74
     0
 42
0.000000001
 43
0.0000000001
 40
0.0
 40
0.0
 40
0.0
 40
0.0
 40
0.9376145186213978
 40
0.9376145186213978
 40
0.9376145186213978
 40
0.9999999999999998
 40
0.9999999999999998
 40
0.9999999999999998
 40
0.9999999999999998
 10
67.55265864493198
 20
-33.28606958630513
 30
0.0
 10
67.46340449962985
 20
-36.03867061728541
 30
0.0
 10
65.40945564905976
 20
-39.82776410295058
 30
0.0
 10
63.07022754174553
 20
-41.54279681594345
 30
0.0
 10
62.91458375783342
 20
-41.65690889426048
 30
0.0
 10
62.75855278076291
 20
-41.76256660408931
 30
0.0
 10
62.60291117662622
 20
-41.85928368647977
 30
0.0
  0
ELLIPSE
  5
33A2
330
3332
100
AcDbEntity
  8
0
100
AcDbEllipse
 10
-1421.779799746694
 20
743.2977749238879
 30
0.0
 11
-2013.158427085438
 21
0.0000000001198686
 31
0.0
210
0.0
220
0.0
230
1.0
 40
0.577350269189626
 41
2.356194490192597
 42
2.399920829676275
  0
SPLINE
  5
33A3
330
3332
100
AcDbEntity
  8
0
100
AcDbSpline
210
0.0
220
0.0
230
1.0
 70
     8
 71
     3
 72
    11
 73
     7
 74
     0
 42
0.000000001
 43
0.0000000001
 40
-1.0
 40
-1.0
 40
-1.0
 40
-1.0
 40
-0.9394681376702754
 40
-0.9394681376702754
 40
-0.9394681376702754
 40
0.0
 40
0.0
 40
0.0
 40
0.0
 10
5.220157207872873
 20
1.068623735664737
 30
0.0
 10
5.223038306424476
 20
0.9375890667457875
 30
0.0
 10
5.220415356894978
 20
0.8035743966715891
 30
0.0
 10
5.212311555630004
 20
0.6671775097464395
 30
0.0
 10
5.086538734681753
 20
-1.449732897628743
 30
0.0
 10
3.46820605545389
 20
-4.076981417796876
 30
0.0
 10
1.684623301940337
 20
-5.055100621603356
 30
0.0
  0
LINE
  5
33A4
330
3332
100
AcDbEntity
  8
0
100
AcDbLine
 10
67.49910629861054
 20
36.96355483461019
 30
0.0
 11
68.91331986098363
 21
37.78005141553791
 31
0.0
  0
LINE
  5
33A5
330
3332
100
AcDbEntity
  8
0
100
AcDbLine
 10
66.13844508255901
 20
-34.10256616735678
 30
0.0
 11
67.5526586449321
 21
-33.28606958630519
 31
0.0
  0
SPLINE
  5
33A6
330
3332
100
AcDbEntity
  8
0
100
AcDbSpline
210
0.0
220
0.0
230
1.0
 70
     8
 71
     3
 72
    11
 73
     7
 74
     0
 42
0.000000001
 43
0.0000000001
 40
-1.0
 40
-1.0
 40
-1.0
 40
-1.0
 40
-0.9376145186213978
 40
-0.9376145186213978
 40
-0.9376145186213978
 40
0.0
 40
0.0
 40
0.0
 40
0.0
 10
62.60291117662621
 20
-40.22629052462433
 30
0.0
 10
62.71238699436334
 20
-40.15622727143899
 30
0.0
 10
62.82224672139523
 20
-40.07983893124078
 30
0.0
 10
62.93193569133392
 20
-39.99747284552176
 30
0.0
 10
64.58049186938111
 20
-38.75956241980102
 30
0.0
 10
66.04919093720411
 20
-36.05398664522183
 30
0.0
 10
66.13844508255893
 20
-34.10256616735674
 30
0.0
  0
LINE
  5
33A7
330
3332
100
AcDbEntity
  8
0
100
AcDbLine
 10
62.60291117662603
 20
-40.22629052462426
 30
0.0
 11
62.60291117662603
 21
-41.85928368647971
 31
0.0
  0
LINE
  5
33A8
330
3332
100
AcDbEntity
  8
0
100
AcDbLine
 10
1.73817564826165
 20
-78.57071136666305
 30
0.0
 11
1.73817564826165
 21
-76.93771820480759
 31
0.0
  0
LINE
  5
33A9
330
3332
100
AcDbEntity
  8
0
100
AcDbLine
 10
-61.9014346585276
 20
-48.36033787233718
 30
0.0
 11
-61.9014346585276
 21
-40.19537206305992
 31
0.0
  0
LINE
  5
33AA
330
3332
100
AcDbEntity
  8
0
100
AcDbLine
 10
1.73817564826165
 20
-76.93771820480759
 30
0.0
 11
-12.40395997546929
 21
-76.93771820480759
 31
0.0
  0
LINE
  5
33AB
330
3332
100
AcDbEntity
  8
0
100
AcDbLine
 10
68.91331986098363
 20
37.78005141553791
 30
0.0
 11
61.84225204911817
 21
50.0275001294538
 31
0.0
  0
LINE
  5
33AC
330
3332
100
AcDbEntity
  8
0
100
AcDbLine
 10
60.42803848674508
 20
49.21100354852608
 30
0.0
 11
67.49910629861054
 21
36.96355483461019
 31
0.0
  0
LINE
  5
33AD
330
3332
100
AcDbEntity
  8
0
100
AcDbLine
 10
3.859495991821284
 20
73.70590097635785
 30
0.0
 11
10.93056380368675
 21
77.78838388099647
 31
0.0
  0
LINE
  5
33AE
330
3332
100
AcDbEntity
  8
0
100
AcDbLine
 10
-12.40395997546929
 20
-78.57071136666305
 30
0.0
 11
1.73817564826165
 21
-78.57071136666305
 31
0.0
  0
LINE
  5
33AF
330
3332
100
AcDbEntity
  8
0
100
AcDbLine
 10
-61.9014346585276
 20
-49.99333103419264
 30
0.0
 11
-61.9014346585276
 21
-48.36033787233718
 31
0.0
  0
LINE
  5
33B0
330
3332
100
AcDbEntity
  8
0
100
AcDbLine
 10
-12.40395997546929
 20
-76.93771820480759
 30
0.0
 11
-12.40395997546929
 21
-78.57071136666305
 31
0.0
  0
LINE
  5
33B1
330
3332
100
AcDbEntity
  8
0
100
AcDbLine
 10
61.84225204911817
 20
50.0275001294538
 30
0.0
 11
60.42803848674508
 21
49.21100354852608
 31
0.0
  0
LINE
  5
33B2
330
3332
100
AcDbEntity
  8
0
100
AcDbLine
 10
10.93056380368675
 20
77.78838388099647
 30
0.0
 11
12.34477736605985
 21
78.60488046192419
 31
0.0
  0
LINE
  5
33B3
330
3332
100
AcDbEntity
  8
0
100
AcDbLine
 10
-61.9014346585276
 20
-48.36033787233718
 30
0.0
 11
-12.40395997546929
 21
-76.93771820480759
 31
0.0
  0
LINE
  5
33B4
330
3332
100
AcDbEntity
  8
0
100
AcDbLine
 10
61.84225204911817
 20
50.0275001294538
 30
0.0
 11
12.34477736605985
 21
78.60488046192419
 31
0.0
  0
LINE
  5
33B5
330
3332
100
AcDbEntity
  8
0
100
AcDbLine
 10
10.93056380368675
 20
77.78838388099647
 30
0.0
 11
60.42803848674508
 21
49.21100354852608
 31
0.0
  0
LINE
  5
33B6
330
3332
100
AcDbEntity
  8
0
100
AcDbLine
 10
-61.9014346585276
 20
-49.99333103419264
 30
0.0
 11
-12.40395997546929
 21
-78.57071136666305
 31
0.0
  0
ELLIPSE
  5
33B7
330
3332
100
AcDbEntity
  8
0
100
AcDbEllipse
 10
39.70980979797923
 20
28.40222083325291
 30
0.0
 11
-7.999999999999998
 21
-0.0000000000000011
 31
0.0
210
0.0
220
0.0
230
1.0
 40
0.5773502691896259
 41
0.5241283871843195
 42
1.046667939610577
  0
ELLIPSE
  5
33B8
330
3332
100
AcDbEntity
  8
0
100
AcDbEllipse
 10
34.24493354400787
 20
25.24707305693455
 30
0.0
 11
-1.033229773278998
 21
1.789606463211852
 31
0.0
210
0.0
220
0.0
230
1.0
 40
0.5773502691896259
 41
3.926990816987
 42
7.068583470576797
  0
ELLIPSE
  5
33B9
330
3332
100
AcDbEntity
  8
0
100
AcDbEllipse
 10
36.97716022341114
 20
17.97741706109315
 30
0.0
 11
-8.999999999999996
 21
-0.0000000000005379
 31
0.0
210
0.0
220
0.0
230
1.0
 40
0.577350269189626
 41
3.926990816987
 42
4.188260593200197
  0
ELLIPSE
  5
33BA
330
3332
100
AcDbEntity
  8
0
100
AcDbEllipse
 10
35.67930114521592
 20
26.07520557760889
 30
0.0
 11
-5.417724955216367
 21
9.38377488386857
 31
0.0
210
0.0
220
0.0
230
1.0
 40
0.5773502691896259
 41
3.92699081698724
 42
7.068583470577033
  0
ELLIPSE
  5
33BB
330
3332
100
AcDbEntity
  8
0
100
AcDbEllipse
 10
21.65352000566283
 20
26.82452486577511
 30
0.0
 11
-9.0
 21
-0.0000000000005376
 31
0.0
210
0.0
220
0.0
230
1.0
 40
0.5773502691896258
 41
3.665721040773732
 42
3.926990816986929
  0
ELLIPSE
  5
33BC
330
3332
100
AcDbEntity
  8
0
100
AcDbEllipse
 10
35.46332590025477
 20
25.95051221179228
 30
0.0
 11
-4.255341460278048
 21
7.370467612754905
 31
0.0
210
0.0
220
0.0
230
1.0
 40
0.5773502691896258
 41
3.926990816987002
 42
7.068583470576793
  0
LINE
  5
33BD
330
3332
100
AcDbEntity
  8
0
100
AcDbLine
 10
41.48128750590789
 20
22.47604045879562
 30
0.0
 11
35.70614110242656
 21
24.40344447973961
 31
0.0
  0
LINE
  5
33BE
330
3332
100
AcDbEntity
  8
0
100
AcDbLine
 10
32.78372598558919
 20
26.0907016341295
 30
0.0
 11
29.44536429460164
 21
29.42498396478895
 31
0.0
  0
ELLIPSE
  5
33BF
330
3332
100
AcDbEntity
  8
0
100
AcDbEllipse
 10
17.78949958119627
 20
7.283904117887338
 30
0.0
 11
-2.749999999999999
 21
4.763139720814413
 31
0.0
210
0.0
220
0.0
230
1.0
 40
0.5773502691896258
 41
0.2600508977278968
 42
2.881541755861897
  0
ELLIPSE
  5
33C0
330
3332
100
AcDbEntity
  8
0
100
AcDbEllipse
 10
56.39752983398175
 20
-15.00645254143958
 30
0.0
 11
-2.749999999999999
 21
4.763139720814413
 31
0.0
210
0.0
220
0.0
230
1.0
 40
0.5773502691896258
 41
0.2600508977278962
 42
2.881541755861896
  0
ELLIPSE
  5
33C1
330
3332
100
AcDbEntity
  8
0
100
AcDbEllipse
 10
54.98331627160866
 20
-15.8229491223673
 30
0.0
 11
2.749999999999999
 21
-4.763139720814412
 31
0.0
210
0.0
220
0.0
230
0.9999999999999998
 40
0.5773502691896258
 41
0.0
 42
6.283185307179586
  0
ELLIPSE
  5
33C2
330
3332
100
AcDbEntity
  8
0
100
AcDbEllipse
 10
16.37528601882318
 20
6.46740753695961
 30
0.0
 11
2.749999999999999
 21
-4.763139720814412
 31
0.0
210
0.0
220
0.0
230
0.9999999999999998
 40
0.5773502691896258
 41
0.0
 42
6.283185307179586
  0
ELLIPSE
  5
33C3
330
3332
100
AcDbEntity
  8
0
100
AcDbEllipse
 10
50.54946445771405
 20
-2.648608032007888
 30
0.0
 11
1.250000000000128
 21
-2.165063509461021
 31
0.0
210
0.0
220
0.0
230
1.0
 40
0.5773502691896258
 41
3.742856870268578
 42
5.681921090500122
  0
ELLIPSE
  5
33C4
330
3332
100
AcDbEntity
  8
0
100
AcDbEllipse
 10
51.05013830272041
 20
21.55722521663326
 30
0.0
 11
1.250000000000128
 21
-2.165063509461021
 31
0.0
210
0.0
220
0.0
230
1.0
 40
0.5773502691896258
 41
3.742856870268578
 42
5.681921090500121
  0
ELLIPSE
  5
33C5
330
3332
100
AcDbEntity
  8
0
100
AcDbEllipse
 10
47.69901879217947
 20
52.06937530060108
 30
0.0
 11
1.250000000000128
 21
-2.165063509461021
 31
0.0
210
0.0
220
0.0
230
1.0
 40
0.5773502691896258
 41
3.742856870268576
 42
5.681921090500122
  0
ELLIPSE
  5
33C6
330
3332
100
AcDbEntity
  8
0
100
AcDbEllipse
 10
26.4869129897908
 20
62.27494884336969
 30
0.0
 11
1.250000000000128
 21
-2.165063509461021
 31
0.0
210
0.0
220
0.0
230
1.0
 40
0.5773502691896258
 41
3.742856870268573
 42
5.681921090500119
  0
ELLIPSE
  5
33C7
330
3332
100
AcDbEntity
  8
0
100
AcDbEllipse
 10
23.45389601024289
 20
37.48992313281729
 30
0.0
 11
1.250000000000128
 21
-2.165063509461021
 31
0.0
210
0.0
220
0.0
230
1.0
 40
0.5773502691896258
 41
3.742856870268578
 42
5.681921090500118
  0
ELLIPSE
  5
33C8
330
3332
100
AcDbEntity
  8
0
100
AcDbEllipse
 10
13.11788032972883
 20
29.16873440207508
 30
0.0
 11
1.250000000000128
 21
-2.165063509461021
 31
0.0
210
0.0
220
0.0
230
1.0
 40
0.5773502691896258
 41
3.742856870268578
 42
5.68192109050012
  0
ELLIPSE
  5
33C9
330
3332
100
AcDbEntity
  8
0
100
AcDbEllipse
 10
19.60912091884257
 20
56.03963668536536
 30
0.0
 11
1.250000000000128
 21
-2.165063509461021
 31
0.0
210
0.0
220
0.0
230
1.0
 40
0.5773502691896258
 41
3.742856870268573
 42
5.681921090500118
  0
ELLIPSE
  5
33CA
330
3332
100
AcDbEntity
  8
0
100
AcDbEllipse
 10
23.91775778844428
 20
12.72721498247416
 30
0.0
 11
1.250000000000129
 21
-2.165063509461021
 31
0.0
210
0.0
220
0.0
230
1.0
 40
0.5773502691896258
 41
3.742856870268575
 42
5.681921090500118
  0
ELLIPSE
  5
33CB
330
3332
100
AcDbEntity
  8
0
100
AcDbEllipse
 10
54.75362200435501
 20
37.79019097542896
 30
0.0
 11
1.250000000000128
 21
-2.165063509461021
 31
0.0
210
0.0
220
0.0
230
1.0
 40
0.5773502691896258
 41
3.742856870268578
 42
5.681921090500122
  0
ELLIPSE
  5
33CC
330
3332
100
AcDbEntity
  8
0
100
AcDbEllipse
 10
61.40313120598662
 20
1.291231810779018
 30
0.0
 11
1.250000000000128
 21
-2.165063509461021
 31
0.0
210
0.0
220
0.0
230
1.0
 40
0.5773502691896258
 41
3.742856870268578
 42
5.681921090500122
  0
ELLIPSE
  5
33CD
330
3332
100
AcDbEntity
  8
0
100
AcDbEllipse
 10
49.13525089534096
 20
-3.465104612935612
 30
0.0
 11
1.249999999999999
 21
-2.165063509461097
 31
0.0
210
0.0
220
0.0
230
0.9999999999999998
 40
0.5773502691896258
 41
0.0
 42
6.283185307179586
  0
ELLIPSE
  5
33CE
330
3332
100
AcDbEntity
  8
0
100
AcDbEllipse
 10
49.63592474034732
 20
20.74072863570554
 30
0.0
 11
1.249999999999999
 21
-2.165063509461097
 31
0.0
210
0.0
220
0.0
230
0.9999999999999998
 40
0.5773502691896258
 41
0.0
 42
6.283185307179586
  0
ELLIPSE
  5
33CF
330
3332
100
AcDbEntity
  8
0
100
AcDbEllipse
 10
46.28480522980638
 20
51.25287871967336
 30
0.0
 11
1.249999999999999
 21
-2.165063509461097
 31
0.0
210
0.0
220
0.0
230
0.9999999999999998
 40
0.5773502691896258
 41
0.0
 42
6.283185307179586
  0
ELLIPSE
  5
33D0
330
3332
100
AcDbEntity
  8
0
100
AcDbEllipse
 10
25.07269942741771
 20
61.45845226244198
 30
0.0
 11
1.249999999999999
 21
-2.165063509461097
 31
0.0
210
0.0
220
0.0
230
0.9999999999999998
 40
0.5773502691896258
 41
0.0
 42
6.283185307179586
  0
ELLIPSE
  5
33D1
330
3332
100
AcDbEntity
  8
0
100
AcDbEllipse
 10
22.0396824478698
 20
36.67342655188957
 30
0.0
 11
1.249999999999999
 21
-2.165063509461097
 31
0.0
210
0.0
220
0.0
230
0.9999999999999998
 40
0.5773502691896258
 41
0.0
 42
6.283185307179586
  0
ELLIPSE
  5
33D2
330
3332
100
AcDbEntity
  8
0
100
AcDbEllipse
 10
11.70366676735574
 20
28.35223782114736
 30
0.0
 11
1.249999999999999
 21
-2.165063509461097
 31
0.0
210
0.0
220
0.0
230
0.9999999999999998
 40
0.5773502691896258
 41
0.0
 42
6.283185307179586
  0
ELLIPSE
  5
33D3
330
3332
100
AcDbEntity
  8
0
100
AcDbEllipse
 10
18.19490735646947
 20
55.22314010443763
 30
0.0
 11
1.249999999999999
 21
-2.165063509461097
 31
0.0
210
0.0
220
0.0
230
0.9999999999999998
 40
0.5773502691896258
 41
0.0
 42
6.283185307179586
  0
ELLIPSE
  5
33D4
330
3332
100
AcDbEntity
  8
0
100
AcDbEllipse
 10
22.50354422607119
 20
11.91071840154644
 30
0.0
 11
1.249999999999999
 21
-2.165063509461097
 31
0.0
210
0.0
220
0.0
230
0.9999999999999998
 40
0.5773502691896258
 41
0.0
 42
6.283185307179586
  0
ELLIPSE
  5
33D5
330
3332
100
AcDbEntity
  8
0
100
AcDbEllipse
 10
53.33940844198192
 20
36.97369439450124
 30
0.0
 11
1.249999999999999
 21
-2.165063509461097
 31
0.0
210
0.0
220
0.0
230
0.9999999999999998
 40
0.5773502691896258
 41
0.0
 42
6.283185307179586
  0
ELLIPSE
  5
33D6
330
3332
100
AcDbEntity
  8
0
100
AcDbEllipse
 10
59.98891764361354
 20
0.4747352298512953
 30
0.0
 11
1.249999999999999
 21
-2.165063509461097
 31
0.0
210
0.0
220
0.0
230
0.9999999999999998
 40
0.5773502691896258
 41
0.0
 42
6.283185307179586
  0
ELLIPSE
  5
33D7
330
3332
100
AcDbEntity
  8
0
100
AcDbEllipse
 10
26.22957883400089
 20
-15.14365440064727
 30
0.0
 11
-8.174557129142442
 21
-14.15874827704715
 31
0.0
210
0.0
220
0.0
230
1.0
 40
0.5773502691896258
 41
0.9593480128644937
 42
2.182244640725592
  0
SPLINE
  5
33D8
330
3332
100
AcDbEntity
  8
0
100
AcDbSpline
210
0.0
220
0.0
230
1.0
 70
     8
 71
     3
 72
    16
 73
    12
 74
     0
 42
0.000000001
 43
0.0000000001
 40
0.1860567281239536
 40
0.1860567281239536
 40
0.1860567281239536
 40
0.1860567281239536
 40
0.4257933022333516
 40
0.4257933022333516
 40
0.6655298763427496
 40
0.6655298763427496
 40
0.9052664504521475
 40
0.9052664504521475
 40
1.145003024561545
 40
1.145003024561545
 40
1.384739598670943
 40
1.384739598670943
 40
1.384739598670943
 40
1.384739598670943
 10
27.72662337042368
 20
-6.044434378959921
 30
0.0
 10
27.58137804378634
 20
-7.019284086322068
 30
0.0
 10
27.33192917452569
 20
-8.092835593370502
 30
0.0
 10
26.6203543107296
 20
-10.31531666562361
 30
0.0
 10
26.15871204162076
 20
-11.46412062844373
 30
0.0
 10
25.05514277674976
 20
-13.72456045210102
 30
0.0
 10
24.41338939557749
 20
-14.8361099142205
 30
0.0
 10
23.00757571699975
 20
-16.92204884426315
 30
0.0
 10
22.24350343578373
 20
-17.89624475818215
 30
0.0
 10
20.6745657996805
 20
-19.62372720305058
 30
0.0
 10
19.86956735693581
 20
-20.37653201429981
 30
0.0
 10
19.09794540880704
 20
-20.9897430106298
 30
0.0
  0
ENDBLK
  5
3334
330
3332
100
AcDbEntity
  8
0
100
AcDbBlockEnd
  0
ENDSEC
  0
SECTION
  2
ENTITIES
  0
INSERT
  5
33D9
330
1F
100
AcDbEntity
  8
0
100
AcDbBlockReference
  2
ACRL10520-Front
 10
0.0
 20
0.0
 30
0.0
  0
INSERT
  5
33DA
330
1F
100
AcDbEntity
  8
0
100
AcDbBlockReference
  2
ACRL10520-Left
 10
76.50000000001729
 20
0.0
 30
0.0
  0
INSERT
  5
33DB
330
1F
100
AcDbEntity
  8
0
100
AcDbBlockReference
  2
ACRL10520-Right
 10
-76.50000000026054
 20
0.0
 30
0.0
  0
INSERT
  5
33DC
330
1F
100
AcDbEntity
  8
0
100
AcDbBlockReference
  2
ACRL10520-Top
 10
0.0
 20
-31.5
 30
0.0
  0
INSERT
  5
33DD
330
1F
100
AcDbEntity
  8
0
100
AcDbBlockReference
  2
ACRL10520-Bottom
 10
0.0
 20
136.5000000002605
 30
0.0
  0
INSERT
  5
33DE
330
1F
100
AcDbEntity
  8
0
100
AcDbBlockReference
  2
ACRL10520-ISO
 10
138.401434658528
 20
-110.1048804619242
 30
0.0
  0
MTEXT
  5
33DF
330
1F
100
AcDbEntity
  8
0
100
AcDbMText
 10
0.0
 20
-168.0
 30
0.0
 40
10.5
 41
0.0
 71
     5
 72
     5
  1
ACRL10520
 73
     1
 44
1.0
1001
ACAD
1000
MTEXTBEGIN
1070
    73
1070
     1
1070
    44
1040
1.0
1070
    74
1070
     0
1000
MTEXTEND
  0
ENDSEC
  0
SECTION
  2
OBJECTS
  0
DICTIONARY
  5
C
330
0
100
AcDbDictionary
281
     1
  3
ACAD_CIP_PREVIOUS_PRODUCT_INFO
350
216
  3
ACAD_COLOR
350
6B
  3
ACAD_DETAILVIEWSTYLE
350
21B
  3
ACAD_GROUP
350
D
  3
ACAD_LAYOUT
350
1A
  3
ACAD_MATERIAL
350
6A
  3
ACAD_MLEADERSTYLE
350
12D
  3
ACAD_MLINESTYLE
350
17
  3
ACAD_PLOTSETTINGS
350
19
  3
ACAD_PLOTSTYLENAME
350
E
  3
ACAD_SCALELIST
350
10C
  3
ACAD_SECTIONVIEWSTYLE
350
219
  3
ACAD_TABLESTYLE
350
7E
  3
ACAD_VISUALSTYLE
350
EF
  3
ACDB_RECOMPOSE_DATA
350
34E0
  3
AcDbVariableDictionary
350
5E
  3
DWGPROPS
350
34E1
  0
DICTIONARY
  5
3430
330
8
100
AcDbDictionary
280
     1
281
     1
  0
DICTIONARY
  5
1FF
330
2
100
AcDbDictionary
280
     1
281
     1
  3
ACAD_LAYERSTATES
360
200
  0
DICTIONARY
  5
13C
330
10
100
AcDbDictionary
280
     1
281
     1
  0
DICTIONARY
  5
1CE
330
1F
100
AcDbDictionary
280
     1
281
     1
  3
ACAD_LAYOUTSELFREF
360
3438
  0
DICTIONARY
  5
33E3
330
D2
100
AcDbDictionary
280
     1
281
     1
  3
ACAD_LAYOUTSELFREF
360
3441
  0
DICTIONARY
  5
33E5
330
D6
100
AcDbDictionary
280
     1
281
     1
  3
ACAD_LAYOUTSELFREF
360
3444
  0
XRECORD
  5
216
102
{ACAD_REACTORS
330
C
102
}
330
C
100
AcDbXrecord
280
     1
300
ACD
300
2021
300

  0
DICTIONARY
  5
6B
102
{ACAD_REACTORS
330
C
102
}
330
C
100
AcDbDictionary
281
     1
  0
DICTIONARY
  5
21B
102
{ACAD_REACTORS
330
C
102
}
330
C
100
AcDbDictionary
281
     1
  3
Metric50
350
21C
  0
DICTIONARY
  5
D
102
{ACAD_REACTORS
330
C
102
}
330
C
100
AcDbDictionary
281
     1
  0
DICTIONARY
  5
1A
102
{ACAD_REACTORS
330
C
102
}
330
C
100
AcDbDictionary
281
     1
  3
Layout1
350
D3
  3
Layout2
350
D7
  3
Model
350
22
  0
DICTIONARY
  5
6A
102
{ACAD_REACTORS
330
C
102
}
330
C
100
AcDbDictionary
281
     1
  3
ByBlock
350
ED
  3
ByLayer
350
EC
  3
Global
350
EE
  0
DICTIONARY
  5
12D
102
{ACAD_REACTORS
330
C
102
}
330
C
100
AcDbDictionary
281
     1
  3
Standard
350
12E
  0
DICTIONARY
  5
17
102
{ACAD_REACTORS
330
C
102
}
330
C
100
AcDbDictionary
281
     1
  3
Standard
350
18
  0
DICTIONARY
  5
19
102
{ACAD_REACTORS
330
C
102
}
330
C
100
AcDbDictionary
281
     1
  0
ACDBDICTIONARYWDFLT
  5
E
102
{ACAD_REACTORS
330
C
102
}
330
C
100
AcDbDictionary
281
     1
  3
Normal
350
F
100
AcDbDictionaryWithDefault
340
F
  0
DICTIONARY
  5
10C
102
{ACAD_REACTORS
330
C
102
}
330
C
100
AcDbDictionary
281
     1
  3
A0
350
10D
  3
A1
350
1BE
  3
A2
350
1BF
  3
A3
350
1C0
  3
A4
350
1C1
  3
A5
350
1C2
  3
A6
350
1C3
  3
A7
350
1C4
  3
A8
350
1C5
  3
A9
350
1C6
  3
B0
350
1C7
  3
B1
350
1C8
  3
B2
350
1C9
  3
B3
350
1CA
  3
B4
350
1CB
  3
B5
350
1CC
  3
B6
350
1CD
  0
DICTIONARY
  5
219
102
{ACAD_REACTORS
330
C
102
}
330
C
100
AcDbDictionary
281
     1
  3
Metric50
350
21A
  0
DICTIONARY
  5
7E
102
{ACAD_REACTORS
330
C
102
}
330
C
100
AcDbDictionary
281
     1
  3
Standard
350
7F
  0
DICTIONARY
  5
EF
102
{ACAD_REACTORS
330
C
102
}
330
C
100
AcDbDictionary
281
     1
  3
2dWireframe
350
F5
  3
Basic
350
F4
  3
Brighten
350
FB
  3
ColorChange
350
FF
  3
Conceptual
350
F8
  3
Dim
350
FA
  3
EdgeColorOff
350
1E6
  3
Facepattern
350
FE
  3
Flat
350
F0
  3
FlatWithEdges
350
F1
  3
Gouraud
350
F2
  3
GouraudWithEdges
350
F3
  3
Hidden
350
F7
  3
JitterOff
350
1E4
  3
Linepattern
350
FD
  3
OverhangOff
350
1E5
  3
Realistic
350
F9
  3
Shaded
350
1F3
  3
Shaded with edges
350
1F2
  3
Shades of Gray
350
1EF
  3
Sketchy
350
1F0
  3
Thicken
350
FC
  3
Wireframe
350
F6
  3
X-Ray
350
1F1
  0
XRECORD
  5
34E0
102
{ACAD_REACTORS
330
C
102
}
330
C
100
AcDbXrecord
280
     1
 90
        1
330
7F
  0
DICTIONARY
  5
5E
102
{ACAD_REACTORS
330
C
102
}
330
C
100
AcDbDictionary
281
     1
  3
CANNOSCALE
350
146
  3
CENTEREXE
350
259
  3
CENTERLTYPEFILE
350
25A
  3
CMLEADERSTYLE
350
145
  3
CTABLESTYLE
350
84
  3
CVIEWDETAILSTYLE
350
227
  3
CVIEWSECTIONSTYLE
350
228
  3
DIMASSOC
350
5F
  3
HIDETEXT
350
63
  3
INDEXCTL
350
348D
  3
LAYEREVAL
350
1AE
  3
LAYERNOTIFY
350
1AF
  3
LIGHTINGUNITS
350
348B
  3
MSLTSCALE
350
348A
  3
PSOLHEIGHT
350
34DD
  3
PSOLWIDTH
350
34DC
  3
SORTENTS
350
348C
  3
XCLIPFRAME
350
34DE
  0
XRECORD
  5
34E1
102
{ACAD_REACTORS
330
C
102
}
330
C
100
AcDbXrecord
280
     1
  1
DWGPROPS COOKIE
  2

  3

  4

  6

  7

  8
tronnguyen
  9

300
=
301
=
302
=
303
=
304
=
305
=
306
=
307
=
308
=
309
=
 40
0.0035532407407407
 41
2460367.705740741
 42
2460367.711712963
  1

 90
        0
  0
DICTIONARY
  5
200
102
{ACAD_REACTORS
330
1FF
102
}
330
1FF
100
AcDbDictionary
281
     1
  0
XRECORD
  5
3438
102
{ACAD_REACTORS
330
1CE
102
}
330
1CE
100
AcDbXrecord
280
     1
340
1F
  0
XRECORD
  5
3441
102
{ACAD_REACTORS
330
33E3
102
}
330
33E3
100
AcDbXrecord
280
     1
340
D2
  0
XRECORD
  5
3444
102
{ACAD_REACTORS
330
33E5
102
}
330
33E5
100
AcDbXrecord
280
     1
340
D6
  0
ACDBDETAILVIEWSTYLE
  5
21C
102
{ACAD_XDICTIONARY
360
3520
102
}
102
{ACAD_REACTORS
330
21B
102
}
330
21B
100
AcDbModelDocViewStyle
 70
     0
  3
Metric50
290
     0
100
AcDbDetailViewStyle
 70
     0
 71
     0
 90
        3
 71
     1
340
11
 40
5.0
340
0
 40
5.0
300

 40
0.0
280
     1
 71
     2
340
16
 90
       25
 71
     3
340
11
 40
5.0
 90
        0
 40
15.0
 90
        1
300
%<\AcVar ViewDetailId>% (%<\AcVar ViewScale \f "%sn">%)
 71
     4
340
16
 90
       25
340
16
 90
       25
280
     0
  0
LAYOUT
  5
D3
102
{ACAD_XDICTIONARY
360
34E5
102
}
102
{ACAD_REACTORS
330
1A
102
}
330
1A
100
AcDbPlotSettings
  1

  2
C:\Documents and Settings\basas\Application Data\Autodesk\AutoCAD 2005\R16.1\enu\plotters\Default Windows System Printer.pc3
  4

  6

 40
0.0
 41
0.0
 42
0.0
 43
0.0
 44
0.0
 45
0.0
 46
0.0
 47
0.0
 48
0.0
 49
0.0
140
0.0
141
0.0
142
1.0
143
1.0
 70
   688
 72
     0
 73
     0
 74
     5
  7

 75
    16
147
1.0
148
0.0
149
0.0
100
AcDbLayout
  1
Layout1
 70
     1
 71
     1
 10
0.0
 20
0.0
 11
12.0
 21
9.0
 12
0.0
 22
0.0
 32
0.0
 14
0.0
 24
0.0
 34
0.0
 15
0.0
 25
0.0
 35
0.0
146
0.0
 13
0.0
 23
0.0
 33
0.0
 16
1.0
 26
0.0
 36
0.0
 17
0.0
 27
1.0
 37
0.0
 76
     0
330
D2
  0
LAYOUT
  5
D7
102
{ACAD_XDICTIONARY
360
34E7
102
}
102
{ACAD_REACTORS
330
1A
102
}
330
1A
100
AcDbPlotSettings
  1

  2
C:\Documents and Settings\basas\Application Data\Autodesk\AutoCAD 2005\R16.1\enu\plotters\Default Windows System Printer.pc3
  4

  6

 40
0.0
 41
0.0
 42
0.0
 43
0.0
 44
0.0
 45
0.0
 46
0.0
 47
0.0
 48
0.0
 49
0.0
140
0.0
141
0.0
142
1.0
143
1.0
 70
   688
 72
     0
 73
     0
 74
     5
  7

 75
    16
147
1.0
148
0.0
149
0.0
100
AcDbLayout
  1
Layout2
 70
     1
 71
     2
 10
0.0
 20
0.0
 11
12.0
 21
9.0
 12
0.0
 22
0.0
 32
0.0
 14
0.0
 24
0.0
 34
0.0
 15
0.0
 25
0.0
 35
0.0
146
0.0
 13
0.0
 23
0.0
 33
0.0
 16
1.0
 26
0.0
 36
0.0
 17
0.0
 27
1.0
 37
0.0
 76
     0
330
D6
  0
LAYOUT
  5
22
102
{ACAD_XDICTIONARY
360
34E2
102
}
102
{ACAD_REACTORS
330
1A
102
}
330
1A
100
AcDbPlotSettings
  1

  2
none_device
  4
ISO_A4_(210.00_x_297.00_MM)
  6

 40
7.5
 41
20.0
 42
7.5
 43
20.0
 44
210.0
 45
297.0
 46
11.54999923706054
 47
-13.65000009536743
 48
0.0
 49
0.0
140
0.0
141
0.0
142
1.0
143
8.704084754739808
 70
 11952
 72
     1
 73
     0
 74
     0
  7

 75
     0
147
0.1148885871608098
148
0.0
149
0.0
100
AcDbLayout
  1
Model
 70
     1
 71
     0
 10
0.0
 20
0.0
 11
12.0
 21
9.0
 12
0.0
 22
0.0
 32
0.0
 14
0.0
 24
0.0
 34
0.0
 15
0.0
 25
0.0
 35
0.0
146
0.0
 13
0.0
 23
0.0
 33
0.0
 16
1.0
 26
0.0
 36
0.0
 17
0.0
 27
1.0
 37
0.0
 76
     0
330
1F
331
EA
1001
ACAD_PSEXT
1000
None
1000
None
1000
Not applicable
1000
The layout will not be plotted unless a new plotter configuration name is selected.
1070
     0
  0
MATERIAL
  5
ED
102
{ACAD_XDICTIONARY
360
1F9
102
}
102
{ACAD_REACTORS
330
6A
102
}
330
6A
100
AcDbMaterial
  1
ByBlock
  0
MATERIAL
  5
EC
102
{ACAD_XDICTIONARY
360
1F7
102
}
102
{ACAD_REACTORS
330
6A
102
}
330
6A
100
AcDbMaterial
  1
ByLayer
  0
MATERIAL
  5
EE
102
{ACAD_XDICTIONARY
360
173
102
}
102
{ACAD_REACTORS
330
6A
102
}
330
6A
100
AcDbMaterial
  1
Global
 43
0.0007999999797903
 43
0.0
 43
0.0
 43
0.0
 43
0.0
 43
0.0007999999797903
 43
0.0
 43
0.0
 43
0.0
 43
0.0
 43
1.0
 43
0.0
 43
0.0
 43
0.0
 43
0.0
 43
1.0
 49
0.0007999999797903
 49
0.0
 49
0.0
 49
0.0
 49
0.0
 49
0.0007999999797903
 49
0.0
 49
0.0
 49
0.0
 49
0.0
 49
1.0
 49
0.0
 49
0.0
 49
0.0
 49
0.0
 49
1.0
142
0.0007999999797903
142
0.0
142
0.0
142
0.0
142
0.0
142
0.0007999999797903
142
0.0
142
0.0
142
0.0
142
0.0
142
1.0
142
0.0
142
0.0
142
0.0
142
0.0
142
1.0
144
0.0007999999797903
144
0.0
144
0.0
144
0.0
144
0.0
144
0.0007999999797903
144
0.0
144
0.0
144
0.0
144
0.0
144
1.0
144
0.0
144
0.0
144
0.0
144
0.0
144
1.0
1001
ACAD
1070
    -1
1070
     3
1070
     0
1000

1071
        0
1070
     0
  0
MLEADERSTYLE
  5
12E
102
{ACAD_XDICTIONARY
360
350C
102
}
102
{ACAD_REACTORS
330
12D
102
}
330
12D
100
AcDbMLeaderStyle
170
     2
171
     1
172
     0
 90
        2
 40
0.0
 41
0.0
173
     1
 91
-1056964608
340
14
 92
       -2
290
     1
 42
2.0
291
     1
 43
8.0
  3
Standard
 44
4.0
300

342
11
174
     1
178
     1
175
     1
176
     0
 93
-1056964608
 45
4.0
292
     0
297
     0
 46
4.0
 94
-1056964608
 47
1.0
 49
1.0
140
1.0
293
     1
141
0.0
294
     1
177
     0
142
1.0
295
     0
296
     0
143
3.75
1001
ACAD_MLEADERVER
1070
     2
  0
MLINESTYLE
  5
18
102
{ACAD_REACTORS
330
17
102
}
330
17
100
AcDbMlineStyle
  2
STANDARD
 70
     0
  3

 62
   256
 51
90.0
 52
90.0
 71
     2
 49
0.5
 62
   256
  6
BYLAYER
 49
-0.5
 62
   256
  6
BYLAYER
  0
ACDBPLACEHOLDER
  5
F
102
{ACAD_REACTORS
330
E
102
}
330
E
  0
SCALE
  5
10D
102
{ACAD_REACTORS
330
10C
102
}
330
10C
100
AcDbScale
 70
     0
300
1:1
140
1.0
141
1.0
290
     1
  0
SCALE
  5
1BE
102
{ACAD_REACTORS
330
10C
102
}
330
10C
100
AcDbScale
 70
     0
300
1:2
140
1.0
141
2.0
290
     0
  0
SCALE
  5
1BF
102
{ACAD_REACTORS
330
10C
102
}
330
10C
100
AcDbScale
 70
     0
300
1:4
140
1.0
141
4.0
290
     0
  0
SCALE
  5
1C0
102
{ACAD_REACTORS
330
10C
102
}
330
10C
100
AcDbScale
 70
     0
300
1:5
140
1.0
141
5.0
290
     0
  0
SCALE
  5
1C1
102
{ACAD_REACTORS
330
10C
102
}
330
10C
100
AcDbScale
 70
     0
300
1:8
140
1.0
141
8.0
290
     0
  0
SCALE
  5
1C2
102
{ACAD_REACTORS
330
10C
102
}
330
10C
100
AcDbScale
 70
     0
300
1:10
140
1.0
141
10.0
290
     0
  0
SCALE
  5
1C3
102
{ACAD_REACTORS
330
10C
102
}
330
10C
100
AcDbScale
 70
     0
300
1:16
140
1.0
141
16.0
290
     0
  0
SCALE
  5
1C4
102
{ACAD_REACTORS
330
10C
102
}
330
10C
100
AcDbScale
 70
     0
300
1:20
140
1.0
141
20.0
290
     0
  0
SCALE
  5
1C5
102
{ACAD_REACTORS
330
10C
102
}
330
10C
100
AcDbScale
 70
     0
300
1:30
140
1.0
141
30.0
290
     0
  0
SCALE
  5
1C6
102
{ACAD_REACTORS
330
10C
102
}
330
10C
100
AcDbScale
 70
     0
300
1:40
140
1.0
141
40.0
290
     0
  0
SCALE
  5
1C7
102
{ACAD_REACTORS
330
10C
102
}
330
10C
100
AcDbScale
 70
     0
300
1:50
140
1.0
141
50.0
290
     0
  0
SCALE
  5
1C8
102
{ACAD_REACTORS
330
10C
102
}
330
10C
100
AcDbScale
 70
     0
300
1:100
140
1.0
141
100.0
290
     0
  0
SCALE
  5
1C9
102
{ACAD_REACTORS
330
10C
102
}
330
10C
100
AcDbScale
 70
     0
300
2:1
140
2.0
141
1.0
290
     0
  0
SCALE
  5
1CA
102
{ACAD_REACTORS
330
10C
102
}
330
10C
100
AcDbScale
 70
     0
300
4:1
140
4.0
141
1.0
290
     0
  0
SCALE
  5
1CB
102
{ACAD_REACTORS
330
10C
102
}
330
10C
100
AcDbScale
 70
     0
300
8:1
140
8.0
141
1.0
290
     0
  0
SCALE
  5
1CC
102
{ACAD_REACTORS
330
10C
102
}
330
10C
100
AcDbScale
 70
     0
300
10:1
140
10.0
141
1.0
290
     0
  0
SCALE
  5
1CD
102
{ACAD_REACTORS
330
10C
102
}
330
10C
100
AcDbScale
 70
     0
300
100:1
140
100.0
141
1.0
290
     0
  0
ACDBSECTIONVIEWSTYLE
  5
21A
102
{ACAD_XDICTIONARY
360
351E
102
}
102
{ACAD_REACTORS
330
219
102
}
330
219
100
AcDbModelDocViewStyle
 70
     0
  3
Metric50
290
     0
100
AcDbSectionViewStyle
 70
     0
 71
     0
 90
      102
 71
     1
340
11
 40
5.0
340
0
340
0
 40
5.0
300
I, O, Q, S, X, Z
 40
10.0
 90
        0
 40
2.5
 90
        0
 71
     2
340
16
 90
       25
340
16
 90
       50
 40
5.0
 40
2.5
 40
5.0
 71
     3
340
11
 40
5.0
 90
        0
 40
15.0
 90
        1
300
%<\AcVar ViewSectionStartId>%-%<\AcVar ViewSectionEndId>% (%<\AcVar ViewScale \f "%sn">%)
 71
     4
300
ANSI31
 40
1.0
 90
        0
290
     0
290
     0
 90
        6
 40
0.0
 40
1.570796326794896
 40
0.2617993877991494
 40
1.308996938995747
 40
-0.2617993877991494
 40
1.832595714594046
  0
TABLESTYLE
  5
7F
102
{ACAD_XDICTIONARY
360
162
102
}
102
{ACAD_REACTORS
330
7E
102
}
330
7E
100
AcDbTableStyle
  3
Standard
 70
     0
 71
     0
 40
1.5
 41
1.5
280
     0
281
     0
  7
Standard
140
4.5
170
     2
 62
     0
 63
     7
283
     0
274
    -2
284
     1
 64
     0
275
    -2
285
     1
 65
     0
276
    -2
286
     1
 66
     0
277
    -2
287
     1
 67
     0
278
    -2
288
     1
 68
     0
279
    -2
289
     1
 69
     0
  7
Standard
140
6.0
170
     5
 62
     0
 63
     7
283
     0
274
    -2
284
     1
 64
     0
275
    -2
285
     1
 65
     0
276
    -2
286
     1
 66
     0
277
    -2
287
     1
 67
     0
278
    -2
288
     1
 68
     0
279
    -2
289
     1
 69
     0
  7
Standard
140
4.5
170
     5
 62
     0
 63
     7
283
     0
274
    -2
284
     1
 64
     0
275
    -2
285
     1
 65
     0
276
    -2
286
     1
 66
     0
277
    -2
287
     1
 67
     0
278
    -2
288
     1
 68
     0
279
    -2
289
     1
 69
     0
  0
VISUALSTYLE
  5
F5
102
{ACAD_XDICTIONARY
360
34F6
102
}
102
{ACAD_REACTORS
330
EF
102
}
330
EF
100
AcDbVisualStyle
  2
2dWireframe
 70
     4
 71
     0
 72
     2
 73
     1
 90
        0
 40
-0.6
 41
-30.0
 62
     5
 63
     7
 74
     1
 91
        4
 64
     7
 65
   257
 75
     1
175
     1
 42
1.0
 92
        0
 66
   257
 43
1.0
 76
     1
 77
     6
 78
     2
 67
     7
 79
     5
170
     0
171
     0
290
     0
174
     0
 93
        1
 44
0.0
173
     0
291
     0
 45
0.0
1001
ACAD
1000
AcDbSavedByObjectVersion
1070
     0
  0
VISUALSTYLE
  5
F4
102
{ACAD_XDICTIONARY
360
34F4
102
}
102
{ACAD_REACTORS
330
EF
102
}
330
EF
100
AcDbVisualStyle
  2
Basic
 70
     7
 71
     1
 72
     0
 73
     1
 90
        0
 40
-0.6
 41
-30.0
 62
     5
 63
     7
 74
     0
 91
        4
 64
     7
 65
   257
 75
     1
175
     1
 42
1.0
 92
        8
 66
     7
 43
1.0
 76
     1
 77
     6
 78
     2
 67
     7
 79
     5
170
     0
171
     0
290
     0
174
     0
 93
        1
 44
0.0
173
     0
291
     1
 45
0.0
1001
ACAD
1000
AcDbSavedByObjectVersion
1070
     0
  0
VISUALSTYLE
  5
FB
102
{ACAD_XDICTIONARY
360
3502
102
}
102
{ACAD_REACTORS
330
EF
102
}
330
EF
100
AcDbVisualStyle
  2
Brighten
 70
    12
 71
     2
 72
     2
 73
     1
 90
        0
 40
-0.6
 41
-30.0
 62
     5
 63
     7
 74
     1
 91
        4
 64
     7
 65
   257
 75
     1
175
     1
 42
1.0
 92
        8
 66
     7
 43
1.0
 76
     1
 77
     6
 78
     2
 67
     7
 79
     5
170
     0
171
     0
290
     0
174
     0
 93
        1
 44
50.0
173
     0
291
     1
 45
0.0
1001
ACAD
1000
AcDbSavedByObjectVersion
1070
     0
  0
VISUALSTYLE
  5
FF
102
{ACAD_XDICTIONARY
360
350A
102
}
102
{ACAD_REACTORS
330
EF
102
}
330
EF
100
AcDbVisualStyle
  2
ColorChange
 70
    16
 71
     2
 72
     2
 73
     3
 90
        0
 40
-0.6
 41
-30.0
 62
     5
 63
     8
 74
     1
 91
        4
 64
     7
 65
   257
 75
     1
175
     1
 42
1.0
 92
        8
 66
     8
 43
1.0
 76
     1
 77
     6
 78
     2
 67
     7
 79
     5
170
     0
171
     0
290
     0
174
     0
 93
        1
 44
0.0
173
     0
291
     1
 45
0.0
1001
ACAD
1000
AcDbSavedByObjectVersion
1070
     0
  0
VISUALSTYLE
  5
F8
102
{ACAD_XDICTIONARY
360
34FC
102
}
102
{ACAD_REACTORS
330
EF
102
}
330
EF
100
AcDbVisualStyle
  2
Conceptual
 70
     9
 71
     3
 72
     2
 73
     1
 90
        0
 40
-0.6
 41
-30.0
 62
     5
 63
     7
 74
     2
 91
        2
 64
     7
 65
   257
 75
     1
175
     1
 42
40.0
 92
        8
 66
     7
 43
1.0
 76
     1
 77
     6
 78
     2
 67
     7
 79
     3
170
     0
171
     0
290
     0
174
     0
 93
        1
 44
0.0
173
     0
291
     0
 45
0.0
1001
ACAD
1000
AcDbSavedByObjectVersion
1070
     0
  0
VISUALSTYLE
  5
FA
102
{ACAD_XDICTIONARY
360
3500
102
}
102
{ACAD_REACTORS
330
EF
102
}
330
EF
100
AcDbVisualStyle
  2
Dim
 70
    11
 71
     2
 72
     2
 73
     1
 90
        0
 40
-0.6
 41
-30.0
 62
     5
 63
     7
 74
     1
 91
        4
 64
     7
 65
   257
 75
     1
175
     1
 42
1.0
 92
        8
 66
     7
 43
1.0
 76
     1
 77
     6
 78
     2
 67
     7
 79
     5
170
     0
171
     0
290
     0
174
     0
 93
        1
 44
-50.0
173
     0
291
     1
 45
0.0
1001
ACAD
1000
AcDbSavedByObjectVersion
1070
     0
  0
VISUALSTYLE
  5
1E6
102
{ACAD_XDICTIONARY
360
3512
102
}
102
{ACAD_REACTORS
330
EF
102
}
330
EF
100
AcDbVisualStyle
  2
EdgeColorOff
 70
    22
 71
     2
 72
     2
 73
     0
 90
        0
 40
-0.6
 41
-30.0
 62
     5
 63
     7
 74
     1
 91
        4
 64
     7
 65
   257
 75
     1
175
     1
 42
1.0
 92
        8
 66
     7
 43
1.0
 76
     1
 77
     6
 78
     2
 67
     7
 79
     5
170
     0
171
     0
290
     0
174
     0
 93
        1
 44
0.0
173
     0
291
     1
 45
0.0
1001
ACAD
1000
AcDbSavedByObjectVersion
1070
     0
  0
VISUALSTYLE
  5
FE
102
{ACAD_XDICTIONARY
360
3508
102
}
102
{ACAD_REACTORS
330
EF
102
}
330
EF
100
AcDbVisualStyle
  2
Facepattern
 70
    15
 71
     2
 72
     2
 73
     1
 90
        0
 40
-0.6
 41
-30.0
 62
     5
 63
     7
 74
     1
 91
        4
 64
     7
 65
   257
 75
     1
175
     1
 42
1.0
 92
        8
 66
     7
 43
1.0
 76
     1
 77
     6
 78
     2
 67
     7
 79
     5
170
     0
171
     0
290
     0
174
     0
 93
        1
 44
0.0
173
     0
291
     1
 45
0.0
1001
ACAD
1000
AcDbSavedByObjectVersion
1070
     0
  0
VISUALSTYLE
  5
F0
102
{ACAD_XDICTIONARY
360
34EC
102
}
102
{ACAD_REACTORS
330
EF
102
}
330
EF
100
AcDbVisualStyle
  2
Flat
 70
     0
 71
     2
 72
     1
 73
     1
 90
        2
 40
-0.6
 41
30.0
 62
     5
 63
     7
 74
     0
 91
        0
 64
     7
 65
   257
 75
     1
175
     1
 42
1.0
 92
        8
 66
     7
 43
1.0
 76
     1
 77
     6
 78
     2
 67
     7
 79
     5
170
     0
171
     0
290
     0
174
     0
 93
       13
 44
0.0
173
     0
291
     1
 45
0.0
1001
ACAD
1000
AcDbSavedByObjectVersion
1070
     0
  0
VISUALSTYLE
  5
F1
102
{ACAD_XDICTIONARY
360
34EE
102
}
102
{ACAD_REACTORS
330
EF
102
}
330
EF
100
AcDbVisualStyle
  2
FlatWithEdges
 70
     1
 71
     2
 72
     1
 73
     1
 90
        2
 40
-0.6
 41
30.0
 62
     5
 63
     7
 74
     1
 91
        0
 64
     7
 65
   257
 75
     1
175
     1
 42
1.0
 92
        0
 66
   257
 43
1.0
 76
     1
 77
     6
 78
     2
 67
     7
 79
     5
170
     0
171
     0
290
     0
174
     0
 93
       13
 44
0.0
173
     0
291
     1
 45
0.0
1001
ACAD
1000
AcDbSavedByObjectVersion
1070
     0
  0
VISUALSTYLE
  5
F2
102
{ACAD_XDICTIONARY
360
34F0
102
}
102
{ACAD_REACTORS
330
EF
102
}
330
EF
100
AcDbVisualStyle
  2
Gouraud
 70
     2
 71
     2
 72
     2
 73
     1
 90
        2
 40
-0.6
 41
30.0
 62
     5
 63
     7
 74
     0
 91
        0
 64
     7
 65
   257
 75
     1
175
     1
 42
1.0
 92
        0
 66
     7
 43
1.0
 76
     1
 77
     6
 78
     2
 67
     7
 79
     5
170
     0
171
     0
290
     0
174
     0
 93
       13
 44
0.0
173
     0
291
     1
 45
0.0
1001
ACAD
1000
AcDbSavedByObjectVersion
1070
     0
  0
VISUALSTYLE
  5
F3
102
{ACAD_XDICTIONARY
360
34F2
102
}
102
{ACAD_REACTORS
330
EF
102
}
330
EF
100
AcDbVisualStyle
  2
GouraudWithEdges
 70
     3
 71
     2
 72
     2
 73
     1
 90
        2
 40
-0.6
 41
30.0
 62
     5
 63
     7
 74
     1
 91
        0
 64
     7
 65
   257
 75
     1
175
     1
 42
1.0
 92
        0
 66
   257
 43
1.0
 76
     1
 77
     6
 78
     2
 67
     7
 79
     5
170
     0
171
     0
290
     0
174
     0
 93
       13
 44
0.0
173
     0
291
     1
 45
0.0
1001
ACAD
1000
AcDbSavedByObjectVersion
1070
     0
  0
VISUALSTYLE
  5
F7
102
{ACAD_XDICTIONARY
360
34FA
102
}
102
{ACAD_REACTORS
330
EF
102
}
330
EF
100
AcDbVisualStyle
  2
Hidden
 70
     6
 71
     1
 72
     2
 73
     2
 90
        0
 40
-0.6
 41
-30.0
 62
     5
 63
     7
 74
     2
 91
        2
 64
     7
 65
   257
 75
     2
175
     1
 42
40.0
 92
        0
 66
   257
 43
1.0
 76
     1
 77
     6
 78
     2
 67
     7
 79
     3
170
     0
171
     0
290
     0
174
     0
 93
        1
 44
0.0
173
     0
291
     0
 45
0.0
1001
ACAD
1000
AcDbSavedByObjectVersion
1070
     0
  0
VISUALSTYLE
  5
1E4
102
{ACAD_XDICTIONARY
360
350E
102
}
102
{ACAD_REACTORS
330
EF
102
}
330
EF
100
AcDbVisualStyle
  2
JitterOff
 70
    20
 71
     2
 72
     2
 73
     0
 90
        0
 40
-0.6
 41
-30.0
 62
     5
 63
     7
 74
     1
 91
        4
 64
     7
 65
   257
 75
     1
175
     1
 42
1.0
 92
       10
 66
     7
 43
1.0
 76
     1
 77
     6
 78
     2
 67
     7
 79
     5
170
     0
171
     0
290
     0
174
     0
 93
        1
 44
0.0
173
     0
291
     1
 45
0.0
1001
ACAD
1000
AcDbSavedByObjectVersion
1070
     0
  0
VISUALSTYLE
  5
FD
102
{ACAD_XDICTIONARY
360
3506
102
}
102
{ACAD_REACTORS
330
EF
102
}
330
EF
100
AcDbVisualStyle
  2
Linepattern
 70
    14
 71
     2
 72
     2
 73
     1
 90
        0
 40
-0.6
 41
-30.0
 62
     5
 63
     7
 74
     1
 91
        4
 64
     7
 65
   257
 75
     7
175
     7
 42
1.0
 92
        8
 66
     7
 43
1.0
 76
     1
 77
     6
 78
     2
 67
     7
 79
     5
170
     0
171
     0
290
     0
174
     0
 93
        1
 44
0.0
173
     0
291
     1
 45
0.0
1001
ACAD
1000
AcDbSavedByObjectVersion
1070
     0
  0
VISUALSTYLE
  5
1E5
102
{ACAD_XDICTIONARY
360
3510
102
}
102
{ACAD_REACTORS
330
EF
102
}
330
EF
100
AcDbVisualStyle
  2
OverhangOff
 70
    21
 71
     2
 72
     2
 73
     0
 90
        0
 40
-0.6
 41
-30.0
 62
     5
 63
     7
 74
     1
 91
        4
 64
     7
 65
   257
 75
     1
175
     1
 42
1.0
 92
        9
 66
     7
 43
1.0
 76
     1
 77
     6
 78
     2
 67
     7
 79
     5
170
     0
171
     0
290
     0
174
     0
 93
        1
 44
0.0
173
     0
291
     1
 45
0.0
1001
ACAD
1000
AcDbSavedByObjectVersion
1070
     0
  0
VISUALSTYLE
  5
F9
102
{ACAD_XDICTIONARY
360
34FE
102
}
102
{ACAD_REACTORS
330
EF
102
}
330
EF
100
AcDbVisualStyle
  2
Realistic
 70
     8
 71
     2
 72
     2
 73
     0
 90
        2
 40
-0.6
 41
30.0
 62
     5
 63
     7
 74
     0
 91
        0
 64
     7
 65
   257
 75
     1
175
     1
 42
1.0
 92
        8
 66
   257
 43
1.0
 76
     1
 77
     6
 78
     2
 67
     7
 79
     3
170
     0
171
     0
290
     0
174
     0
 93
       13
 44
0.0
173
     0
291
     0
 45
0.0
1001
ACAD
1000
AcDbSavedByObjectVersion
1070
     0
  0
VISUALSTYLE
  5
1F3
102
{ACAD_XDICTIONARY
360
351C
102
}
102
{ACAD_REACTORS
330
EF
102
}
330
EF
100
AcDbVisualStyle
  2
Shaded
 70
    27
 71
     2
 72
     2
 73
     1
 90
        2
 40
-0.6
 41
30.0
 62
     5
 63
     7
 74
     0
 91
        4
 64
     7
 65
   257
 75
     1
175
     1
 42
1.0
 92
        8
 66
   257
 43
1.0
 76
     1
 77
     6
 78
     2
 67
     8
 79
     3
170
     0
171
     0
290
     0
174
     0
 93
        5
 44
0.0
173
     0
291
     0
 45
0.0
1001
ACAD
1000
AcDbSavedByObjectVersion
1070
     0
  0
VISUALSTYLE
  5
1F2
102
{ACAD_XDICTIONARY
360
351A
102
}
102
{ACAD_REACTORS
330
EF
102
}
330
EF
100
AcDbVisualStyle
  2
Shaded with edges
 70
    26
 71
     2
 72
     2
 73
     1
 90
        2
 40
-0.6
 41
30.0
 62
     5
 63
     7
 74
     1
 91
        2
 64
     7
 65
   257
 75
     2
175
     1
 42
1.0
 92
        8
 66
   257
 43
1.0
 76
     1
 77
     6
 78
     2
 67
     7
 79
     3
170
     0
171
     0
290
     0
174
     0
 93
        5
 44
0.0
173
     0
291
     0
 45
0.0
1001
ACAD
1000
AcDbSavedByObjectVersion
1070
     0
  0
VISUALSTYLE
  5
1EF
102
{ACAD_XDICTIONARY
360
3514
102
}
102
{ACAD_REACTORS
330
EF
102
}
330
EF
100
AcDbVisualStyle
  2
Shades of Gray
 70
    23
 71
     2
 72
     2
 73
     3
 90
        0
 40
-0.6
 41
-30.0
 62
     5
 63
     7
 74
     2
 91
        2
 64
     7
 65
     7
 75
     1
175
     1
 42
40.0
 92
        8
 66
     7
 43
1.0
 76
     1
 77
     6
 78
     2
 67
     7
 79
     3
170
     0
171
     0
290
     0
174
     0
 93
        1
 44
0.0
173
     0
291
     0
 45
0.0
1001
ACAD
1000
AcDbSavedByObjectVersion
1070
     0
  0
VISUALSTYLE
  5
1F0
102
{ACAD_XDICTIONARY
360
3516
102
}
102
{ACAD_REACTORS
330
EF
102
}
330
EF
100
AcDbVisualStyle
  2
Sketchy
 70
    24
 71
     1
 72
     2
 73
     2
 90
        0
 40
-0.6
 41
-30.0
 62
     5
 63
     7
 74
     2
 91
        2
 64
     7
 65
     7
 75
     1
175
     1
 42
40.0
 92
       11
 66
     7
 43
1.0
 76
     1
 77
     6
 78
     2
 67
     7
 79
     6
170
     0
171
     0
290
     0
174
     0
 93
        1
 44
0.0
173
     0
291
     0
 45
0.0
1001
ACAD
1000
AcDbSavedByObjectVersion
1070
     0
  0
VISUALSTYLE
  5
FC
102
{ACAD_XDICTIONARY
360
3504
102
}
102
{ACAD_REACTORS
330
EF
102
}
330
EF
100
AcDbVisualStyle
  2
Thicken
 70
    13
 71
     2
 72
     2
 73
     1
 90
        0
 40
-0.6
 41
-30.0
 62
     5
 63
     7
 74
     1
 91
        4
 64
     7
 65
   257
 75
     1
175
     1
 42
1.0
 92
       12
 66
     7
 43
1.0
 76
     1
 77
     6
 78
     2
 67
     7
 79
     5
170
     0
171
     0
290
     0
174
     0
 93
        1
 44
0.0
173
     0
291
     1
 45
0.0
1001
ACAD
1000
AcDbSavedByObjectVersion
1070
     0
  0
VISUALSTYLE
  5
F6
102
{ACAD_XDICTIONARY
360
34F8
102
}
102
{ACAD_REACTORS
330
EF
102
}
330
EF
100
AcDbVisualStyle
  2
Wireframe
 70
     5
 71
     0
 72
     2
 73
     0
 90
        0
 40
-0.6
 41
-30.0
 62
     5
 63
     7
 74
     1
 91
        4
 64
     7
 65
   257
 75
     1
175
     1
 42
1.0
 92
        0
 66
   257
 43
1.0
 76
     1
 77
     6
 78
     2
 67
     7
 79
     3
170
     0
171
     0
290
     0
174
     0
 93
        1
 44
0.0
173
     0
291
     0
 45
0.0
1001
ACAD
1000
AcDbSavedByObjectVersion
1070
     0
  0
VISUALSTYLE
  5
1F1
102
{ACAD_XDICTIONARY
360
3518
102
}
102
{ACAD_REACTORS
330
EF
102
}
330
EF
100
AcDbVisualStyle
  2
X-Ray
 70
    25
 71
     2
 72
     2
 73
     1
 90
        1
 40
0.5
 41
-30.0
 62
     5
 63
     7
 74
     1
 91
        0
 64
     7
 65
   257
 75
     1
175
     1
 42
1.0
 92
        8
 66
     7
 43
1.0
 76
     1
 77
     6
 78
     2
 67
     7
 79
     3
170
     0
171
     0
290
     0
174
     0
 93
       13
 44
0.0
173
     0
291
     0
 45
0.0
1001
ACAD
1000
AcDbSavedByObjectVersion
1070
     0
  0
DICTIONARYVAR
  5
146
102
{ACAD_REACTORS
330
5E
102
}
330
5E
100
DictionaryVariables
280
     0
  1
1:1
  0
DICTIONARYVAR
  5
259
102
{ACAD_REACTORS
330
5E
102
}
330
5E
100
DictionaryVariables
280
     0
  1
3.500000
  0
DICTIONARYVAR
  5
25A
102
{ACAD_REACTORS
330
5E
102
}
330
5E
100
DictionaryVariables
280
     0
  1
acadiso.lin
  0
DICTIONARYVAR
  5
145
102
{ACAD_REACTORS
330
5E
102
}
330
5E
100
DictionaryVariables
280
     0
  1
STANDARD
  0
DICTIONARYVAR
  5
84
102
{ACAD_REACTORS
330
5E
102
}
330
5E
100
DictionaryVariables
280
     0
  1
STANDARD
  0
DICTIONARYVAR
  5
227
102
{ACAD_REACTORS
330
5E
102
}
330
5E
100
DictionaryVariables
280
     0
  1
Metric50
  0
DICTIONARYVAR
  5
228
102
{ACAD_REACTORS
330
5E
102
}
330
5E
100
DictionaryVariables
280
     0
  1
Metric50
  0
DICTIONARYVAR
  5
5F
102
{ACAD_REACTORS
330
5E
102
}
330
5E
100
DictionaryVariables
280
     0
  1
2
  0
DICTIONARYVAR
  5
63
102
{ACAD_REACTORS
330
5E
102
}
330
5E
100
DictionaryVariables
280
     0
  1
1
  0
DICTIONARYVAR
  5
348D
102
{ACAD_REACTORS
330
5E
102
}
330
5E
100
DictionaryVariables
280
     0
  1
0
  0
DICTIONARYVAR
  5
1AE
102
{ACAD_REACTORS
330
5E
102
}
330
5E
100
DictionaryVariables
280
     0
  1
0
  0
DICTIONARYVAR
  5
1AF
102
{ACAD_REACTORS
330
5E
102
}
330
5E
100
DictionaryVariables
280
     0
  1
0
  0
DICTIONARYVAR
  5
348B
102
{ACAD_REACTORS
330
5E
102
}
330
5E
100
DictionaryVariables
280
     0
  1
2
  0
DICTIONARYVAR
  5
348A
102
{ACAD_REACTORS
330
5E
102
}
330
5E
100
DictionaryVariables
280
     0
  1
1
  0
DICTIONARYVAR
  5
34DD
102
{ACAD_REACTORS
330
5E
102
}
330
5E
100
DictionaryVariables
280
     0
  1
80.000000
  0
DICTIONARYVAR
  5
34DC
102
{ACAD_REACTORS
330
5E
102
}
330
5E
100
DictionaryVariables
280
     0
  1
5.000000
  0
DICTIONARYVAR
  5
348C
102
{ACAD_REACTORS
330
5E
102
}
330
5E
100
DictionaryVariables
280
     0
  1
127
  0
DICTIONARYVAR
  5
34DE
102
{ACAD_REACTORS
330
5E
102
}
330
5E
100
DictionaryVariables
280
     0
  1
2
  0
DICTIONARY
  5
3520
330
21C
100
AcDbDictionary
280
     1
281
     1
  3
ACAD_XREC_ROUNDTRIP
360
3521
  0
DICTIONARY
  5
34E5
330
D3
100
AcDbDictionary
280
     1
281
     1
  3
ACAD_XREC_ROUNDTRIP
360
34E6
  0
DICTIONARY
  5
34E7
330
D7
100
AcDbDictionary
280
     1
281
     1
  3
ACAD_XREC_ROUNDTRIP
360
34E8
  0
DICTIONARY
  5
34E2
330
22
100
AcDbDictionary
280
     1
281
     1
  3
ACAD_XREC_ROUNDTRIP
360
34E3
  0
DICTIONARY
  5
1F9
330
ED
100
AcDbDictionary
280
     1
281
     1
  3
ACAD_XREC_ROUNDTRIP
360
34EA
  3
FBXASSET
360
1FA
  0
DICTIONARY
  5
1F7
330
EC
100
AcDbDictionary
280
     1
281
     1
  3
ACAD_XREC_ROUNDTRIP
360
34E9
  3
FBXASSET
360
1F8
  0
DICTIONARY
  5
173
330
EE
100
AcDbDictionary
280
     1
281
     1
  3
ACAD_XREC_ROUNDTRIP
360
34EB
  3
BUMPTILE
360
175
  3
DIFFUSETILE
360
174
  3
FBXASSET
360
1FB
  3
OPACITYTILE
360
176
  3
REFLECTIONTILE
360
177
  0
DICTIONARY
  5
350C
330
12E
100
AcDbDictionary
280
     1
281
     1
  3
ACAD_XREC_ROUNDTRIP
360
350D
  0
DICTIONARY
  5
351E
330
21A
100
AcDbDictionary
280
     1
281
     1
  3
ACAD_XREC_ROUNDTRIP
360
351F
  0
DICTIONARY
  5
162
330
7F
100
AcDbDictionary
280
     1
281
     1
  3
ACAD_ROUNDTRIP_2008_TABLESTYLE_CELLSTYLEMAP
360
34DF
  3
ACAD_XREC_ROUNDTRIP
360
34E4
  0
DICTIONARY
  5
34F6
330
F5
100
AcDbDictionary
280
     1
281
     1
  3
ACAD_XREC_ROUNDTRIP
360
34F7
  0
DICTIONARY
  5
34F4
330
F4
100
AcDbDictionary
280
     1
281
     1
  3
ACAD_XREC_ROUNDTRIP
360
34F5
  0
DICTIONARY
  5
3502
330
FB
100
AcDbDictionary
280
     1
281
     1
  3
ACAD_XREC_ROUNDTRIP
360
3503
  0
DICTIONARY
  5
350A
330
FF
100
AcDbDictionary
280
     1
281
     1
  3
ACAD_XREC_ROUNDTRIP
360
350B
  0
DICTIONARY
  5
34FC
330
F8
100
AcDbDictionary
280
     1
281
     1
  3
ACAD_XREC_ROUNDTRIP
360
34FD
  0
DICTIONARY
  5
3500
330
FA
100
AcDbDictionary
280
     1
281
     1
  3
ACAD_XREC_ROUNDTRIP
360
3501
  0
DICTIONARY
  5
3512
330
1E6
100
AcDbDictionary
280
     1
281
     1
  3
ACAD_XREC_ROUNDTRIP
360
3513
  0
DICTIONARY
  5
3508
330
FE
100
AcDbDictionary
280
     1
281
     1
  3
ACAD_XREC_ROUNDTRIP
360
3509
  0
DICTIONARY
  5
34EC
330
F0
100
AcDbDictionary
280
     1
281
     1
  3
ACAD_XREC_ROUNDTRIP
360
34ED
  0
DICTIONARY
  5
34EE
330
F1
100
AcDbDictionary
280
     1
281
     1
  3
ACAD_XREC_ROUNDTRIP
360
34EF
  0
DICTIONARY
  5
34F0
330
F2
100
AcDbDictionary
280
     1
281
     1
  3
ACAD_XREC_ROUNDTRIP
360
34F1
  0
DICTIONARY
  5
34F2
330
F3
100
AcDbDictionary
280
     1
281
     1
  3
ACAD_XREC_ROUNDTRIP
360
34F3
  0
DICTIONARY
  5
34FA
330
F7
100
AcDbDictionary
280
     1
281
     1
  3
ACAD_XREC_ROUNDTRIP
360
34FB
  0
DICTIONARY
  5
350E
330
1E4
100
AcDbDictionary
280
     1
281
     1
  3
ACAD_XREC_ROUNDTRIP
360
350F
  0
DICTIONARY
  5
3506
330
FD
100
AcDbDictionary
280
     1
281
     1
  3
ACAD_XREC_ROUNDTRIP
360
3507
  0
DICTIONARY
  5
3510
330
1E5
100
AcDbDictionary
280
     1
281
     1
  3
ACAD_XREC_ROUNDTRIP
360
3511
  0
DICTIONARY
  5
34FE
330
F9
100
AcDbDictionary
280
     1
281
     1
  3
ACAD_XREC_ROUNDTRIP
360
34FF
  0
DICTIONARY
  5
351C
330
1F3
100
AcDbDictionary
280
     1
281
     1
  3
ACAD_XREC_ROUNDTRIP
360
351D
  0
DICTIONARY
  5
351A
330
1F2
100
AcDbDictionary
280
     1
281
     1
  3
ACAD_XREC_ROUNDTRIP
360
351B
  0
DICTIONARY
  5
3514
330
1EF
100
AcDbDictionary
280
     1
281
     1
  3
ACAD_XREC_ROUNDTRIP
360
3515
  0
DICTIONARY
  5
3516
330
1F0
100
AcDbDictionary
280
     1
281
     1
  3
ACAD_XREC_ROUNDTRIP
360
3517
  0
DICTIONARY
  5
3504
330
FC
100
AcDbDictionary
280
     1
281
     1
  3
ACAD_XREC_ROUNDTRIP
360
3505
  0
DICTIONARY
  5
34F8
330
F6
100
AcDbDictionary
280
     1
281
     1
  3
ACAD_XREC_ROUNDTRIP
360
34F9
  0
DICTIONARY
  5
3518
330
1F1
100
AcDbDictionary
280
     1
281
     1
  3
ACAD_XREC_ROUNDTRIP
360
3519
  0
XRECORD
  5
3521
102
{ACAD_REACTORS
330
3520
102
}
330
3520
100
AcDbXrecord
280
     1
102
DISPLAYNAME
  1
Metric50
102
FLAGS
 90
        0
  0
XRECORD
  5
34E6
102
{ACAD_REACTORS
330
34E5
102
}
330
34E5
100
AcDbXrecord
280
     1
102
SHADEPLOT
 70
     0
102
SHADEPLOTRESLEVEL
 70
     2
102
SHADEPLOTCUSTOMDPI
 70
   300
  0
XRECORD
  5
34E8
102
{ACAD_REACTORS
330
34E7
102
}
330
34E7
100
AcDbXrecord
280
     1
102
SHADEPLOT
 70
     0
102
SHADEPLOTRESLEVEL
 70
     2
102
SHADEPLOTCUSTOMDPI
 70
   300
  0
XRECORD
  5
34E3
102
{ACAD_REACTORS
330
34E2
102
}
330
34E2
100
AcDbXrecord
280
     1
102
SHADEPLOT
 70
     0
102
SHADEPLOTRESLEVEL
 70
     2
102
SHADEPLOTCUSTOMDPI
 70
   300
  0
XRECORD
  5
34EA
102
{ACAD_REACTORS
330
1F9
102
}
330
1F9
100
AcDbXrecord
280
     1
102
MATERIAL
148
0.0
149
0.0
149
0.0
 93
        0
 94
       63
282
     0
 72
     1
 77
     1
171
     1
175
     1
179
     1
273
     0
  0
XRECORD
  5
1FA
102
{ACAD_REACTORS
330
1F9
102
}
330
1F9
100
AcDbXrecord
280
     1
 70
     1
 90
429727718
  1
D62C5603-E3A1-4AEA-B7FB-FE5D8D0755AF
310
504B03040A0000080000CC70623B3DEE336E79000000790000001B0000006175746F6465736B2D64657369676E2D7061636B6167652E786D6C3C3F786D6C2076657273696F6E3D22312E302220656E636F64696E673D227574662D3822203F3E3C666F726D6174733E3C666F726D61743E687474703A2F2F736368656D612E
310
6175746F6465736B2E636F6D2F64657369676E2D7061636B6167652F323030393C2F666F726D61743E3C2F666F726D6174733E504B0304140006080800CC70623BD486FD9CA0000000F4000000130000005B436F6E74656E745F54797065735D2E786D6C7D8EC10E82300C865F65E91D8A1E8C310C0EEA1BF002731658846E
310
D98AC1B77784ABF1D8FE5FBFBF75BBCE937A534CCEB38643598122B6FEE978D0B0485F9C41B54DDD7D022595594E1A469170414C76A4D9A4D207E29CF43ECE46F218070CC6BECC4078ACAA135ACF422C856C0E68EA1BF5669944DDD7BCDE7B1F8E415D77AECB980613C2E4AC91FC167A2B244592486606FC29C8FD7F045B9A
310
EF7053A7E60B504B0304140006080800CC70623B853B8169EB0000007C01000008000000636F72652E786D6C8D90416EC3201045AF62CDB6C206821CC7C244919D9CA01740401C94182C03558F5F9C3852BBEB6A467FFE9B197D7EFC9E1EC5975982F5AE035262288C535E5B377690E21535501C055FBC8FBF6C503839990E
310
5619041F179FE64D52DE45E362569DD7661365082642A11EB9E920A89B99642953CC8E702F67A9EE7234257977194EC9EAE275C4EABCCF5EAD5940D4AC6F0E35A568B8F43562CD7046CD199FD07E60174276A7BE677B5EADB0E0D14EEFFB6A31321A0D82627C4084204C3F096B71DD52F6819B16635EADF63F509AF53FA164
310
5DDCD1EDDD17164090FCC8732078B56691CB33A85CD7DCC40F504B0304140006080800CC70623B55019EA25F0000007C00000007000000636E782E786D6C4DCB3B0E80201045D1AD90E915ED2CF8AC45050C11660C8261F98AB1B07AC9C97D42D718D865D3E909258CFD00CCE24AC6E326A164D74DC0B4128928FF32603847
310
2BA13128B1252AC747C6BAB984FC68F0B87FE8960A5C09FE86CFB69FBA01504B0304140006080800CC70623BDBABAAF470010000D40300000C0000006662782F636F72652E786D6CC553D16E823014FD95A6AF4B694182CC941A83FA05FB810A9511A125A5257EFE2E82712ECEB8A7F100CD39F7F69E734AF9FADC366850B6
310
AF8DCE7018308C942E4C59EB2AC3DE1D498AD15A706B8CFB56869196ADCAF00863C12B6B7C374385D14E6907A836A59A41D9F7CA615434B0C8705F7CAA5606D23BA8E84F41278B93AC54100640439DE0BDB320004D43C63716C7C399D30917DCFBBA9CD9BA8469F5B156168B24CED3F7248AC8769F27244EB73B92EED8862C
310
B7F13E0C179B3C8F979C8ECD82BBBABDAA2BAC924E9558448CBD9330242CFA08E3154B5651FCC6D215639C8EE5774DBE2B5F6CF2B5768B68963BB5F5588420E442FC700B1139D4CB01F450C1E918227C2E09DF070D8140C84E1E9AAB8F1340832A9CB13130A5F1376A908D57309505ECF2A0DF179C4E9D30F5B239B87E3823
310
7A79C6F31DE1A8A5AEC08474B03C7837EAE4938639B44E5932B833D2C6B6B279CDC613877FA26EE21F4A2A4C63EC7F29A2F301D1F9F7A0E37D145F504B0304140006080800CC70623B9C113CC27E0000009D0000000B0000006662782F636E782E786D6C4DCCDF0A83201C86E15B91DFB94BFB330DD428C8FB886521330DA7
310
6397BF1A1DECE883878F57749FCDA1B7892F1BBC047A23808C7F84D9FA55424E0BE6803A256208E9EF06C84F9B91703228B1C690F78B66B34CD9A5439DF5CF0BFBF65E35BCA1B8D6A5C6F540381E886698B5741C695F9503EBA150A2F8958E3DC3EA0B504B0304140006080800CC70623B7DF2F77C2A010000120200003100
310
00006662782F41393633353835312D344632462D344230382D423046372D3739314545314133324237412F636F72652E786D6C8D51DB8EC22014FC15C2939B0D2DB4B45643319AE817EC0F6041255A68B86CFCFC856D4D76DF7CE190393373060EDB3DC707F856CE6B6B7A480A0C81328395DA5C7B18C3057510EC3873D686
310
3F34088C18550F330C39BB3A1BA7051AAC09CA84841A2BD5020AEF55806078A44B0FFD7053A328440C89E1EFC52486BBB8AA8214A99D789CF9E05200300FC927E4FB4D5B375D43103D5527440FB843077C5AA3F5861C8F645F5787F59E95B390B318B55CE45AA638FAA2957BD7248B390B7A7CC51F9C124149C82B8C378810
310
84AB2F42B7B8DD56F413775B8C5999E9FF4471926F8AA236A1AE96B8B3CC434E5839373893369E1FAF30EA395917409EB7F26AF8801C171837A4A6AC9C89E9F9C9B1A58BA30FD6A5EF5DDDCF894B9AD9B6A59C957943A9FCAE2FD5BC4DFE03504B0304140006080800CC70623BAD7543B64E01000033030000300000006662
310
782F41393633353835312D344632462D344230382D423046372D3739314545314133324237412F636E782E786D6CD593CD6EC32010845F0571AD6CE3D48AD20813A9873E410FBD12D82434182C7EAAE6EDBB2424CD25871E7B41D6EC30B3FA84F9E67BB2E40B4234DE8DB46F1925E094D7C6ED479AD3AE5951B2113C789FEE
310
6C943839C1488B4C05DF079FE72A69D8C96C13AAD6B8631503449F83828872B949AC57D26200B826A308D316B4064D6E46FCDA41C05550DC9E483A00797BFD207EFB092A45DE9514C1BBD22178396BD39D891265658C238DEA00936C654E5E433CB65A26D9F6EDB5EBC14EBF49A45CB856E66048291F6939A9A81BB5C89177
310
38143CA680F4AA299D66A042CEB3354A2684DC9D8D178FE0D9B8B41CAAD720F880EE7EF93C0C18769E099ECC04D5A102C8049A8A05632F4DDF376CF1DE0F6BB65C2F8627B65A33C6BB62177CEBBDAD973006829F89F22E814B54F4BC2BE347F8AA8F681390B50FA73F804400B5F542E796F19FF974E7F78DB802FE05E20750
310
4B0304140006080800CC70623BE75B7789680500003C100000340000006662782F41393633353835312D344632462D344230382D423046372D3739314545314133324237412F6F626A656374732E786D6CAD575B8F9B3818FD2B887D06C22499CB8AA1CA655245D5B455A356FB305264C061D8018C6C3393D95FBFC7600890
310
A4CD5EF210B0B1BFEBF98E3F7B1FF6596ABC522E1296DF9BAE3D320D9A872C4AF2F8DE2CE5CEBA358D0FBEC719939D65A691938CDE9B6ADAF4BD98B3B2D05311DD91329583D9D5FC0F438434A7A611A644887B5384CF34233629258BA878B12322891DEFF6B66BD70BFB62634E8AE781D082709A4B588AF91C528CDA28B73F
310
1C998EEF39EABBEFA97FBD6A7C7E9553F9D3D79FE442923C3C523610337627CB87ABE99D359D4CC6D6E4FACAB5E6ABF9D2726FC6A3C5F56271377BB88362213924694B38DD99FE47C48627A1E7D49F5A8BB5E1A74C0A599ED3B0F21F1E56366B89112D681E218F0915D0D6F17AD41FBA2A369DCF6335D62ABBD39779D5DDD1
310
11D4D8DE3CBB96B2E04FB8202E41051754A1AA8E8F76B4C6DFE810B580B1547F4B84911149794252234D024EF8BBE963A95AE27B3D310A9D5C215C7960FAEE415ED75694C6AFB17BCACA5D99A60A9AA65F217B0BFC53292ACB92BF283FAD0D3621576592CB5BED907C2FA8E9DF794E35E97BEA31BED21FEB401ABB94C44839
310
DCACBF0E1C5DA8DA5B2F4DFFD32AD86F543D9E565E7056502E157C00AD2671CD534549AB752FCA9CDA00677A313F04E51B22FF19E57B300579E3C97EB29F682D92935CEC18CF901B7B54FD8C51F362B56FC72FE0B3C1EAE335EDCCBF5AEC39ADB17DC238973F804BA5E6F6BFE7AF1FB32E523BE9F3BD571418E3631DCA4D48
310
5250CF639223210A9446CA30052EDF057BD35F8329C1ECD84552BF0DC8D18BE7BCE23BFE6BD960AB4A7DE79923A103BEBD80F911CBAA2C60DB19B01CF164A5583B772EE6D3FFA56666CBCDA74DC97724A48F9A58967497E489C4D979006FD7A05E227A1EBDD0F737C623387A9C844D3709995625106D157315F8B8392CD4E0
310
A0B9A720C4BE9829CEF37EA1E13111214D53925356365ADA634861B52519DD27A00AEB808EAF0628E6F435519D446F45CF2C9CF5214F0A15B2F6D06B79DA3EE3CBF7F56780D2F4E7EF73A0F5E5B02A38D07DC852C6B7C1FBB6664213E0C39E3EBA7FF4E1AD23EA2829407C85E586727488B751B2DB9502BC7B228A3FD68B6E
310
A65A22397E690AA8D158D7E404EC8CDA235CC3B7D1898680131CEC2CDF2638C65196279577750F15884AEE19F94199155B92B13297978469D4F8D358DF0AEF7631E28DC8F0D9F437D5D39A83B2231A1D52D543813A824EF8D44BCFF2FA6A31BD1E8DAD87F1CCB526B3879935BF59CDADD5C37479BB1CDD4CA7B3556B516589
310
EF352754B706114D9C885EC9131DE6EFEB43D99AFE2391C2F958179413D7CFEF6B1B6DB1E7600F00DE6E5C67454A339A4BA2E0FBA85ED26F045D454F463DBFCE484C2F90F2E5E3666003662ED8F755951A7D1BECD5B30B550B2785C8E7320B7292A4838DDA71BBC863ED7613CAF659337A3354231D4FF4A182A54904C2898C
310
98B28C4AD0CE056CCF332A80986E571EE9DBC305BB5FEB7E509220A58D25CF042D712A806AC0AD0C657FDEF80D2D9CEAA2EE4D1C76F60BFE74219A06527D6F82DF6412526107381E55E353090704D085B52408A8913C4ED159D79BDA71BB4BC506F4831350EB6F975CD22D69BF7AC49B91A2C0A9DDA3D5CA36AD20FC478E37
310
E61844E2352865EBCB61A275A65283CAAA9DD27703B4102F5AF51EF5F573B75CBB5AD38BC845F7A49F82A0966A49C2E3EA5EA0ECD326CD965F1DB402C6FA8B51A4658C5C5E2EC9E214602E55810345408596591009A82E7E7FFACA19EEA299B14A0081A705CB3296EBC14CDF658DCD336EA6D1136881AAEB87B81AB9EE53D5
310
F5EB8BC8362082DA24122F98680A4E7930C01A0079749CEA14382A0783E5EBA5A10F8C098456A03D6A4AEB6BB881E2513747552A5DB22C7EDAF83BD5528081A365F7FF06504B0304140006080000CC70623B000000000000000000000000350000006662782F41393633353835312D344632462D344230382D423046372D37
310
39314545314133324237412F76657274696365732E62696E504B0304140006080800CC70623BF270F1330600000004000000360000006662782F41393633353835312D344632462D344230382D423046372D3739314545314133324237412F747269616E676C65732E62696E636660600000504B0304140006080000CC7062
310
3B000000000000000000000000370000006662782F41393633353835312D344632462D344230382D423046372D3739314545314133324237412F617474726962757465732E62696E504B0304140006080800CC70623B08DA0BD19000000041010000360000006662782F41393633353835312D344632462D344230382D4230
310
46372D3739314545314133324237412F6469726563746F72792E786D6C858F410AC3201045AF22B36F53E9A60B35CBEEBAE80D244E44489C6234F4F835464A48035D0DF398FF9F8AF63D0E6CC63039F212F8F9020C7D47C6792B21C5FE7403D62A1188E2E60C98D7234A5830286103A55745067B9D86B8A3CF9C7F90C11DE6
310
07FB144396D7B6A82D282E9A152AD114D5EF2CB866EEE831B8EEA07A7BB5A8D7D61A2BAAEB7FD5F70921FF497D00504B0304140006080800CC70623BEDD1DC58FD000000A00100003B0000006662782F41393633353835312D344632462D344230382D423046372D3739314545314133324237412F7265736F75726365732F
310
636F72652E786D6C8D504B6E833010BD0A9A6D65B00922041947112427E8052C33A156828DFCA97AFC9A40A576D7CDCCE87D344F8F9FBFE667F689CE6B6B3A6039850C8DB2A336530731DC4903D95970676DF82583CCC8193B5861107C72362E3BA4AC096842428D1D7107A5F7182053CF7474E0D507CE32973124857FE48B
310
540F3961CEF244279DE03EB81420DB9EAC1384436FA353E879B1B182C7A8C75DA3C7F453DF353A1075D537A7BA6464B8F535A99AE14A9A2BBD90E350DD183B5CFABE3AF262350B1EF4FC9351399401471025A527C218A1E53BAB5A5AB765F5469B96525EACF23FA6B88CFF34456DC2A1DCE36E360F82A5202F42F062ED2BAD
310
579969AFDD8A6F504B010214000A0000080000CC70623B3DEE336E79000000790000001B00000000000000000000000000000000006175746F6465736B2D64657369676E2D7061636B6167652E786D6C504B01021400140006080800CC70623BD486FD9CA0000000F40000001300000000000000000000000000B20000005B
310
436F6E74656E745F54797065735D2E786D6C504B01021400140006080800CC70623B853B8169EB0000007C010000080000000000000000000000000083010000636F72652E786D6C504B01021400140006080800CC70623B55019EA25F0000007C000000070000000000000000000000000094020000636E782E786D6C504B
310
01021400140006080800CC70623BDBABAAF470010000D40300000C00000000000000000000000000180300006662782F636F72652E786D6C504B01021400140006080800CC70623B9C113CC27E0000009D0000000B00000000000000000000000000B20400006662782F636E782E786D6C504B01021400140006080800CC70
310
623B7DF2F77C2A010000120200003100000000000000000000000000590500006662782F41393633353835312D344632462D344230382D423046372D3739314545314133324237412F636F72652E786D6C504B01021400140006080800CC70623BAD7543B64E010000330300003000000000000000000000000000D2060000
310
6662782F41393633353835312D344632462D344230382D423046372D3739314545314133324237412F636E782E786D6C504B01021400140006080800CC70623BE75B7789680500003C10000034000000000000000000000000006E0800006662782F41393633353835312D344632462D344230382D423046372D3739314545
310
314133324237412F6F626A656374732E786D6C504B01021400140006080000CC70623B0000000000000000000000003500000000000000000000000000280E00006662782F41393633353835312D344632462D344230382D423046372D3739314545314133324237412F76657274696365732E62696E504B01021400140006
310
080800CC70623BF270F133060000000400000036000000000000000000000000007B0E00006662782F41393633353835312D344632462D344230382D423046372D3739314545314133324237412F747269616E676C65732E62696E504B01021400140006080000CC70623B0000000000000000000000003700000000000000
310
000000000000D50E00006662782F41393633353835312D344632462D344230382D423046372D3739314545314133324237412F617474726962757465732E62696E504B01021400140006080800CC70623B08DA0BD1900000004101000036000000000000000000000000002A0F00006662782F41393633353835312D344632
310
462D344230382D423046372D3739314545314133324237412F6469726563746F72792E786D6C504B01021400140006080800CC70623BEDD1DC58FD000000A00100003B000000000000000000000000000E1000006662782F41393633353835312D344632462D344230382D423046372D3739314545314133324237412F7265
310
736F75726365732F636F72652E786D6C504B0506000000000E000E0080040000641100000000
  0
XRECORD
  5
34E9
102
{ACAD_REACTORS
330
1F7
102
}
330
1F7
100
AcDbXrecord
280
     1
102
MATERIAL
148
0.0
149
0.0
149
0.0
 93
        0
 94
       63
282
     0
 72
     1
 77
     1
171
     1
175
     1
179
     1
273
     0
  0
XRECORD
  5
1F8
102
{ACAD_REACTORS
330
1F7
102
}
330
1F7
100
AcDbXrecord
280
     1
 70
     1
 90
429727718
  1
30362254-06B7-45E0-A893-8CFA70E3D6BC
310
504B03040A0000080000CC70623B3DEE336E79000000790000001B0000006175746F6465736B2D64657369676E2D7061636B6167652E786D6C3C3F786D6C2076657273696F6E3D22312E302220656E636F64696E673D227574662D3822203F3E3C666F726D6174733E3C666F726D61743E687474703A2F2F736368656D612E
310
6175746F6465736B2E636F6D2F64657369676E2D7061636B6167652F323030393C2F666F726D61743E3C2F666F726D6174733E504B0304140006080800CC70623BD486FD9CA0000000F4000000130000005B436F6E74656E745F54797065735D2E786D6C7D8EC10E82300C865F65E91D8A1E8C310C0EEA1BF002731658846E
310
D98AC1B77784ABF1D8FE5FBFBF75BBCE937A534CCEB38643598122B6FEE978D0B0485F9C41B54DDD7D022595594E1A469170414C76A4D9A4D207E29CF43ECE46F218070CC6BECC4078ACAA135ACF422C856C0E68EA1BF5669944DDD7BCDE7B1F8E415D77AECB980613C2E4AC91FC167A2B244592486606FC29C8FD7F045B9A
310
EF7053A7E60B504B0304140006080800CC70623B1EC5D7A3EB0000007C01000008000000636F72652E786D6C8D90416EC3201045AF82665B6103C6756C6122AB4D4ED00B204C5C94182C03558F5F9C3852BBEB6A467FFE9B197D71FC9E6FE8CBACC17AD7032D0820E3B41FAD9B7A48F1820F808E52ACDEC75F36404ECDA687
310
4D0629A6D5A76597B477D1B89855E747B38B2A041301E95B6E7A08FAD3CCAA50296647B8168BD2573599823EBB0CA76447F43862C7BCCF5EAC59410E4DDD9C7973C2755553CCCFA4C603E3040F1565ED3B1FDE4E432BCA0D9622DAF9795FAF464533826484B498524CD807E51D79ED187F21878E10516EF63F505AC67F42C9
310
BA58B1FDDD071640D2FCC87D2045B96591CB3DA85CB7DCE40F504B0304140006080800CC70623B55019EA25F0000007C00000007000000636E782E786D6C4DCB3B0E80201045D1AD90E915ED2CF8AC45050C11660C8261F98AB1B07AC9C97D42D718D865D3E909258CFD00CCE24AC6E326A164D74DC0B4128928FF32603847
310
2BA13128B1252AC747C6BAB984FC68F0B87FE8960A5C09FE86CFB69FBA01504B0304140006080800CC70623B8C9102E971010000D40300000C0000006662782F636F72652E786D6CC5535B6E833010BC8AE5DF0A6C08340F1947A84D4ED00B38C6A128602363A31CBFCB234A53A551FA553EC09AD9F5CE8C31DB9E9B1AF5CA
310
7695D1198E428A91D2D214952E33ECDD315861B4E5CC1AE3BE9561A445A3323CC098B3D21ADFCE9034DA29ED00D5A6503328BA4E398C640D8B0C77F253352214DE4145770A5B214FA2546114020D759C75CE8200340D19DE981F0F6746269C33EFAB6266AB02A655C74A59CCF365BADC27CB5D902ED22848F6340DF238A141
310
BE88E2F57B92BFEDF23523433367AE6A2EEAA455C2A902F398D2751045018D3FA264435F3771F242571B4A1919CA6F9A7C5B3CD9E42BED16F12C776AEB308F40C848FC700B1139D4891EF410CEC810227CC6846F8386402064270EF5C5C709A05E49676C024C61FC95EA45ED154CA5211D1FF4FB8291A913A68E9B83EBBB33
310
E2A7673CDE118E5AE8124C0807CB8377834E366998436B950D7A7746DAD846D4CFD978E0F04FD455FC5D49D2D4C6FE9722321F10997F0F32DC47FE05504B0304140006080800CC70623BFFEA85907E0000009D0000000B0000006662782F636E782E786D6C4DCCD10A83201886E15B91FFDC95D95A811AB6F23E625948A6C3
310
E9D8E5AF46073BFAE0E1E365ED67B3E8ADC3CB78C7815C7240DA3DFC64DCC221C519D7805AC182F7F1EF06C88D9BE6703008B6049F9E274D7A1E938DBB5AE3D6131B2589BA0D3D965551E0B2EA732C9B9A624AAEB41E3A557677029960D9AFB4EF11165F504B0304140006080800CC70623B4FEEA4082C0100001202000031
310
0000006662782F39464131463745442D413632322D343644302D413938332D3331353338454246344243312F636F72652E786D6C8D515B6EC32010BC0AE2AB55850DD871ED0813254D72825EC00192A2C460F1A872FC42ED48ED5F7E00CDCECCCEB26C731F6FE05B39AFADE921293004CA082BB5B9F43086336A21D870E6AC
310
0D7F68109861543DCC30E4ECE26C9C164858139409093556AA051CBC570102714B8F1E7AF1A5C6A11862480C7F2DA6415C878B2A4891CA89C7990F2E050073937C42DE1DB7E4F87ED8A36D4329AA9B3D46DBAEAD504556557BD81DEBDD0761E52CE42C462D17B996298E3E6BE59E35C962CE821E1FF18553435012728A7187
310
0841987E927A8D9B35ADDF70BBC6989599FE4F1427F9A4286A132ABAC49D651EF234CD5CE04CDA78BA3DC2A8FB645D00B9DF8B57E215725C60BCA2A463E54C4CE327C7A65E1C7DB02E7DEFCBF594B864C5CA6CDBD49C957943E9FA5D5FBAF336F90F504B0304140006080800CC70623BAD7543B64E01000033030000300000
310
006662782F39464131463745442D413632322D343644302D413938332D3331353338454246344243312F636E782E786D6CD593CD6EC32010845F0571AD6CE3D48AD20813A9873E410FBD12D82434182C7EAAE6EDBB2424CD25871E7B41D6EC30B3FA84F9E67BB2E40B4234DE8DB46F1925E094D7C6ED479AD3AE5951B2113C
310
789FEE6C943839C1488B4C05DF079FE72A69D8C96C13AAD6B8631503449F83828872B949AC57D26200B826A308D316B4064D6E46FCDA41C05550DC9E483A00797BFD207EFB092A45DE9514C1BBD22178396BD39D891265658C238DEA00936C654E5E433CB65A26D9F6EDB5EBC14EBF49A45CB856E66048291F6939A9A81BB5
310
C8917738143CA680F4AA299D66A042CEB3354A2684DC9D8D178FE0D9B8B41CAAD720F880EE7EF93C0C18769E099ECC04D5A102C8049A8A05632F4DDF376CF1DE0F6BB65C2F8627B65A33C6BB62177CEBBDAD973006829F89F22E814B54F4BC2BE347F8AA8F681390B50FA73F804400B5F542E796F19FF974E7F78DB802FE05
310
E207504B0304140006080800CC70623B16AB87BA640500003C100000340000006662782F39464131463745442D413632322D343644302D413938332D3331353338454246344243312F6F626A656374732E786D6CAD575B6FA33818FD2B887DE6924B3BED8A326A92B68A663B534DD4D13E548A0C38942D60649B369D5FBFC7
310
600890A493BDE42160637FD7F31D7FF63E6FB3D478A55C242CBF3247B66B1A340F5994E4F19559CA8D75611A9F7D8F33263BCB4C232719BD32D5B4E97B316765A1A722BA21652A07B3B7B33F0D11D29C9A46981221AE4C113ED38CD8A4942CA2E2C58E882476BCD9DA23BB5ED8171B73523C0F841684D35CC252CCE79062D4
310
468DFA43D7747CCF51DF7D4FFDEB5593E3AB9CCA9FBEFE241792E4E19EB28198C968BAB8199F5D5A67D3E9C49A9E8F47D6EC76B6B0469F26EEFC7C3EBFBCBEB98462213924694B38DD98FE1D62C393D073EA4FADC5DAF04326852CCF6958F90F0F2B9BB5C48816348F90C7840A68EB78EDF68723159BCEE7891A6B95DDE9D3
310
BCEAEEE8086A6C6F9E5D4B59F0175C10A7A0820BAA5055C7473B5AE3CFDD452D602CD5DF12616444529E90D448938013FE6EFA58AA96F85E4F8C42275708571E98FE6827AF6B2B4AE3D7D83D64E5A64C53054DD3AF90BD06FEA9149565C94FCA0F6B834DC85599E4F2423B24DF0B6AFA979E534DFA9E7A4CC6FA631D486393
310
921829879BF5D781A373557BCB85E97FB90DB62B558F8795179C15944B051F40AB495CF35451D26A4727654E6D8033BD98EF82F21D91FF8AF2DD9982BCF1643BDD4EB516C9492E368C67C88DED563FC36D5EACF66DFF057C3658BDBFA69DF9578B3DA735B64F18C7F20770A9D45CFCF7FCF563D6456A277DBEF78A02637CA2
310
43B90A490AEAB94F72244481D24819A6C0E59B606BFA4B3025981DBB48EAB701D97BF19C577CC77F2D1B6C55A9EF3C732474C0B727303F625995056C3B02963D9EAC146BE78EC5FCEC7FA999EBC5EACBAAE41B12D27B4D2C0BBA49F244E2ECDC81B76B502F113D8F5EE8FB1BE3111CDD4FC2AA9B844CAB1288B68AB90A7CDC
310
1C166AB0D3DC5310625FCC14E779BFD0709F8890A629C9292B1B2DED31A4B0DA928CEE135085754027E3018A397D4D5427D15BD1330B677DC8934285AC3DF45A9EB68FF8F2B8FC0A509AFEECFD0FF2DE25CC6047F7214B195F07EFEB9A094D800F7BFAE8FED187B78EA8A3A400F115961BCAD1215E47C966530AF0EE8128FE
310
58CEBB996A8964FFA529A046635D9353B0336A8F700DDF46271A024E70B0B37C9DE01847591E54DED53D54202AB947E4076556AC49C6CA5C9E1226B7F1A7B1BE15DEED62C41B91E1B3E9AFAAA735036547343A925075041DF0A9979E893B391F8FCFA6967B3EFB644DCF6E5CEBFAE272625DCC6FAF3FB93793C5F90CE1EF57
310
407342756B10D1C489E8953CD1617E5CEECAD6F4EF8914CE5D5D504E5C3F1F9736DA62CFC11E00BCDDB8CC8A9466349744C1F75EBDA4DF09BA8A9E8C7A7E9991989E20E5DBDD6A6003664ED8F7A04A8DBE0DF6EAD9B9AA858342E47399053949D2C146EDB85DE4B176BB0965FBAC19BD19AA918E27FA50C1D22402E144464C
310
59462568E704B6E71915404CB72B8FF4EDE184DDAF753F284990D2C6926782963815403548A70C657FDEF80D2D9CEAA2AE4C1C76F60BFE74219A06527D6582DF6412526107381E55E353090704D085B52408D0933C4ED159D79BDA71BB4BC506F4831350EB6F979CD22D69BF7AC49B91A2C0A9DDA3D5CA36AD20FC478E37E6
310
1844E2352865EBCB6EA275A652E3836BE04EFB400BF1A2556F515F1FBB35B2AB35BD889C744FFA1004B5544B121E57F70215746DD2F5E2C1412B602CBF19455AC6C8E5E9922C4E01E65215385004546899059180EAFCF7A707CE7017CD8CDB0410789AB32C63B91E5CEBBBACB17AC6CD347A022D5075FD106377347AAABA7E
310
7D11590744509B44E205134DC1290F06580320F78E537D3D73540E06CB970B431F185308AD40BBD794D6D77003C5A36E8EAA54BA64597CD8F83BD552A080A365F7FF06504B0304140006080000CC70623B000000000000000000000000350000006662782F39464131463745442D413632322D343644302D413938332D3331
310
353338454246344243312F76657274696365732E62696E504B0304140006080800CC70623BF270F1330600000004000000360000006662782F39464131463745442D413632322D343644302D413938332D3331353338454246344243312F747269616E676C65732E62696E636660600000504B0304140006080000CC70623B
310
000000000000000000000000370000006662782F39464131463745442D413632322D343644302D413938332D3331353338454246344243312F617474726962757465732E62696E504B0304140006080800CC70623B08DA0BD19000000041010000360000006662782F39464131463745442D413632322D343644302D413938
310
332D3331353338454246344243312F6469726563746F72792E786D6C858F410AC3201045AF22B36F53E9A60B35CBEEBAE80D244E44489C6234F4F835464A48035D0DF398FF9F8AF63D0E6CC63039F212F8F9020C7D47C6792B21C5FE7403D62A1188E2E60C98D7234A5830286103A55745067B9D86B8A3CF9C7F90C11DE607
310
FB144396D7B6A82D282E9A152AD114D5EF2CB866EEE831B8EEA07A7BB5A8D7D61A2BAAEB7FD5F70921FF497D00504B0304140006080800CC70623B0D6EF93BFE000000A00100003B0000006662782F39464131463745442D413632322D343644302D413938332D3331353338454246344243312F7265736F75726365732F63
310
6F72652E786D6C8D50596E833010BD0A9ADFCA60B334011947A8694ED00B586642AC041B79A97AFC9A40A5F6AF3F33A3B7689E1E3F7DCD8FEC139DD7D6F4C0720A191A65476DA61E62B892236427C19DB5E1970C322367EC618541F0C9D9B8EC90B226A009093576C41D94DE63804C3DD2D18357379C652E63480A7FCF17A9
310
EE72C29CE5894E3AC17D702940B63D59270887DE46A7D0F36263058F518FBB468FE9A7BE6A7420864373B8D4873369AA8691FA421B3294352543C5CAF65C0F6FEF43CB8BD52C78D0F34F46E550061C419494B6843142CB0F5677F4B52BEB177AEC28E5C52AFF638ACBF84F53D42654E51E77B379102C05791282176B5F693D
310
CB4C7BED567C03504B010214000A0000080000CC70623B3DEE336E79000000790000001B00000000000000000000000000000000006175746F6465736B2D64657369676E2D7061636B6167652E786D6C504B01021400140006080800CC70623BD486FD9CA0000000F40000001300000000000000000000000000B20000005B
310
436F6E74656E745F54797065735D2E786D6C504B01021400140006080800CC70623B1EC5D7A3EB0000007C010000080000000000000000000000000083010000636F72652E786D6C504B01021400140006080800CC70623B55019EA25F0000007C000000070000000000000000000000000094020000636E782E786D6C504B
310
01021400140006080800CC70623B8C9102E971010000D40300000C00000000000000000000000000180300006662782F636F72652E786D6C504B01021400140006080800CC70623BFFEA85907E0000009D0000000B00000000000000000000000000B30400006662782F636E782E786D6C504B01021400140006080800CC70
310
623B4FEEA4082C0100001202000031000000000000000000000000005A0500006662782F39464131463745442D413632322D343644302D413938332D3331353338454246344243312F636F72652E786D6C504B01021400140006080800CC70623BAD7543B64E010000330300003000000000000000000000000000D5060000
310
6662782F39464131463745442D413632322D343644302D413938332D3331353338454246344243312F636E782E786D6C504B01021400140006080800CC70623B16AB87BA640500003C1000003400000000000000000000000000710800006662782F39464131463745442D413632322D343644302D413938332D3331353338
310
454246344243312F6F626A656374732E786D6C504B01021400140006080000CC70623B0000000000000000000000003500000000000000000000000000270E00006662782F39464131463745442D413632322D343644302D413938332D3331353338454246344243312F76657274696365732E62696E504B01021400140006
310
080800CC70623BF270F133060000000400000036000000000000000000000000007A0E00006662782F39464131463745442D413632322D343644302D413938332D3331353338454246344243312F747269616E676C65732E62696E504B01021400140006080000CC70623B0000000000000000000000003700000000000000
310
000000000000D40E00006662782F39464131463745442D413632322D343644302D413938332D3331353338454246344243312F617474726962757465732E62696E504B01021400140006080800CC70623B08DA0BD190000000410100003600000000000000000000000000290F00006662782F39464131463745442D413632
310
322D343644302D413938332D3331353338454246344243312F6469726563746F72792E786D6C504B01021400140006080800CC70623B0D6EF93BFE000000A00100003B000000000000000000000000000D1000006662782F39464131463745442D413632322D343644302D413938332D3331353338454246344243312F7265
310
736F75726365732F636F72652E786D6C504B0506000000000E000E0080040000641100000000
  0
XRECORD
  5
34EB
102
{ACAD_REACTORS
330
173
102
}
330
173
100
AcDbXrecord
280
     1
102
MATERIAL
148
0.0
149
0.0
149
0.0
 93
        0
 94
       63
282
     0
 72
     1
 77
     1
171
     1
175
     1
179
     1
273
     0
  0
XRECORD
  5
175
102
{ACAD_REACTORS
330
173
102
}
330
173
100
AcDbXrecord
280
     1
270
     1
271
     1
  0
XRECORD
  5
174
102
{ACAD_REACTORS
330
173
102
}
330
173
100
AcDbXrecord
280
     1
270
     1
271
     1
  0
XRECORD
  5
1FB
102
{ACAD_REACTORS
330
173
102
}
330
173
100
AcDbXrecord
280
     1
 70
     0
 90
1673772943
  1
ECE7A1D2-D628-4531-984C-D00F80459256
310
504B03040A0000080000CC70623B3DEE336E79000000790000001B0000006175746F6465736B2D64657369676E2D7061636B6167652E786D6C3C3F786D6C2076657273696F6E3D22312E302220656E636F64696E673D227574662D3822203F3E3C666F726D6174733E3C666F726D61743E687474703A2F2F736368656D612E
310
6175746F6465736B2E636F6D2F64657369676E2D7061636B6167652F323030393C2F666F726D61743E3C2F666F726D6174733E504B0304140006080800CC70623BD486FD9CA0000000F4000000130000005B436F6E74656E745F54797065735D2E786D6C7D8EC10E82300C865F65E91D8A1E8C310C0EEA1BF002731658846E
310
D98AC1B77784ABF1D8FE5FBFBF75BBCE937A534CCEB38643598122B6FEE978D0B0485F9C41B54DDD7D022595594E1A469170414C76A4D9A4D207E29CF43ECE46F218070CC6BECC4078ACAA135ACF422C856C0E68EA1BF5669944DDD7BCDE7B1F8E415D77AECB980613C2E4AC91FC167A2B244592486606FC29C8FD7F045B9A
310
EF7053A7E60B504B0304140006080800CC70623BD9DDAED0EC0000007C01000008000000636F72652E786D6C8D90416EC3201045AF82665B61836D9CD8C2444DD39CA01740405C94182C03558F5F9C3852BBEB6A467FFE9B197D7EF89E6EE8CB2CC17A37002D0820E394D7D68D03A478C17B4007C117EFE32F1B20272733C0
310
2A83E0E3E2D3BC49CABB685CCCAAF3DA6CA20CC14440EA969B0182FA34932C648AD911AEC52CD5558EA6A0CF2EC329598D1E47ACCEFBECC59A050463A7EA5833865FEBDD0E37353BE3EE8DBDE3F6786A48D375FBF6CC78B9C282473B3DEFABC5C86834888A900E538A49F5419B9EB47DD5BC907D4F082F57FB1F28CDFA9F50
310
B22ED6D5F6EE030B20687EE43E10BC5CB3C8E51E54AE6B6EE207504B0304140006080800CC70623B55019EA25F0000007C00000007000000636E782E786D6C4DCB3B0E80201045D1AD90E915ED2CF8AC45050C11660C8261F98AB1B07AC9C97D42D718D865D3E909258CFD00CCE24AC6E326A164D74DC0B4128928FF326038
310
472BA13128B1252AC747C6BAB984FC68F0B87FE8960A5C09FE86CFB69FBA01504B0304140006080800CC70623BA24EB22D72010000D40300000C0000006662782F636F72652E786D6CC5535B6E833010BC8AE5DF0A6C5E49888CA3A6694ED00B38E05014B091B1518EDFE511A5A9D228FD2A1F60CDEC7A67C6986DCE4D8D7A
310
69BA4AAB0C073EC548AA5C17952A33ECECD15B61B4E1CC686DBF9561A44423333CC098B3D268D7CE50AE9595CA02AA74216750749DB418E5352C32DCE59FB211BE70162ABA93DF8AFC244AE9073ED050C759670D0840D390E18DF9F1706664C23973AE2A66B62A605A75ACA4C13C4976E1364A12EF355A2EBD384AF65EFA96
310
BC7B8BED2EA6719AAE16FB8491A199335B351775B991C2CA02F390D2D40B028F861F41BCA68B7518BFD0D59A524686F29B26D7164F36B94AD9289CE54E6D1DE6010819891F6E21228B3AD1831EC219194284CF98F06DD01008846CC5A1BEF83801D4CBDC6A1303536877A57A513B0953A94FC707FDBE6064EA84A9E3E6E0FA
310
EE8CF0E9198F7784A316AA0413C2C2F2E0ECA0934D1AE6D05A69BCDE9E91D2A611F573361E38FC1375157F5752AE6B6DFE4B11990F88CCBF0719EE23FF02504B0304140006080800CC70623B408A7D3B7C0000009D0000000B0000006662782F636E782E786D6C4DCCD10A83201886E15B91FFDC552A92A0064DBC8F581632
310
D3703A76F9ABD1C18E3E78F878E5F0D9027ABBFCF2292AE86E2D20171F69F6715550CB827B40839639A5F2770314A7CD293819B45C73AAFB45B35BA61ACAA1C1C7E7855C58C15BC331339661262CC762340413D68D77DA5B42298546CBE6573AF60CEB2F504B0304140006080800CC70623B449FB9BD290100001202000031
310
0000006662782F36394639363044362D344446342D343946362D394244322D3234314243333846323333332F636F72652E786D6C8D515B6EC32010BC0AE22B55850D98B871848994463E412FE002495162B07854397EA176A4F62F3F2C9A9D991D587EB84F37F0AD7D30CEF6905418026DA553C65E7A98E219ED203808EE9D
310
8B7F6810D871D23D2C3014FCE25D9A57483A1BB58D19B54EE9151C43D0110279CB971E06F9A5A7B11A53CC8C70ADE6515EC78BAE4895DB992778883E0700CB907242D17643D7E2538BD869608875438BBAE38922CAC8F1BDD90DB4691A5E2F42C153326A951B95E398B3D1FE599322163C9AE9115F7A3D46ADA0A018778810
310
84E907617BDCEE297BC5BB3DC6BC2EF47FA234AB2745C9D8D8D035EE220B50105E2F0DC1954B9FB747187D9F9D8FA0CCDB042D5FA0C015C65B42DF78BD10F3F3B363CB56C7109DCFDFBBB97E662ED92EB62D13BC2E1BCAE5777DB9966D8A1F504B0304140006080800CC70623BAD7543B64E01000033030000300000006662
310
782F36394639363044362D344446342D343946362D394244322D3234314243333846323333332F636E782E786D6CD593CD6EC32010845F0571AD6CE3D48AD20813A9873E410FBD12D82434182C7EAAE6EDBB2424CD25871E7B41D6EC30B3FA84F9E67BB2E40B4234DE8DB46F1925E094D7C6ED479AD3AE5951B2113C789FEE
310
6C943839C1488B4C05DF079FE72A69D8C96C13AAD6B8631503449F83828872B949AC57D26200B826A308D316B4064D6E46FCDA41C05550DC9E483A00797BFD207EFB092A45DE9514C1BBD22178396BD39D891265658C238DEA00936C654E5E433CB65A26D9F6EDB5EBC14EBF49A45CB856E66048291F6939A9A81BB5C89177
310
38143CA680F4AA299D66A042CEB3354A2684DC9D8D178FE0D9B8B41CAAD720F880EE7EF93C0C18769E099ECC04D5A102C8049A8A05632F4DDF376CF1DE0F6BB65C2F8627B65A33C6BB62177CEBBDAD973006829F89F22E814B54F4BC2BE347F8AA8F681390B50FA73F804400B5F542E796F19FF974E7F78DB802FE05E20750
310
4B0304140006080800CC70623B8D05915C650500003B100000340000006662782F36394639363044362D344446342D343946362D394244322D3234314243333846323333332F6F626A656374732E786D6CAD575B6FA33814FE2B887D06429276DA1565D4266D158D3A339A6846FB502932E050B66023DB74D2FDF5FB190C01
310
9276B2973C046C8ECFF53B17071F77456EBD502133CEAE6CDF9DD81665314F32965ED995DA3A17B6F5310C04E7AA47665B8C14F4CAD6DB7618A48257A5D94AE89654B91AEDDEDDFC61C998326A5B714EA4BCB265FC440BE2924AF184CA6737218AB8E976E7FA6E4338649B0A523E8D98964450A6A029F619B8588D52FE7039
310
B1BD30F0F4F730D0FF866AF6369557DB33949F31A9088B0F848DD8CCFCF9F2767A76E99CCDE733677E3EF59D9BBB9BA5E37F984D16E78BC5E5F5ED25044B25C0C96822E8D60EEFE11B91C581D77CEA34368A1F5329E68CD1B8B61F16D63A1B8E092D294B10C78C4A48EB593D192E7DED9BDEE7995E1B91FDEDD3ACEA9FE831
310
6A756F9F7D4D79F4274C90A7A04248AA51D5F8C718DAE06FB2F75AC4796EBE65D22A88A22223B995679120E2D50E41AA49C260C046A35368846B0BECD0DFF3EBEB8AD4F835768F69B9ADF25C43D30E6B646F807FAA64AD59F61715C7A54127C4AACA98BA3006A9D792DAE165E0D59B61A01FB3A9F9D838D2DAE62445C86166
310
F37564E842E7DE6A69879FEEA2DD5AE7E371E1A5E025154AC307D06A03D73EB5978C58FFA4C8E9033066E0F3BD53BEC1F39F91BE7B55103791EDE6BBB991A2046172CB4581D8B893FA674DDA17A77B3B7C413D1B511FD2743BFF8A38F03A658705E3ADF8015C3A3417FF3D7E439FF591DA0B5F18BC20C1B8981957AE6392A3
310
F43C640C01D1A0B4728E2DD4F26DB4B3C3152A252A3B4E913CEC1C72F012782FF88EFF8637AA552DBEF76408E8A8DE9E50F9E1CB3A2DA0DB1B6039A893B56063DC5B3E3FFB5F72E67AB9FEB4AEC496C4F4C1149625DD662C53E89D7BF0F6151A046260D1337DFDC94502430F83B0EE07A130A224BCAD7DAE1D9FB6CD422FF6
310
920702629C4BB9AE79C12F243C6432A6794E18E5552BA56B431AAB5D91317302B2B071E86C3A42B1A02F999E24061403B5D0EB639195DA655DD3EBEAB4FB862DDF579F014AD0E73C22F99E28DA57FB98E75C6CA2D74D53086D600F4786E0FE3144B771A8A7B900F03594DB8A633CBC49B2EDB69228BB479CF863B5E807AAAB
310
23872F6DFEB4129B949CA33823F58830E86D65621E10047D9DB34D862E8EAC3C2ABC2F7B2C40D67CDFE01F5545B92105AF983AC54D93D69E56FB8E797F88913F898A9FEC705D3F9D1B54EC8426FB500D40A03BD0119B06E1B95DDC7EB8F6975367793EBD70E66733DFB9BC982F9CE564727731999F5D4ECFCE3B8D6A4DC2A0
310
6D50FD148437D110834A64C6CDDF57FBACB5C307A2A477DFE4939736CFEF2B175371E0E10CF0DD1D5C15654E0BCA14D1E87DD02FF93782A162C0A3D95F1524A52770F972BF1EE9809D13CE7DD599467F8ECE9ADD85CE85A34CD45355448C64F9E8A031DC2D596ACC6E5DD93D9B82DE2EF5CAF81363A8E47996A0DE24564A79
310
4115AACE09C55E14540231FDA13C319787134EBF34E3A022514E5B4D9E0826E25C02D5805B15ABE1BEF51B26383D445DD9E875EE33FE4C22DA16427D65A3BCA92CA6D28DD01DF5DC53330704308475351050232CCD31583787BA75774AFB06E5070DD0C8EF484E19968C5D83BA5B90B244D31E54D55A372320FE4786B7EA58
310
44E135AA5467CB7EA333A61683CC6A8C3257034C10CF46F40EF9F5BE59BE5BD30C3C72D235E95D10345C1D45445A5F0BB47E46A5EBE5570F9380B5FA629579952296A773720405982B9DE04011506178964401AA8BDF1FBF0A8EAB6861DD6580C0E38217056766716DAEB2D6FA0917D3E4116581EADB879C4E7CFFB11EFACD
310
3D641311495D92C8676CB409A72D18610D803CE8A626049E8EC1887CB5B44CC39883690DDA8399B4B9855B481E7D71D4A9D22F96E5BB73BF5793020C02137BF837504B0304140006080000CC70623B000000000000000000000000350000006662782F36394639363044362D344446342D343946362D394244322D32343142
310
43333846323333332F76657274696365732E62696E504B0304140006080800CC70623BF270F1330600000004000000360000006662782F36394639363044362D344446342D343946362D394244322D3234314243333846323333332F747269616E676C65732E62696E636660600000504B0304140006080000CC70623B0000
310
00000000000000000000370000006662782F36394639363044362D344446342D343946362D394244322D3234314243333846323333332F617474726962757465732E62696E504B0304140006080800CC70623B08DA0BD19000000041010000360000006662782F36394639363044362D344446342D343946362D394244322D
310
3234314243333846323333332F6469726563746F72792E786D6C858F410AC3201045AF22B36F53E9A60B35CBEEBAE80D244E44489C6234F4F835464A48035D0DF398FF9F8AF63D0E6CC63039F212F8F9020C7D47C6792B21C5FE7403D62A1188E2E60C98D7234A5830286103A55745067B9D86B8A3CF9C7F90C11DE607FB14
310
4396D7B6A82D282E9A152AD114D5EF2CB866EEE831B8EEA07A7BB5A8D7D61A2BAAEB7FD5F70921FF497D00504B0304140006080800CC70623BCA768048FE000000A00100003B0000006662782F36394639363044362D344446342D343946362D394244322D3234314243333846323333332F7265736F75726365732F636F72
310
652E786D6C8D50596E833010BD0A9ADFCA60D600328E9AA639412F609909B1126CE4A5EAF16B0295DABFFECC8CDEA2797AECF8353F924FB44E193D409E5248504B332A3D0D10FC95B4901C39B3C6F85F3248B49871801506CE266BC2B243D2688FDA47549B11775038871E12F988C7004EDE7016A9083E2ADC3D5D84BC8B09
310
D33C8D74D471E6BC8D0192EDC93A815B742658898E651BCB59086ADC356A8C3FD555A1055ED7E7E254D615792D0F075295F585746FF53B694EE78A565DD736979A65AB9933AFE69F8CD2A2F038022F28ED489E135A7CE4554F9BBEA85E68DB53CAB255FEC71496F19FA6A0B42F8B3DEE6673C0F318E4497096AD7DC5F52C33
310
EEB55BFE0D504B010214000A0000080000CC70623B3DEE336E79000000790000001B00000000000000000000000000000000006175746F6465736B2D64657369676E2D7061636B6167652E786D6C504B01021400140006080800CC70623BD486FD9CA0000000F40000001300000000000000000000000000B20000005B436F
310
6E74656E745F54797065735D2E786D6C504B01021400140006080800CC70623BD9DDAED0EC0000007C010000080000000000000000000000000083010000636F72652E786D6C504B01021400140006080800CC70623B55019EA25F0000007C000000070000000000000000000000000095020000636E782E786D6C504B0102
310
1400140006080800CC70623BA24EB22D72010000D40300000C00000000000000000000000000190300006662782F636F72652E786D6C504B01021400140006080800CC70623B408A7D3B7C0000009D0000000B00000000000000000000000000B50400006662782F636E782E786D6C504B01021400140006080800CC70623B
310
449FB9BD290100001202000031000000000000000000000000005A0500006662782F36394639363044362D344446342D343946362D394244322D3234314243333846323333332F636F72652E786D6C504B01021400140006080800CC70623BAD7543B64E010000330300003000000000000000000000000000D20600006662
310
782F36394639363044362D344446342D343946362D394244322D3234314243333846323333332F636E782E786D6C504B01021400140006080800CC70623B8D05915C650500003B10000034000000000000000000000000006E0800006662782F36394639363044362D344446342D343946362D394244322D32343142433338
310
46323333332F6F626A656374732E786D6C504B01021400140006080000CC70623B0000000000000000000000003500000000000000000000000000250E00006662782F36394639363044362D344446342D343946362D394244322D3234314243333846323333332F76657274696365732E62696E504B010214001400060808
310
00CC70623BF270F13306000000040000003600000000000000000000000000780E00006662782F36394639363044362D344446342D343946362D394244322D3234314243333846323333332F747269616E676C65732E62696E504B01021400140006080000CC70623B00000000000000000000000037000000000000000000
310
00000000D20E00006662782F36394639363044362D344446342D343946362D394244322D3234314243333846323333332F617474726962757465732E62696E504B01021400140006080800CC70623B08DA0BD190000000410100003600000000000000000000000000270F00006662782F36394639363044362D344446342D
310
343946362D394244322D3234314243333846323333332F6469726563746F72792E786D6C504B01021400140006080800CC70623BCA768048FE000000A00100003B000000000000000000000000000B1000006662782F36394639363044362D344446342D343946362D394244322D3234314243333846323333332F7265736F
310
75726365732F636F72652E786D6C504B0506000000000E000E0080040000621100000000
  0
XRECORD
  5
176
102
{ACAD_REACTORS
330
173
102
}
330
173
100
AcDbXrecord
280
     1
270
     1
271
     1
  0
XRECORD
  5
177
102
{ACAD_REACTORS
330
173
102
}
330
173
100
AcDbXrecord
280
     1
270
     1
271
     1
  0
XRECORD
  5
350D
102
{ACAD_REACTORS
330
350C
102
}
330
350C
100
AcDbXrecord
280
     1
102
ACAD_ROUNDTRIP_2012_MLEADER_STYLE
298
     1
  0
XRECORD
  5
351F
102
{ACAD_REACTORS
330
351E
102
}
330
351E
100
AcDbXrecord
280
     1
102
DISPLAYNAME
  1
Metric50
102
FLAGS
 90
        0
  0
CELLSTYLEMAP
  5
34DF
102
{ACAD_REACTORS
330
162
102
}
330
162
100
AcDbCellStyleMap
 90
        3
300
CELLSTYLE
  1
TABLEFORMAT_BEGIN
 90
        5
170
     1
 91
        0
 92
    32768
 62
   257
 93
        1
300
CONTENTFORMAT
  1
CONTENTFORMAT_BEGIN
 90
        0
 91
        0
 92
      512
 93
        0
300

 40
0.0
140
1.0
 94
        5
 62
     0
340
11
144
6.0
309
CONTENTFORMAT_END
171
     1
301
MARGIN
  1
CELLMARGIN_BEGIN
 40
1.5
 40
1.5
 40
1.5
 40
1.5
 40
4.5
 40
4.5
309
CELLMARGIN_END
 94
        6
 95
        1
302
GRIDFORMAT
  1
GRIDFORMAT_BEGIN
 90
        0
 91
        1
 62
     0
 92
       -2
340
14
 93
        0
 40
1.125
309
GRIDFORMAT_END
 95
        2
302
GRIDFORMAT
  1
GRIDFORMAT_BEGIN
 90
        0
 91
        1
 62
     0
 92
       -2
340
14
 93
        0
 40
1.125
309
GRIDFORMAT_END
 95
        4
302
GRIDFORMAT
  1
GRIDFORMAT_BEGIN
 90
        0
 91
        1
 62
     0
 92
       -2
340
14
 93
        0
 40
1.125
309
GRIDFORMAT_END
 95
        8
302
GRIDFORMAT
  1
GRIDFORMAT_BEGIN
 90
        0
 91
        1
 62
     0
 92
       -2
340
14
 93
        0
 40
1.125
309
GRIDFORMAT_END
 95
       16
302
GRIDFORMAT
  1
GRIDFORMAT_BEGIN
 90
        0
 91
        1
 62
     0
 92
       -2
340
14
 93
        0
 40
1.125
309
GRIDFORMAT_END
 95
       32
302
GRIDFORMAT
  1
GRIDFORMAT_BEGIN
 90
        0
 91
        1
 62
     0
 92
       -2
340
14
 93
        0
 40
1.125
309
GRIDFORMAT_END
309
TABLEFORMAT_END
  1
CELLSTYLE_BEGIN
 90
        1
 91
        1
300
_TITLE
309
CELLSTYLE_END
300
CELLSTYLE
  1
TABLEFORMAT_BEGIN
 90
        5
170
     1
 91
        0
 92
        0
 62
   257
 93
        1
300
CONTENTFORMAT
  1
CONTENTFORMAT_BEGIN
 90
        0
 91
        0
 92
      512
 93
        0
300

 40
0.0
140
1.0
 94
        5
 62
     0
340
11
144
4.5
309
CONTENTFORMAT_END
171
     1
301
MARGIN
  1
CELLMARGIN_BEGIN
 40
1.5
 40
1.5
 40
1.5
 40
1.5
 40
4.5
 40
4.5
309
CELLMARGIN_END
 94
        6
 95
        1
302
GRIDFORMAT
  1
GRIDFORMAT_BEGIN
 90
        0
 91
        1
 62
     0
 92
       -2
340
14
 93
        0
 40
1.125
309
GRIDFORMAT_END
 95
        2
302
GRIDFORMAT
  1
GRIDFORMAT_BEGIN
 90
        0
 91
        1
 62
     0
 92
       -2
340
14
 93
        0
 40
1.125
309
GRIDFORMAT_END
 95
        4
302
GRIDFORMAT
  1
GRIDFORMAT_BEGIN
 90
        0
 91
        1
 62
     0
 92
       -2
340
14
 93
        0
 40
1.125
309
GRIDFORMAT_END
 95
        8
302
GRIDFORMAT
  1
GRIDFORMAT_BEGIN
 90
        0
 91
        1
 62
     0
 92
       -2
340
14
 93
        0
 40
1.125
309
GRIDFORMAT_END
 95
       16
302
GRIDFORMAT
  1
GRIDFORMAT_BEGIN
 90
        0
 91
        1
 62
     0
 92
       -2
340
14
 93
        0
 40
1.125
309
GRIDFORMAT_END
 95
       32
302
GRIDFORMAT
  1
GRIDFORMAT_BEGIN
 90
        0
 91
        1
 62
     0
 92
       -2
340
14
 93
        0
 40
1.125
309
GRIDFORMAT_END
309
TABLEFORMAT_END
  1
CELLSTYLE_BEGIN
 90
        2
 91
        1
300
_HEADER
309
CELLSTYLE_END
300
CELLSTYLE
  1
TABLEFORMAT_BEGIN
 90
        5
170
     1
 91
        0
 92
        0
 62
   257
 93
        1
300
CONTENTFORMAT
  1
CONTENTFORMAT_BEGIN
 90
        0
 91
        0
 92
      512
 93
        0
300

 40
0.0
140
1.0
 94
        2
 62
     0
340
11
144
4.5
309
CONTENTFORMAT_END
171
     1
301
MARGIN
  1
CELLMARGIN_BEGIN
 40
1.5
 40
1.5
 40
1.5
 40
1.5
 40
4.5
 40
4.5
309
CELLMARGIN_END
 94
        6
 95
        1
302
GRIDFORMAT
  1
GRIDFORMAT_BEGIN
 90
        0
 91
        1
 62
     0
 92
       -2
340
14
 93
        0
 40
1.125
309
GRIDFORMAT_END
 95
        2
302
GRIDFORMAT
  1
GRIDFORMAT_BEGIN
 90
        0
 91
        1
 62
     0
 92
       -2
340
14
 93
        0
 40
1.125
309
GRIDFORMAT_END
 95
        4
302
GRIDFORMAT
  1
GRIDFORMAT_BEGIN
 90
        0
 91
        1
 62
     0
 92
       -2
340
14
 93
        0
 40
1.125
309
GRIDFORMAT_END
 95
        8
302
GRIDFORMAT
  1
GRIDFORMAT_BEGIN
 90
        0
 91
        1
 62
     0
 92
       -2
340
14
 93
        0
 40
1.125
309
GRIDFORMAT_END
 95
       16
302
GRIDFORMAT
  1
GRIDFORMAT_BEGIN
 90
        0
 91
        1
 62
     0
 92
       -2
340
14
 93
        0
 40
1.125
309
GRIDFORMAT_END
 95
       32
302
GRIDFORMAT
  1
GRIDFORMAT_BEGIN
 90
        0
 91
        1
 62
     0
 92
       -2
340
14
 93
        0
 40
1.125
309
GRIDFORMAT_END
309
TABLEFORMAT_END
  1
CELLSTYLE_BEGIN
 90
        3
 91
        2
300
_DATA
309
CELLSTYLE_END
  0
XRECORD
  5
34E4
102
{ACAD_REACTORS
330
162
102
}
330
162
100
AcDbXrecord
280
     1
102
ACAD_ROUNDTRIP_PRE2007_TABLESTYLE
 90
      512
 91
        0
  1

 92
      512
 93
        0
  2

 94
      512
 95
        0
  3

  0
XRECORD
  5
34F7
102
{ACAD_REACTORS
330
34F6
102
}
330
34F6
100
AcDbXrecord
280
     1
102
RTVSPost2010Prop28
280
     1
102
RTVSPost2010PropOp28
 70
     1
102
RTVSPost2010Prop29
280
     1
102
RTVSPost2010PropOp29
 70
     1
102
RTVSPost2010Prop30
280
     0
102
RTVSPost2010PropOp30
 70
     1
102
RTVSPost2010Prop31
280
     0
102
RTVSPost2010PropOp31
 70
     1
102
RTVSPost2010Prop32
280
     0
102
RTVSPost2010PropOp32
 70
     1
102
RTVSPost2010Prop33
280
     0
102
RTVSPost2010PropOp33
 70
     1
102
RTVSPost2010Prop34
280
     0
102
RTVSPost2010PropOp34
 70
     1
102
RTVSPost2010Prop35
280
     0
102
RTVSPost2010PropOp35
 70
     1
102
RTVSPost2010Prop36
280
     0
102
RTVSPost2010PropOp36
 70
     1
102
RTVSPost2010Prop37
 90
       50
102
RTVSPost2010PropOp37
 70
     1
102
RTVSPost2010Prop38
140
0.0
102
RTVSPost2010PropOp38
 70
     1
102
RTVSPost2010Prop39
140
1.0
102
RTVSPost2010PropOp39
 70
     1
102
RTVSPost2010Prop40
 90
        0
102
RTVSPost2010PropOp40
 70
     1
102
RTVSPost2010Prop41ColorIndex
 90
       18
102
RTVSPost2010Prop41ColorRGB
 90
        0
102
RTVSPost2010PropOp41
 70
     1
102
RTVSPost2010Prop42
 90
       50
102
RTVSPost2010PropOp42
 70
     1
102
RTVSPost2010Prop43
 90
        3
102
RTVSPost2010PropOp43
 70
     1
102
RTVSPost2010Prop44ColorIndex
 90
        5
102
RTVSPost2010Prop44ColorRGB
 90
      255
102
RTVSPost2010PropOp44
 70
     1
102
RTVSPost2010Prop45
280
     0
102
RTVSPost2010PropOp45
 70
     1
102
RTVSPost2010Prop46
 90
       50
102
RTVSPost2010PropOp46
 70
     1
102
RTVSPost2010Prop47
 90
       50
102
RTVSPost2010PropOp47
 70
     1
102
RTVSPost2010Prop48
 90
       50
102
RTVSPost2010PropOp48
 70
     1
102
RTVSPost2010Prop49
280
     0
102
RTVSPost2010PropOp49
 70
     1
102
RTVSPost2010Prop50
 90
       50
102
RTVSPost2010PropOp50
 70
     1
102
RTVSPost2010Prop51ColorIndex
 90
      256
102
RTVSPost2010Prop51ColorRGB
 90
-16777216
102
RTVSPost2010PropOp51
 70
     0
102
RTVSPost2010Prop52
140
1.0
102
RTVSPost2010PropOp52
 70
     0
102
RTVSPost2010Prop53
 90
        2
102
RTVSPost2010PropOp53
 70
     1
102
RTVSPost2010Prop54
  1
strokes_ogs.tif
102
RTVSPost2010PropOp54
 70
     1
102
RTVSPost2010Prop55
280
     0
102
RTVSPost2010PropOp55
 70
     1
102
RTVSPost2010Prop56
140
1.0
102
RTVSPost2010PropOp56
 70
     1
102
RTVSPost2010Prop57
140
1.0
102
RTVSPost2010PropOp57
 70
     1
102
RTVSPropertyOp0
 70
     1
102
RTVSPropertyOp1
 70
     1
102
RTVSPropertyOp2
 70
     1
102
RTVSPropertyOp3
 70
     1
102
RTVSPropertyOp4
 70
     1
102
RTVSPropertyOp5
 70
     1
102
RTVSPropertyOp6
 70
     1
102
RTVSPropertyOp7
 70
     1
102
RTVSPropertyOp8
 70
     1
102
RTVSPropertyOp9
 70
     1
102
RTVSPropertyOp10
 70
     1
102
RTVSPropertyOp11
 70
     1
102
RTVSPropertyOp12
 70
     1
102
RTVSPropertyOp13
 70
     1
102
RTVSPropertyOp14
 70
     1
102
RTVSPropertyOp15
 70
     1
102
RTVSPropertyOp16
 70
     1
102
RTVSPropertyOp17
 70
     1
102
RTVSPropertyOp18
 70
     1
102
RTVSPropertyOp19
 70
     1
102
RTVSPropertyOp20
 70
     1
102
RTVSPropertyOp21
 70
     1
102
RTVSPropertyOp22
 70
     1
102
RTVSPropertyOp23
 70
     1
102
RTVSPropertyOp24
 70
     1
102
RTVSPropertyOp25
 70
     1
102
RTVSPropertyOp26
 70
     1
102
RTVSPropertyOp27
 70
     1
102
RTVSPropertyOp28
 70
     1
102
RTVSPropertyOp29
 70
     1
102
RTVSPropertyOp30
 70
     1
102
RTVSPropertyOp31
 70
     1
102
RTVSPropertyOp32
 70
     1
102
RTVSPropertyOp33
 70
     1
102
RTVSPropertyOp34
 70
     1
102
RTVSPropertyOp35
 70
     1
102
RTVSPropertyOp36
 70
     1
102
RTVSPropertyOp37
 70
     1
102
RTVSPropertyOp38
 70
     1
102
RTVSPropertyOp39
 70
     1
102
RTVSPropertyOp40
 70
     1
102
RTVSPropertyOp41
 70
     1
102
RTVSPropertyOp42
 70
     1
102
RTVSPropertyOp43
 70
     1
102
RTVSPropertyOp44
 70
     1
102
RTVSPropertyOp45
 70
     1
102
RTVSPropertyOp46
 70
     1
102
RTVSPropertyOp47
 70
     1
102
RTVSPropertyOp48
 70
     1
102
RTVSPropertyOp49
 70
     1
102
RTVSPropertyOp50
 70
     1
102
RTVSPropertyOp51
 70
     0
102
RTVSPropertyOp52
 70
     0
102
RTVSPropertyOp53
 70
     1
102
RTVSPropertyOp54
 70
     1
102
RTVSPropertyOp55
 70
     1
102
RTVSPropertyOp56
 70
     1
102
RTVSPropertyOp57
 70
     1
102
RTVSPropertyOp58
 70
     1
102
RTVSPropertyOp59
 70
     1
102
RTVSPropertyOp60
 70
     1
102
RTVSPropertyOp61
 70
     1
102
RTVSPropertyOp62
 70
     1
  0
XRECORD
  5
34F5
102
{ACAD_REACTORS
330
34F4
102
}
330
34F4
100
AcDbXrecord
280
     1
102
RTVSPost2010Prop28
280
     0
102
RTVSPost2010PropOp28
 70
     1
102
RTVSPost2010Prop29
280
     1
102
RTVSPost2010PropOp29
 70
     1
102
RTVSPost2010Prop30
280
     1
102
RTVSPost2010PropOp30
 70
     1
102
RTVSPost2010Prop31
280
     0
102
RTVSPost2010PropOp31
 70
     1
102
RTVSPost2010Prop32
280
     0
102
RTVSPost2010PropOp32
 70
     1
102
RTVSPost2010Prop33
280
     0
102
RTVSPost2010PropOp33
 70
     1
102
RTVSPost2010Prop34
280
     0
102
RTVSPost2010PropOp34
 70
     1
102
RTVSPost2010Prop35
280
     0
102
RTVSPost2010PropOp35
 70
     1
102
RTVSPost2010Prop36
280
     0
102
RTVSPost2010PropOp36
 70
     1
102
RTVSPost2010Prop37
 90
       50
102
RTVSPost2010PropOp37
 70
     1
102
RTVSPost2010Prop38
140
0.0
102
RTVSPost2010PropOp38
 70
     1
102
RTVSPost2010Prop39
140
1.0
102
RTVSPost2010PropOp39
 70
     1
102
RTVSPost2010Prop40
 90
        0
102
RTVSPost2010PropOp40
 70
     1
102
RTVSPost2010Prop41ColorIndex
 90
       18
102
RTVSPost2010Prop41ColorRGB
 90
        0
102
RTVSPost2010PropOp41
 70
     1
102
RTVSPost2010Prop42
 90
       50
102
RTVSPost2010PropOp42
 70
     1
102
RTVSPost2010Prop43
 90
        3
102
RTVSPost2010PropOp43
 70
     1
102
RTVSPost2010Prop44ColorIndex
 90
        5
102
RTVSPost2010Prop44ColorRGB
 90
      255
102
RTVSPost2010PropOp44
 70
     1
102
RTVSPost2010Prop45
280
     0
102
RTVSPost2010PropOp45
 70
     1
102
RTVSPost2010Prop46
 90
       50
102
RTVSPost2010PropOp46
 70
     1
102
RTVSPost2010Prop47
 90
       50
102
RTVSPost2010PropOp47
 70
     1
102
RTVSPost2010Prop48
 90
       50
102
RTVSPost2010PropOp48
 70
     1
102
RTVSPost2010Prop49
280
     0
102
RTVSPost2010PropOp49
 70
     1
102
RTVSPost2010Prop50
 90
       50
102
RTVSPost2010PropOp50
 70
     1
102
RTVSPost2010Prop51ColorIndex
 90
      256
102
RTVSPost2010Prop51ColorRGB
 90
-16777216
102
RTVSPost2010PropOp51
 70
     0
102
RTVSPost2010Prop52
140
1.0
102
RTVSPost2010PropOp52
 70
     0
102
RTVSPost2010Prop53
 90
        2
102
RTVSPost2010PropOp53
 70
     1
102
RTVSPost2010Prop54
  1
strokes_ogs.tif
102
RTVSPost2010PropOp54
 70
     1
102
RTVSPost2010Prop55
280
     0
102
RTVSPost2010PropOp55
 70
     1
102
RTVSPost2010Prop56
140
1.0
102
RTVSPost2010PropOp56
 70
     1
102
RTVSPost2010Prop57
140
1.0
102
RTVSPost2010PropOp57
 70
     1
102
RTVSPropertyOp0
 70
     1
102
RTVSPropertyOp1
 70
     1
102
RTVSPropertyOp2
 70
     1
102
RTVSPropertyOp3
 70
     1
102
RTVSPropertyOp4
 70
     1
102
RTVSPropertyOp5
 70
     1
102
RTVSPropertyOp6
 70
     1
102
RTVSPropertyOp7
 70
     1
102
RTVSPropertyOp8
 70
     1
102
RTVSPropertyOp9
 70
     1
102
RTVSPropertyOp10
 70
     1
102
RTVSPropertyOp11
 70
     1
102
RTVSPropertyOp12
 70
     1
102
RTVSPropertyOp13
 70
     1
102
RTVSPropertyOp14
 70
     1
102
RTVSPropertyOp15
 70
     1
102
RTVSPropertyOp16
 70
     1
102
RTVSPropertyOp17
 70
     1
102
RTVSPropertyOp18
 70
     1
102
RTVSPropertyOp19
 70
     1
102
RTVSPropertyOp20
 70
     1
102
RTVSPropertyOp21
 70
     1
102
RTVSPropertyOp22
 70
     1
102
RTVSPropertyOp23
 70
     1
102
RTVSPropertyOp24
 70
     1
102
RTVSPropertyOp25
 70
     1
102
RTVSPropertyOp26
 70
     1
102
RTVSPropertyOp27
 70
     1
102
RTVSPropertyOp28
 70
     1
102
RTVSPropertyOp29
 70
     1
102
RTVSPropertyOp30
 70
     1
102
RTVSPropertyOp31
 70
     1
102
RTVSPropertyOp32
 70
     1
102
RTVSPropertyOp33
 70
     1
102
RTVSPropertyOp34
 70
     1
102
RTVSPropertyOp35
 70
     1
102
RTVSPropertyOp36
 70
     1
102
RTVSPropertyOp37
 70
     1
102
RTVSPropertyOp38
 70
     1
102
RTVSPropertyOp39
 70
     1
102
RTVSPropertyOp40
 70
     1
102
RTVSPropertyOp41
 70
     1
102
RTVSPropertyOp42
 70
     1
102
RTVSPropertyOp43
 70
     1
102
RTVSPropertyOp44
 70
     1
102
RTVSPropertyOp45
 70
     1
102
RTVSPropertyOp46
 70
     1
102
RTVSPropertyOp47
 70
     1
102
RTVSPropertyOp48
 70
     1
102
RTVSPropertyOp49
 70
     1
102
RTVSPropertyOp50
 70
     1
102
RTVSPropertyOp51
 70
     0
102
RTVSPropertyOp52
 70
     0
102
RTVSPropertyOp53
 70
     1
102
RTVSPropertyOp54
 70
     1
102
RTVSPropertyOp55
 70
     1
102
RTVSPropertyOp56
 70
     1
102
RTVSPropertyOp57
 70
     1
102
RTVSPropertyOp58
 70
     1
102
RTVSPropertyOp59
 70
     1
102
RTVSPropertyOp60
 70
     1
102
RTVSPropertyOp61
 70
     1
102
RTVSPropertyOp62
 70
     1
  0
XRECORD
  5
3503
102
{ACAD_REACTORS
330
3502
102
}
330
3502
100
AcDbXrecord
280
     1
102
RTVSPost2010Prop28
280
     0
102
RTVSPost2010PropOp28
 70
     1
102
RTVSPost2010Prop29
280
     1
102
RTVSPost2010PropOp29
 70
     1
102
RTVSPost2010Prop30
280
     1
102
RTVSPost2010PropOp30
 70
     1
102
RTVSPost2010Prop31
280
     0
102
RTVSPost2010PropOp31
 70
     1
102
RTVSPost2010Prop32
280
     0
102
RTVSPost2010PropOp32
 70
     1
102
RTVSPost2010Prop33
280
     0
102
RTVSPost2010PropOp33
 70
     1
102
RTVSPost2010Prop34
280
     0
102
RTVSPost2010PropOp34
 70
     1
102
RTVSPost2010Prop35
280
     0
102
RTVSPost2010PropOp35
 70
     1
102
RTVSPost2010Prop36
280
     0
102
RTVSPost2010PropOp36
 70
     1
102
RTVSPost2010Prop37
 90
       50
102
RTVSPost2010PropOp37
 70
     1
102
RTVSPost2010Prop38
140
0.0
102
RTVSPost2010PropOp38
 70
     1
102
RTVSPost2010Prop39
140
1.0
102
RTVSPost2010PropOp39
 70
     1
102
RTVSPost2010Prop40
 90
        0
102
RTVSPost2010PropOp40
 70
     1
102
RTVSPost2010Prop41ColorIndex
 90
       18
102
RTVSPost2010Prop41ColorRGB
 90
        0
102
RTVSPost2010PropOp41
 70
     1
102
RTVSPost2010Prop42
 90
       50
102
RTVSPost2010PropOp42
 70
     1
102
RTVSPost2010Prop43
 90
        3
102
RTVSPost2010PropOp43
 70
     1
102
RTVSPost2010Prop44ColorIndex
 90
        5
102
RTVSPost2010Prop44ColorRGB
 90
      255
102
RTVSPost2010PropOp44
 70
     1
102
RTVSPost2010Prop45
280
     0
102
RTVSPost2010PropOp45
 70
     1
102
RTVSPost2010Prop46
 90
       50
102
RTVSPost2010PropOp46
 70
     1
102
RTVSPost2010Prop47
 90
       50
102
RTVSPost2010PropOp47
 70
     1
102
RTVSPost2010Prop48
 90
       50
102
RTVSPost2010PropOp48
 70
     1
102
RTVSPost2010Prop49
280
     0
102
RTVSPost2010PropOp49
 70
     1
102
RTVSPost2010Prop50
 90
       50
102
RTVSPost2010PropOp50
 70
     1
102
RTVSPost2010Prop51ColorIndex
 90
      256
102
RTVSPost2010Prop51ColorRGB
 90
-16777216
102
RTVSPost2010PropOp51
 70
     0
102
RTVSPost2010Prop52
140
1.0
102
RTVSPost2010PropOp52
 70
     0
102
RTVSPost2010Prop53
 90
        2
102
RTVSPost2010PropOp53
 70
     1
102
RTVSPost2010Prop54
  1
strokes_ogs.tif
102
RTVSPost2010PropOp54
 70
     1
102
RTVSPost2010Prop55
280
     0
102
RTVSPost2010PropOp55
 70
     1
102
RTVSPost2010Prop56
140
1.0
102
RTVSPost2010PropOp56
 70
     1
102
RTVSPost2010Prop57
140
1.0
102
RTVSPost2010PropOp57
 70
     1
102
RTVSPropertyOp0
 70
     1
102
RTVSPropertyOp1
 70
     1
102
RTVSPropertyOp2
 70
     1
102
RTVSPropertyOp3
 70
     1
102
RTVSPropertyOp4
 70
     1
102
RTVSPropertyOp5
 70
     1
102
RTVSPropertyOp6
 70
     1
102
RTVSPropertyOp7
 70
     1
102
RTVSPropertyOp8
 70
     1
102
RTVSPropertyOp9
 70
     1
102
RTVSPropertyOp10
 70
     1
102
RTVSPropertyOp11
 70
     1
102
RTVSPropertyOp12
 70
     1
102
RTVSPropertyOp13
 70
     1
102
RTVSPropertyOp14
 70
     1
102
RTVSPropertyOp15
 70
     1
102
RTVSPropertyOp16
 70
     1
102
RTVSPropertyOp17
 70
     1
102
RTVSPropertyOp18
 70
     1
102
RTVSPropertyOp19
 70
     1
102
RTVSPropertyOp20
 70
     1
102
RTVSPropertyOp21
 70
     1
102
RTVSPropertyOp22
 70
     1
102
RTVSPropertyOp23
 70
     1
102
RTVSPropertyOp24
 70
     1
102
RTVSPropertyOp25
 70
     1
102
RTVSPropertyOp26
 70
     1
102
RTVSPropertyOp27
 70
     1
102
RTVSPropertyOp28
 70
     1
102
RTVSPropertyOp29
 70
     1
102
RTVSPropertyOp30
 70
     1
102
RTVSPropertyOp31
 70
     1
102
RTVSPropertyOp32
 70
     1
102
RTVSPropertyOp33
 70
     1
102
RTVSPropertyOp34
 70
     1
102
RTVSPropertyOp35
 70
     1
102
RTVSPropertyOp36
 70
     1
102
RTVSPropertyOp37
 70
     1
102
RTVSPropertyOp38
 70
     1
102
RTVSPropertyOp39
 70
     1
102
RTVSPropertyOp40
 70
     1
102
RTVSPropertyOp41
 70
     1
102
RTVSPropertyOp42
 70
     1
102
RTVSPropertyOp43
 70
     1
102
RTVSPropertyOp44
 70
     1
102
RTVSPropertyOp45
 70
     1
102
RTVSPropertyOp46
 70
     1
102
RTVSPropertyOp47
 70
     1
102
RTVSPropertyOp48
 70
     1
102
RTVSPropertyOp49
 70
     1
102
RTVSPropertyOp50
 70
     1
102
RTVSPropertyOp51
 70
     0
102
RTVSPropertyOp52
 70
     0
102
RTVSPropertyOp53
 70
     1
102
RTVSPropertyOp54
 70
     1
102
RTVSPropertyOp55
 70
     1
102
RTVSPropertyOp56
 70
     1
102
RTVSPropertyOp57
 70
     1
102
RTVSPropertyOp58
 70
     1
102
RTVSPropertyOp59
 70
     1
102
RTVSPropertyOp60
 70
     1
102
RTVSPropertyOp61
 70
     1
102
RTVSPropertyOp62
 70
     1
  0
XRECORD
  5
350B
102
{ACAD_REACTORS
330
350A
102
}
330
350A
100
AcDbXrecord
280
     1
102
RTVSPost2010Prop28
280
     0
102
RTVSPost2010PropOp28
 70
     1
102
RTVSPost2010Prop29
280
     1
102
RTVSPost2010PropOp29
 70
     1
102
RTVSPost2010Prop30
280
     1
102
RTVSPost2010PropOp30
 70
     1
102
RTVSPost2010Prop31
280
     0
102
RTVSPost2010PropOp31
 70
     1
102
RTVSPost2010Prop32
280
     0
102
RTVSPost2010PropOp32
 70
     1
102
RTVSPost2010Prop33
280
     0
102
RTVSPost2010PropOp33
 70
     1
102
RTVSPost2010Prop34
280
     0
102
RTVSPost2010PropOp34
 70
     1
102
RTVSPost2010Prop35
280
     0
102
RTVSPost2010PropOp35
 70
     1
102
RTVSPost2010Prop36
280
     0
102
RTVSPost2010PropOp36
 70
     1
102
RTVSPost2010Prop37
 90
       50
102
RTVSPost2010PropOp37
 70
     1
102
RTVSPost2010Prop38
140
0.0
102
RTVSPost2010PropOp38
 70
     1
102
RTVSPost2010Prop39
140
1.0
102
RTVSPost2010PropOp39
 70
     1
102
RTVSPost2010Prop40
 90
        0
102
RTVSPost2010PropOp40
 70
     1
102
RTVSPost2010Prop41ColorIndex
 90
       18
102
RTVSPost2010Prop41ColorRGB
 90
        0
102
RTVSPost2010PropOp41
 70
     1
102
RTVSPost2010Prop42
 90
       50
102
RTVSPost2010PropOp42
 70
     1
102
RTVSPost2010Prop43
 90
        3
102
RTVSPost2010PropOp43
 70
     1
102
RTVSPost2010Prop44ColorIndex
 90
        5
102
RTVSPost2010Prop44ColorRGB
 90
      255
102
RTVSPost2010PropOp44
 70
     1
102
RTVSPost2010Prop45
280
     0
102
RTVSPost2010PropOp45
 70
     1
102
RTVSPost2010Prop46
 90
       50
102
RTVSPost2010PropOp46
 70
     1
102
RTVSPost2010Prop47
 90
       50
102
RTVSPost2010PropOp47
 70
     1
102
RTVSPost2010Prop48
 90
       50
102
RTVSPost2010PropOp48
 70
     1
102
RTVSPost2010Prop49
280
     0
102
RTVSPost2010PropOp49
 70
     1
102
RTVSPost2010Prop50
 90
       50
102
RTVSPost2010PropOp50
 70
     1
102
RTVSPost2010Prop51ColorIndex
 90
      256
102
RTVSPost2010Prop51ColorRGB
 90
-16777216
102
RTVSPost2010PropOp51
 70
     0
102
RTVSPost2010Prop52
140
1.0
102
RTVSPost2010PropOp52
 70
     0
102
RTVSPost2010Prop53
 90
        2
102
RTVSPost2010PropOp53
 70
     1
102
RTVSPost2010Prop54
  1
strokes_ogs.tif
102
RTVSPost2010PropOp54
 70
     1
102
RTVSPost2010Prop55
280
     0
102
RTVSPost2010PropOp55
 70
     1
102
RTVSPost2010Prop56
140
1.0
102
RTVSPost2010PropOp56
 70
     1
102
RTVSPost2010Prop57
140
1.0
102
RTVSPost2010PropOp57
 70
     1
102
RTVSPropertyOp0
 70
     1
102
RTVSPropertyOp1
 70
     1
102
RTVSPropertyOp2
 70
     1
102
RTVSPropertyOp3
 70
     1
102
RTVSPropertyOp4
 70
     1
102
RTVSPropertyOp5
 70
     1
102
RTVSPropertyOp6
 70
     1
102
RTVSPropertyOp7
 70
     1
102
RTVSPropertyOp8
 70
     1
102
RTVSPropertyOp9
 70
     1
102
RTVSPropertyOp10
 70
     1
102
RTVSPropertyOp11
 70
     1
102
RTVSPropertyOp12
 70
     1
102
RTVSPropertyOp13
 70
     1
102
RTVSPropertyOp14
 70
     1
102
RTVSPropertyOp15
 70
     1
102
RTVSPropertyOp16
 70
     1
102
RTVSPropertyOp17
 70
     1
102
RTVSPropertyOp18
 70
     1
102
RTVSPropertyOp19
 70
     1
102
RTVSPropertyOp20
 70
     1
102
RTVSPropertyOp21
 70
     1
102
RTVSPropertyOp22
 70
     1
102
RTVSPropertyOp23
 70
     1
102
RTVSPropertyOp24
 70
     1
102
RTVSPropertyOp25
 70
     1
102
RTVSPropertyOp26
 70
     1
102
RTVSPropertyOp27
 70
     1
102
RTVSPropertyOp28
 70
     1
102
RTVSPropertyOp29
 70
     1
102
RTVSPropertyOp30
 70
     1
102
RTVSPropertyOp31
 70
     1
102
RTVSPropertyOp32
 70
     1
102
RTVSPropertyOp33
 70
     1
102
RTVSPropertyOp34
 70
     1
102
RTVSPropertyOp35
 70
     1
102
RTVSPropertyOp36
 70
     1
102
RTVSPropertyOp37
 70
     1
102
RTVSPropertyOp38
 70
     1
102
RTVSPropertyOp39
 70
     1
102
RTVSPropertyOp40
 70
     1
102
RTVSPropertyOp41
 70
     1
102
RTVSPropertyOp42
 70
     1
102
RTVSPropertyOp43
 70
     1
102
RTVSPropertyOp44
 70
     1
102
RTVSPropertyOp45
 70
     1
102
RTVSPropertyOp46
 70
     1
102
RTVSPropertyOp47
 70
     1
102
RTVSPropertyOp48
 70
     1
102
RTVSPropertyOp49
 70
     1
102
RTVSPropertyOp50
 70
     1
102
RTVSPropertyOp51
 70
     0
102
RTVSPropertyOp52
 70
     0
102
RTVSPropertyOp53
 70
     1
102
RTVSPropertyOp54
 70
     1
102
RTVSPropertyOp55
 70
     1
102
RTVSPropertyOp56
 70
     1
102
RTVSPropertyOp57
 70
     1
102
RTVSPropertyOp58
 70
     1
102
RTVSPropertyOp59
 70
     1
102
RTVSPropertyOp60
 70
     1
102
RTVSPropertyOp61
 70
     1
102
RTVSPropertyOp62
 70
     1
  0
XRECORD
  5
34FD
102
{ACAD_REACTORS
330
34FC
102
}
330
34FC
100
AcDbXrecord
280
     1
102
RTVSPost2010Prop28
280
     0
102
RTVSPost2010PropOp28
 70
     1
102
RTVSPost2010Prop29
280
     1
102
RTVSPost2010PropOp29
 70
     1
102
RTVSPost2010Prop30
280
     1
102
RTVSPost2010PropOp30
 70
     1
102
RTVSPost2010Prop31
280
     0
102
RTVSPost2010PropOp31
 70
     1
102
RTVSPost2010Prop32
280
     0
102
RTVSPost2010PropOp32
 70
     1
102
RTVSPost2010Prop33
280
     0
102
RTVSPost2010PropOp33
 70
     1
102
RTVSPost2010Prop34
280
     0
102
RTVSPost2010PropOp34
 70
     1
102
RTVSPost2010Prop35
280
     0
102
RTVSPost2010PropOp35
 70
     1
102
RTVSPost2010Prop36
280
     0
102
RTVSPost2010PropOp36
 70
     1
102
RTVSPost2010Prop37
 90
       50
102
RTVSPost2010PropOp37
 70
     1
102
RTVSPost2010Prop38
140
0.0
102
RTVSPost2010PropOp38
 70
     1
102
RTVSPost2010Prop39
140
1.0
102
RTVSPost2010PropOp39
 70
     1
102
RTVSPost2010Prop40
 90
        0
102
RTVSPost2010PropOp40
 70
     1
102
RTVSPost2010Prop41ColorIndex
 90
       18
102
RTVSPost2010Prop41ColorRGB
 90
        0
102
RTVSPost2010PropOp41
 70
     1
102
RTVSPost2010Prop42
 90
       50
102
RTVSPost2010PropOp42
 70
     1
102
RTVSPost2010Prop43
 90
        3
102
RTVSPost2010PropOp43
 70
     1
102
RTVSPost2010Prop44ColorIndex
 90
        5
102
RTVSPost2010Prop44ColorRGB
 90
      255
102
RTVSPost2010PropOp44
 70
     1
102
RTVSPost2010Prop45
280
     0
102
RTVSPost2010PropOp45
 70
     1
102
RTVSPost2010Prop46
 90
       50
102
RTVSPost2010PropOp46
 70
     1
102
RTVSPost2010Prop47
 90
       50
102
RTVSPost2010PropOp47
 70
     1
102
RTVSPost2010Prop48
 90
       50
102
RTVSPost2010PropOp48
 70
     1
102
RTVSPost2010Prop49
280
     0
102
RTVSPost2010PropOp49
 70
     1
102
RTVSPost2010Prop50
 90
       50
102
RTVSPost2010PropOp50
 70
     1
102
RTVSPost2010Prop51ColorIndex
 90
      256
102
RTVSPost2010Prop51ColorRGB
 90
-16777216
102
RTVSPost2010PropOp51
 70
     0
102
RTVSPost2010Prop52
140
1.0
102
RTVSPost2010PropOp52
 70
     0
102
RTVSPost2010Prop53
 90
        2
102
RTVSPost2010PropOp53
 70
     1
102
RTVSPost2010Prop54
  1
strokes_ogs.tif
102
RTVSPost2010PropOp54
 70
     1
102
RTVSPost2010Prop55
280
     0
102
RTVSPost2010PropOp55
 70
     1
102
RTVSPost2010Prop56
140
1.0
102
RTVSPost2010PropOp56
 70
     1
102
RTVSPost2010Prop57
140
1.0
102
RTVSPost2010PropOp57
 70
     1
102
RTVSPropertyOp0
 70
     1
102
RTVSPropertyOp1
 70
     1
102
RTVSPropertyOp2
 70
     1
102
RTVSPropertyOp3
 70
     1
102
RTVSPropertyOp4
 70
     1
102
RTVSPropertyOp5
 70
     1
102
RTVSPropertyOp6
 70
     1
102
RTVSPropertyOp7
 70
     1
102
RTVSPropertyOp8
 70
     1
102
RTVSPropertyOp9
 70
     1
102
RTVSPropertyOp10
 70
     1
102
RTVSPropertyOp11
 70
     1
102
RTVSPropertyOp12
 70
     1
102
RTVSPropertyOp13
 70
     1
102
RTVSPropertyOp14
 70
     1
102
RTVSPropertyOp15
 70
     1
102
RTVSPropertyOp16
 70
     1
102
RTVSPropertyOp17
 70
     1
102
RTVSPropertyOp18
 70
     1
102
RTVSPropertyOp19
 70
     1
102
RTVSPropertyOp20
 70
     1
102
RTVSPropertyOp21
 70
     1
102
RTVSPropertyOp22
 70
     1
102
RTVSPropertyOp23
 70
     1
102
RTVSPropertyOp24
 70
     1
102
RTVSPropertyOp25
 70
     1
102
RTVSPropertyOp26
 70
     1
102
RTVSPropertyOp27
 70
     1
102
RTVSPropertyOp28
 70
     1
102
RTVSPropertyOp29
 70
     1
102
RTVSPropertyOp30
 70
     1
102
RTVSPropertyOp31
 70
     1
102
RTVSPropertyOp32
 70
     1
102
RTVSPropertyOp33
 70
     1
102
RTVSPropertyOp34
 70
     1
102
RTVSPropertyOp35
 70
     1
102
RTVSPropertyOp36
 70
     1
102
RTVSPropertyOp37
 70
     1
102
RTVSPropertyOp38
 70
     1
102
RTVSPropertyOp39
 70
     1
102
RTVSPropertyOp40
 70
     1
102
RTVSPropertyOp41
 70
     1
102
RTVSPropertyOp42
 70
     1
102
RTVSPropertyOp43
 70
     1
102
RTVSPropertyOp44
 70
     1
102
RTVSPropertyOp45
 70
     1
102
RTVSPropertyOp46
 70
     1
102
RTVSPropertyOp47
 70
     1
102
RTVSPropertyOp48
 70
     1
102
RTVSPropertyOp49
 70
     1
102
RTVSPropertyOp50
 70
     1
102
RTVSPropertyOp51
 70
     0
102
RTVSPropertyOp52
 70
     0
102
RTVSPropertyOp53
 70
     1
102
RTVSPropertyOp54
 70
     1
102
RTVSPropertyOp55
 70
     1
102
RTVSPropertyOp56
 70
     1
102
RTVSPropertyOp57
 70
     1
102
RTVSPropertyOp58
 70
     1
102
RTVSPropertyOp59
 70
     1
102
RTVSPropertyOp60
 70
     1
102
RTVSPropertyOp61
 70
     1
102
RTVSPropertyOp62
 70
     1
  0
XRECORD
  5
3501
102
{ACAD_REACTORS
330
3500
102
}
330
3500
100
AcDbXrecord
280
     1
102
RTVSPost2010Prop28
280
     0
102
RTVSPost2010PropOp28
 70
     1
102
RTVSPost2010Prop29
280
     1
102
RTVSPost2010PropOp29
 70
     1
102
RTVSPost2010Prop30
280
     1
102
RTVSPost2010PropOp30
 70
     1
102
RTVSPost2010Prop31
280
     0
102
RTVSPost2010PropOp31
 70
     1
102
RTVSPost2010Prop32
280
     0
102
RTVSPost2010PropOp32
 70
     1
102
RTVSPost2010Prop33
280
     0
102
RTVSPost2010PropOp33
 70
     1
102
RTVSPost2010Prop34
280
     0
102
RTVSPost2010PropOp34
 70
     1
102
RTVSPost2010Prop35
280
     0
102
RTVSPost2010PropOp35
 70
     1
102
RTVSPost2010Prop36
280
     0
102
RTVSPost2010PropOp36
 70
     1
102
RTVSPost2010Prop37
 90
       50
102
RTVSPost2010PropOp37
 70
     1
102
RTVSPost2010Prop38
140
0.0
102
RTVSPost2010PropOp38
 70
     1
102
RTVSPost2010Prop39
140
1.0
102
RTVSPost2010PropOp39
 70
     1
102
RTVSPost2010Prop40
 90
        0
102
RTVSPost2010PropOp40
 70
     1
102
RTVSPost2010Prop41ColorIndex
 90
       18
102
RTVSPost2010Prop41ColorRGB
 90
        0
102
RTVSPost2010PropOp41
 70
     1
102
RTVSPost2010Prop42
 90
       50
102
RTVSPost2010PropOp42
 70
     1
102
RTVSPost2010Prop43
 90
        3
102
RTVSPost2010PropOp43
 70
     1
102
RTVSPost2010Prop44ColorIndex
 90
        5
102
RTVSPost2010Prop44ColorRGB
 90
      255
102
RTVSPost2010PropOp44
 70
     1
102
RTVSPost2010Prop45
280
     0
102
RTVSPost2010PropOp45
 70
     1
102
RTVSPost2010Prop46
 90
       50
102
RTVSPost2010PropOp46
 70
     1
102
RTVSPost2010Prop47
 90
       50
102
RTVSPost2010PropOp47
 70
     1
102
RTVSPost2010Prop48
 90
       50
102
RTVSPost2010PropOp48
 70
     1
102
RTVSPost2010Prop49
280
     0
102
RTVSPost2010PropOp49
 70
     1
102
RTVSPost2010Prop50
 90
       50
102
RTVSPost2010PropOp50
 70
     1
102
RTVSPost2010Prop51ColorIndex
 90
      256
102
RTVSPost2010Prop51ColorRGB
 90
-16777216
102
RTVSPost2010PropOp51
 70
     0
102
RTVSPost2010Prop52
140
1.0
102
RTVSPost2010PropOp52
 70
     0
102
RTVSPost2010Prop53
 90
        2
102
RTVSPost2010PropOp53
 70
     1
102
RTVSPost2010Prop54
  1
strokes_ogs.tif
102
RTVSPost2010PropOp54
 70
     1
102
RTVSPost2010Prop55
280
     0
102
RTVSPost2010PropOp55
 70
     1
102
RTVSPost2010Prop56
140
1.0
102
RTVSPost2010PropOp56
 70
     1
102
RTVSPost2010Prop57
140
1.0
102
RTVSPost2010PropOp57
 70
     1
102
RTVSPropertyOp0
 70
     1
102
RTVSPropertyOp1
 70
     1
102
RTVSPropertyOp2
 70
     1
102
RTVSPropertyOp3
 70
     1
102
RTVSPropertyOp4
 70
     1
102
RTVSPropertyOp5
 70
     1
102
RTVSPropertyOp6
 70
     1
102
RTVSPropertyOp7
 70
     1
102
RTVSPropertyOp8
 70
     1
102
RTVSPropertyOp9
 70
     1
102
RTVSPropertyOp10
 70
     1
102
RTVSPropertyOp11
 70
     1
102
RTVSPropertyOp12
 70
     1
102
RTVSPropertyOp13
 70
     1
102
RTVSPropertyOp14
 70
     1
102
RTVSPropertyOp15
 70
     1
102
RTVSPropertyOp16
 70
     1
102
RTVSPropertyOp17
 70
     1
102
RTVSPropertyOp18
 70
     1
102
RTVSPropertyOp19
 70
     1
102
RTVSPropertyOp20
 70
     1
102
RTVSPropertyOp21
 70
     1
102
RTVSPropertyOp22
 70
     1
102
RTVSPropertyOp23
 70
     1
102
RTVSPropertyOp24
 70
     1
102
RTVSPropertyOp25
 70
     1
102
RTVSPropertyOp26
 70
     1
102
RTVSPropertyOp27
 70
     1
102
RTVSPropertyOp28
 70
     1
102
RTVSPropertyOp29
 70
     1
102
RTVSPropertyOp30
 70
     1
102
RTVSPropertyOp31
 70
     1
102
RTVSPropertyOp32
 70
     1
102
RTVSPropertyOp33
 70
     1
102
RTVSPropertyOp34
 70
     1
102
RTVSPropertyOp35
 70
     1
102
RTVSPropertyOp36
 70
     1
102
RTVSPropertyOp37
 70
     1
102
RTVSPropertyOp38
 70
     1
102
RTVSPropertyOp39
 70
     1
102
RTVSPropertyOp40
 70
     1
102
RTVSPropertyOp41
 70
     1
102
RTVSPropertyOp42
 70
     1
102
RTVSPropertyOp43
 70
     1
102
RTVSPropertyOp44
 70
     1
102
RTVSPropertyOp45
 70
     1
102
RTVSPropertyOp46
 70
     1
102
RTVSPropertyOp47
 70
     1
102
RTVSPropertyOp48
 70
     1
102
RTVSPropertyOp49
 70
     1
102
RTVSPropertyOp50
 70
     1
102
RTVSPropertyOp51
 70
     0
102
RTVSPropertyOp52
 70
     0
102
RTVSPropertyOp53
 70
     1
102
RTVSPropertyOp54
 70
     1
102
RTVSPropertyOp55
 70
     1
102
RTVSPropertyOp56
 70
     1
102
RTVSPropertyOp57
 70
     1
102
RTVSPropertyOp58
 70
     1
102
RTVSPropertyOp59
 70
     1
102
RTVSPropertyOp60
 70
     1
102
RTVSPropertyOp61
 70
     1
102
RTVSPropertyOp62
 70
     1
  0
XRECORD
  5
3513
102
{ACAD_REACTORS
330
3512
102
}
330
3512
100
AcDbXrecord
280
     1
102
RTVSPost2010Prop28
280
     0
102
RTVSPost2010PropOp28
 70
     1
102
RTVSPost2010Prop29
280
     1
102
RTVSPost2010PropOp29
 70
     1
102
RTVSPost2010Prop30
280
     1
102
RTVSPost2010PropOp30
 70
     1
102
RTVSPost2010Prop31
280
     0
102
RTVSPost2010PropOp31
 70
     1
102
RTVSPost2010Prop32
280
     0
102
RTVSPost2010PropOp32
 70
     1
102
RTVSPost2010Prop33
280
     0
102
RTVSPost2010PropOp33
 70
     1
102
RTVSPost2010Prop34
280
     0
102
RTVSPost2010PropOp34
 70
     1
102
RTVSPost2010Prop35
280
     0
102
RTVSPost2010PropOp35
 70
     1
102
RTVSPost2010Prop36
280
     0
102
RTVSPost2010PropOp36
 70
     1
102
RTVSPost2010Prop37
 90
       50
102
RTVSPost2010PropOp37
 70
     1
102
RTVSPost2010Prop38
140
0.0
102
RTVSPost2010PropOp38
 70
     1
102
RTVSPost2010Prop39
140
1.0
102
RTVSPost2010PropOp39
 70
     1
102
RTVSPost2010Prop40
 90
        0
102
RTVSPost2010PropOp40
 70
     1
102
RTVSPost2010Prop41ColorIndex
 90
       18
102
RTVSPost2010Prop41ColorRGB
 90
        0
102
RTVSPost2010PropOp41
 70
     1
102
RTVSPost2010Prop42
 90
       50
102
RTVSPost2010PropOp42
 70
     1
102
RTVSPost2010Prop43
 90
        3
102
RTVSPost2010PropOp43
 70
     1
102
RTVSPost2010Prop44ColorIndex
 90
        5
102
RTVSPost2010Prop44ColorRGB
 90
      255
102
RTVSPost2010PropOp44
 70
     1
102
RTVSPost2010Prop45
280
     0
102
RTVSPost2010PropOp45
 70
     1
102
RTVSPost2010Prop46
 90
       50
102
RTVSPost2010PropOp46
 70
     1
102
RTVSPost2010Prop47
 90
       50
102
RTVSPost2010PropOp47
 70
     1
102
RTVSPost2010Prop48
 90
       50
102
RTVSPost2010PropOp48
 70
     1
102
RTVSPost2010Prop49
280
     0
102
RTVSPost2010PropOp49
 70
     1
102
RTVSPost2010Prop50
 90
       50
102
RTVSPost2010PropOp50
 70
     1
102
RTVSPost2010Prop51ColorIndex
 90
      256
102
RTVSPost2010Prop51ColorRGB
 90
-16777216
102
RTVSPost2010PropOp51
 70
     0
102
RTVSPost2010Prop52
140
1.0
102
RTVSPost2010PropOp52
 70
     0
102
RTVSPost2010Prop53
 90
        2
102
RTVSPost2010PropOp53
 70
     1
102
RTVSPost2010Prop54
  1
strokes_ogs.tif
102
RTVSPost2010PropOp54
 70
     1
102
RTVSPost2010Prop55
280
     0
102
RTVSPost2010PropOp55
 70
     1
102
RTVSPost2010Prop56
140
1.0
102
RTVSPost2010PropOp56
 70
     1
102
RTVSPost2010Prop57
140
1.0
102
RTVSPost2010PropOp57
 70
     1
102
RTVSPropertyOp0
 70
     0
102
RTVSPropertyOp1
 70
     0
102
RTVSPropertyOp2
 70
     0
102
RTVSPropertyOp3
 70
     0
102
RTVSPropertyOp4
 70
     0
102
RTVSPropertyOp5
 70
     0
102
RTVSPropertyOp6
 70
     0
102
RTVSPropertyOp7
 70
     0
102
RTVSPropertyOp8
 70
     0
102
RTVSPropertyOp9
 70
     0
102
RTVSPropertyOp10
 70
     0
102
RTVSPropertyOp11
 70
     0
102
RTVSPropertyOp12
 70
     0
102
RTVSPropertyOp13
 70
     0
102
RTVSPropertyOp14
 70
     2
102
RTVSPropertyOp15
 70
     0
102
RTVSPropertyOp16
 70
     0
102
RTVSPropertyOp17
 70
     0
102
RTVSPropertyOp18
 70
     0
102
RTVSPropertyOp19
 70
     0
102
RTVSPropertyOp20
 70
     0
102
RTVSPropertyOp21
 70
     0
102
RTVSPropertyOp22
 70
     0
102
RTVSPropertyOp23
 70
     0
102
RTVSPropertyOp24
 70
     0
102
RTVSPropertyOp25
 70
     0
102
RTVSPropertyOp26
 70
     0
102
RTVSPropertyOp27
 70
     0
102
RTVSPropertyOp28
 70
     1
102
RTVSPropertyOp29
 70
     1
102
RTVSPropertyOp30
 70
     1
102
RTVSPropertyOp31
 70
     1
102
RTVSPropertyOp32
 70
     1
102
RTVSPropertyOp33
 70
     1
102
RTVSPropertyOp34
 70
     1
102
RTVSPropertyOp35
 70
     1
102
RTVSPropertyOp36
 70
     1
102
RTVSPropertyOp37
 70
     1
102
RTVSPropertyOp38
 70
     1
102
RTVSPropertyOp39
 70
     1
102
RTVSPropertyOp40
 70
     1
102
RTVSPropertyOp41
 70
     1
102
RTVSPropertyOp42
 70
     1
102
RTVSPropertyOp43
 70
     1
102
RTVSPropertyOp44
 70
     1
102
RTVSPropertyOp45
 70
     1
102
RTVSPropertyOp46
 70
     1
102
RTVSPropertyOp47
 70
     1
102
RTVSPropertyOp48
 70
     1
102
RTVSPropertyOp49
 70
     1
102
RTVSPropertyOp50
 70
     1
102
RTVSPropertyOp51
 70
     0
102
RTVSPropertyOp52
 70
     0
102
RTVSPropertyOp53
 70
     1
102
RTVSPropertyOp54
 70
     1
102
RTVSPropertyOp55
 70
     1
102
RTVSPropertyOp56
 70
     1
102
RTVSPropertyOp57
 70
     1
102
RTVSPropertyOp58
 70
     1
102
RTVSPropertyOp59
 70
     1
102
RTVSPropertyOp60
 70
     1
102
RTVSPropertyOp61
 70
     1
102
RTVSPropertyOp62
 70
     1
  0
XRECORD
  5
3509
102
{ACAD_REACTORS
330
3508
102
}
330
3508
100
AcDbXrecord
280
     1
102
RTVSPost2010Prop28
280
     0
102
RTVSPost2010PropOp28
 70
     1
102
RTVSPost2010Prop29
280
     1
102
RTVSPost2010PropOp29
 70
     1
102
RTVSPost2010Prop30
280
     1
102
RTVSPost2010PropOp30
 70
     1
102
RTVSPost2010Prop31
280
     0
102
RTVSPost2010PropOp31
 70
     1
102
RTVSPost2010Prop32
280
     0
102
RTVSPost2010PropOp32
 70
     1
102
RTVSPost2010Prop33
280
     0
102
RTVSPost2010PropOp33
 70
     1
102
RTVSPost2010Prop34
280
     0
102
RTVSPost2010PropOp34
 70
     1
102
RTVSPost2010Prop35
280
     0
102
RTVSPost2010PropOp35
 70
     1
102
RTVSPost2010Prop36
280
     0
102
RTVSPost2010PropOp36
 70
     1
102
RTVSPost2010Prop37
 90
       50
102
RTVSPost2010PropOp37
 70
     1
102
RTVSPost2010Prop38
140
0.0
102
RTVSPost2010PropOp38
 70
     1
102
RTVSPost2010Prop39
140
1.0
102
RTVSPost2010PropOp39
 70
     1
102
RTVSPost2010Prop40
 90
        0
102
RTVSPost2010PropOp40
 70
     1
102
RTVSPost2010Prop41ColorIndex
 90
       18
102
RTVSPost2010Prop41ColorRGB
 90
        0
102
RTVSPost2010PropOp41
 70
     1
102
RTVSPost2010Prop42
 90
       50
102
RTVSPost2010PropOp42
 70
     1
102
RTVSPost2010Prop43
 90
        3
102
RTVSPost2010PropOp43
 70
     1
102
RTVSPost2010Prop44ColorIndex
 90
        5
102
RTVSPost2010Prop44ColorRGB
 90
      255
102
RTVSPost2010PropOp44
 70
     1
102
RTVSPost2010Prop45
280
     0
102
RTVSPost2010PropOp45
 70
     1
102
RTVSPost2010Prop46
 90
       50
102
RTVSPost2010PropOp46
 70
     1
102
RTVSPost2010Prop47
 90
       50
102
RTVSPost2010PropOp47
 70
     1
102
RTVSPost2010Prop48
 90
       50
102
RTVSPost2010PropOp48
 70
     1
102
RTVSPost2010Prop49
280
     0
102
RTVSPost2010PropOp49
 70
     1
102
RTVSPost2010Prop50
 90
       50
102
RTVSPost2010PropOp50
 70
     1
102
RTVSPost2010Prop51ColorIndex
 90
      256
102
RTVSPost2010Prop51ColorRGB
 90
-16777216
102
RTVSPost2010PropOp51
 70
     0
102
RTVSPost2010Prop52
140
1.0
102
RTVSPost2010PropOp52
 70
     0
102
RTVSPost2010Prop53
 90
        2
102
RTVSPost2010PropOp53
 70
     1
102
RTVSPost2010Prop54
  1
strokes_ogs.tif
102
RTVSPost2010PropOp54
 70
     1
102
RTVSPost2010Prop55
280
     0
102
RTVSPost2010PropOp55
 70
     1
102
RTVSPost2010Prop56
140
1.0
102
RTVSPost2010PropOp56
 70
     1
102
RTVSPost2010Prop57
140
1.0
102
RTVSPost2010PropOp57
 70
     1
102
RTVSPropertyOp0
 70
     1
102
RTVSPropertyOp1
 70
     1
102
RTVSPropertyOp2
 70
     1
102
RTVSPropertyOp3
 70
     1
102
RTVSPropertyOp4
 70
     1
102
RTVSPropertyOp5
 70
     1
102
RTVSPropertyOp6
 70
     1
102
RTVSPropertyOp7
 70
     1
102
RTVSPropertyOp8
 70
     1
102
RTVSPropertyOp9
 70
     1
102
RTVSPropertyOp10
 70
     1
102
RTVSPropertyOp11
 70
     1
102
RTVSPropertyOp12
 70
     1
102
RTVSPropertyOp13
 70
     1
102
RTVSPropertyOp14
 70
     1
102
RTVSPropertyOp15
 70
     1
102
RTVSPropertyOp16
 70
     1
102
RTVSPropertyOp17
 70
     1
102
RTVSPropertyOp18
 70
     1
102
RTVSPropertyOp19
 70
     1
102
RTVSPropertyOp20
 70
     1
102
RTVSPropertyOp21
 70
     1
102
RTVSPropertyOp22
 70
     1
102
RTVSPropertyOp23
 70
     1
102
RTVSPropertyOp24
 70
     1
102
RTVSPropertyOp25
 70
     1
102
RTVSPropertyOp26
 70
     1
102
RTVSPropertyOp27
 70
     1
102
RTVSPropertyOp28
 70
     1
102
RTVSPropertyOp29
 70
     1
102
RTVSPropertyOp30
 70
     1
102
RTVSPropertyOp31
 70
     1
102
RTVSPropertyOp32
 70
     1
102
RTVSPropertyOp33
 70
     1
102
RTVSPropertyOp34
 70
     1
102
RTVSPropertyOp35
 70
     1
102
RTVSPropertyOp36
 70
     1
102
RTVSPropertyOp37
 70
     1
102
RTVSPropertyOp38
 70
     1
102
RTVSPropertyOp39
 70
     1
102
RTVSPropertyOp40
 70
     1
102
RTVSPropertyOp41
 70
     1
102
RTVSPropertyOp42
 70
     1
102
RTVSPropertyOp43
 70
     1
102
RTVSPropertyOp44
 70
     1
102
RTVSPropertyOp45
 70
     1
102
RTVSPropertyOp46
 70
     1
102
RTVSPropertyOp47
 70
     1
102
RTVSPropertyOp48
 70
     1
102
RTVSPropertyOp49
 70
     1
102
RTVSPropertyOp50
 70
     1
102
RTVSPropertyOp51
 70
     0
102
RTVSPropertyOp52
 70
     0
102
RTVSPropertyOp53
 70
     1
102
RTVSPropertyOp54
 70
     1
102
RTVSPropertyOp55
 70
     1
102
RTVSPropertyOp56
 70
     1
102
RTVSPropertyOp57
 70
     1
102
RTVSPropertyOp58
 70
     1
102
RTVSPropertyOp59
 70
     1
102
RTVSPropertyOp60
 70
     1
102
RTVSPropertyOp61
 70
     1
102
RTVSPropertyOp62
 70
     1
  0
XRECORD
  5
34ED
102
{ACAD_REACTORS
330
34EC
102
}
330
34EC
100
AcDbXrecord
280
     1
102
RTVSPost2010Prop28
280
     0
102
RTVSPost2010PropOp28
 70
     1
102
RTVSPost2010Prop29
280
     1
102
RTVSPost2010PropOp29
 70
     1
102
RTVSPost2010Prop30
280
     1
102
RTVSPost2010PropOp30
 70
     1
102
RTVSPost2010Prop31
280
     0
102
RTVSPost2010PropOp31
 70
     1
102
RTVSPost2010Prop32
280
     0
102
RTVSPost2010PropOp32
 70
     1
102
RTVSPost2010Prop33
280
     0
102
RTVSPost2010PropOp33
 70
     1
102
RTVSPost2010Prop34
280
     0
102
RTVSPost2010PropOp34
 70
     1
102
RTVSPost2010Prop35
280
     0
102
RTVSPost2010PropOp35
 70
     1
102
RTVSPost2010Prop36
280
     0
102
RTVSPost2010PropOp36
 70
     1
102
RTVSPost2010Prop37
 90
       50
102
RTVSPost2010PropOp37
 70
     1
102
RTVSPost2010Prop38
140
0.0
102
RTVSPost2010PropOp38
 70
     1
102
RTVSPost2010Prop39
140
1.0
102
RTVSPost2010PropOp39
 70
     1
102
RTVSPost2010Prop40
 90
        0
102
RTVSPost2010PropOp40
 70
     1
102
RTVSPost2010Prop41ColorIndex
 90
       18
102
RTVSPost2010Prop41ColorRGB
 90
        0
102
RTVSPost2010PropOp41
 70
     1
102
RTVSPost2010Prop42
 90
       50
102
RTVSPost2010PropOp42
 70
     1
102
RTVSPost2010Prop43
 90
        3
102
RTVSPost2010PropOp43
 70
     1
102
RTVSPost2010Prop44ColorIndex
 90
        5
102
RTVSPost2010Prop44ColorRGB
 90
      255
102
RTVSPost2010PropOp44
 70
     1
102
RTVSPost2010Prop45
280
     0
102
RTVSPost2010PropOp45
 70
     1
102
RTVSPost2010Prop46
 90
       50
102
RTVSPost2010PropOp46
 70
     1
102
RTVSPost2010Prop47
 90
       50
102
RTVSPost2010PropOp47
 70
     1
102
RTVSPost2010Prop48
 90
       50
102
RTVSPost2010PropOp48
 70
     1
102
RTVSPost2010Prop49
280
     0
102
RTVSPost2010PropOp49
 70
     1
102
RTVSPost2010Prop50
 90
       50
102
RTVSPost2010PropOp50
 70
     1
102
RTVSPost2010Prop51ColorIndex
 90
      256
102
RTVSPost2010Prop51ColorRGB
 90
-16777216
102
RTVSPost2010PropOp51
 70
     0
102
RTVSPost2010Prop52
140
1.0
102
RTVSPost2010PropOp52
 70
     0
102
RTVSPost2010Prop53
 90
        2
102
RTVSPost2010PropOp53
 70
     1
102
RTVSPost2010Prop54
  1
strokes_ogs.tif
102
RTVSPost2010PropOp54
 70
     1
102
RTVSPost2010Prop55
280
     0
102
RTVSPost2010PropOp55
 70
     1
102
RTVSPost2010Prop56
140
1.0
102
RTVSPost2010PropOp56
 70
     1
102
RTVSPost2010Prop57
140
1.0
102
RTVSPost2010PropOp57
 70
     1
102
RTVSPropertyOp0
 70
     1
102
RTVSPropertyOp1
 70
     1
102
RTVSPropertyOp2
 70
     1
102
RTVSPropertyOp3
 70
     1
102
RTVSPropertyOp4
 70
     1
102
RTVSPropertyOp5
 70
     1
102
RTVSPropertyOp6
 70
     1
102
RTVSPropertyOp7
 70
     1
102
RTVSPropertyOp8
 70
     1
102
RTVSPropertyOp9
 70
     1
102
RTVSPropertyOp10
 70
     1
102
RTVSPropertyOp11
 70
     1
102
RTVSPropertyOp12
 70
     1
102
RTVSPropertyOp13
 70
     1
102
RTVSPropertyOp14
 70
     1
102
RTVSPropertyOp15
 70
     1
102
RTVSPropertyOp16
 70
     1
102
RTVSPropertyOp17
 70
     1
102
RTVSPropertyOp18
 70
     1
102
RTVSPropertyOp19
 70
     1
102
RTVSPropertyOp20
 70
     1
102
RTVSPropertyOp21
 70
     1
102
RTVSPropertyOp22
 70
     1
102
RTVSPropertyOp23
 70
     1
102
RTVSPropertyOp24
 70
     1
102
RTVSPropertyOp25
 70
     1
102
RTVSPropertyOp26
 70
     1
102
RTVSPropertyOp27
 70
     1
102
RTVSPropertyOp28
 70
     1
102
RTVSPropertyOp29
 70
     1
102
RTVSPropertyOp30
 70
     1
102
RTVSPropertyOp31
 70
     1
102
RTVSPropertyOp32
 70
     1
102
RTVSPropertyOp33
 70
     1
102
RTVSPropertyOp34
 70
     1
102
RTVSPropertyOp35
 70
     1
102
RTVSPropertyOp36
 70
     1
102
RTVSPropertyOp37
 70
     1
102
RTVSPropertyOp38
 70
     1
102
RTVSPropertyOp39
 70
     1
102
RTVSPropertyOp40
 70
     1
102
RTVSPropertyOp41
 70
     1
102
RTVSPropertyOp42
 70
     1
102
RTVSPropertyOp43
 70
     1
102
RTVSPropertyOp44
 70
     1
102
RTVSPropertyOp45
 70
     1
102
RTVSPropertyOp46
 70
     1
102
RTVSPropertyOp47
 70
     1
102
RTVSPropertyOp48
 70
     1
102
RTVSPropertyOp49
 70
     1
102
RTVSPropertyOp50
 70
     1
102
RTVSPropertyOp51
 70
     0
102
RTVSPropertyOp52
 70
     0
102
RTVSPropertyOp53
 70
     1
102
RTVSPropertyOp54
 70
     1
102
RTVSPropertyOp55
 70
     1
102
RTVSPropertyOp56
 70
     1
102
RTVSPropertyOp57
 70
     1
102
RTVSPropertyOp58
 70
     1
102
RTVSPropertyOp59
 70
     1
102
RTVSPropertyOp60
 70
     1
102
RTVSPropertyOp61
 70
     1
102
RTVSPropertyOp62
 70
     1
  0
XRECORD
  5
34EF
102
{ACAD_REACTORS
330
34EE
102
}
330
34EE
100
AcDbXrecord
280
     1
102
RTVSPost2010Prop28
280
     0
102
RTVSPost2010PropOp28
 70
     1
102
RTVSPost2010Prop29
280
     1
102
RTVSPost2010PropOp29
 70
     1
102
RTVSPost2010Prop30
280
     1
102
RTVSPost2010PropOp30
 70
     1
102
RTVSPost2010Prop31
280
     0
102
RTVSPost2010PropOp31
 70
     1
102
RTVSPost2010Prop32
280
     0
102
RTVSPost2010PropOp32
 70
     1
102
RTVSPost2010Prop33
280
     0
102
RTVSPost2010PropOp33
 70
     1
102
RTVSPost2010Prop34
280
     0
102
RTVSPost2010PropOp34
 70
     1
102
RTVSPost2010Prop35
280
     0
102
RTVSPost2010PropOp35
 70
     1
102
RTVSPost2010Prop36
280
     0
102
RTVSPost2010PropOp36
 70
     1
102
RTVSPost2010Prop37
 90
       50
102
RTVSPost2010PropOp37
 70
     1
102
RTVSPost2010Prop38
140
0.0
102
RTVSPost2010PropOp38
 70
     1
102
RTVSPost2010Prop39
140
1.0
102
RTVSPost2010PropOp39
 70
     1
102
RTVSPost2010Prop40
 90
        0
102
RTVSPost2010PropOp40
 70
     1
102
RTVSPost2010Prop41ColorIndex
 90
       18
102
RTVSPost2010Prop41ColorRGB
 90
        0
102
RTVSPost2010PropOp41
 70
     1
102
RTVSPost2010Prop42
 90
       50
102
RTVSPost2010PropOp42
 70
     1
102
RTVSPost2010Prop43
 90
        3
102
RTVSPost2010PropOp43
 70
     1
102
RTVSPost2010Prop44ColorIndex
 90
        5
102
RTVSPost2010Prop44ColorRGB
 90
      255
102
RTVSPost2010PropOp44
 70
     1
102
RTVSPost2010Prop45
280
     0
102
RTVSPost2010PropOp45
 70
     1
102
RTVSPost2010Prop46
 90
       50
102
RTVSPost2010PropOp46
 70
     1
102
RTVSPost2010Prop47
 90
       50
102
RTVSPost2010PropOp47
 70
     1
102
RTVSPost2010Prop48
 90
       50
102
RTVSPost2010PropOp48
 70
     1
102
RTVSPost2010Prop49
280
     0
102
RTVSPost2010PropOp49
 70
     1
102
RTVSPost2010Prop50
 90
       50
102
RTVSPost2010PropOp50
 70
     1
102
RTVSPost2010Prop51ColorIndex
 90
      256
102
RTVSPost2010Prop51ColorRGB
 90
-16777216
102
RTVSPost2010PropOp51
 70
     0
102
RTVSPost2010Prop52
140
1.0
102
RTVSPost2010PropOp52
 70
     0
102
RTVSPost2010Prop53
 90
        2
102
RTVSPost2010PropOp53
 70
     1
102
RTVSPost2010Prop54
  1
strokes_ogs.tif
102
RTVSPost2010PropOp54
 70
     1
102
RTVSPost2010Prop55
280
     0
102
RTVSPost2010PropOp55
 70
     1
102
RTVSPost2010Prop56
140
1.0
102
RTVSPost2010PropOp56
 70
     1
102
RTVSPost2010Prop57
140
1.0
102
RTVSPost2010PropOp57
 70
     1
102
RTVSPropertyOp0
 70
     1
102
RTVSPropertyOp1
 70
     1
102
RTVSPropertyOp2
 70
     1
102
RTVSPropertyOp3
 70
     1
102
RTVSPropertyOp4
 70
     1
102
RTVSPropertyOp5
 70
     1
102
RTVSPropertyOp6
 70
     1
102
RTVSPropertyOp7
 70
     1
102
RTVSPropertyOp8
 70
     1
102
RTVSPropertyOp9
 70
     1
102
RTVSPropertyOp10
 70
     1
102
RTVSPropertyOp11
 70
     1
102
RTVSPropertyOp12
 70
     1
102
RTVSPropertyOp13
 70
     1
102
RTVSPropertyOp14
 70
     1
102
RTVSPropertyOp15
 70
     1
102
RTVSPropertyOp16
 70
     1
102
RTVSPropertyOp17
 70
     1
102
RTVSPropertyOp18
 70
     1
102
RTVSPropertyOp19
 70
     1
102
RTVSPropertyOp20
 70
     1
102
RTVSPropertyOp21
 70
     1
102
RTVSPropertyOp22
 70
     1
102
RTVSPropertyOp23
 70
     1
102
RTVSPropertyOp24
 70
     1
102
RTVSPropertyOp25
 70
     1
102
RTVSPropertyOp26
 70
     1
102
RTVSPropertyOp27
 70
     1
102
RTVSPropertyOp28
 70
     1
102
RTVSPropertyOp29
 70
     1
102
RTVSPropertyOp30
 70
     1
102
RTVSPropertyOp31
 70
     1
102
RTVSPropertyOp32
 70
     1
102
RTVSPropertyOp33
 70
     1
102
RTVSPropertyOp34
 70
     1
102
RTVSPropertyOp35
 70
     1
102
RTVSPropertyOp36
 70
     1
102
RTVSPropertyOp37
 70
     1
102
RTVSPropertyOp38
 70
     1
102
RTVSPropertyOp39
 70
     1
102
RTVSPropertyOp40
 70
     1
102
RTVSPropertyOp41
 70
     1
102
RTVSPropertyOp42
 70
     1
102
RTVSPropertyOp43
 70
     1
102
RTVSPropertyOp44
 70
     1
102
RTVSPropertyOp45
 70
     1
102
RTVSPropertyOp46
 70
     1
102
RTVSPropertyOp47
 70
     1
102
RTVSPropertyOp48
 70
     1
102
RTVSPropertyOp49
 70
     1
102
RTVSPropertyOp50
 70
     1
102
RTVSPropertyOp51
 70
     0
102
RTVSPropertyOp52
 70
     0
102
RTVSPropertyOp53
 70
     1
102
RTVSPropertyOp54
 70
     1
102
RTVSPropertyOp55
 70
     1
102
RTVSPropertyOp56
 70
     1
102
RTVSPropertyOp57
 70
     1
102
RTVSPropertyOp58
 70
     1
102
RTVSPropertyOp59
 70
     1
102
RTVSPropertyOp60
 70
     1
102
RTVSPropertyOp61
 70
     1
102
RTVSPropertyOp62
 70
     1
  0
XRECORD
  5
34F1
102
{ACAD_REACTORS
330
34F0
102
}
330
34F0
100
AcDbXrecord
280
     1
102
RTVSPost2010Prop28
280
     0
102
RTVSPost2010PropOp28
 70
     1
102
RTVSPost2010Prop29
280
     1
102
RTVSPost2010PropOp29
 70
     1
102
RTVSPost2010Prop30
280
     1
102
RTVSPost2010PropOp30
 70
     1
102
RTVSPost2010Prop31
280
     0
102
RTVSPost2010PropOp31
 70
     1
102
RTVSPost2010Prop32
280
     0
102
RTVSPost2010PropOp32
 70
     1
102
RTVSPost2010Prop33
280
     0
102
RTVSPost2010PropOp33
 70
     1
102
RTVSPost2010Prop34
280
     0
102
RTVSPost2010PropOp34
 70
     1
102
RTVSPost2010Prop35
280
     0
102
RTVSPost2010PropOp35
 70
     1
102
RTVSPost2010Prop36
280
     0
102
RTVSPost2010PropOp36
 70
     1
102
RTVSPost2010Prop37
 90
       50
102
RTVSPost2010PropOp37
 70
     1
102
RTVSPost2010Prop38
140
0.0
102
RTVSPost2010PropOp38
 70
     1
102
RTVSPost2010Prop39
140
1.0
102
RTVSPost2010PropOp39
 70
     1
102
RTVSPost2010Prop40
 90
        0
102
RTVSPost2010PropOp40
 70
     1
102
RTVSPost2010Prop41ColorIndex
 90
       18
102
RTVSPost2010Prop41ColorRGB
 90
        0
102
RTVSPost2010PropOp41
 70
     1
102
RTVSPost2010Prop42
 90
       50
102
RTVSPost2010PropOp42
 70
     1
102
RTVSPost2010Prop43
 90
        3
102
RTVSPost2010PropOp43
 70
     1
102
RTVSPost2010Prop44ColorIndex
 90
        5
102
RTVSPost2010Prop44ColorRGB
 90
      255
102
RTVSPost2010PropOp44
 70
     1
102
RTVSPost2010Prop45
280
     0
102
RTVSPost2010PropOp45
 70
     1
102
RTVSPost2010Prop46
 90
       50
102
RTVSPost2010PropOp46
 70
     1
102
RTVSPost2010Prop47
 90
       50
102
RTVSPost2010PropOp47
 70
     1
102
RTVSPost2010Prop48
 90
       50
102
RTVSPost2010PropOp48
 70
     1
102
RTVSPost2010Prop49
280
     0
102
RTVSPost2010PropOp49
 70
     1
102
RTVSPost2010Prop50
 90
       50
102
RTVSPost2010PropOp50
 70
     1
102
RTVSPost2010Prop51ColorIndex
 90
      256
102
RTVSPost2010Prop51ColorRGB
 90
-16777216
102
RTVSPost2010PropOp51
 70
     0
102
RTVSPost2010Prop52
140
1.0
102
RTVSPost2010PropOp52
 70
     0
102
RTVSPost2010Prop53
 90
        2
102
RTVSPost2010PropOp53
 70
     1
102
RTVSPost2010Prop54
  1
strokes_ogs.tif
102
RTVSPost2010PropOp54
 70
     1
102
RTVSPost2010Prop55
280
     0
102
RTVSPost2010PropOp55
 70
     1
102
RTVSPost2010Prop56
140
1.0
102
RTVSPost2010PropOp56
 70
     1
102
RTVSPost2010Prop57
140
1.0
102
RTVSPost2010PropOp57
 70
     1
102
RTVSPropertyOp0
 70
     1
102
RTVSPropertyOp1
 70
     1
102
RTVSPropertyOp2
 70
     1
102
RTVSPropertyOp3
 70
     1
102
RTVSPropertyOp4
 70
     1
102
RTVSPropertyOp5
 70
     1
102
RTVSPropertyOp6
 70
     1
102
RTVSPropertyOp7
 70
     1
102
RTVSPropertyOp8
 70
     1
102
RTVSPropertyOp9
 70
     1
102
RTVSPropertyOp10
 70
     1
102
RTVSPropertyOp11
 70
     1
102
RTVSPropertyOp12
 70
     1
102
RTVSPropertyOp13
 70
     1
102
RTVSPropertyOp14
 70
     1
102
RTVSPropertyOp15
 70
     1
102
RTVSPropertyOp16
 70
     1
102
RTVSPropertyOp17
 70
     1
102
RTVSPropertyOp18
 70
     1
102
RTVSPropertyOp19
 70
     1
102
RTVSPropertyOp20
 70
     1
102
RTVSPropertyOp21
 70
     1
102
RTVSPropertyOp22
 70
     1
102
RTVSPropertyOp23
 70
     1
102
RTVSPropertyOp24
 70
     1
102
RTVSPropertyOp25
 70
     1
102
RTVSPropertyOp26
 70
     1
102
RTVSPropertyOp27
 70
     1
102
RTVSPropertyOp28
 70
     1
102
RTVSPropertyOp29
 70
     1
102
RTVSPropertyOp30
 70
     1
102
RTVSPropertyOp31
 70
     1
102
RTVSPropertyOp32
 70
     1
102
RTVSPropertyOp33
 70
     1
102
RTVSPropertyOp34
 70
     1
102
RTVSPropertyOp35
 70
     1
102
RTVSPropertyOp36
 70
     1
102
RTVSPropertyOp37
 70
     1
102
RTVSPropertyOp38
 70
     1
102
RTVSPropertyOp39
 70
     1
102
RTVSPropertyOp40
 70
     1
102
RTVSPropertyOp41
 70
     1
102
RTVSPropertyOp42
 70
     1
102
RTVSPropertyOp43
 70
     1
102
RTVSPropertyOp44
 70
     1
102
RTVSPropertyOp45
 70
     1
102
RTVSPropertyOp46
 70
     1
102
RTVSPropertyOp47
 70
     1
102
RTVSPropertyOp48
 70
     1
102
RTVSPropertyOp49
 70
     1
102
RTVSPropertyOp50
 70
     1
102
RTVSPropertyOp51
 70
     0
102
RTVSPropertyOp52
 70
     0
102
RTVSPropertyOp53
 70
     1
102
RTVSPropertyOp54
 70
     1
102
RTVSPropertyOp55
 70
     1
102
RTVSPropertyOp56
 70
     1
102
RTVSPropertyOp57
 70
     1
102
RTVSPropertyOp58
 70
     1
102
RTVSPropertyOp59
 70
     1
102
RTVSPropertyOp60
 70
     1
102
RTVSPropertyOp61
 70
     1
102
RTVSPropertyOp62
 70
     1
  0
XRECORD
  5
34F3
102
{ACAD_REACTORS
330
34F2
102
}
330
34F2
100
AcDbXrecord
280
     1
102
RTVSPost2010Prop28
280
     0
102
RTVSPost2010PropOp28
 70
     1
102
RTVSPost2010Prop29
280
     1
102
RTVSPost2010PropOp29
 70
     1
102
RTVSPost2010Prop30
280
     1
102
RTVSPost2010PropOp30
 70
     1
102
RTVSPost2010Prop31
280
     0
102
RTVSPost2010PropOp31
 70
     1
102
RTVSPost2010Prop32
280
     0
102
RTVSPost2010PropOp32
 70
     1
102
RTVSPost2010Prop33
280
     0
102
RTVSPost2010PropOp33
 70
     1
102
RTVSPost2010Prop34
280
     0
102
RTVSPost2010PropOp34
 70
     1
102
RTVSPost2010Prop35
280
     0
102
RTVSPost2010PropOp35
 70
     1
102
RTVSPost2010Prop36
280
     0
102
RTVSPost2010PropOp36
 70
     1
102
RTVSPost2010Prop37
 90
       50
102
RTVSPost2010PropOp37
 70
     1
102
RTVSPost2010Prop38
140
0.0
102
RTVSPost2010PropOp38
 70
     1
102
RTVSPost2010Prop39
140
1.0
102
RTVSPost2010PropOp39
 70
     1
102
RTVSPost2010Prop40
 90
        0
102
RTVSPost2010PropOp40
 70
     1
102
RTVSPost2010Prop41ColorIndex
 90
       18
102
RTVSPost2010Prop41ColorRGB
 90
        0
102
RTVSPost2010PropOp41
 70
     1
102
RTVSPost2010Prop42
 90
       50
102
RTVSPost2010PropOp42
 70
     1
102
RTVSPost2010Prop43
 90
        3
102
RTVSPost2010PropOp43
 70
     1
102
RTVSPost2010Prop44ColorIndex
 90
        5
102
RTVSPost2010Prop44ColorRGB
 90
      255
102
RTVSPost2010PropOp44
 70
     1
102
RTVSPost2010Prop45
280
     0
102
RTVSPost2010PropOp45
 70
     1
102
RTVSPost2010Prop46
 90
       50
102
RTVSPost2010PropOp46
 70
     1
102
RTVSPost2010Prop47
 90
       50
102
RTVSPost2010PropOp47
 70
     1
102
RTVSPost2010Prop48
 90
       50
102
RTVSPost2010PropOp48
 70
     1
102
RTVSPost2010Prop49
280
     0
102
RTVSPost2010PropOp49
 70
     1
102
RTVSPost2010Prop50
 90
       50
102
RTVSPost2010PropOp50
 70
     1
102
RTVSPost2010Prop51ColorIndex
 90
      256
102
RTVSPost2010Prop51ColorRGB
 90
-16777216
102
RTVSPost2010PropOp51
 70
     0
102
RTVSPost2010Prop52
140
1.0
102
RTVSPost2010PropOp52
 70
     0
102
RTVSPost2010Prop53
 90
        2
102
RTVSPost2010PropOp53
 70
     1
102
RTVSPost2010Prop54
  1
strokes_ogs.tif
102
RTVSPost2010PropOp54
 70
     1
102
RTVSPost2010Prop55
280
     0
102
RTVSPost2010PropOp55
 70
     1
102
RTVSPost2010Prop56
140
1.0
102
RTVSPost2010PropOp56
 70
     1
102
RTVSPost2010Prop57
140
1.0
102
RTVSPost2010PropOp57
 70
     1
102
RTVSPropertyOp0
 70
     1
102
RTVSPropertyOp1
 70
     1
102
RTVSPropertyOp2
 70
     1
102
RTVSPropertyOp3
 70
     1
102
RTVSPropertyOp4
 70
     1
102
RTVSPropertyOp5
 70
     1
102
RTVSPropertyOp6
 70
     1
102
RTVSPropertyOp7
 70
     1
102
RTVSPropertyOp8
 70
     1
102
RTVSPropertyOp9
 70
     1
102
RTVSPropertyOp10
 70
     1
102
RTVSPropertyOp11
 70
     1
102
RTVSPropertyOp12
 70
     1
102
RTVSPropertyOp13
 70
     1
102
RTVSPropertyOp14
 70
     1
102
RTVSPropertyOp15
 70
     1
102
RTVSPropertyOp16
 70
     1
102
RTVSPropertyOp17
 70
     1
102
RTVSPropertyOp18
 70
     1
102
RTVSPropertyOp19
 70
     1
102
RTVSPropertyOp20
 70
     1
102
RTVSPropertyOp21
 70
     1
102
RTVSPropertyOp22
 70
     1
102
RTVSPropertyOp23
 70
     1
102
RTVSPropertyOp24
 70
     1
102
RTVSPropertyOp25
 70
     1
102
RTVSPropertyOp26
 70
     1
102
RTVSPropertyOp27
 70
     1
102
RTVSPropertyOp28
 70
     1
102
RTVSPropertyOp29
 70
     1
102
RTVSPropertyOp30
 70
     1
102
RTVSPropertyOp31
 70
     1
102
RTVSPropertyOp32
 70
     1
102
RTVSPropertyOp33
 70
     1
102
RTVSPropertyOp34
 70
     1
102
RTVSPropertyOp35
 70
     1
102
RTVSPropertyOp36
 70
     1
102
RTVSPropertyOp37
 70
     1
102
RTVSPropertyOp38
 70
     1
102
RTVSPropertyOp39
 70
     1
102
RTVSPropertyOp40
 70
     1
102
RTVSPropertyOp41
 70
     1
102
RTVSPropertyOp42
 70
     1
102
RTVSPropertyOp43
 70
     1
102
RTVSPropertyOp44
 70
     1
102
RTVSPropertyOp45
 70
     1
102
RTVSPropertyOp46
 70
     1
102
RTVSPropertyOp47
 70
     1
102
RTVSPropertyOp48
 70
     1
102
RTVSPropertyOp49
 70
     1
102
RTVSPropertyOp50
 70
     1
102
RTVSPropertyOp51
 70
     0
102
RTVSPropertyOp52
 70
     0
102
RTVSPropertyOp53
 70
     1
102
RTVSPropertyOp54
 70
     1
102
RTVSPropertyOp55
 70
     1
102
RTVSPropertyOp56
 70
     1
102
RTVSPropertyOp57
 70
     1
102
RTVSPropertyOp58
 70
     1
102
RTVSPropertyOp59
 70
     1
102
RTVSPropertyOp60
 70
     1
102
RTVSPropertyOp61
 70
     1
102
RTVSPropertyOp62
 70
     1
  0
XRECORD
  5
34FB
102
{ACAD_REACTORS
330
34FA
102
}
330
34FA
100
AcDbXrecord
280
     1
102
RTVSPost2010Prop28
280
     0
102
RTVSPost2010PropOp28
 70
     1
102
RTVSPost2010Prop29
280
     1
102
RTVSPost2010PropOp29
 70
     1
102
RTVSPost2010Prop30
280
     1
102
RTVSPost2010PropOp30
 70
     1
102
RTVSPost2010Prop31
280
     0
102
RTVSPost2010PropOp31
 70
     1
102
RTVSPost2010Prop32
280
     0
102
RTVSPost2010PropOp32
 70
     1
102
RTVSPost2010Prop33
280
     0
102
RTVSPost2010PropOp33
 70
     1
102
RTVSPost2010Prop34
280
     0
102
RTVSPost2010PropOp34
 70
     1
102
RTVSPost2010Prop35
280
     0
102
RTVSPost2010PropOp35
 70
     1
102
RTVSPost2010Prop36
280
     0
102
RTVSPost2010PropOp36
 70
     1
102
RTVSPost2010Prop37
 90
       50
102
RTVSPost2010PropOp37
 70
     1
102
RTVSPost2010Prop38
140
0.0
102
RTVSPost2010PropOp38
 70
     1
102
RTVSPost2010Prop39
140
1.0
102
RTVSPost2010PropOp39
 70
     1
102
RTVSPost2010Prop40
 90
        0
102
RTVSPost2010PropOp40
 70
     1
102
RTVSPost2010Prop41ColorIndex
 90
       18
102
RTVSPost2010Prop41ColorRGB
 90
        0
102
RTVSPost2010PropOp41
 70
     1
102
RTVSPost2010Prop42
 90
       50
102
RTVSPost2010PropOp42
 70
     1
102
RTVSPost2010Prop43
 90
        3
102
RTVSPost2010PropOp43
 70
     1
102
RTVSPost2010Prop44ColorIndex
 90
        5
102
RTVSPost2010Prop44ColorRGB
 90
      255
102
RTVSPost2010PropOp44
 70
     1
102
RTVSPost2010Prop45
280
     0
102
RTVSPost2010PropOp45
 70
     1
102
RTVSPost2010Prop46
 90
       50
102
RTVSPost2010PropOp46
 70
     1
102
RTVSPost2010Prop47
 90
       50
102
RTVSPost2010PropOp47
 70
     1
102
RTVSPost2010Prop48
 90
       50
102
RTVSPost2010PropOp48
 70
     1
102
RTVSPost2010Prop49
280
     0
102
RTVSPost2010PropOp49
 70
     1
102
RTVSPost2010Prop50
 90
       50
102
RTVSPost2010PropOp50
 70
     1
102
RTVSPost2010Prop51ColorIndex
 90
      256
102
RTVSPost2010Prop51ColorRGB
 90
-16777216
102
RTVSPost2010PropOp51
 70
     0
102
RTVSPost2010Prop52
140
1.0
102
RTVSPost2010PropOp52
 70
     0
102
RTVSPost2010Prop53
 90
        2
102
RTVSPost2010PropOp53
 70
     1
102
RTVSPost2010Prop54
  1
strokes_ogs.tif
102
RTVSPost2010PropOp54
 70
     1
102
RTVSPost2010Prop55
280
     0
102
RTVSPost2010PropOp55
 70
     1
102
RTVSPost2010Prop56
140
1.0
102
RTVSPost2010PropOp56
 70
     1
102
RTVSPost2010Prop57
140
1.0
102
RTVSPost2010PropOp57
 70
     1
102
RTVSPropertyOp0
 70
     1
102
RTVSPropertyOp1
 70
     1
102
RTVSPropertyOp2
 70
     1
102
RTVSPropertyOp3
 70
     1
102
RTVSPropertyOp4
 70
     1
102
RTVSPropertyOp5
 70
     1
102
RTVSPropertyOp6
 70
     1
102
RTVSPropertyOp7
 70
     1
102
RTVSPropertyOp8
 70
     1
102
RTVSPropertyOp9
 70
     1
102
RTVSPropertyOp10
 70
     1
102
RTVSPropertyOp11
 70
     1
102
RTVSPropertyOp12
 70
     1
102
RTVSPropertyOp13
 70
     1
102
RTVSPropertyOp14
 70
     1
102
RTVSPropertyOp15
 70
     1
102
RTVSPropertyOp16
 70
     1
102
RTVSPropertyOp17
 70
     1
102
RTVSPropertyOp18
 70
     1
102
RTVSPropertyOp19
 70
     1
102
RTVSPropertyOp20
 70
     1
102
RTVSPropertyOp21
 70
     1
102
RTVSPropertyOp22
 70
     1
102
RTVSPropertyOp23
 70
     1
102
RTVSPropertyOp24
 70
     1
102
RTVSPropertyOp25
 70
     1
102
RTVSPropertyOp26
 70
     1
102
RTVSPropertyOp27
 70
     1
102
RTVSPropertyOp28
 70
     1
102
RTVSPropertyOp29
 70
     1
102
RTVSPropertyOp30
 70
     1
102
RTVSPropertyOp31
 70
     1
102
RTVSPropertyOp32
 70
     1
102
RTVSPropertyOp33
 70
     1
102
RTVSPropertyOp34
 70
     1
102
RTVSPropertyOp35
 70
     1
102
RTVSPropertyOp36
 70
     1
102
RTVSPropertyOp37
 70
     1
102
RTVSPropertyOp38
 70
     1
102
RTVSPropertyOp39
 70
     1
102
RTVSPropertyOp40
 70
     1
102
RTVSPropertyOp41
 70
     1
102
RTVSPropertyOp42
 70
     1
102
RTVSPropertyOp43
 70
     1
102
RTVSPropertyOp44
 70
     1
102
RTVSPropertyOp45
 70
     1
102
RTVSPropertyOp46
 70
     1
102
RTVSPropertyOp47
 70
     1
102
RTVSPropertyOp48
 70
     1
102
RTVSPropertyOp49
 70
     1
102
RTVSPropertyOp50
 70
     1
102
RTVSPropertyOp51
 70
     0
102
RTVSPropertyOp52
 70
     0
102
RTVSPropertyOp53
 70
     1
102
RTVSPropertyOp54
 70
     1
102
RTVSPropertyOp55
 70
     1
102
RTVSPropertyOp56
 70
     1
102
RTVSPropertyOp57
 70
     1
102
RTVSPropertyOp58
 70
     1
102
RTVSPropertyOp59
 70
     1
102
RTVSPropertyOp60
 70
     1
102
RTVSPropertyOp61
 70
     1
102
RTVSPropertyOp62
 70
     1
  0
XRECORD
  5
350F
102
{ACAD_REACTORS
330
350E
102
}
330
350E
100
AcDbXrecord
280
     1
102
RTVSPost2010Prop28
280
     0
102
RTVSPost2010PropOp28
 70
     1
102
RTVSPost2010Prop29
280
     1
102
RTVSPost2010PropOp29
 70
     1
102
RTVSPost2010Prop30
280
     1
102
RTVSPost2010PropOp30
 70
     1
102
RTVSPost2010Prop31
280
     0
102
RTVSPost2010PropOp31
 70
     1
102
RTVSPost2010Prop32
280
     0
102
RTVSPost2010PropOp32
 70
     1
102
RTVSPost2010Prop33
280
     0
102
RTVSPost2010PropOp33
 70
     1
102
RTVSPost2010Prop34
280
     0
102
RTVSPost2010PropOp34
 70
     1
102
RTVSPost2010Prop35
280
     0
102
RTVSPost2010PropOp35
 70
     1
102
RTVSPost2010Prop36
280
     0
102
RTVSPost2010PropOp36
 70
     1
102
RTVSPost2010Prop37
 90
       50
102
RTVSPost2010PropOp37
 70
     1
102
RTVSPost2010Prop38
140
0.0
102
RTVSPost2010PropOp38
 70
     1
102
RTVSPost2010Prop39
140
1.0
102
RTVSPost2010PropOp39
 70
     1
102
RTVSPost2010Prop40
 90
        0
102
RTVSPost2010PropOp40
 70
     1
102
RTVSPost2010Prop41ColorIndex
 90
       18
102
RTVSPost2010Prop41ColorRGB
 90
        0
102
RTVSPost2010PropOp41
 70
     1
102
RTVSPost2010Prop42
 90
       50
102
RTVSPost2010PropOp42
 70
     1
102
RTVSPost2010Prop43
 90
        3
102
RTVSPost2010PropOp43
 70
     1
102
RTVSPost2010Prop44ColorIndex
 90
        5
102
RTVSPost2010Prop44ColorRGB
 90
      255
102
RTVSPost2010PropOp44
 70
     1
102
RTVSPost2010Prop45
280
     0
102
RTVSPost2010PropOp45
 70
     1
102
RTVSPost2010Prop46
 90
       50
102
RTVSPost2010PropOp46
 70
     1
102
RTVSPost2010Prop47
 90
       50
102
RTVSPost2010PropOp47
 70
     1
102
RTVSPost2010Prop48
 90
       50
102
RTVSPost2010PropOp48
 70
     1
102
RTVSPost2010Prop49
280
     0
102
RTVSPost2010PropOp49
 70
     1
102
RTVSPost2010Prop50
 90
       50
102
RTVSPost2010PropOp50
 70
     1
102
RTVSPost2010Prop51ColorIndex
 90
      256
102
RTVSPost2010Prop51ColorRGB
 90
-16777216
102
RTVSPost2010PropOp51
 70
     0
102
RTVSPost2010Prop52
140
1.0
102
RTVSPost2010PropOp52
 70
     0
102
RTVSPost2010Prop53
 90
        2
102
RTVSPost2010PropOp53
 70
     1
102
RTVSPost2010Prop54
  1
strokes_ogs.tif
102
RTVSPost2010PropOp54
 70
     1
102
RTVSPost2010Prop55
280
     0
102
RTVSPost2010PropOp55
 70
     1
102
RTVSPost2010Prop56
140
1.0
102
RTVSPost2010PropOp56
 70
     1
102
RTVSPost2010Prop57
140
1.0
102
RTVSPost2010PropOp57
 70
     1
102
RTVSPropertyOp0
 70
     0
102
RTVSPropertyOp1
 70
     0
102
RTVSPropertyOp2
 70
     0
102
RTVSPropertyOp3
 70
     0
102
RTVSPropertyOp4
 70
     0
102
RTVSPropertyOp5
 70
     0
102
RTVSPropertyOp6
 70
     0
102
RTVSPropertyOp7
 70
     0
102
RTVSPropertyOp8
 70
     0
102
RTVSPropertyOp9
 70
     0
102
RTVSPropertyOp10
 70
     0
102
RTVSPropertyOp11
 70
     0
102
RTVSPropertyOp12
 70
     0
102
RTVSPropertyOp13
 70
     0
102
RTVSPropertyOp14
 70
     2
102
RTVSPropertyOp15
 70
     0
102
RTVSPropertyOp16
 70
     0
102
RTVSPropertyOp17
 70
     0
102
RTVSPropertyOp18
 70
     0
102
RTVSPropertyOp19
 70
     0
102
RTVSPropertyOp20
 70
     0
102
RTVSPropertyOp21
 70
     0
102
RTVSPropertyOp22
 70
     0
102
RTVSPropertyOp23
 70
     0
102
RTVSPropertyOp24
 70
     0
102
RTVSPropertyOp25
 70
     0
102
RTVSPropertyOp26
 70
     0
102
RTVSPropertyOp27
 70
     0
102
RTVSPropertyOp28
 70
     1
102
RTVSPropertyOp29
 70
     1
102
RTVSPropertyOp30
 70
     1
102
RTVSPropertyOp31
 70
     1
102
RTVSPropertyOp32
 70
     1
102
RTVSPropertyOp33
 70
     1
102
RTVSPropertyOp34
 70
     1
102
RTVSPropertyOp35
 70
     1
102
RTVSPropertyOp36
 70
     1
102
RTVSPropertyOp37
 70
     1
102
RTVSPropertyOp38
 70
     1
102
RTVSPropertyOp39
 70
     1
102
RTVSPropertyOp40
 70
     1
102
RTVSPropertyOp41
 70
     1
102
RTVSPropertyOp42
 70
     1
102
RTVSPropertyOp43
 70
     1
102
RTVSPropertyOp44
 70
     1
102
RTVSPropertyOp45
 70
     1
102
RTVSPropertyOp46
 70
     1
102
RTVSPropertyOp47
 70
     1
102
RTVSPropertyOp48
 70
     1
102
RTVSPropertyOp49
 70
     1
102
RTVSPropertyOp50
 70
     1
102
RTVSPropertyOp51
 70
     0
102
RTVSPropertyOp52
 70
     0
102
RTVSPropertyOp53
 70
     1
102
RTVSPropertyOp54
 70
     1
102
RTVSPropertyOp55
 70
     1
102
RTVSPropertyOp56
 70
     1
102
RTVSPropertyOp57
 70
     1
102
RTVSPropertyOp58
 70
     1
102
RTVSPropertyOp59
 70
     1
102
RTVSPropertyOp60
 70
     1
102
RTVSPropertyOp61
 70
     1
102
RTVSPropertyOp62
 70
     1
  0
XRECORD
  5
3507
102
{ACAD_REACTORS
330
3506
102
}
330
3506
100
AcDbXrecord
280
     1
102
RTVSPost2010Prop28
280
     0
102
RTVSPost2010PropOp28
 70
     1
102
RTVSPost2010Prop29
280
     1
102
RTVSPost2010PropOp29
 70
     1
102
RTVSPost2010Prop30
280
     1
102
RTVSPost2010PropOp30
 70
     1
102
RTVSPost2010Prop31
280
     0
102
RTVSPost2010PropOp31
 70
     1
102
RTVSPost2010Prop32
280
     0
102
RTVSPost2010PropOp32
 70
     1
102
RTVSPost2010Prop33
280
     0
102
RTVSPost2010PropOp33
 70
     1
102
RTVSPost2010Prop34
280
     0
102
RTVSPost2010PropOp34
 70
     1
102
RTVSPost2010Prop35
280
     0
102
RTVSPost2010PropOp35
 70
     1
102
RTVSPost2010Prop36
280
     0
102
RTVSPost2010PropOp36
 70
     1
102
RTVSPost2010Prop37
 90
       50
102
RTVSPost2010PropOp37
 70
     1
102
RTVSPost2010Prop38
140
0.0
102
RTVSPost2010PropOp38
 70
     1
102
RTVSPost2010Prop39
140
1.0
102
RTVSPost2010PropOp39
 70
     1
102
RTVSPost2010Prop40
 90
        0
102
RTVSPost2010PropOp40
 70
     1
102
RTVSPost2010Prop41ColorIndex
 90
       18
102
RTVSPost2010Prop41ColorRGB
 90
        0
102
RTVSPost2010PropOp41
 70
     1
102
RTVSPost2010Prop42
 90
       50
102
RTVSPost2010PropOp42
 70
     1
102
RTVSPost2010Prop43
 90
        3
102
RTVSPost2010PropOp43
 70
     1
102
RTVSPost2010Prop44ColorIndex
 90
        5
102
RTVSPost2010Prop44ColorRGB
 90
      255
102
RTVSPost2010PropOp44
 70
     1
102
RTVSPost2010Prop45
280
     0
102
RTVSPost2010PropOp45
 70
     1
102
RTVSPost2010Prop46
 90
       50
102
RTVSPost2010PropOp46
 70
     1
102
RTVSPost2010Prop47
 90
       50
102
RTVSPost2010PropOp47
 70
     1
102
RTVSPost2010Prop48
 90
       50
102
RTVSPost2010PropOp48
 70
     1
102
RTVSPost2010Prop49
280
     0
102
RTVSPost2010PropOp49
 70
     1
102
RTVSPost2010Prop50
 90
       50
102
RTVSPost2010PropOp50
 70
     1
102
RTVSPost2010Prop51ColorIndex
 90
      256
102
RTVSPost2010Prop51ColorRGB
 90
-16777216
102
RTVSPost2010PropOp51
 70
     0
102
RTVSPost2010Prop52
140
1.0
102
RTVSPost2010PropOp52
 70
     0
102
RTVSPost2010Prop53
 90
        2
102
RTVSPost2010PropOp53
 70
     1
102
RTVSPost2010Prop54
  1
strokes_ogs.tif
102
RTVSPost2010PropOp54
 70
     1
102
RTVSPost2010Prop55
280
     0
102
RTVSPost2010PropOp55
 70
     1
102
RTVSPost2010Prop56
140
1.0
102
RTVSPost2010PropOp56
 70
     1
102
RTVSPost2010Prop57
140
1.0
102
RTVSPost2010PropOp57
 70
     1
102
RTVSPropertyOp0
 70
     1
102
RTVSPropertyOp1
 70
     1
102
RTVSPropertyOp2
 70
     1
102
RTVSPropertyOp3
 70
     1
102
RTVSPropertyOp4
 70
     1
102
RTVSPropertyOp5
 70
     1
102
RTVSPropertyOp6
 70
     1
102
RTVSPropertyOp7
 70
     1
102
RTVSPropertyOp8
 70
     1
102
RTVSPropertyOp9
 70
     1
102
RTVSPropertyOp10
 70
     1
102
RTVSPropertyOp11
 70
     1
102
RTVSPropertyOp12
 70
     1
102
RTVSPropertyOp13
 70
     1
102
RTVSPropertyOp14
 70
     1
102
RTVSPropertyOp15
 70
     1
102
RTVSPropertyOp16
 70
     1
102
RTVSPropertyOp17
 70
     1
102
RTVSPropertyOp18
 70
     1
102
RTVSPropertyOp19
 70
     1
102
RTVSPropertyOp20
 70
     1
102
RTVSPropertyOp21
 70
     1
102
RTVSPropertyOp22
 70
     1
102
RTVSPropertyOp23
 70
     1
102
RTVSPropertyOp24
 70
     1
102
RTVSPropertyOp25
 70
     1
102
RTVSPropertyOp26
 70
     1
102
RTVSPropertyOp27
 70
     1
102
RTVSPropertyOp28
 70
     1
102
RTVSPropertyOp29
 70
     1
102
RTVSPropertyOp30
 70
     1
102
RTVSPropertyOp31
 70
     1
102
RTVSPropertyOp32
 70
     1
102
RTVSPropertyOp33
 70
     1
102
RTVSPropertyOp34
 70
     1
102
RTVSPropertyOp35
 70
     1
102
RTVSPropertyOp36
 70
     1
102
RTVSPropertyOp37
 70
     1
102
RTVSPropertyOp38
 70
     1
102
RTVSPropertyOp39
 70
     1
102
RTVSPropertyOp40
 70
     1
102
RTVSPropertyOp41
 70
     1
102
RTVSPropertyOp42
 70
     1
102
RTVSPropertyOp43
 70
     1
102
RTVSPropertyOp44
 70
     1
102
RTVSPropertyOp45
 70
     1
102
RTVSPropertyOp46
 70
     1
102
RTVSPropertyOp47
 70
     1
102
RTVSPropertyOp48
 70
     1
102
RTVSPropertyOp49
 70
     1
102
RTVSPropertyOp50
 70
     1
102
RTVSPropertyOp51
 70
     0
102
RTVSPropertyOp52
 70
     0
102
RTVSPropertyOp53
 70
     1
102
RTVSPropertyOp54
 70
     1
102
RTVSPropertyOp55
 70
     1
102
RTVSPropertyOp56
 70
     1
102
RTVSPropertyOp57
 70
     1
102
RTVSPropertyOp58
 70
     1
102
RTVSPropertyOp59
 70
     1
102
RTVSPropertyOp60
 70
     1
102
RTVSPropertyOp61
 70
     1
102
RTVSPropertyOp62
 70
     1
  0
XRECORD
  5
3511
102
{ACAD_REACTORS
330
3510
102
}
330
3510
100
AcDbXrecord
280
     1
102
RTVSPost2010Prop28
280
     0
102
RTVSPost2010PropOp28
 70
     1
102
RTVSPost2010Prop29
280
     1
102
RTVSPost2010PropOp29
 70
     1
102
RTVSPost2010Prop30
280
     1
102
RTVSPost2010PropOp30
 70
     1
102
RTVSPost2010Prop31
280
     0
102
RTVSPost2010PropOp31
 70
     1
102
RTVSPost2010Prop32
280
     0
102
RTVSPost2010PropOp32
 70
     1
102
RTVSPost2010Prop33
280
     0
102
RTVSPost2010PropOp33
 70
     1
102
RTVSPost2010Prop34
280
     0
102
RTVSPost2010PropOp34
 70
     1
102
RTVSPost2010Prop35
280
     0
102
RTVSPost2010PropOp35
 70
     1
102
RTVSPost2010Prop36
280
     0
102
RTVSPost2010PropOp36
 70
     1
102
RTVSPost2010Prop37
 90
       50
102
RTVSPost2010PropOp37
 70
     1
102
RTVSPost2010Prop38
140
0.0
102
RTVSPost2010PropOp38
 70
     1
102
RTVSPost2010Prop39
140
1.0
102
RTVSPost2010PropOp39
 70
     1
102
RTVSPost2010Prop40
 90
        0
102
RTVSPost2010PropOp40
 70
     1
102
RTVSPost2010Prop41ColorIndex
 90
       18
102
RTVSPost2010Prop41ColorRGB
 90
        0
102
RTVSPost2010PropOp41
 70
     1
102
RTVSPost2010Prop42
 90
       50
102
RTVSPost2010PropOp42
 70
     1
102
RTVSPost2010Prop43
 90
        3
102
RTVSPost2010PropOp43
 70
     1
102
RTVSPost2010Prop44ColorIndex
 90
        5
102
RTVSPost2010Prop44ColorRGB
 90
      255
102
RTVSPost2010PropOp44
 70
     1
102
RTVSPost2010Prop45
280
     0
102
RTVSPost2010PropOp45
 70
     1
102
RTVSPost2010Prop46
 90
       50
102
RTVSPost2010PropOp46
 70
     1
102
RTVSPost2010Prop47
 90
       50
102
RTVSPost2010PropOp47
 70
     1
102
RTVSPost2010Prop48
 90
       50
102
RTVSPost2010PropOp48
 70
     1
102
RTVSPost2010Prop49
280
     0
102
RTVSPost2010PropOp49
 70
     1
102
RTVSPost2010Prop50
 90
       50
102
RTVSPost2010PropOp50
 70
     1
102
RTVSPost2010Prop51ColorIndex
 90
      256
102
RTVSPost2010Prop51ColorRGB
 90
-16777216
102
RTVSPost2010PropOp51
 70
     0
102
RTVSPost2010Prop52
140
1.0
102
RTVSPost2010PropOp52
 70
     0
102
RTVSPost2010Prop53
 90
        2
102
RTVSPost2010PropOp53
 70
     1
102
RTVSPost2010Prop54
  1
strokes_ogs.tif
102
RTVSPost2010PropOp54
 70
     1
102
RTVSPost2010Prop55
280
     0
102
RTVSPost2010PropOp55
 70
     1
102
RTVSPost2010Prop56
140
1.0
102
RTVSPost2010PropOp56
 70
     1
102
RTVSPost2010Prop57
140
1.0
102
RTVSPost2010PropOp57
 70
     1
102
RTVSPropertyOp0
 70
     0
102
RTVSPropertyOp1
 70
     0
102
RTVSPropertyOp2
 70
     0
102
RTVSPropertyOp3
 70
     0
102
RTVSPropertyOp4
 70
     0
102
RTVSPropertyOp5
 70
     0
102
RTVSPropertyOp6
 70
     0
102
RTVSPropertyOp7
 70
     0
102
RTVSPropertyOp8
 70
     0
102
RTVSPropertyOp9
 70
     0
102
RTVSPropertyOp10
 70
     0
102
RTVSPropertyOp11
 70
     0
102
RTVSPropertyOp12
 70
     0
102
RTVSPropertyOp13
 70
     0
102
RTVSPropertyOp14
 70
     2
102
RTVSPropertyOp15
 70
     0
102
RTVSPropertyOp16
 70
     0
102
RTVSPropertyOp17
 70
     0
102
RTVSPropertyOp18
 70
     0
102
RTVSPropertyOp19
 70
     0
102
RTVSPropertyOp20
 70
     0
102
RTVSPropertyOp21
 70
     0
102
RTVSPropertyOp22
 70
     0
102
RTVSPropertyOp23
 70
     0
102
RTVSPropertyOp24
 70
     0
102
RTVSPropertyOp25
 70
     0
102
RTVSPropertyOp26
 70
     0
102
RTVSPropertyOp27
 70
     0
102
RTVSPropertyOp28
 70
     1
102
RTVSPropertyOp29
 70
     1
102
RTVSPropertyOp30
 70
     1
102
RTVSPropertyOp31
 70
     1
102
RTVSPropertyOp32
 70
     1
102
RTVSPropertyOp33
 70
     1
102
RTVSPropertyOp34
 70
     1
102
RTVSPropertyOp35
 70
     1
102
RTVSPropertyOp36
 70
     1
102
RTVSPropertyOp37
 70
     1
102
RTVSPropertyOp38
 70
     1
102
RTVSPropertyOp39
 70
     1
102
RTVSPropertyOp40
 70
     1
102
RTVSPropertyOp41
 70
     1
102
RTVSPropertyOp42
 70
     1
102
RTVSPropertyOp43
 70
     1
102
RTVSPropertyOp44
 70
     1
102
RTVSPropertyOp45
 70
     1
102
RTVSPropertyOp46
 70
     1
102
RTVSPropertyOp47
 70
     1
102
RTVSPropertyOp48
 70
     1
102
RTVSPropertyOp49
 70
     1
102
RTVSPropertyOp50
 70
     1
102
RTVSPropertyOp51
 70
     0
102
RTVSPropertyOp52
 70
     0
102
RTVSPropertyOp53
 70
     1
102
RTVSPropertyOp54
 70
     1
102
RTVSPropertyOp55
 70
     1
102
RTVSPropertyOp56
 70
     1
102
RTVSPropertyOp57
 70
     1
102
RTVSPropertyOp58
 70
     1
102
RTVSPropertyOp59
 70
     1
102
RTVSPropertyOp60
 70
     1
102
RTVSPropertyOp61
 70
     1
102
RTVSPropertyOp62
 70
     1
  0
XRECORD
  5
34FF
102
{ACAD_REACTORS
330
34FE
102
}
330
34FE
100
AcDbXrecord
280
     1
102
RTVSPost2010Prop28
280
     0
102
RTVSPost2010PropOp28
 70
     1
102
RTVSPost2010Prop29
280
     1
102
RTVSPost2010PropOp29
 70
     1
102
RTVSPost2010Prop30
280
     1
102
RTVSPost2010PropOp30
 70
     1
102
RTVSPost2010Prop31
280
     0
102
RTVSPost2010PropOp31
 70
     1
102
RTVSPost2010Prop32
280
     0
102
RTVSPost2010PropOp32
 70
     1
102
RTVSPost2010Prop33
280
     0
102
RTVSPost2010PropOp33
 70
     1
102
RTVSPost2010Prop34
280
     0
102
RTVSPost2010PropOp34
 70
     1
102
RTVSPost2010Prop35
280
     0
102
RTVSPost2010PropOp35
 70
     1
102
RTVSPost2010Prop36
280
     0
102
RTVSPost2010PropOp36
 70
     1
102
RTVSPost2010Prop37
 90
       50
102
RTVSPost2010PropOp37
 70
     1
102
RTVSPost2010Prop38
140
0.0
102
RTVSPost2010PropOp38
 70
     1
102
RTVSPost2010Prop39
140
1.0
102
RTVSPost2010PropOp39
 70
     1
102
RTVSPost2010Prop40
 90
        0
102
RTVSPost2010PropOp40
 70
     1
102
RTVSPost2010Prop41ColorIndex
 90
       18
102
RTVSPost2010Prop41ColorRGB
 90
        0
102
RTVSPost2010PropOp41
 70
     1
102
RTVSPost2010Prop42
 90
       50
102
RTVSPost2010PropOp42
 70
     1
102
RTVSPost2010Prop43
 90
        3
102
RTVSPost2010PropOp43
 70
     1
102
RTVSPost2010Prop44ColorIndex
 90
        5
102
RTVSPost2010Prop44ColorRGB
 90
      255
102
RTVSPost2010PropOp44
 70
     1
102
RTVSPost2010Prop45
280
     0
102
RTVSPost2010PropOp45
 70
     1
102
RTVSPost2010Prop46
 90
       50
102
RTVSPost2010PropOp46
 70
     1
102
RTVSPost2010Prop47
 90
       50
102
RTVSPost2010PropOp47
 70
     1
102
RTVSPost2010Prop48
 90
       50
102
RTVSPost2010PropOp48
 70
     1
102
RTVSPost2010Prop49
280
     0
102
RTVSPost2010PropOp49
 70
     1
102
RTVSPost2010Prop50
 90
       50
102
RTVSPost2010PropOp50
 70
     1
102
RTVSPost2010Prop51ColorIndex
 90
      256
102
RTVSPost2010Prop51ColorRGB
 90
-16777216
102
RTVSPost2010PropOp51
 70
     0
102
RTVSPost2010Prop52
140
1.0
102
RTVSPost2010PropOp52
 70
     0
102
RTVSPost2010Prop53
 90
        2
102
RTVSPost2010PropOp53
 70
     1
102
RTVSPost2010Prop54
  1
strokes_ogs.tif
102
RTVSPost2010PropOp54
 70
     1
102
RTVSPost2010Prop55
280
     0
102
RTVSPost2010PropOp55
 70
     1
102
RTVSPost2010Prop56
140
1.0
102
RTVSPost2010PropOp56
 70
     1
102
RTVSPost2010Prop57
140
1.0
102
RTVSPost2010PropOp57
 70
     1
102
RTVSPropertyOp0
 70
     1
102
RTVSPropertyOp1
 70
     1
102
RTVSPropertyOp2
 70
     1
102
RTVSPropertyOp3
 70
     1
102
RTVSPropertyOp4
 70
     1
102
RTVSPropertyOp5
 70
     1
102
RTVSPropertyOp6
 70
     1
102
RTVSPropertyOp7
 70
     1
102
RTVSPropertyOp8
 70
     1
102
RTVSPropertyOp9
 70
     1
102
RTVSPropertyOp10
 70
     1
102
RTVSPropertyOp11
 70
     1
102
RTVSPropertyOp12
 70
     1
102
RTVSPropertyOp13
 70
     1
102
RTVSPropertyOp14
 70
     1
102
RTVSPropertyOp15
 70
     1
102
RTVSPropertyOp16
 70
     1
102
RTVSPropertyOp17
 70
     1
102
RTVSPropertyOp18
 70
     1
102
RTVSPropertyOp19
 70
     1
102
RTVSPropertyOp20
 70
     1
102
RTVSPropertyOp21
 70
     1
102
RTVSPropertyOp22
 70
     1
102
RTVSPropertyOp23
 70
     1
102
RTVSPropertyOp24
 70
     1
102
RTVSPropertyOp25
 70
     1
102
RTVSPropertyOp26
 70
     1
102
RTVSPropertyOp27
 70
     1
102
RTVSPropertyOp28
 70
     1
102
RTVSPropertyOp29
 70
     1
102
RTVSPropertyOp30
 70
     1
102
RTVSPropertyOp31
 70
     1
102
RTVSPropertyOp32
 70
     1
102
RTVSPropertyOp33
 70
     1
102
RTVSPropertyOp34
 70
     1
102
RTVSPropertyOp35
 70
     1
102
RTVSPropertyOp36
 70
     1
102
RTVSPropertyOp37
 70
     1
102
RTVSPropertyOp38
 70
     1
102
RTVSPropertyOp39
 70
     1
102
RTVSPropertyOp40
 70
     1
102
RTVSPropertyOp41
 70
     1
102
RTVSPropertyOp42
 70
     1
102
RTVSPropertyOp43
 70
     1
102
RTVSPropertyOp44
 70
     1
102
RTVSPropertyOp45
 70
     1
102
RTVSPropertyOp46
 70
     1
102
RTVSPropertyOp47
 70
     1
102
RTVSPropertyOp48
 70
     1
102
RTVSPropertyOp49
 70
     1
102
RTVSPropertyOp50
 70
     1
102
RTVSPropertyOp51
 70
     0
102
RTVSPropertyOp52
 70
     0
102
RTVSPropertyOp53
 70
     1
102
RTVSPropertyOp54
 70
     1
102
RTVSPropertyOp55
 70
     1
102
RTVSPropertyOp56
 70
     1
102
RTVSPropertyOp57
 70
     1
102
RTVSPropertyOp58
 70
     1
102
RTVSPropertyOp59
 70
     1
102
RTVSPropertyOp60
 70
     1
102
RTVSPropertyOp61
 70
     1
102
RTVSPropertyOp62
 70
     1
  0
XRECORD
  5
351D
102
{ACAD_REACTORS
330
351C
102
}
330
351C
100
AcDbXrecord
280
     1
102
RTVSPost2010Prop28
280
     0
102
RTVSPost2010PropOp28
 70
     1
102
RTVSPost2010Prop29
280
     1
102
RTVSPost2010PropOp29
 70
     1
102
RTVSPost2010Prop30
280
     1
102
RTVSPost2010PropOp30
 70
     1
102
RTVSPost2010Prop31
280
     0
102
RTVSPost2010PropOp31
 70
     1
102
RTVSPost2010Prop32
280
     0
102
RTVSPost2010PropOp32
 70
     1
102
RTVSPost2010Prop33
280
     0
102
RTVSPost2010PropOp33
 70
     1
102
RTVSPost2010Prop34
280
     0
102
RTVSPost2010PropOp34
 70
     1
102
RTVSPost2010Prop35
280
     0
102
RTVSPost2010PropOp35
 70
     1
102
RTVSPost2010Prop36
280
     0
102
RTVSPost2010PropOp36
 70
     1
102
RTVSPost2010Prop37
 90
       50
102
RTVSPost2010PropOp37
 70
     1
102
RTVSPost2010Prop38
140
0.0
102
RTVSPost2010PropOp38
 70
     1
102
RTVSPost2010Prop39
140
1.0
102
RTVSPost2010PropOp39
 70
     1
102
RTVSPost2010Prop40
 90
        0
102
RTVSPost2010PropOp40
 70
     1
102
RTVSPost2010Prop41ColorIndex
 90
       18
102
RTVSPost2010Prop41ColorRGB
 90
        0
102
RTVSPost2010PropOp41
 70
     1
102
RTVSPost2010Prop42
 90
       50
102
RTVSPost2010PropOp42
 70
     1
102
RTVSPost2010Prop43
 90
        3
102
RTVSPost2010PropOp43
 70
     1
102
RTVSPost2010Prop44ColorIndex
 90
        5
102
RTVSPost2010Prop44ColorRGB
 90
      255
102
RTVSPost2010PropOp44
 70
     1
102
RTVSPost2010Prop45
280
     0
102
RTVSPost2010PropOp45
 70
     1
102
RTVSPost2010Prop46
 90
       50
102
RTVSPost2010PropOp46
 70
     1
102
RTVSPost2010Prop47
 90
       50
102
RTVSPost2010PropOp47
 70
     1
102
RTVSPost2010Prop48
 90
       50
102
RTVSPost2010PropOp48
 70
     1
102
RTVSPost2010Prop49
280
     0
102
RTVSPost2010PropOp49
 70
     1
102
RTVSPost2010Prop50
 90
       50
102
RTVSPost2010PropOp50
 70
     1
102
RTVSPost2010Prop51ColorIndex
 90
      256
102
RTVSPost2010Prop51ColorRGB
 90
-16777216
102
RTVSPost2010PropOp51
 70
     0
102
RTVSPost2010Prop52
140
1.0
102
RTVSPost2010PropOp52
 70
     0
102
RTVSPost2010Prop53
 90
        2
102
RTVSPost2010PropOp53
 70
     1
102
RTVSPost2010Prop54
  1
strokes_ogs.tif
102
RTVSPost2010PropOp54
 70
     1
102
RTVSPost2010Prop55
280
     0
102
RTVSPost2010PropOp55
 70
     1
102
RTVSPost2010Prop56
140
1.0
102
RTVSPost2010PropOp56
 70
     1
102
RTVSPost2010Prop57
140
1.0
102
RTVSPost2010PropOp57
 70
     1
102
RTVSPropertyOp0
 70
     1
102
RTVSPropertyOp1
 70
     1
102
RTVSPropertyOp2
 70
     1
102
RTVSPropertyOp3
 70
     1
102
RTVSPropertyOp4
 70
     1
102
RTVSPropertyOp5
 70
     1
102
RTVSPropertyOp6
 70
     1
102
RTVSPropertyOp7
 70
     1
102
RTVSPropertyOp8
 70
     1
102
RTVSPropertyOp9
 70
     1
102
RTVSPropertyOp10
 70
     1
102
RTVSPropertyOp11
 70
     1
102
RTVSPropertyOp12
 70
     1
102
RTVSPropertyOp13
 70
     1
102
RTVSPropertyOp14
 70
     1
102
RTVSPropertyOp15
 70
     1
102
RTVSPropertyOp16
 70
     1
102
RTVSPropertyOp17
 70
     1
102
RTVSPropertyOp18
 70
     1
102
RTVSPropertyOp19
 70
     1
102
RTVSPropertyOp20
 70
     1
102
RTVSPropertyOp21
 70
     1
102
RTVSPropertyOp22
 70
     1
102
RTVSPropertyOp23
 70
     1
102
RTVSPropertyOp24
 70
     1
102
RTVSPropertyOp25
 70
     1
102
RTVSPropertyOp26
 70
     1
102
RTVSPropertyOp27
 70
     1
102
RTVSPropertyOp28
 70
     1
102
RTVSPropertyOp29
 70
     1
102
RTVSPropertyOp30
 70
     1
102
RTVSPropertyOp31
 70
     1
102
RTVSPropertyOp32
 70
     1
102
RTVSPropertyOp33
 70
     1
102
RTVSPropertyOp34
 70
     1
102
RTVSPropertyOp35
 70
     1
102
RTVSPropertyOp36
 70
     1
102
RTVSPropertyOp37
 70
     1
102
RTVSPropertyOp38
 70
     1
102
RTVSPropertyOp39
 70
     1
102
RTVSPropertyOp40
 70
     1
102
RTVSPropertyOp41
 70
     1
102
RTVSPropertyOp42
 70
     1
102
RTVSPropertyOp43
 70
     1
102
RTVSPropertyOp44
 70
     1
102
RTVSPropertyOp45
 70
     1
102
RTVSPropertyOp46
 70
     1
102
RTVSPropertyOp47
 70
     1
102
RTVSPropertyOp48
 70
     1
102
RTVSPropertyOp49
 70
     1
102
RTVSPropertyOp50
 70
     1
102
RTVSPropertyOp51
 70
     0
102
RTVSPropertyOp52
 70
     0
102
RTVSPropertyOp53
 70
     1
102
RTVSPropertyOp54
 70
     1
102
RTVSPropertyOp55
 70
     1
102
RTVSPropertyOp56
 70
     1
102
RTVSPropertyOp57
 70
     1
102
RTVSPropertyOp58
 70
     1
102
RTVSPropertyOp59
 70
     1
102
RTVSPropertyOp60
 70
     1
102
RTVSPropertyOp61
 70
     1
102
RTVSPropertyOp62
 70
     1
  0
XRECORD
  5
351B
102
{ACAD_REACTORS
330
351A
102
}
330
351A
100
AcDbXrecord
280
     1
102
RTVSPost2010Prop28
280
     0
102
RTVSPost2010PropOp28
 70
     1
102
RTVSPost2010Prop29
280
     1
102
RTVSPost2010PropOp29
 70
     1
102
RTVSPost2010Prop30
280
     1
102
RTVSPost2010PropOp30
 70
     1
102
RTVSPost2010Prop31
280
     0
102
RTVSPost2010PropOp31
 70
     1
102
RTVSPost2010Prop32
280
     0
102
RTVSPost2010PropOp32
 70
     1
102
RTVSPost2010Prop33
280
     0
102
RTVSPost2010PropOp33
 70
     1
102
RTVSPost2010Prop34
280
     0
102
RTVSPost2010PropOp34
 70
     1
102
RTVSPost2010Prop35
280
     0
102
RTVSPost2010PropOp35
 70
     1
102
RTVSPost2010Prop36
280
     0
102
RTVSPost2010PropOp36
 70
     1
102
RTVSPost2010Prop37
 90
       50
102
RTVSPost2010PropOp37
 70
     1
102
RTVSPost2010Prop38
140
0.0
102
RTVSPost2010PropOp38
 70
     1
102
RTVSPost2010Prop39
140
1.0
102
RTVSPost2010PropOp39
 70
     1
102
RTVSPost2010Prop40
 90
        0
102
RTVSPost2010PropOp40
 70
     1
102
RTVSPost2010Prop41ColorIndex
 90
       18
102
RTVSPost2010Prop41ColorRGB
 90
        0
102
RTVSPost2010PropOp41
 70
     1
102
RTVSPost2010Prop42
 90
       50
102
RTVSPost2010PropOp42
 70
     1
102
RTVSPost2010Prop43
 90
        3
102
RTVSPost2010PropOp43
 70
     1
102
RTVSPost2010Prop44ColorIndex
 90
        5
102
RTVSPost2010Prop44ColorRGB
 90
      255
102
RTVSPost2010PropOp44
 70
     1
102
RTVSPost2010Prop45
280
     0
102
RTVSPost2010PropOp45
 70
     1
102
RTVSPost2010Prop46
 90
       50
102
RTVSPost2010PropOp46
 70
     1
102
RTVSPost2010Prop47
 90
       50
102
RTVSPost2010PropOp47
 70
     1
102
RTVSPost2010Prop48
 90
       50
102
RTVSPost2010PropOp48
 70
     1
102
RTVSPost2010Prop49
280
     0
102
RTVSPost2010PropOp49
 70
     1
102
RTVSPost2010Prop50
 90
       50
102
RTVSPost2010PropOp50
 70
     1
102
RTVSPost2010Prop51ColorIndex
 90
      256
102
RTVSPost2010Prop51ColorRGB
 90
-16777216
102
RTVSPost2010PropOp51
 70
     0
102
RTVSPost2010Prop52
140
1.0
102
RTVSPost2010PropOp52
 70
     0
102
RTVSPost2010Prop53
 90
        2
102
RTVSPost2010PropOp53
 70
     1
102
RTVSPost2010Prop54
  1
strokes_ogs.tif
102
RTVSPost2010PropOp54
 70
     1
102
RTVSPost2010Prop55
280
     0
102
RTVSPost2010PropOp55
 70
     1
102
RTVSPost2010Prop56
140
1.0
102
RTVSPost2010PropOp56
 70
     1
102
RTVSPost2010Prop57
140
1.0
102
RTVSPost2010PropOp57
 70
     1
102
RTVSPropertyOp0
 70
     1
102
RTVSPropertyOp1
 70
     1
102
RTVSPropertyOp2
 70
     1
102
RTVSPropertyOp3
 70
     1
102
RTVSPropertyOp4
 70
     1
102
RTVSPropertyOp5
 70
     1
102
RTVSPropertyOp6
 70
     1
102
RTVSPropertyOp7
 70
     1
102
RTVSPropertyOp8
 70
     1
102
RTVSPropertyOp9
 70
     1
102
RTVSPropertyOp10
 70
     1
102
RTVSPropertyOp11
 70
     1
102
RTVSPropertyOp12
 70
     1
102
RTVSPropertyOp13
 70
     1
102
RTVSPropertyOp14
 70
     1
102
RTVSPropertyOp15
 70
     1
102
RTVSPropertyOp16
 70
     1
102
RTVSPropertyOp17
 70
     1
102
RTVSPropertyOp18
 70
     1
102
RTVSPropertyOp19
 70
     1
102
RTVSPropertyOp20
 70
     1
102
RTVSPropertyOp21
 70
     1
102
RTVSPropertyOp22
 70
     1
102
RTVSPropertyOp23
 70
     1
102
RTVSPropertyOp24
 70
     1
102
RTVSPropertyOp25
 70
     1
102
RTVSPropertyOp26
 70
     1
102
RTVSPropertyOp27
 70
     1
102
RTVSPropertyOp28
 70
     1
102
RTVSPropertyOp29
 70
     1
102
RTVSPropertyOp30
 70
     1
102
RTVSPropertyOp31
 70
     1
102
RTVSPropertyOp32
 70
     1
102
RTVSPropertyOp33
 70
     1
102
RTVSPropertyOp34
 70
     1
102
RTVSPropertyOp35
 70
     1
102
RTVSPropertyOp36
 70
     1
102
RTVSPropertyOp37
 70
     1
102
RTVSPropertyOp38
 70
     1
102
RTVSPropertyOp39
 70
     1
102
RTVSPropertyOp40
 70
     1
102
RTVSPropertyOp41
 70
     1
102
RTVSPropertyOp42
 70
     1
102
RTVSPropertyOp43
 70
     1
102
RTVSPropertyOp44
 70
     1
102
RTVSPropertyOp45
 70
     1
102
RTVSPropertyOp46
 70
     1
102
RTVSPropertyOp47
 70
     1
102
RTVSPropertyOp48
 70
     1
102
RTVSPropertyOp49
 70
     1
102
RTVSPropertyOp50
 70
     1
102
RTVSPropertyOp51
 70
     0
102
RTVSPropertyOp52
 70
     0
102
RTVSPropertyOp53
 70
     1
102
RTVSPropertyOp54
 70
     1
102
RTVSPropertyOp55
 70
     1
102
RTVSPropertyOp56
 70
     1
102
RTVSPropertyOp57
 70
     1
102
RTVSPropertyOp58
 70
     1
102
RTVSPropertyOp59
 70
     1
102
RTVSPropertyOp60
 70
     1
102
RTVSPropertyOp61
 70
     1
102
RTVSPropertyOp62
 70
     1
  0
XRECORD
  5
3515
102
{ACAD_REACTORS
330
3514
102
}
330
3514
100
AcDbXrecord
280
     1
102
RTVSPost2010Prop28
280
     0
102
RTVSPost2010PropOp28
 70
     1
102
RTVSPost2010Prop29
280
     1
102
RTVSPost2010PropOp29
 70
     1
102
RTVSPost2010Prop30
280
     1
102
RTVSPost2010PropOp30
 70
     1
102
RTVSPost2010Prop31
280
     0
102
RTVSPost2010PropOp31
 70
     1
102
RTVSPost2010Prop32
280
     0
102
RTVSPost2010PropOp32
 70
     1
102
RTVSPost2010Prop33
280
     0
102
RTVSPost2010PropOp33
 70
     1
102
RTVSPost2010Prop34
280
     0
102
RTVSPost2010PropOp34
 70
     1
102
RTVSPost2010Prop35
280
     0
102
RTVSPost2010PropOp35
 70
     1
102
RTVSPost2010Prop36
280
     0
102
RTVSPost2010PropOp36
 70
     1
102
RTVSPost2010Prop37
 90
       50
102
RTVSPost2010PropOp37
 70
     1
102
RTVSPost2010Prop38
140
0.0
102
RTVSPost2010PropOp38
 70
     1
102
RTVSPost2010Prop39
140
1.0
102
RTVSPost2010PropOp39
 70
     1
102
RTVSPost2010Prop40
 90
        0
102
RTVSPost2010PropOp40
 70
     1
102
RTVSPost2010Prop41ColorIndex
 90
       18
102
RTVSPost2010Prop41ColorRGB
 90
        0
102
RTVSPost2010PropOp41
 70
     1
102
RTVSPost2010Prop42
 90
       50
102
RTVSPost2010PropOp42
 70
     1
102
RTVSPost2010Prop43
 90
        3
102
RTVSPost2010PropOp43
 70
     1
102
RTVSPost2010Prop44ColorIndex
 90
        5
102
RTVSPost2010Prop44ColorRGB
 90
      255
102
RTVSPost2010PropOp44
 70
     1
102
RTVSPost2010Prop45
280
     0
102
RTVSPost2010PropOp45
 70
     1
102
RTVSPost2010Prop46
 90
       50
102
RTVSPost2010PropOp46
 70
     1
102
RTVSPost2010Prop47
 90
       50
102
RTVSPost2010PropOp47
 70
     1
102
RTVSPost2010Prop48
 90
       50
102
RTVSPost2010PropOp48
 70
     1
102
RTVSPost2010Prop49
280
     0
102
RTVSPost2010PropOp49
 70
     1
102
RTVSPost2010Prop50
 90
       50
102
RTVSPost2010PropOp50
 70
     1
102
RTVSPost2010Prop51ColorIndex
 90
      256
102
RTVSPost2010Prop51ColorRGB
 90
-16777216
102
RTVSPost2010PropOp51
 70
     0
102
RTVSPost2010Prop52
140
1.0
102
RTVSPost2010PropOp52
 70
     0
102
RTVSPost2010Prop53
 90
        2
102
RTVSPost2010PropOp53
 70
     1
102
RTVSPost2010Prop54
  1
strokes_ogs.tif
102
RTVSPost2010PropOp54
 70
     1
102
RTVSPost2010Prop55
280
     0
102
RTVSPost2010PropOp55
 70
     1
102
RTVSPost2010Prop56
140
1.0
102
RTVSPost2010PropOp56
 70
     1
102
RTVSPost2010Prop57
140
1.0
102
RTVSPost2010PropOp57
 70
     1
102
RTVSPropertyOp0
 70
     1
102
RTVSPropertyOp1
 70
     1
102
RTVSPropertyOp2
 70
     1
102
RTVSPropertyOp3
 70
     1
102
RTVSPropertyOp4
 70
     1
102
RTVSPropertyOp5
 70
     1
102
RTVSPropertyOp6
 70
     1
102
RTVSPropertyOp7
 70
     1
102
RTVSPropertyOp8
 70
     1
102
RTVSPropertyOp9
 70
     1
102
RTVSPropertyOp10
 70
     1
102
RTVSPropertyOp11
 70
     1
102
RTVSPropertyOp12
 70
     1
102
RTVSPropertyOp13
 70
     1
102
RTVSPropertyOp14
 70
     1
102
RTVSPropertyOp15
 70
     1
102
RTVSPropertyOp16
 70
     1
102
RTVSPropertyOp17
 70
     1
102
RTVSPropertyOp18
 70
     1
102
RTVSPropertyOp19
 70
     1
102
RTVSPropertyOp20
 70
     1
102
RTVSPropertyOp21
 70
     1
102
RTVSPropertyOp22
 70
     1
102
RTVSPropertyOp23
 70
     1
102
RTVSPropertyOp24
 70
     1
102
RTVSPropertyOp25
 70
     1
102
RTVSPropertyOp26
 70
     1
102
RTVSPropertyOp27
 70
     1
102
RTVSPropertyOp28
 70
     1
102
RTVSPropertyOp29
 70
     1
102
RTVSPropertyOp30
 70
     1
102
RTVSPropertyOp31
 70
     1
102
RTVSPropertyOp32
 70
     1
102
RTVSPropertyOp33
 70
     1
102
RTVSPropertyOp34
 70
     1
102
RTVSPropertyOp35
 70
     1
102
RTVSPropertyOp36
 70
     1
102
RTVSPropertyOp37
 70
     1
102
RTVSPropertyOp38
 70
     1
102
RTVSPropertyOp39
 70
     1
102
RTVSPropertyOp40
 70
     1
102
RTVSPropertyOp41
 70
     1
102
RTVSPropertyOp42
 70
     1
102
RTVSPropertyOp43
 70
     1
102
RTVSPropertyOp44
 70
     1
102
RTVSPropertyOp45
 70
     1
102
RTVSPropertyOp46
 70
     1
102
RTVSPropertyOp47
 70
     1
102
RTVSPropertyOp48
 70
     1
102
RTVSPropertyOp49
 70
     1
102
RTVSPropertyOp50
 70
     1
102
RTVSPropertyOp51
 70
     0
102
RTVSPropertyOp52
 70
     0
102
RTVSPropertyOp53
 70
     1
102
RTVSPropertyOp54
 70
     1
102
RTVSPropertyOp55
 70
     1
102
RTVSPropertyOp56
 70
     1
102
RTVSPropertyOp57
 70
     1
102
RTVSPropertyOp58
 70
     1
102
RTVSPropertyOp59
 70
     1
102
RTVSPropertyOp60
 70
     1
102
RTVSPropertyOp61
 70
     1
102
RTVSPropertyOp62
 70
     1
  0
XRECORD
  5
3517
102
{ACAD_REACTORS
330
3516
102
}
330
3516
100
AcDbXrecord
280
     1
102
RTVSPost2010Prop28
280
     0
102
RTVSPost2010PropOp28
 70
     1
102
RTVSPost2010Prop29
280
     1
102
RTVSPost2010PropOp29
 70
     1
102
RTVSPost2010Prop30
280
     1
102
RTVSPost2010PropOp30
 70
     1
102
RTVSPost2010Prop31
280
     0
102
RTVSPost2010PropOp31
 70
     1
102
RTVSPost2010Prop32
280
     0
102
RTVSPost2010PropOp32
 70
     1
102
RTVSPost2010Prop33
280
     0
102
RTVSPost2010PropOp33
 70
     1
102
RTVSPost2010Prop34
280
     0
102
RTVSPost2010PropOp34
 70
     1
102
RTVSPost2010Prop35
280
     0
102
RTVSPost2010PropOp35
 70
     1
102
RTVSPost2010Prop36
280
     0
102
RTVSPost2010PropOp36
 70
     1
102
RTVSPost2010Prop37
 90
       50
102
RTVSPost2010PropOp37
 70
     1
102
RTVSPost2010Prop38
140
0.0
102
RTVSPost2010PropOp38
 70
     1
102
RTVSPost2010Prop39
140
1.0
102
RTVSPost2010PropOp39
 70
     1
102
RTVSPost2010Prop40
 90
        0
102
RTVSPost2010PropOp40
 70
     1
102
RTVSPost2010Prop41ColorIndex
 90
       18
102
RTVSPost2010Prop41ColorRGB
 90
        0
102
RTVSPost2010PropOp41
 70
     1
102
RTVSPost2010Prop42
 90
       50
102
RTVSPost2010PropOp42
 70
     1
102
RTVSPost2010Prop43
 90
        3
102
RTVSPost2010PropOp43
 70
     1
102
RTVSPost2010Prop44ColorIndex
 90
        5
102
RTVSPost2010Prop44ColorRGB
 90
      255
102
RTVSPost2010PropOp44
 70
     1
102
RTVSPost2010Prop45
280
     0
102
RTVSPost2010PropOp45
 70
     1
102
RTVSPost2010Prop46
 90
       50
102
RTVSPost2010PropOp46
 70
     1
102
RTVSPost2010Prop47
 90
       50
102
RTVSPost2010PropOp47
 70
     1
102
RTVSPost2010Prop48
 90
       50
102
RTVSPost2010PropOp48
 70
     1
102
RTVSPost2010Prop49
280
     0
102
RTVSPost2010PropOp49
 70
     1
102
RTVSPost2010Prop50
 90
       50
102
RTVSPost2010PropOp50
 70
     1
102
RTVSPost2010Prop51ColorIndex
 90
      256
102
RTVSPost2010Prop51ColorRGB
 90
-16777216
102
RTVSPost2010PropOp51
 70
     0
102
RTVSPost2010Prop52
140
1.0
102
RTVSPost2010PropOp52
 70
     0
102
RTVSPost2010Prop53
 90
        2
102
RTVSPost2010PropOp53
 70
     1
102
RTVSPost2010Prop54
  1
strokes_ogs.tif
102
RTVSPost2010PropOp54
 70
     1
102
RTVSPost2010Prop55
280
     0
102
RTVSPost2010PropOp55
 70
     1
102
RTVSPost2010Prop56
140
1.0
102
RTVSPost2010PropOp56
 70
     1
102
RTVSPost2010Prop57
140
1.0
102
RTVSPost2010PropOp57
 70
     1
102
RTVSPropertyOp0
 70
     1
102
RTVSPropertyOp1
 70
     1
102
RTVSPropertyOp2
 70
     1
102
RTVSPropertyOp3
 70
     1
102
RTVSPropertyOp4
 70
     1
102
RTVSPropertyOp5
 70
     1
102
RTVSPropertyOp6
 70
     1
102
RTVSPropertyOp7
 70
     1
102
RTVSPropertyOp8
 70
     1
102
RTVSPropertyOp9
 70
     1
102
RTVSPropertyOp10
 70
     1
102
RTVSPropertyOp11
 70
     1
102
RTVSPropertyOp12
 70
     1
102
RTVSPropertyOp13
 70
     1
102
RTVSPropertyOp14
 70
     1
102
RTVSPropertyOp15
 70
     1
102
RTVSPropertyOp16
 70
     1
102
RTVSPropertyOp17
 70
     1
102
RTVSPropertyOp18
 70
     1
102
RTVSPropertyOp19
 70
     1
102
RTVSPropertyOp20
 70
     1
102
RTVSPropertyOp21
 70
     1
102
RTVSPropertyOp22
 70
     1
102
RTVSPropertyOp23
 70
     1
102
RTVSPropertyOp24
 70
     1
102
RTVSPropertyOp25
 70
     1
102
RTVSPropertyOp26
 70
     1
102
RTVSPropertyOp27
 70
     1
102
RTVSPropertyOp28
 70
     1
102
RTVSPropertyOp29
 70
     1
102
RTVSPropertyOp30
 70
     1
102
RTVSPropertyOp31
 70
     1
102
RTVSPropertyOp32
 70
     1
102
RTVSPropertyOp33
 70
     1
102
RTVSPropertyOp34
 70
     1
102
RTVSPropertyOp35
 70
     1
102
RTVSPropertyOp36
 70
     1
102
RTVSPropertyOp37
 70
     1
102
RTVSPropertyOp38
 70
     1
102
RTVSPropertyOp39
 70
     1
102
RTVSPropertyOp40
 70
     1
102
RTVSPropertyOp41
 70
     1
102
RTVSPropertyOp42
 70
     1
102
RTVSPropertyOp43
 70
     1
102
RTVSPropertyOp44
 70
     1
102
RTVSPropertyOp45
 70
     1
102
RTVSPropertyOp46
 70
     1
102
RTVSPropertyOp47
 70
     1
102
RTVSPropertyOp48
 70
     1
102
RTVSPropertyOp49
 70
     1
102
RTVSPropertyOp50
 70
     1
102
RTVSPropertyOp51
 70
     0
102
RTVSPropertyOp52
 70
     0
102
RTVSPropertyOp53
 70
     1
102
RTVSPropertyOp54
 70
     1
102
RTVSPropertyOp55
 70
     1
102
RTVSPropertyOp56
 70
     1
102
RTVSPropertyOp57
 70
     1
102
RTVSPropertyOp58
 70
     1
102
RTVSPropertyOp59
 70
     1
102
RTVSPropertyOp60
 70
     1
102
RTVSPropertyOp61
 70
     1
102
RTVSPropertyOp62
 70
     1
  0
XRECORD
  5
3505
102
{ACAD_REACTORS
330
3504
102
}
330
3504
100
AcDbXrecord
280
     1
102
RTVSPost2010Prop28
280
     0
102
RTVSPost2010PropOp28
 70
     1
102
RTVSPost2010Prop29
280
     1
102
RTVSPost2010PropOp29
 70
     1
102
RTVSPost2010Prop30
280
     1
102
RTVSPost2010PropOp30
 70
     1
102
RTVSPost2010Prop31
280
     0
102
RTVSPost2010PropOp31
 70
     1
102
RTVSPost2010Prop32
280
     0
102
RTVSPost2010PropOp32
 70
     1
102
RTVSPost2010Prop33
280
     0
102
RTVSPost2010PropOp33
 70
     1
102
RTVSPost2010Prop34
280
     0
102
RTVSPost2010PropOp34
 70
     1
102
RTVSPost2010Prop35
280
     0
102
RTVSPost2010PropOp35
 70
     1
102
RTVSPost2010Prop36
280
     0
102
RTVSPost2010PropOp36
 70
     1
102
RTVSPost2010Prop37
 90
       50
102
RTVSPost2010PropOp37
 70
     1
102
RTVSPost2010Prop38
140
0.0
102
RTVSPost2010PropOp38
 70
     1
102
RTVSPost2010Prop39
140
1.0
102
RTVSPost2010PropOp39
 70
     1
102
RTVSPost2010Prop40
 90
        0
102
RTVSPost2010PropOp40
 70
     1
102
RTVSPost2010Prop41ColorIndex
 90
       18
102
RTVSPost2010Prop41ColorRGB
 90
        0
102
RTVSPost2010PropOp41
 70
     1
102
RTVSPost2010Prop42
 90
       50
102
RTVSPost2010PropOp42
 70
     1
102
RTVSPost2010Prop43
 90
        3
102
RTVSPost2010PropOp43
 70
     1
102
RTVSPost2010Prop44ColorIndex
 90
        5
102
RTVSPost2010Prop44ColorRGB
 90
      255
102
RTVSPost2010PropOp44
 70
     1
102
RTVSPost2010Prop45
280
     0
102
RTVSPost2010PropOp45
 70
     1
102
RTVSPost2010Prop46
 90
       50
102
RTVSPost2010PropOp46
 70
     1
102
RTVSPost2010Prop47
 90
       50
102
RTVSPost2010PropOp47
 70
     1
102
RTVSPost2010Prop48
 90
       50
102
RTVSPost2010PropOp48
 70
     1
102
RTVSPost2010Prop49
280
     0
102
RTVSPost2010PropOp49
 70
     1
102
RTVSPost2010Prop50
 90
       50
102
RTVSPost2010PropOp50
 70
     1
102
RTVSPost2010Prop51ColorIndex
 90
      256
102
RTVSPost2010Prop51ColorRGB
 90
-16777216
102
RTVSPost2010PropOp51
 70
     0
102
RTVSPost2010Prop52
140
1.0
102
RTVSPost2010PropOp52
 70
     0
102
RTVSPost2010Prop53
 90
        2
102
RTVSPost2010PropOp53
 70
     1
102
RTVSPost2010Prop54
  1
strokes_ogs.tif
102
RTVSPost2010PropOp54
 70
     1
102
RTVSPost2010Prop55
280
     0
102
RTVSPost2010PropOp55
 70
     1
102
RTVSPost2010Prop56
140
1.0
102
RTVSPost2010PropOp56
 70
     1
102
RTVSPost2010Prop57
140
1.0
102
RTVSPost2010PropOp57
 70
     1
102
RTVSPropertyOp0
 70
     1
102
RTVSPropertyOp1
 70
     1
102
RTVSPropertyOp2
 70
     1
102
RTVSPropertyOp3
 70
     1
102
RTVSPropertyOp4
 70
     1
102
RTVSPropertyOp5
 70
     1
102
RTVSPropertyOp6
 70
     1
102
RTVSPropertyOp7
 70
     1
102
RTVSPropertyOp8
 70
     1
102
RTVSPropertyOp9
 70
     1
102
RTVSPropertyOp10
 70
     1
102
RTVSPropertyOp11
 70
     1
102
RTVSPropertyOp12
 70
     1
102
RTVSPropertyOp13
 70
     1
102
RTVSPropertyOp14
 70
     1
102
RTVSPropertyOp15
 70
     1
102
RTVSPropertyOp16
 70
     1
102
RTVSPropertyOp17
 70
     1
102
RTVSPropertyOp18
 70
     1
102
RTVSPropertyOp19
 70
     1
102
RTVSPropertyOp20
 70
     1
102
RTVSPropertyOp21
 70
     1
102
RTVSPropertyOp22
 70
     1
102
RTVSPropertyOp23
 70
     1
102
RTVSPropertyOp24
 70
     1
102
RTVSPropertyOp25
 70
     1
102
RTVSPropertyOp26
 70
     1
102
RTVSPropertyOp27
 70
     1
102
RTVSPropertyOp28
 70
     1
102
RTVSPropertyOp29
 70
     1
102
RTVSPropertyOp30
 70
     1
102
RTVSPropertyOp31
 70
     1
102
RTVSPropertyOp32
 70
     1
102
RTVSPropertyOp33
 70
     1
102
RTVSPropertyOp34
 70
     1
102
RTVSPropertyOp35
 70
     1
102
RTVSPropertyOp36
 70
     1
102
RTVSPropertyOp37
 70
     1
102
RTVSPropertyOp38
 70
     1
102
RTVSPropertyOp39
 70
     1
102
RTVSPropertyOp40
 70
     1
102
RTVSPropertyOp41
 70
     1
102
RTVSPropertyOp42
 70
     1
102
RTVSPropertyOp43
 70
     1
102
RTVSPropertyOp44
 70
     1
102
RTVSPropertyOp45
 70
     1
102
RTVSPropertyOp46
 70
     1
102
RTVSPropertyOp47
 70
     1
102
RTVSPropertyOp48
 70
     1
102
RTVSPropertyOp49
 70
     1
102
RTVSPropertyOp50
 70
     1
102
RTVSPropertyOp51
 70
     0
102
RTVSPropertyOp52
 70
     0
102
RTVSPropertyOp53
 70
     1
102
RTVSPropertyOp54
 70
     1
102
RTVSPropertyOp55
 70
     1
102
RTVSPropertyOp56
 70
     1
102
RTVSPropertyOp57
 70
     1
102
RTVSPropertyOp58
 70
     1
102
RTVSPropertyOp59
 70
     1
102
RTVSPropertyOp60
 70
     1
102
RTVSPropertyOp61
 70
     1
102
RTVSPropertyOp62
 70
     1
  0
XRECORD
  5
34F9
102
{ACAD_REACTORS
330
34F8
102
}
330
34F8
100
AcDbXrecord
280
     1
102
RTVSPost2010Prop28
280
     0
102
RTVSPost2010PropOp28
 70
     1
102
RTVSPost2010Prop29
280
     1
102
RTVSPost2010PropOp29
 70
     1
102
RTVSPost2010Prop30
280
     1
102
RTVSPost2010PropOp30
 70
     1
102
RTVSPost2010Prop31
280
     0
102
RTVSPost2010PropOp31
 70
     1
102
RTVSPost2010Prop32
280
     0
102
RTVSPost2010PropOp32
 70
     1
102
RTVSPost2010Prop33
280
     0
102
RTVSPost2010PropOp33
 70
     1
102
RTVSPost2010Prop34
280
     0
102
RTVSPost2010PropOp34
 70
     1
102
RTVSPost2010Prop35
280
     0
102
RTVSPost2010PropOp35
 70
     1
102
RTVSPost2010Prop36
280
     0
102
RTVSPost2010PropOp36
 70
     1
102
RTVSPost2010Prop37
 90
       50
102
RTVSPost2010PropOp37
 70
     1
102
RTVSPost2010Prop38
140
0.0
102
RTVSPost2010PropOp38
 70
     1
102
RTVSPost2010Prop39
140
1.0
102
RTVSPost2010PropOp39
 70
     1
102
RTVSPost2010Prop40
 90
        0
102
RTVSPost2010PropOp40
 70
     1
102
RTVSPost2010Prop41ColorIndex
 90
       18
102
RTVSPost2010Prop41ColorRGB
 90
        0
102
RTVSPost2010PropOp41
 70
     1
102
RTVSPost2010Prop42
 90
       50
102
RTVSPost2010PropOp42
 70
     1
102
RTVSPost2010Prop43
 90
        3
102
RTVSPost2010PropOp43
 70
     1
102
RTVSPost2010Prop44ColorIndex
 90
        5
102
RTVSPost2010Prop44ColorRGB
 90
      255
102
RTVSPost2010PropOp44
 70
     1
102
RTVSPost2010Prop45
280
     0
102
RTVSPost2010PropOp45
 70
     1
102
RTVSPost2010Prop46
 90
       50
102
RTVSPost2010PropOp46
 70
     1
102
RTVSPost2010Prop47
 90
       50
102
RTVSPost2010PropOp47
 70
     1
102
RTVSPost2010Prop48
 90
       50
102
RTVSPost2010PropOp48
 70
     1
102
RTVSPost2010Prop49
280
     0
102
RTVSPost2010PropOp49
 70
     1
102
RTVSPost2010Prop50
 90
       50
102
RTVSPost2010PropOp50
 70
     1
102
RTVSPost2010Prop51ColorIndex
 90
      256
102
RTVSPost2010Prop51ColorRGB
 90
-16777216
102
RTVSPost2010PropOp51
 70
     0
102
RTVSPost2010Prop52
140
1.0
102
RTVSPost2010PropOp52
 70
     0
102
RTVSPost2010Prop53
 90
        2
102
RTVSPost2010PropOp53
 70
     1
102
RTVSPost2010Prop54
  1
strokes_ogs.tif
102
RTVSPost2010PropOp54
 70
     1
102
RTVSPost2010Prop55
280
     0
102
RTVSPost2010PropOp55
 70
     1
102
RTVSPost2010Prop56
140
1.0
102
RTVSPost2010PropOp56
 70
     1
102
RTVSPost2010Prop57
140
1.0
102
RTVSPost2010PropOp57
 70
     1
102
RTVSPropertyOp0
 70
     1
102
RTVSPropertyOp1
 70
     1
102
RTVSPropertyOp2
 70
     1
102
RTVSPropertyOp3
 70
     1
102
RTVSPropertyOp4
 70
     1
102
RTVSPropertyOp5
 70
     1
102
RTVSPropertyOp6
 70
     1
102
RTVSPropertyOp7
 70
     1
102
RTVSPropertyOp8
 70
     1
102
RTVSPropertyOp9
 70
     1
102
RTVSPropertyOp10
 70
     1
102
RTVSPropertyOp11
 70
     1
102
RTVSPropertyOp12
 70
     1
102
RTVSPropertyOp13
 70
     1
102
RTVSPropertyOp14
 70
     1
102
RTVSPropertyOp15
 70
     1
102
RTVSPropertyOp16
 70
     1
102
RTVSPropertyOp17
 70
     1
102
RTVSPropertyOp18
 70
     1
102
RTVSPropertyOp19
 70
     1
102
RTVSPropertyOp20
 70
     1
102
RTVSPropertyOp21
 70
     1
102
RTVSPropertyOp22
 70
     1
102
RTVSPropertyOp23
 70
     1
102
RTVSPropertyOp24
 70
     1
102
RTVSPropertyOp25
 70
     1
102
RTVSPropertyOp26
 70
     1
102
RTVSPropertyOp27
 70
     1
102
RTVSPropertyOp28
 70
     1
102
RTVSPropertyOp29
 70
     1
102
RTVSPropertyOp30
 70
     1
102
RTVSPropertyOp31
 70
     1
102
RTVSPropertyOp32
 70
     1
102
RTVSPropertyOp33
 70
     1
102
RTVSPropertyOp34
 70
     1
102
RTVSPropertyOp35
 70
     1
102
RTVSPropertyOp36
 70
     1
102
RTVSPropertyOp37
 70
     1
102
RTVSPropertyOp38
 70
     1
102
RTVSPropertyOp39
 70
     1
102
RTVSPropertyOp40
 70
     1
102
RTVSPropertyOp41
 70
     1
102
RTVSPropertyOp42
 70
     1
102
RTVSPropertyOp43
 70
     1
102
RTVSPropertyOp44
 70
     1
102
RTVSPropertyOp45
 70
     1
102
RTVSPropertyOp46
 70
     1
102
RTVSPropertyOp47
 70
     1
102
RTVSPropertyOp48
 70
     1
102
RTVSPropertyOp49
 70
     1
102
RTVSPropertyOp50
 70
     1
102
RTVSPropertyOp51
 70
     0
102
RTVSPropertyOp52
 70
     0
102
RTVSPropertyOp53
 70
     1
102
RTVSPropertyOp54
 70
     1
102
RTVSPropertyOp55
 70
     1
102
RTVSPropertyOp56
 70
     1
102
RTVSPropertyOp57
 70
     1
102
RTVSPropertyOp58
 70
     1
102
RTVSPropertyOp59
 70
     1
102
RTVSPropertyOp60
 70
     1
102
RTVSPropertyOp61
 70
     1
102
RTVSPropertyOp62
 70
     1
  0
XRECORD
  5
3519
102
{ACAD_REACTORS
330
3518
102
}
330
3518
100
AcDbXrecord
280
     1
102
RTVSPost2010Prop28
280
     0
102
RTVSPost2010PropOp28
 70
     1
102
RTVSPost2010Prop29
280
     1
102
RTVSPost2010PropOp29
 70
     1
102
RTVSPost2010Prop30
280
     1
102
RTVSPost2010PropOp30
 70
     1
102
RTVSPost2010Prop31
280
     0
102
RTVSPost2010PropOp31
 70
     1
102
RTVSPost2010Prop32
280
     0
102
RTVSPost2010PropOp32
 70
     1
102
RTVSPost2010Prop33
280
     0
102
RTVSPost2010PropOp33
 70
     1
102
RTVSPost2010Prop34
280
     0
102
RTVSPost2010PropOp34
 70
     1
102
RTVSPost2010Prop35
280
     0
102
RTVSPost2010PropOp35
 70
     1
102
RTVSPost2010Prop36
280
     0
102
RTVSPost2010PropOp36
 70
     1
102
RTVSPost2010Prop37
 90
       50
102
RTVSPost2010PropOp37
 70
     1
102
RTVSPost2010Prop38
140
0.0
102
RTVSPost2010PropOp38
 70
     1
102
RTVSPost2010Prop39
140
1.0
102
RTVSPost2010PropOp39
 70
     1
102
RTVSPost2010Prop40
 90
        0
102
RTVSPost2010PropOp40
 70
     1
102
RTVSPost2010Prop41ColorIndex
 90
       18
102
RTVSPost2010Prop41ColorRGB
 90
        0
102
RTVSPost2010PropOp41
 70
     1
102
RTVSPost2010Prop42
 90
       50
102
RTVSPost2010PropOp42
 70
     1
102
RTVSPost2010Prop43
 90
        3
102
RTVSPost2010PropOp43
 70
     1
102
RTVSPost2010Prop44ColorIndex
 90
        5
102
RTVSPost2010Prop44ColorRGB
 90
      255
102
RTVSPost2010PropOp44
 70
     1
102
RTVSPost2010Prop45
280
     0
102
RTVSPost2010PropOp45
 70
     1
102
RTVSPost2010Prop46
 90
       50
102
RTVSPost2010PropOp46
 70
     1
102
RTVSPost2010Prop47
 90
       50
102
RTVSPost2010PropOp47
 70
     1
102
RTVSPost2010Prop48
 90
       50
102
RTVSPost2010PropOp48
 70
     1
102
RTVSPost2010Prop49
280
     0
102
RTVSPost2010PropOp49
 70
     1
102
RTVSPost2010Prop50
 90
       50
102
RTVSPost2010PropOp50
 70
     1
102
RTVSPost2010Prop51ColorIndex
 90
      256
102
RTVSPost2010Prop51ColorRGB
 90
-16777216
102
RTVSPost2010PropOp51
 70
     0
102
RTVSPost2010Prop52
140
1.0
102
RTVSPost2010PropOp52
 70
     0
102
RTVSPost2010Prop53
 90
        2
102
RTVSPost2010PropOp53
 70
     1
102
RTVSPost2010Prop54
  1
strokes_ogs.tif
102
RTVSPost2010PropOp54
 70
     1
102
RTVSPost2010Prop55
280
     0
102
RTVSPost2010PropOp55
 70
     1
102
RTVSPost2010Prop56
140
1.0
102
RTVSPost2010PropOp56
 70
     1
102
RTVSPost2010Prop57
140
1.0
102
RTVSPost2010PropOp57
 70
     1
102
RTVSPropertyOp0
 70
     1
102
RTVSPropertyOp1
 70
     1
102
RTVSPropertyOp2
 70
     1
102
RTVSPropertyOp3
 70
     1
102
RTVSPropertyOp4
 70
     1
102
RTVSPropertyOp5
 70
     1
102
RTVSPropertyOp6
 70
     1
102
RTVSPropertyOp7
 70
     1
102
RTVSPropertyOp8
 70
     1
102
RTVSPropertyOp9
 70
     1
102
RTVSPropertyOp10
 70
     1
102
RTVSPropertyOp11
 70
     1
102
RTVSPropertyOp12
 70
     1
102
RTVSPropertyOp13
 70
     1
102
RTVSPropertyOp14
 70
     1
102
RTVSPropertyOp15
 70
     1
102
RTVSPropertyOp16
 70
     1
102
RTVSPropertyOp17
 70
     1
102
RTVSPropertyOp18
 70
     1
102
RTVSPropertyOp19
 70
     1
102
RTVSPropertyOp20
 70
     1
102
RTVSPropertyOp21
 70
     1
102
RTVSPropertyOp22
 70
     1
102
RTVSPropertyOp23
 70
     1
102
RTVSPropertyOp24
 70
     1
102
RTVSPropertyOp25
 70
     1
102
RTVSPropertyOp26
 70
     1
102
RTVSPropertyOp27
 70
     1
102
RTVSPropertyOp28
 70
     1
102
RTVSPropertyOp29
 70
     1
102
RTVSPropertyOp30
 70
     1
102
RTVSPropertyOp31
 70
     1
102
RTVSPropertyOp32
 70
     1
102
RTVSPropertyOp33
 70
     1
102
RTVSPropertyOp34
 70
     1
102
RTVSPropertyOp35
 70
     1
102
RTVSPropertyOp36
 70
     1
102
RTVSPropertyOp37
 70
     1
102
RTVSPropertyOp38
 70
     1
102
RTVSPropertyOp39
 70
     1
102
RTVSPropertyOp40
 70
     1
102
RTVSPropertyOp41
 70
     1
102
RTVSPropertyOp42
 70
     1
102
RTVSPropertyOp43
 70
     1
102
RTVSPropertyOp44
 70
     1
102
RTVSPropertyOp45
 70
     1
102
RTVSPropertyOp46
 70
     1
102
RTVSPropertyOp47
 70
     1
102
RTVSPropertyOp48
 70
     1
102
RTVSPropertyOp49
 70
     1
102
RTVSPropertyOp50
 70
     1
102
RTVSPropertyOp51
 70
     0
102
RTVSPropertyOp52
 70
     0
102
RTVSPropertyOp53
 70
     1
102
RTVSPropertyOp54
 70
     1
102
RTVSPropertyOp55
 70
     1
102
RTVSPropertyOp56
 70
     1
102
RTVSPropertyOp57
 70
     1
102
RTVSPropertyOp58
 70
     1
102
RTVSPropertyOp59
 70
     1
102
RTVSPropertyOp60
 70
     1
102
RTVSPropertyOp61
 70
     1
102
RTVSPropertyOp62
 70
     1
  0
ENDSEC
  0
EOF
