  0
SECTION
  2
HEADER
  9
$ACADVER
  1
AC1015
  9
$ACADMAINTVER
 70
    18
  9
$DWGCODEPAGE
  3
ANSI_1252
  9
$INSBASE
 10
0.0
 20
0.0
 30
0.0
  9
$EXTMIN
 10
-225.25
 20
-399.8048409250831
 30
0.0
  9
$EXTMAX
 10
255.4581528017133
 20
472.75
 30
0.0
  9
$LIMMIN
 10
0.0
 20
0.0
  9
$LIMMAX
 10
12.0
 20
9.0
  9
$ORTHOMODE
 70
     0
  9
$REGENMODE
 70
     1
  9
$FILLMODE
 70
     1
  9
$QTEXTMODE
 70
     0
  9
$MIRRTEXT
 70
     0
  9
$LTSCALE
 40
1.0
  9
$ATTMODE
 70
     1
  9
$TEXTSIZE
 40
0.2
  9
$TRACEWID
 40
0.05
  9
$TEXTSTYLE
  7
Standard
  9
$CLAYER
  8
0
  9
$CELTYPE
  6
ByLayer
  9
$CECOLOR
 62
   256
  9
$CELTSCALE
 40
1.0
  9
$DISPSILH
 70
     0
  9
$DIMSCALE
 40
1.0
  9
$DIMASZ
 40
0.18
  9
$DIMEXO
 40
0.0625
  9
$DIMDLI
 40
0.38
  9
$DIMRND
 40
0.0
  9
$DIMDLE
 40
0.0
  9
$DIMEXE
 40
0.18
  9
$DIMTP
 40
0.0
  9
$DIMTM
 40
0.0
  9
$DIMTXT
 40
0.18
  9
$DIMCEN
 40
0.09
  9
$DIMTSZ
 40
0.0
  9
$DIMTOL
 70
     0
  9
$DIMLIM
 70
     0
  9
$DIMTIH
 70
     1
  9
$DIMTOH
 70
     1
  9
$DIMSE1
 70
     0
  9
$DIMSE2
 70
     0
  9
$DIMTAD
 70
     0
  9
$DIMZIN
 70
     0
  9
$DIMBLK
  1

  9
$DIMASO
 70
     1
  9
$DIMSHO
 70
     1
  9
$DIMPOST
  1

  9
$DIMAPOST
  1

  9
$DIMALT
 70
     0
  9
$DIMALTD
 70
     2
  9
$DIMALTF
 40
25.4
  9
$DIMLFAC
 40
1.0
  9
$DIMTOFL
 70
     0
  9
$DIMTVP
 40
0.0
  9
$DIMTIX
 70
     0
  9
$DIMSOXD
 70
     0
  9
$DIMSAH
 70
     0
  9
$DIMBLK1
  1

  9
$DIMBLK2
  1

  9
$DIMSTYLE
  2
Standard
  9
$DIMCLRD
 70
     0
  9
$DIMCLRE
 70
     0
  9
$DIMCLRT
 70
     0
  9
$DIMTFAC
 40
1.0
  9
$DIMGAP
 40
0.09
  9
$DIMJUST
 70
     0
  9
$DIMSD1
 70
     0
  9
$DIMSD2
 70
     0
  9
$DIMTOLJ
 70
     1
  9
$DIMTZIN
 70
     0
  9
$DIMALTZ
 70
     0
  9
$DIMALTTZ
 70
     0
  9
$DIMUPT
 70
     0
  9
$DIMDEC
 70
     4
  9
$DIMTDEC
 70
     4
  9
$DIMALTU
 70
     2
  9
$DIMALTTD
 70
     2
  9
$DIMTXSTY
  7
Standard
  9
$DIMAUNIT
 70
     0
  9
$DIMADEC
 70
     0
  9
$DIMALTRND
 40
0.0
  9
$DIMAZIN
 70
     0
  9
$DIMDSEP
 70
    46
  9
$DIMATFIT
 70
     3
  9
$DIMFRAC
 70
     0
  9
$DIMLDRBLK
  1

  9
$DIMLUNIT
 70
     2
  9
$DIMLWD
 70
    -2
  9
$DIMLWE
 70
    -2
  9
$DIMTMOVE
 70
     0
  9
$LUNITS
 70
     2
  9
$LUPREC
 70
     4
  9
$SKETCHINC
 40
0.1
  9
$FILLETRAD
 40
0.0
  9
$AUNITS
 70
     0
  9
$AUPREC
 70
     0
  9
$MENU
  1
.
  9
$ELEVATION
 40
0.0
  9
$PELEVATION
 40
0.0
  9
$THICKNESS
 40
0.0
  9
$LIMCHECK
 70
     0
  9
$CHAMFERA
 40
0.0
  9
$CHAMFERB
 40
0.0
  9
$CHAMFERC
 40
0.0
  9
$CHAMFERD
 40
0.0
  9
$SKPOLY
 70
     0
  9
$TDCREATE
 40
2460413.378657408
  9
$TDUCREATE
 40
2460413.086990741
  9
$TDUPDATE
 40
2460413.419189815
  9
$TDUUPDATE
 40
2460413.127523148
  9
$TDINDWG
 40
0.0131712963
  9
$TDUSRTIMER
 40
0.0131712963
  9
$USRTIMER
 70
     1
  9
$ANGBASE
 50
0.0
  9
$ANGDIR
 70
     0
  9
$PDMODE
 70
     0
  9
$PDSIZE
 40
0.0
  9
$PLINEWID
 40
0.0
  9
$SPLFRAME
 70
     0
  9
$SPLINETYPE
 70
     6
  9
$SPLINESEGS
 70
     8
  9
$HANDSEED
  5
3261C
  9
$SURFTAB1
 70
     6
  9
$SURFTAB2
 70
     6
  9
$SURFTYPE
 70
     6
  9
$SURFU
 70
     6
  9
$SURFV
 70
     6
  9
$UCSBASE
  2

  9
$UCSNAME
  2

  9
$UCSORG
 10
0.0
 20
0.0
 30
0.0
  9
$UCSXDIR
 10
1.0
 20
0.0
 30
0.0
  9
$UCSYDIR
 10
0.0
 20
1.0
 30
0.0
  9
$UCSORTHOREF
  2

  9
$UCSORTHOVIEW
 70
     0
  9
$UCSORGTOP
 10
0.0
 20
0.0
 30
0.0
  9
$UCSORGBOTTOM
 10
0.0
 20
0.0
 30
0.0
  9
$UCSORGLEFT
 10
0.0
 20
0.0
 30
0.0
  9
$UCSORGRIGHT
 10
0.0
 20
0.0
 30
0.0
  9
$UCSORGFRONT
 10
0.0
 20
0.0
 30
0.0
  9
$UCSORGBACK
 10
0.0
 20
0.0
 30
0.0
  9
$PUCSBASE
  2

  9
$PUCSNAME
  2

  9
$PUCSORG
 10
0.0
 20
0.0
 30
0.0
  9
$PUCSXDIR
 10
1.0
 20
0.0
 30
0.0
  9
$PUCSYDIR
 10
0.0
 20
1.0
 30
0.0
  9
$PUCSORTHOREF
  2

  9
$PUCSORTHOVIEW
 70
     0
  9
$PUCSORGTOP
 10
0.0
 20
0.0
 30
0.0
  9
$PUCSORGBOTTOM
 10
0.0
 20
0.0
 30
0.0
  9
$PUCSORGLEFT
 10
0.0
 20
0.0
 30
0.0
  9
$PUCSORGRIGHT
 10
0.0
 20
0.0
 30
0.0
  9
$PUCSORGFRONT
 10
0.0
 20
0.0
 30
0.0
  9
$PUCSORGBACK
 10
0.0
 20
0.0
 30
0.0
  9
$USERI1
 70
     0
  9
$USERI2
 70
     0
  9
$USERI3
 70
     0
  9
$USERI4
 70
     0
  9
$USERI5
 70
     0
  9
$USERR1
 40
0.0
  9
$USERR2
 40
0.0
  9
$USERR3
 40
0.0
  9
$USERR4
 40
0.0
  9
$USERR5
 40
0.0
  9
$WORLDVIEW
 70
     1
  9
$SHADEDGE
 70
     3
  9
$SHADEDIF
 70
    70
  9
$TILEMODE
 70
     1
  9
$MAXACTVP
 70
    48
  9
$PINSBASE
 10
0.0
 20
0.0
 30
0.0
  9
$PLIMCHECK
 70
     0
  9
$PEXTMIN
 10
0.0
 20
0.0
 30
0.0
  9
$PEXTMAX
 10
0.0
 20
0.0
 30
0.0
  9
$PLIMMIN
 10
0.0
 20
0.0
  9
$PLIMMAX
 10
12.0
 20
9.0
  9
$UNITMODE
 70
     0
  9
$VISRETAIN
 70
     1
  9
$PLINEGEN
 70
     0
  9
$PSLTSCALE
 70
     1
  9
$TREEDEPTH
 70
  3020
  9
$CMLSTYLE
  2
Standard
  9
$CMLJUST
 70
     0
  9
$CMLSCALE
 40
1.0
  9
$PROXYGRAPHICS
 70
     1
  9
$MEASUREMENT
 70
     0
  9
$CELWEIGHT
370
    -1
  9
$ENDCAPS
280
     0
  9
$JOINSTYLE
280
     0
  9
$LWDISPLAY
290
     0
  9
$INSUNITS
 70
     1
  9
$HYPERLINKBASE
  1

  9
$STYLESHEET
  1

  9
$XEDIT
290
     1
  9
$CEPSNTYPE
380
     0
  9
$PSTYLEMODE
290
     1
  9
$FINGERPRINTGUID
  2
{BC68C3A0-162F-DE42-AAD8-C28ABB2B9A5C}
  9
$VERSIONGUID
  2
{D9471E73-578E-EE43-BC35-1343B8F833C8}
  9
$EXTNAMES
290
     1
  9
$PSVPSCALE
 40
0.0
  9
$OLESTARTUP
290
     0
  0
ENDSEC
  0
SECTION
  2
CLASSES
  0
CLASS
  1
ACDBDICTIONARYWDFLT
  2
AcDbDictionaryWithDefault
  3
ObjectDBX Classes
 90
        0
280
     0
281
     0
  0
CLASS
  1
ACDBPLACEHOLDER
  2
AcDbPlaceHolder
  3
ObjectDBX Classes
 90
        0
280
     0
281
     0
  0
CLASS
  1
LAYOUT
  2
AcDbLayout
  3
ObjectDBX Classes
 90
        0
280
     0
281
     0
  0
CLASS
  1
DICTIONARYVAR
  2
AcDbDictionaryVar
  3
ObjectDBX Classes
 90
        0
280
     0
281
     0
  0
CLASS
  1
TABLESTYLE
  2
AcDbTableStyle
  3
ObjectDBX Classes
 90
     4095
280
     0
281
     0
  0
CLASS
  1
MATERIAL
  2
AcDbMaterial
  3
ObjectDBX Classes
 90
     1153
280
     0
281
     0
  0
CLASS
  1
VISUALSTYLE
  2
AcDbVisualStyle
  3
ObjectDBX Classes
 90
     4095
280
     0
281
     0
  0
CLASS
  1
SCALE
  2
AcDbScale
  3
ObjectDBX Classes
 90
     1153
280
     0
281
     0
  0
CLASS
  1
MLEADERSTYLE
  2
AcDbMLeaderStyle
  3
ACDB_MLEADERSTYLE_CLASS
 90
     4095
280
     0
281
     0
  0
CLASS
  1
CELLSTYLEMAP
  2
AcDbCellStyleMap
  3
ObjectDBX Classes
 90
     1152
280
     0
281
     0
  0
CLASS
  1
EXACXREFPANELOBJECT
  2
ExAcXREFPanelObject
  3
EXAC_ESW
 90
    33793
280
     0
281
     0
  0
CLASS
  1
NPOCOLLECTION
  2
AcDbImpNonPersistentObjectsCollection
  3
ObjectDBX Classes
 90
    33921
280
     0
281
     0
  0
CLASS
  1
LAYER_INDEX
  2
AcDbLayerIndex
  3
ObjectDBX Classes
 90
    32768
280
     0
281
     0
  0
CLASS
  1
SPATIAL_INDEX
  2
AcDbSpatialIndex
  3
ObjectDBX Classes
 90
    32768
280
     0
281
     0
  0
CLASS
  1
IDBUFFER
  2
AcDbIdBuffer
  3
ObjectDBX Classes
 90
    32768
280
     0
281
     0
  0
CLASS
  1
ACDBSECTIONVIEWSTYLE
  2
AcDbSectionViewStyle
  3
ObjectDBX Classes
 90
     1025
280
     0
281
     0
  0
CLASS
  1
ACDBDETAILVIEWSTYLE
  2
AcDbDetailViewStyle
  3
ObjectDBX Classes
 90
     1025
280
     0
281
     0
  0
CLASS
  1
XRECORD
  2
AcDbXrecord
  3
ObjectDBX Classes
 90
        0
280
     0
281
     0
  0
ENDSEC
  0
SECTION
  2
TABLES
  0
TABLE
  2
VPORT
  5
8
102
{ACAD_XDICTIONARY
360
32532
102
}
330
0
100
AcDbSymbolTable
 70
     1
  0
VPORT
  5
94
330
8
100
AcDbSymbolTableRecord
100
AcDbViewportTableRecord
  2
*Active
 70
     0
 10
0.0
 20
0.0
 11
1.0
 21
1.0
 12
15.10407640085665
 22
36.47257953745845
 13
0.0
 23
0.0
 14
0.5
 24
0.5
 15
0.5
 25
0.5
 16
0.0
 26
0.0
 36
1.0
 17
0.0
 27
0.0
 37
0.0
 40
927.8829995107765
 41
0.9846153846153846
 42
50.0
 43
0.0
 44
0.0
 50
0.0
 51
0.0
 71
     0
 72
  1000
 73
     1
 74
     3
 75
     0
 76
     1
 77
     0
 78
     0
281
     0
 65
     1
110
0.0
120
0.0
130
0.0
111
1.0
121
0.0
131
0.0
112
0.0
122
1.0
132
0.0
 79
     0
146
0.0
1001
ACAD_NAV_VCDISPLAY
1070
     3
  0
ENDTAB
  0
TABLE
  2
LTYPE
  5
5
330
0
100
AcDbSymbolTable
 70
     1
  0
LTYPE
  5
14
330
5
100
AcDbSymbolTableRecord
100
AcDbLinetypeTableRecord
  2
ByBlock
 70
     0
  3

 72
    65
 73
     0
 40
0.0
  0
LTYPE
  5
15
330
5
100
AcDbSymbolTableRecord
100
AcDbLinetypeTableRecord
  2
ByLayer
 70
     0
  3

 72
    65
 73
     0
 40
0.0
  0
LTYPE
  5
16
330
5
100
AcDbSymbolTableRecord
100
AcDbLinetypeTableRecord
  2
Continuous
 70
     0
  3
Solid line
 72
    65
 73
     0
 40
0.0
  0
ENDTAB
  0
TABLE
  2
LAYER
  5
2
102
{ACAD_XDICTIONARY
360
18E
102
}
330
0
100
AcDbSymbolTable
 70
     1
  0
LAYER
  5
10
102
{ACAD_XDICTIONARY
360
E6
102
}
330
2
100
AcDbSymbolTableRecord
100
AcDbLayerTableRecord
  2
0
 70
     0
 62
     7
  6
Continuous
370
    -3
390
F
  0
ENDTAB
  0
TABLE
  2
STYLE
  5
3
330
0
100
AcDbSymbolTable
 70
     1
  0
STYLE
  5
11
330
3
100
AcDbSymbolTableRecord
100
AcDbTextStyleTableRecord
  2
Standard
 70
     0
 40
0.0
 41
1.0
 50
0.0
 71
     0
 42
0.2
  3
arial.ttf
  4

1001
ACAD
1000
Arial
1071
       34
  0
ENDTAB
  0
TABLE
  2
VIEW
  5
6
330
0
100
AcDbSymbolTable
 70
     0
  0
ENDTAB
  0
TABLE
  2
UCS
  5
7
330
0
100
AcDbSymbolTable
 70
     0
  0
ENDTAB
  0
TABLE
  2
APPID
  5
9
330
0
100
AcDbSymbolTable
 70
     7
  0
APPID
  5
12
330
9
100
AcDbSymbolTableRecord
100
AcDbRegAppTableRecord
  2
ACAD
 70
     0
  0
APPID
  5
DD
330
9
100
AcDbSymbolTableRecord
100
AcDbRegAppTableRecord
  2
AcadAnnoPO
 70
     0
  0
APPID
  5
DE
330
9
100
AcDbSymbolTableRecord
100
AcDbRegAppTableRecord
  2
AcadAnnotative
 70
     0
  0
APPID
  5
DF
330
9
100
AcDbSymbolTableRecord
100
AcDbRegAppTableRecord
  2
ACAD_DSTYLE_DIMJAG
 70
     0
  0
APPID
  5
E0
330
9
100
AcDbSymbolTableRecord
100
AcDbRegAppTableRecord
  2
ACAD_DSTYLE_DIMTALN
 70
     0
  0
APPID
  5
107
330
9
100
AcDbSymbolTableRecord
100
AcDbRegAppTableRecord
  2
ACAD_MLEADERVER
 70
     0
  0
APPID
  5
1A6
330
9
100
AcDbSymbolTableRecord
100
AcDbRegAppTableRecord
  2
ACAD_NAV_VCDISPLAY
 70
     0
  0
ENDTAB
  0
TABLE
  2
DIMSTYLE
  5
A
330
0
100
AcDbSymbolTable
 70
     1
100
AcDbDimStyleTable
 71
     0
  0
DIMSTYLE
105
27
330
A
100
AcDbSymbolTableRecord
100
AcDbDimStyleTableRecord
  2
Standard
 70
     0
340
11
  0
ENDTAB
  0
TABLE
  2
BLOCK_RECORD
  5
1
330
0
100
AcDbSymbolTable
 70
     7
  0
BLOCK_RECORD
  5
1F
102
{ACAD_XDICTIONARY
360
15D
102
}
330
1
100
AcDbSymbolTableRecord
100
AcDbBlockTableRecord
  2
*Model_Space
340
22
  0
BLOCK_RECORD
  5
58
102
{ACAD_XDICTIONARY
360
324E4
102
}
330
1
100
AcDbSymbolTableRecord
100
AcDbBlockTableRecord
  2
*Paper_Space
340
59
  0
BLOCK_RECORD
  5
5D
102
{ACAD_XDICTIONARY
360
324E6
102
}
330
1
100
AcDbSymbolTableRecord
100
AcDbBlockTableRecord
  2
*Paper_Space0
340
5E
  0
BLOCK_RECORD
  5
32317
330
1
100
AcDbSymbolTableRecord
100
AcDbBlockTableRecord
  2
GLI660_80_2.5-Front
340
0
102
{BLKREFS
331
324DA
102
}
  0
BLOCK_RECORD
  5
3237E
330
1
100
AcDbSymbolTableRecord
100
AcDbBlockTableRecord
  2
GLI660_80_2.5-Left
340
0
102
{BLKREFS
331
324DB
102
}
  0
BLOCK_RECORD
  5
3239C
330
1
100
AcDbSymbolTableRecord
100
AcDbBlockTableRecord
  2
GLI660_80_2.5-Right
340
0
102
{BLKREFS
331
324DC
102
}
  0
BLOCK_RECORD
  5
323BB
330
1
100
AcDbSymbolTableRecord
100
AcDbBlockTableRecord
  2
GLI660_80_2.5-Top
340
0
102
{BLKREFS
331
324DD
102
}
  0
BLOCK_RECORD
  5
323EC
330
1
100
AcDbSymbolTableRecord
100
AcDbBlockTableRecord
  2
GLI660_80_2.5-Bottom
340
0
102
{BLKREFS
331
324DE
102
}
  0
BLOCK_RECORD
  5
32417
330
1
100
AcDbSymbolTableRecord
100
AcDbBlockTableRecord
  2
GLI660_80_2.5-ISO
340
0
102
{BLKREFS
331
324DF
102
}
  0
ENDTAB
  0
ENDSEC
  0
SECTION
  2
BLOCKS
  0
BLOCK
  5
20
330
1F
100
AcDbEntity
  8
0
100
AcDbBlockBegin
  2
*Model_Space
 70
     0
 10
0.0
 20
0.0
 30
0.0
  3
*Model_Space
  1

  0
ENDBLK
  5
21
330
1F
100
AcDbEntity
  8
0
100
AcDbBlockEnd
  0
BLOCK
  5
5A
330
58
100
AcDbEntity
 67
     1
  8
0
100
AcDbBlockBegin
  2
*Paper_Space
 70
     0
 10
0.0
 20
0.0
 30
0.0
  3
*Paper_Space
  1

  0
ENDBLK
  5
5B
330
58
100
AcDbEntity
 67
     1
  8
0
100
AcDbBlockEnd
  0
BLOCK
  5
5F
330
5D
100
AcDbEntity
 67
     1
  8
0
100
AcDbBlockBegin
  2
*Paper_Space0
 70
     0
 10
0.0
 20
0.0
 30
0.0
  3
*Paper_Space0
  1

  0
ENDBLK
  5
60
330
5D
100
AcDbEntity
 67
     1
  8
0
100
AcDbBlockEnd
  0
BLOCK
  5
32318
330
32317
100
AcDbEntity
  8
0
100
AcDbBlockBegin
  2
GLI660_80_2.5-Front
 70
     0
 10
0.0
 20
0.0
 30
0.0
  3
GLI660_80_2.5-Front
  1

  0
LINE
  5
3231A
330
32317
100
AcDbEntity
  8
0
100
AcDbLine
 10
40.00000000000007
 20
47.11832735767693
 30
0.0
 11
40.00000000000007
 21
51.94795648912228
 31
0.0
  0
LINE
  5
3231B
330
32317
100
AcDbEntity
  8
0
100
AcDbLine
 10
42.50000000000007
 20
51.94795648912227
 30
0.0
 11
42.50000000000007
 21
47.11832735767693
 31
0.0
  0
LINE
  5
3231C
330
32317
100
AcDbEntity
  8
0
100
AcDbLine
 10
-42.49999999999999
 20
47.11832735767694
 30
0.0
 11
-42.49999999999999
 21
51.94795648912228
 31
0.0
  0
LINE
  5
3231D
330
32317
100
AcDbEntity
  8
0
100
AcDbLine
 10
-40.0
 20
51.94795648912227
 30
0.0
 11
-40.0
 21
47.11832735767693
 31
0.0
  0
LINE
  5
3231E
330
32317
100
AcDbEntity
  8
0
100
AcDbLine
 10
39.99999999999994
 20
51.94795648912228
 30
0.0
 11
39.99999999999992
 21
58.48313933228142
 31
0.0
  0
LINE
  5
3231F
330
32317
100
AcDbEntity
  8
0
100
AcDbLine
 10
39.99999999999992
 20
59.61884919718769
 30
0.0
 11
39.99999999999989
 21
68.34764846220976
 31
0.0
  0
LINE
  5
32320
330
32317
100
AcDbEntity
  8
0
100
AcDbLine
 10
39.99999999999989
 20
71.07564190245975
 30
0.0
 11
39.99999999999953
 21
290.0
 31
0.0
  0
LINE
  5
32321
330
32317
100
AcDbEntity
  8
0
100
AcDbLine
 10
42.49999999999992
 20
58.48313933228141
 30
0.0
 11
42.49999999999992
 21
51.94795648912227
 31
0.0
  0
LINE
  5
32322
330
32317
100
AcDbEntity
  8
0
100
AcDbLine
 10
-40.0
 20
290.0
 30
0.0
 11
-40.0
 21
71.07564190245973
 31
0.0
  0
LINE
  5
32323
330
32317
100
AcDbEntity
  8
0
100
AcDbLine
 10
-40.0
 20
68.34764846220976
 30
0.0
 11
-40.0
 21
59.61884919718769
 31
0.0
  0
LINE
  5
32324
330
32317
100
AcDbEntity
  8
0
100
AcDbLine
 10
-40.0
 20
58.48313933228141
 30
0.0
 11
-39.99999999999999
 21
51.94795648912227
 31
0.0
  0
LINE
  5
32325
330
32317
100
AcDbEntity
  8
0
100
AcDbLine
 10
42.49999999999989
 20
68.34764846220977
 30
0.0
 11
42.49999999999992
 21
59.61884919718769
 31
0.0
  0
LINE
  5
32326
330
32317
100
AcDbEntity
  8
0
100
AcDbLine
 10
-42.49999999999999
 20
51.94795648912227
 30
0.0
 11
-42.49999999999999
 21
58.48313933228141
 31
0.0
  0
LINE
  5
32327
330
32317
100
AcDbEntity
  8
0
100
AcDbLine
 10
-42.49999999999999
 20
59.61884919718769
 30
0.0
 11
-42.5
 21
68.34764846220976
 31
0.0
  0
LINE
  5
32328
330
32317
100
AcDbEntity
  8
0
100
AcDbLine
 10
42.49999999999952
 20
290.0
 30
0.0
 11
42.49999999999989
 21
71.07564190245973
 31
0.0
  0
LINE
  5
32329
330
32317
100
AcDbEntity
  8
0
100
AcDbLine
 10
39.99999999999953
 20
290.0
 30
0.0
 11
42.49999999999952
 21
290.0
 31
0.0
  0
LINE
  5
3232A
330
32317
100
AcDbEntity
  8
0
100
AcDbLine
 10
-42.5
 20
290.0
 30
0.0
 11
-40.0
 21
290.0
 31
0.0
  0
LINE
  5
3232B
330
32317
100
AcDbEntity
  8
0
100
AcDbLine
 10
-42.5
 20
71.07564190245975
 30
0.0
 11
-42.5
 21
290.0
 31
0.0
  0
LINE
  5
3232C
330
32317
100
AcDbEntity
  8
0
100
AcDbLine
 10
40.00000000000007
 20
59.61884919718769
 30
0.0
 11
40.00000000000007
 21
58.48313933228141
 31
0.0
  0
LINE
  5
3232D
330
32317
100
AcDbEntity
  8
0
100
AcDbLine
 10
40.00000000000007
 20
71.07564190245975
 30
0.0
 11
40.00000000000007
 21
68.34764846220976
 31
0.0
  0
LINE
  5
3232E
330
32317
100
AcDbEntity
  8
0
100
AcDbLine
 10
-40.0
 20
68.34764846220974
 30
0.0
 11
-40.0
 21
71.07564190245975
 31
0.0
  0
LINE
  5
3232F
330
32317
100
AcDbEntity
  8
0
100
AcDbLine
 10
-40.0
 20
58.48313933228141
 30
0.0
 11
-40.0
 21
59.61884919718769
 31
0.0
  0
LINE
  5
32330
330
32317
100
AcDbEntity
  8
0
100
AcDbLine
 10
42.50000000000007
 20
58.48313933228141
 30
0.0
 11
42.50000000000007
 21
59.61884919718769
 31
0.0
  0
LINE
  5
32331
330
32317
100
AcDbEntity
  8
0
100
AcDbLine
 10
42.50000000000007
 20
68.34764846220976
 30
0.0
 11
42.50000000000007
 21
71.07564190245973
 31
0.0
  0
ARC
  5
32332
330
32317
100
AcDbEntity
  8
0
100
AcDbCircle
 10
16.1397369985004
 20
62.34684263743767
 30
0.0
 40
4.0
100
AcDbArc
 50
223.0
 51
255.0000000000001
  0
ARC
  5
32333
330
32317
100
AcDbEntity
  8
0
100
AcDbCircle
 10
7.99999999999998
 20
71.07564190245978
 30
0.0
 40
4.0
100
AcDbArc
 50
180.0
 51
222.9999999999999
  0
ARC
  5
32334
330
32317
100
AcDbEntity
  8
0
100
AcDbCircle
 10
-16.13973699850042
 20
62.34684263743767
 30
0.0
 40
4.0
100
AcDbArc
 50
285.0
 51
317.0000000000001
  0
ARC
  5
32335
330
32317
100
AcDbEntity
  8
0
100
AcDbCircle
 10
-7.999999999999998
 20
71.07564190245978
 30
0.0
 40
4.0
100
AcDbArc
 50
317.0000000000001
 51
0.0
  0
LINE
  5
32336
330
32317
100
AcDbEntity
  8
0
100
AcDbLine
 10
-42.49999999999999
 20
59.61884919718769
 30
0.0
 11
-42.49999999999999
 21
58.48313933228141
 31
0.0
  0
LINE
  5
32337
330
32317
100
AcDbEntity
  8
0
100
AcDbLine
 10
-42.5
 20
71.07564190245975
 30
0.0
 11
-42.5
 21
68.34764846220974
 31
0.0
  0
LINE
  5
32338
330
32317
100
AcDbEntity
  8
0
100
AcDbLine
 10
40.0
 20
2.5
 30
0.0
 11
39.99999999999994
 21
47.11832735767693
 31
0.0
  0
LINE
  5
32339
330
32317
100
AcDbEntity
  8
0
100
AcDbLine
 10
-39.99999999999999
 20
47.11832735767693
 30
0.0
 11
-39.99999999999999
 21
2.5
 31
0.0
  0
LINE
  5
3233A
330
32317
100
AcDbEntity
  8
0
100
AcDbLine
 10
-42.49999999999999
 20
47.11832735767693
 30
0.0
 11
-42.49999999999999
 21
2.5
 31
0.0
  0
LINE
  5
3233B
330
32317
100
AcDbEntity
  8
0
100
AcDbLine
 10
-37.49999999999999
 20
-2.5
 30
0.0
 11
37.50000000000002
 21
-2.500000000000008
 31
0.0
  0
LINE
  5
3233C
330
32317
100
AcDbEntity
  8
0
100
AcDbLine
 10
-37.49999999999999
 20
0.0
 30
0.0
 11
37.50000000000002
 21
0.0
 31
0.0
  0
LINE
  5
3233D
330
32317
100
AcDbEntity
  8
0
100
AcDbLine
 10
42.5
 20
2.5
 30
0.0
 11
42.49999999999993
 21
47.11832735767693
 31
0.0
  0
LINE
  5
3233E
330
32317
100
AcDbEntity
  8
0
100
AcDbLine
 10
5.074585193523294
 20
68.34764846220979
 30
0.0
 11
13.21432219202372
 21
59.61884919718769
 31
0.0
  0
CIRCLE
  5
3233F
330
32317
100
AcDbEntity
  8
0
100
AcDbCircle
 10
11.50000000000003
 20
72.5
 30
0.0
 40
2.5
  0
CIRCLE
  5
32340
330
32317
100
AcDbEntity
  8
0
100
AcDbCircle
 10
11.50000000000003
 20
92.5
 30
0.0
 40
2.5
  0
CIRCLE
  5
32341
330
32317
100
AcDbEntity
  8
0
100
AcDbCircle
 10
11.50000000000003
 20
112.5
 30
0.0
 40
2.5
  0
CIRCLE
  5
32342
330
32317
100
AcDbEntity
  8
0
100
AcDbCircle
 10
11.50000000000003
 20
132.5
 30
0.0
 40
2.5
  0
CIRCLE
  5
32343
330
32317
100
AcDbEntity
  8
0
100
AcDbCircle
 10
11.50000000000003
 20
152.5
 30
0.0
 40
2.5
  0
CIRCLE
  5
32344
330
32317
100
AcDbEntity
  8
0
100
AcDbCircle
 10
11.50000000000003
 20
172.5
 30
0.0
 40
2.5
  0
CIRCLE
  5
32345
330
32317
100
AcDbEntity
  8
0
100
AcDbCircle
 10
11.50000000000003
 20
192.5
 30
0.0
 40
2.5
  0
CIRCLE
  5
32346
330
32317
100
AcDbEntity
  8
0
100
AcDbCircle
 10
11.50000000000003
 20
212.5
 30
0.0
 40
2.5
  0
CIRCLE
  5
32347
330
32317
100
AcDbEntity
  8
0
100
AcDbCircle
 10
11.50000000000003
 20
232.5
 30
0.0
 40
2.5
  0
CIRCLE
  5
32348
330
32317
100
AcDbEntity
  8
0
100
AcDbCircle
 10
11.50000000000003
 20
252.5
 30
0.0
 40
2.5
  0
CIRCLE
  5
32349
330
32317
100
AcDbEntity
  8
0
100
AcDbCircle
 10
29.5
 20
202.5
 30
0.0
 40
2.5
  0
CIRCLE
  5
3234A
330
32317
100
AcDbEntity
  8
0
100
AcDbCircle
 10
29.5
 20
122.5
 30
0.0
 40
2.5
  0
CIRCLE
  5
3234B
330
32317
100
AcDbEntity
  8
0
100
AcDbCircle
 10
29.5
 20
222.5
 30
0.0
 40
2.5
  0
CIRCLE
  5
3234C
330
32317
100
AcDbEntity
  8
0
100
AcDbCircle
 10
29.5
 20
142.5
 30
0.0
 40
2.5
  0
CIRCLE
  5
3234D
330
32317
100
AcDbEntity
  8
0
100
AcDbCircle
 10
11.50000000000003
 20
272.5
 30
0.0
 40
2.5
  0
CIRCLE
  5
3234E
330
32317
100
AcDbEntity
  8
0
100
AcDbCircle
 10
29.5
 20
242.5
 30
0.0
 40
2.5
  0
CIRCLE
  5
3234F
330
32317
100
AcDbEntity
  8
0
100
AcDbCircle
 10
29.5
 20
162.5
 30
0.0
 40
2.5
  0
CIRCLE
  5
32350
330
32317
100
AcDbEntity
  8
0
100
AcDbCircle
 10
29.5
 20
102.5
 30
0.0
 40
2.5
  0
CIRCLE
  5
32351
330
32317
100
AcDbEntity
  8
0
100
AcDbCircle
 10
29.5
 20
282.5
 30
0.0
 40
2.5
  0
CIRCLE
  5
32352
330
32317
100
AcDbEntity
  8
0
100
AcDbCircle
 10
29.5
 20
62.5
 30
0.0
 40
2.5
  0
CIRCLE
  5
32353
330
32317
100
AcDbEntity
  8
0
100
AcDbCircle
 10
24.50000000000007
 20
182.5
 30
0.0
 40
7.0
  0
CIRCLE
  5
32354
330
32317
100
AcDbEntity
  8
0
100
AcDbCircle
 10
24.50000000000007
 20
262.5
 30
0.0
 40
7.0
  0
CIRCLE
  5
32355
330
32317
100
AcDbEntity
  8
0
100
AcDbCircle
 10
24.50000000000007
 20
82.5
 30
0.0
 40
7.0
  0
LINE
  5
32356
330
32317
100
AcDbEntity
  8
0
100
AcDbLine
 10
15.10446081809032
 20
58.4831393322814
 30
0.0
 11
37.5
 21
52.4822726944292
 31
0.0
  0
LINE
  5
32357
330
32317
100
AcDbEntity
  8
0
100
AcDbLine
 10
37.5
 20
290.0
 30
0.0
 11
3.999999999999981
 21
290.0
 31
0.0
  0
LINE
  5
32358
330
32317
100
AcDbEntity
  8
0
100
AcDbLine
 10
3.99999999999998
 20
71.07564190245978
 30
0.0
 11
3.99999999999998
 21
290.0
 31
0.0
  0
SPLINE
  5
32359
330
32317
100
AcDbEntity
  8
0
100
AcDbSpline
210
0.0
220
0.0
230
1.0
 70
     8
 71
     3
 72
     8
 73
     4
 74
     0
 42
0.000000001
 43
0.0000000001
 40
-1.0
 40
-1.0
 40
-1.0
 40
-1.0
 40
0.0
 40
0.0
 40
0.0
 40
0.0
 10
37.5
 20
52.48227269442913
 30
0.0
 10
37.83879333779296
 20
52.36668877089514
 30
0.0
 10
38.17743362740915
 20
52.25110484735913
 30
0.0
 10
38.48861184274183
 20
52.13552092382395
 30
0.0
  0
SPLINE
  5
3235A
330
32317
100
AcDbEntity
  8
0
100
AcDbSpline
210
0.0
220
0.0
230
1.0
 70
     8
 71
     3
 72
    14
 73
    10
 74
     0
 42
0.000000001
 43
0.0000000001
 40
-1.0
 40
-1.0
 40
-1.0
 40
-1.0
 40
-0.935935862670748
 40
-0.935935862670748
 40
-0.935935862670748
 40
-0.7894653656269499
 40
-0.7894653656269499
 40
-0.7894653656269499
 40
0.0
 40
0.0
 40
0.0
 40
0.0
 10
38.48861184274185
 20
52.13552092382414
 30
0.0
 10
38.58600088929389
 20
52.09934677654747
 30
0.0
 10
38.67960789187937
 20
52.05750859750524
 30
0.0
 10
38.76860235602915
 20
52.01015342536542
 30
0.0
 10
38.97207131606794
 20
51.90188480753845
 30
0.0
 10
39.15090876541441
 20
51.7647090659716
 30
0.0
 10
39.30048489512266
 20
51.6011336944523
 30
0.0
 10
40.10668939577286
 20
50.71947429484347
 30
0.0
 10
40.0
 20
49.0282370995088
 30
0.0
 10
40.0
 20
47.30589179237883
 30
0.0
  0
LINE
  5
3235B
330
32317
100
AcDbEntity
  8
0
100
AcDbLine
 10
40.0
 20
290.0
 30
0.0
 11
37.5
 21
290.0
 31
0.0
  0
LINE
  5
3235C
330
32317
100
AcDbEntity
  8
0
100
AcDbLine
 10
-13.21432219202374
 20
59.61884919718769
 30
0.0
 11
-5.074585193523314
 21
68.34764846220979
 31
0.0
  0
LINE
  5
3235D
330
32317
100
AcDbEntity
  8
0
100
AcDbLine
 10
-37.50000000000001
 20
52.4822726944292
 30
0.0
 11
-15.10446081809034
 21
58.4831393322814
 31
0.0
  0
SPLINE
  5
3235E
330
32317
100
AcDbEntity
  8
0
100
AcDbSpline
210
0.0
220
0.0
230
1.0
 70
     8
 71
     3
 72
     8
 73
     4
 74
     0
 42
0.000000001
 43
0.0000000001
 40
0.0
 40
0.0
 40
0.0
 40
0.0
 40
1.0
 40
1.0
 40
1.0
 40
1.0
 10
-38.48861184274186
 20
52.13552092382395
 30
0.0
 10
-38.17743362740916
 20
52.25110484735913
 30
0.0
 10
-37.83879333779297
 20
52.36668877089514
 30
0.0
 10
-37.50000000000001
 20
52.48227269442913
 30
0.0
  0
SPLINE
  5
3235F
330
32317
100
AcDbEntity
  8
0
100
AcDbSpline
210
0.0
220
0.0
230
1.0
 70
     8
 71
     3
 72
    14
 73
    10
 74
     0
 42
0.000000001
 43
0.0000000001
 40
0.0
 40
0.0
 40
0.0
 40
0.0
 40
0.7894653656269499
 40
0.7894653656269499
 40
0.7894653656269499
 40
0.935935862670748
 40
0.935935862670748
 40
0.935935862670748
 40
1.0
 40
1.0
 40
1.0
 40
1.0
 10
-40.0
 20
47.30589179237883
 30
0.0
 10
-40.0
 20
49.0282370995088
 30
0.0
 10
-40.10668939577287
 20
50.71947429484347
 30
0.0
 10
-39.30048489512267
 20
51.6011336944523
 30
0.0
 10
-39.15090876541443
 20
51.7647090659716
 30
0.0
 10
-38.97207131606796
 20
51.90188480753845
 30
0.0
 10
-38.76860235602917
 20
52.01015342536542
 30
0.0
 10
-38.67960789187939
 20
52.05750859750524
 30
0.0
 10
-38.58600088929391
 20
52.09934677654747
 30
0.0
 10
-38.48861184274186
 20
52.13552092382414
 30
0.0
  0
ARC
  5
32360
330
32317
100
AcDbEntity
  8
0
100
AcDbCircle
 10
37.50000000000002
 20
2.499999999999995
 30
0.0
 40
2.5
100
AcDbArc
 50
270.0
 51
0.0
  0
ARC
  5
32361
330
32317
100
AcDbEntity
  8
0
100
AcDbCircle
 10
-37.49999999999999
 20
2.5
 30
0.0
 40
5.0
100
AcDbArc
 50
180.0
 51
270.0
  0
ARC
  5
32362
330
32317
100
AcDbEntity
  8
0
100
AcDbCircle
 10
37.50000000000002
 20
2.499999999999995
 30
0.0
 40
5.0
100
AcDbArc
 50
270.0
 51
0.0
  0
ARC
  5
32363
330
32317
100
AcDbEntity
  8
0
100
AcDbCircle
 10
-37.49999999999999
 20
2.5
 30
0.0
 40
2.5
100
AcDbArc
 50
180.0
 51
270.0
  0
CIRCLE
  5
32364
330
32317
100
AcDbEntity
  8
0
100
AcDbCircle
 10
-11.50000000000005
 20
72.5
 30
0.0
 40
2.5
  0
CIRCLE
  5
32365
330
32317
100
AcDbEntity
  8
0
100
AcDbCircle
 10
-11.50000000000005
 20
92.5
 30
0.0
 40
2.5
  0
CIRCLE
  5
32366
330
32317
100
AcDbEntity
  8
0
100
AcDbCircle
 10
-11.50000000000005
 20
112.5
 30
0.0
 40
2.5
  0
CIRCLE
  5
32367
330
32317
100
AcDbEntity
  8
0
100
AcDbCircle
 10
-11.50000000000005
 20
132.5
 30
0.0
 40
2.5
  0
CIRCLE
  5
32368
330
32317
100
AcDbEntity
  8
0
100
AcDbCircle
 10
-11.50000000000005
 20
152.5
 30
0.0
 40
2.5
  0
CIRCLE
  5
32369
330
32317
100
AcDbEntity
  8
0
100
AcDbCircle
 10
-11.50000000000005
 20
172.5
 30
0.0
 40
2.5
  0
CIRCLE
  5
3236A
330
32317
100
AcDbEntity
  8
0
100
AcDbCircle
 10
-11.50000000000005
 20
192.5
 30
0.0
 40
2.5
  0
CIRCLE
  5
3236B
330
32317
100
AcDbEntity
  8
0
100
AcDbCircle
 10
-11.50000000000005
 20
212.5
 30
0.0
 40
2.5
  0
CIRCLE
  5
3236C
330
32317
100
AcDbEntity
  8
0
100
AcDbCircle
 10
-11.50000000000005
 20
232.5
 30
0.0
 40
2.5
  0
CIRCLE
  5
3236D
330
32317
100
AcDbEntity
  8
0
100
AcDbCircle
 10
-11.50000000000005
 20
252.5
 30
0.0
 40
2.5
  0
CIRCLE
  5
3236E
330
32317
100
AcDbEntity
  8
0
100
AcDbCircle
 10
-29.50000000000001
 20
202.5
 30
0.0
 40
2.5
  0
CIRCLE
  5
3236F
330
32317
100
AcDbEntity
  8
0
100
AcDbCircle
 10
-29.50000000000001
 20
122.5
 30
0.0
 40
2.5
  0
CIRCLE
  5
32370
330
32317
100
AcDbEntity
  8
0
100
AcDbCircle
 10
-29.50000000000001
 20
222.5
 30
0.0
 40
2.5
  0
CIRCLE
  5
32371
330
32317
100
AcDbEntity
  8
0
100
AcDbCircle
 10
-29.50000000000001
 20
142.5
 30
0.0
 40
2.5
  0
CIRCLE
  5
32372
330
32317
100
AcDbEntity
  8
0
100
AcDbCircle
 10
-11.50000000000005
 20
272.5
 30
0.0
 40
2.5
  0
CIRCLE
  5
32373
330
32317
100
AcDbEntity
  8
0
100
AcDbCircle
 10
-29.50000000000001
 20
242.5
 30
0.0
 40
2.5
  0
CIRCLE
  5
32374
330
32317
100
AcDbEntity
  8
0
100
AcDbCircle
 10
-29.50000000000001
 20
162.5
 30
0.0
 40
2.5
  0
CIRCLE
  5
32375
330
32317
100
AcDbEntity
  8
0
100
AcDbCircle
 10
-29.50000000000001
 20
102.5
 30
0.0
 40
2.5
  0
CIRCLE
  5
32376
330
32317
100
AcDbEntity
  8
0
100
AcDbCircle
 10
-29.50000000000001
 20
282.5
 30
0.0
 40
2.5
  0
CIRCLE
  5
32377
330
32317
100
AcDbEntity
  8
0
100
AcDbCircle
 10
-29.50000000000001
 20
62.5
 30
0.0
 40
2.5
  0
CIRCLE
  5
32378
330
32317
100
AcDbEntity
  8
0
100
AcDbCircle
 10
-24.50000000000009
 20
182.5
 30
0.0
 40
7.0
  0
CIRCLE
  5
32379
330
32317
100
AcDbEntity
  8
0
100
AcDbCircle
 10
-24.50000000000009
 20
262.5
 30
0.0
 40
7.0
  0
CIRCLE
  5
3237A
330
32317
100
AcDbEntity
  8
0
100
AcDbCircle
 10
-24.50000000000009
 20
82.5
 30
0.0
 40
7.0
  0
LINE
  5
3237B
330
32317
100
AcDbEntity
  8
0
100
AcDbLine
 10
-40.0
 20
290.0
 30
0.0
 11
-37.50000000000001
 21
290.0
 31
0.0
  0
LINE
  5
3237C
330
32317
100
AcDbEntity
  8
0
100
AcDbLine
 10
-4.0
 20
71.07564190245978
 30
0.0
 11
-4.0
 21
290.0
 31
0.0
  0
LINE
  5
3237D
330
32317
100
AcDbEntity
  8
0
100
AcDbLine
 10
-37.50000000000001
 20
290.0
 30
0.0
 11
-3.999999999999999
 21
290.0
 31
0.0
  0
ENDBLK
  5
32319
330
32317
100
AcDbEntity
  8
0
100
AcDbBlockEnd
  0
BLOCK
  5
3237F
330
3237E
100
AcDbEntity
  8
0
100
AcDbBlockBegin
  2
GLI660_80_2.5-Left
 70
     0
 10
0.0
 20
0.0
 30
0.0
  3
GLI660_80_2.5-Left
  1

  0
ARC
  5
32381
330
3237E
100
AcDbEntity
  8
0
100
AcDbCircle
 10
90.00000000000001
 20
47.11832735767693
 30
0.0
 40
5.0
100
AcDbArc
 50
0.0
 51
75.00000000000007
  0
LINE
  5
32382
330
3237E
100
AcDbEntity
  8
0
100
AcDbLine
 10
95.00000000000001
 20
47.11832735767693
 30
0.0
 11
95.00000000000001
 21
2.5
 31
0.0
  0
LINE
  5
32383
330
3237E
100
AcDbEntity
  8
0
100
AcDbLine
 10
5.000000000000008
 20
290.0
 30
0.0
 11
55.80000000000002
 21
290.0
 31
0.0
  0
LINE
  5
32384
330
3237E
100
AcDbEntity
  8
0
100
AcDbLine
 10
0.0
 20
52.4822726944292
 30
0.0
 11
0.0
 21
290.0
 31
0.0
  0
LINE
  5
32385
330
3237E
100
AcDbEntity
  8
0
100
AcDbLine
 10
5.000000000000037
 20
47.30589179237874
 30
0.0
 11
5.000000000000008
 21
2.5
 31
0.0
  0
LINE
  5
32386
330
3237E
100
AcDbEntity
  8
0
100
AcDbLine
 10
5.000000000000009
 20
290.0
 30
0.0
 11
0.0
 21
290.0
 31
0.0
  0
LINE
  5
32387
330
3237E
100
AcDbEntity
  8
0
100
AcDbLine
 10
5.000000000000008
 20
-2.500000000000002
 30
0.0
 11
5.000000000000009
 21
2.5
 31
0.0
  0
ARC
  5
32388
330
3237E
100
AcDbEntity
  8
0
100
AcDbCircle
 10
67.93973699850041
 20
62.34684263743769
 30
0.0
 40
4.0
100
AcDbArc
 50
223.0
 51
254.9999999999999
  0
ARC
  5
32389
330
3237E
100
AcDbEntity
  8
0
100
AcDbCircle
 10
59.80000000000001
 20
71.07564190245975
 30
0.0
 40
4.0
100
AcDbArc
 50
180.0
 51
222.9999999999999
  0
LINE
  5
3238A
330
3237E
100
AcDbEntity
  8
0
100
AcDbLine
 10
91.29409522551261
 20
51.94795648912227
 30
0.0
 11
66.90446081809032
 21
58.48313933228141
 31
0.0
  0
LINE
  5
3238B
330
3237E
100
AcDbEntity
  8
0
100
AcDbLine
 10
65.01432219202374
 20
59.61884919718769
 30
0.0
 11
56.87458519352333
 21
68.34764846220976
 31
0.0
  0
LINE
  5
3238C
330
3237E
100
AcDbEntity
  8
0
100
AcDbLine
 10
55.80000000000001
 20
71.07564190245975
 30
0.0
 11
55.80000000000002
 21
290.0
 31
0.0
  0
CIRCLE
  5
3238D
330
3237E
100
AcDbEntity
  8
0
100
AcDbCircle
 10
47.80000000000002
 20
72.5
 30
0.0
 40
2.5
  0
CIRCLE
  5
3238E
330
3237E
100
AcDbEntity
  8
0
100
AcDbCircle
 10
47.80000000000002
 20
92.5
 30
0.0
 40
2.5
  0
CIRCLE
  5
3238F
330
3237E
100
AcDbEntity
  8
0
100
AcDbCircle
 10
47.80000000000002
 20
112.5
 30
0.0
 40
2.5
  0
CIRCLE
  5
32390
330
3237E
100
AcDbEntity
  8
0
100
AcDbCircle
 10
47.80000000000002
 20
132.5
 30
0.0
 40
2.5
  0
CIRCLE
  5
32391
330
3237E
100
AcDbEntity
  8
0
100
AcDbCircle
 10
47.80000000000002
 20
152.5
 30
0.0
 40
2.5
  0
CIRCLE
  5
32392
330
3237E
100
AcDbEntity
  8
0
100
AcDbCircle
 10
47.80000000000002
 20
172.5
 30
0.0
 40
2.5
  0
CIRCLE
  5
32393
330
3237E
100
AcDbEntity
  8
0
100
AcDbCircle
 10
47.80000000000002
 20
192.5
 30
0.0
 40
2.5
  0
CIRCLE
  5
32394
330
3237E
100
AcDbEntity
  8
0
100
AcDbCircle
 10
47.80000000000002
 20
212.5
 30
0.0
 40
2.5
  0
CIRCLE
  5
32395
330
3237E
100
AcDbEntity
  8
0
100
AcDbCircle
 10
47.80000000000002
 20
232.5
 30
0.0
 40
2.5
  0
CIRCLE
  5
32396
330
3237E
100
AcDbEntity
  8
0
100
AcDbCircle
 10
47.80000000000002
 20
252.5
 30
0.0
 40
2.5
  0
CIRCLE
  5
32397
330
3237E
100
AcDbEntity
  8
0
100
AcDbCircle
 10
47.80000000000002
 20
272.5
 30
0.0
 40
2.5
  0
LINE
  5
32398
330
3237E
100
AcDbEntity
  8
0
100
AcDbLine
 10
95.0
 20
-2.5
 30
0.0
 11
5.0
 21
-2.5
 31
0.0
  0
LINE
  5
32399
330
3237E
100
AcDbEntity
  8
0
100
AcDbLine
 10
95.0
 20
-2.5
 30
0.0
 11
95.0
 21
2.5
 31
0.0
  0
SPLINE
  5
3239A
330
3237E
100
AcDbEntity
  8
0
100
AcDbSpline
210
0.0
220
0.0
230
1.0
 70
     8
 71
     3
 72
     8
 73
     4
 74
     0
 42
0.000000001
 43
0.0000000001
 40
-1.0
 40
-1.0
 40
-1.0
 40
-1.0
 40
0.0
 40
0.0
 40
0.0
 40
0.0
 10
0.0000000000000083
 20
52.48227269442913
 30
0.0
 10
0.0000000000000084
 20
52.36668877089514
 30
0.0
 10
0.139603058931009
 20
52.25110484735913
 30
0.0
 10
0.4075511437183942
 20
52.13552092382395
 30
0.0
  0
SPLINE
  5
3239B
330
3237E
100
AcDbEntity
  8
0
100
AcDbSpline
210
0.0
220
0.0
230
1.0
 70
     8
 71
     3
 72
    14
 73
    10
 74
     0
 42
0.000000001
 43
0.0000000001
 40
-1.0
 40
-1.0
 40
-1.0
 40
-1.0
 40
-0.935935862670748
 40
-0.935935862670748
 40
-0.935935862670748
 40
-0.7894653656269499
 40
-0.7894653656269499
 40
-0.7894653656269499
 40
0.0
 40
0.0
 40
0.0
 40
0.0
 10
0.4075511437184043
 20
52.13552092382414
 30
0.0
 10
0.4914105118139229
 20
52.09934677654747
 30
0.0
 10
0.5867509225955445
 20
52.05750859750524
 30
0.0
 10
0.6915673094373432
 20
52.01015342536542
 30
0.0
 10
0.9312100942944999
 20
51.90188480753845
 30
0.0
 10
1.220591150767289
 20
51.7647090659716
 30
0.0
 10
1.531136126951591
 20
51.6011336944523
 30
0.0
 10
3.204951046099723
 20
50.71947429484347
 30
0.0
 10
5.000000091278471
 20
49.0282370995088
 30
0.0
 10
5.00000000000009
 20
47.30589179237883
 30
0.0
  0
ENDBLK
  5
32380
330
3237E
100
AcDbEntity
  8
0
100
AcDbBlockEnd
  0
BLOCK
  5
3239D
330
3239C
100
AcDbEntity
  8
0
100
AcDbBlockBegin
  2
GLI660_80_2.5-Right
 70
     0
 10
0.0
 20
0.0
 30
0.0
  3
GLI660_80_2.5-Right
  1

  0
ARC
  5
3239F
330
3239C
100
AcDbEntity
  8
0
100
AcDbCircle
 10
-89.99999999999998
 20
47.11832735767693
 30
0.0
 40
5.0
100
AcDbArc
 50
105.0
 51
180.0
  0
LINE
  5
323A0
330
3239C
100
AcDbEntity
  8
0
100
AcDbLine
 10
-66.90446081809032
 20
58.48313933228141
 30
0.0
 11
-91.29409522551258
 21
51.94795648912227
 31
0.0
  0
LINE
  5
323A1
330
3239C
100
AcDbEntity
  8
0
100
AcDbLine
 10
-56.87458519352333
 20
68.34764846220977
 30
0.0
 11
-65.01432219202373
 21
59.61884919718769
 31
0.0
  0
LINE
  5
323A2
330
3239C
100
AcDbEntity
  8
0
100
AcDbLine
 10
-55.80000000000001
 20
290.0
 30
0.0
 11
-55.8
 21
71.07564190245973
 31
0.0
  0
ARC
  5
323A3
330
3239C
100
AcDbEntity
  8
0
100
AcDbCircle
 10
-67.93973699850039
 20
62.34684263743769
 30
0.0
 40
4.0
100
AcDbArc
 50
285.0
 51
317.0
  0
ARC
  5
323A4
330
3239C
100
AcDbEntity
  8
0
100
AcDbCircle
 10
-59.8
 20
71.07564190245975
 30
0.0
 40
4.0
100
AcDbArc
 50
317.0000000000002
 51
0.0
  0
CIRCLE
  5
323A5
330
3239C
100
AcDbEntity
  8
0
100
AcDbCircle
 10
-47.80000000000001
 20
62.5
 30
0.0
 40
2.5
  0
CIRCLE
  5
323A6
330
3239C
100
AcDbEntity
  8
0
100
AcDbCircle
 10
-47.80000000000001
 20
82.5
 30
0.0
 40
2.5
  0
CIRCLE
  5
323A7
330
3239C
100
AcDbEntity
  8
0
100
AcDbCircle
 10
-47.80000000000001
 20
102.5
 30
0.0
 40
2.5
  0
CIRCLE
  5
323A8
330
3239C
100
AcDbEntity
  8
0
100
AcDbCircle
 10
-47.80000000000001
 20
122.5
 30
0.0
 40
2.5
  0
CIRCLE
  5
323A9
330
3239C
100
AcDbEntity
  8
0
100
AcDbCircle
 10
-47.80000000000001
 20
142.5
 30
0.0
 40
2.5
  0
CIRCLE
  5
323AA
330
3239C
100
AcDbEntity
  8
0
100
AcDbCircle
 10
-47.80000000000001
 20
162.5
 30
0.0
 40
2.5
  0
CIRCLE
  5
323AB
330
3239C
100
AcDbEntity
  8
0
100
AcDbCircle
 10
-47.80000000000001
 20
182.5
 30
0.0
 40
2.5
  0
CIRCLE
  5
323AC
330
3239C
100
AcDbEntity
  8
0
100
AcDbCircle
 10
-47.80000000000001
 20
202.5
 30
0.0
 40
2.5
  0
CIRCLE
  5
323AD
330
3239C
100
AcDbEntity
  8
0
100
AcDbCircle
 10
-47.80000000000001
 20
222.5
 30
0.0
 40
2.5
  0
CIRCLE
  5
323AE
330
3239C
100
AcDbEntity
  8
0
100
AcDbCircle
 10
-47.80000000000001
 20
242.5
 30
0.0
 40
2.5
  0
CIRCLE
  5
323AF
330
3239C
100
AcDbEntity
  8
0
100
AcDbCircle
 10
-47.80000000000001
 20
262.5
 30
0.0
 40
2.5
  0
CIRCLE
  5
323B0
330
3239C
100
AcDbEntity
  8
0
100
AcDbCircle
 10
-47.80000000000001
 20
282.5
 30
0.0
 40
2.5
  0
SPLINE
  5
323B1
330
3239C
100
AcDbEntity
  8
0
100
AcDbSpline
210
0.0
220
0.0
230
1.0
 70
     8
 71
     3
 72
     8
 73
     4
 74
     0
 42
0.000000001
 43
0.0000000001
 40
0.0
 40
0.0
 40
0.0
 40
0.0
 40
1.0
 40
1.0
 40
1.0
 40
1.0
 10
-0.4075511437183767
 20
52.13552092382395
 30
0.0
 10
-0.1396030589309916
 20
52.25110484735913
 30
0.0
 10
0.0000000000000086
 20
52.36668877089514
 30
0.0
 10
0.0000000000000083
 20
52.48227269442913
 30
0.0
  0
SPLINE
  5
323B2
330
3239C
100
AcDbEntity
  8
0
100
AcDbSpline
210
0.0
220
0.0
230
1.0
 70
     8
 71
     3
 72
    14
 73
    10
 74
     0
 42
0.000000001
 43
0.0000000001
 40
0.0
 40
0.0
 40
0.0
 40
0.0
 40
0.7894653656269499
 40
0.7894653656269499
 40
0.7894653656269499
 40
0.935935862670748
 40
0.935935862670748
 40
0.935935862670748
 40
1.0
 40
1.0
 40
1.0
 40
1.0
 10
-5.000000000000071
 20
47.30589179237883
 30
0.0
 10
-5.000000091278451
 20
49.0282370995088
 30
0.0
 10
-3.204951046099704
 20
50.71947429484347
 30
0.0
 10
-1.531136126951573
 20
51.6011336944523
 30
0.0
 10
-1.220591150767271
 20
51.7647090659716
 30
0.0
 10
-0.9312100942944818
 20
51.90188480753845
 30
0.0
 10
-0.6915673094373254
 20
52.01015342536542
 30
0.0
 10
-0.5867509225955267
 20
52.05750859750524
 30
0.0
 10
-0.4914105118139053
 20
52.09934677654747
 30
0.0
 10
-0.4075511437183866
 20
52.13552092382414
 30
0.0
  0
LINE
  5
323B3
330
3239C
100
AcDbEntity
  8
0
100
AcDbLine
 10
-4.99999999999999
 20
2.5
 30
0.0
 11
-5.000000000000017
 21
47.30589179237874
 31
0.0
  0
LINE
  5
323B4
330
3239C
100
AcDbEntity
  8
0
100
AcDbLine
 10
0.0
 20
52.4822726944292
 30
0.0
 11
0.0
 21
290.0
 31
0.0
  0
LINE
  5
323B5
330
3239C
100
AcDbEntity
  8
0
100
AcDbLine
 10
-4.99999999999999
 20
290.0
 30
0.0
 11
0.0
 21
290.0
 31
0.0
  0
LINE
  5
323B6
330
3239C
100
AcDbEntity
  8
0
100
AcDbLine
 10
-95.0
 20
-2.500000000000008
 30
0.0
 11
-5.0
 21
-2.5
 31
0.0
  0
LINE
  5
323B7
330
3239C
100
AcDbEntity
  8
0
100
AcDbLine
 10
-95.0
 20
2.499999999999999
 30
0.0
 11
-95.0
 21
-2.500000000000004
 31
0.0
  0
LINE
  5
323B8
330
3239C
100
AcDbEntity
  8
0
100
AcDbLine
 10
-94.99999999999998
 20
2.5
 30
0.0
 11
-94.99999999999998
 21
47.11832735767693
 31
0.0
  0
LINE
  5
323B9
330
3239C
100
AcDbEntity
  8
0
100
AcDbLine
 10
-55.80000000000001
 20
290.0
 30
0.0
 11
-4.999999999999991
 21
290.0
 31
0.0
  0
LINE
  5
323BA
330
3239C
100
AcDbEntity
  8
0
100
AcDbLine
 10
-4.99999999999999
 20
2.5
 30
0.0
 11
-4.999999999999992
 21
-2.500000000000006
 31
0.0
  0
ENDBLK
  5
3239E
330
3239C
100
AcDbEntity
  8
0
100
AcDbBlockEnd
  0
BLOCK
  5
323BC
330
323BB
100
AcDbEntity
  8
0
100
AcDbBlockBegin
  2
GLI660_80_2.5-Top
 70
     0
 10
0.0
 20
0.0
 30
0.0
  3
GLI660_80_2.5-Top
  1

  0
LINE
  5
323BE
330
323BB
100
AcDbEntity
  8
0
100
AcDbLine
 10
40.00000000000007
 20
-95.0
 30
0.0
 11
40.00000000000007
 21
-91.29409522551259
 31
0.0
  0
LINE
  5
323BF
330
323BB
100
AcDbEntity
  8
0
100
AcDbLine
 10
39.99999999999994
 20
-95.0
 30
0.0
 11
42.49999999999993
 21
-94.99999999999998
 31
0.0
  0
LINE
  5
323C0
330
323BB
100
AcDbEntity
  8
0
100
AcDbLine
 10
42.50000000000007
 20
-91.29409522551258
 30
0.0
 11
42.50000000000007
 21
-94.99999999999998
 31
0.0
  0
LINE
  5
323C1
330
323BB
100
AcDbEntity
  8
0
100
AcDbLine
 10
-42.49999999999999
 20
-95.00000000000001
 30
0.0
 11
-42.49999999999999
 21
-91.29409522551261
 31
0.0
  0
LINE
  5
323C2
330
323BB
100
AcDbEntity
  8
0
100
AcDbLine
 10
-42.49999999999999
 20
-95.00000000000001
 30
0.0
 11
-39.99999999999999
 21
-95.0
 31
0.0
  0
LINE
  5
323C3
330
323BB
100
AcDbEntity
  8
0
100
AcDbLine
 10
-40.0
 20
-91.29409522551259
 30
0.0
 11
-40.0
 21
-95.0
 31
0.0
  0
LINE
  5
323C4
330
323BB
100
AcDbEntity
  8
0
100
AcDbLine
 10
39.99999999999994
 20
-91.29409522551259
 30
0.0
 11
39.99999999999992
 21
-66.90446081809032
 31
0.0
  0
LINE
  5
323C5
330
323BB
100
AcDbEntity
  8
0
100
AcDbLine
 10
39.99999999999992
 20
-65.01432219202373
 30
0.0
 11
39.99999999999989
 21
-56.87458519352333
 31
0.0
  0
LINE
  5
323C6
330
323BB
100
AcDbEntity
  8
0
100
AcDbLine
 10
42.49999999999992
 20
-66.90446081809032
 30
0.0
 11
42.49999999999992
 21
-91.29409522551258
 31
0.0
  0
LINE
  5
323C7
330
323BB
100
AcDbEntity
  8
0
100
AcDbLine
 10
-40.0
 20
-56.87458519352333
 30
0.0
 11
-40.0
 21
-65.01432219202374
 31
0.0
  0
LINE
  5
323C8
330
323BB
100
AcDbEntity
  8
0
100
AcDbLine
 10
-40.0
 20
-66.90446081809032
 30
0.0
 11
-39.99999999999999
 21
-91.29409522551259
 31
0.0
  0
LINE
  5
323C9
330
323BB
100
AcDbEntity
  8
0
100
AcDbLine
 10
42.49999999999989
 20
-56.87458519352333
 30
0.0
 11
42.49999999999992
 21
-65.01432219202373
 31
0.0
  0
LINE
  5
323CA
330
323BB
100
AcDbEntity
  8
0
100
AcDbLine
 10
-42.49999999999999
 20
-91.29409522551261
 30
0.0
 11
-42.49999999999999
 21
-66.90446081809032
 31
0.0
  0
LINE
  5
323CB
330
323BB
100
AcDbEntity
  8
0
100
AcDbLine
 10
-42.49999999999999
 20
-65.01432219202374
 30
0.0
 11
-42.5
 21
-56.87458519352333
 31
0.0
  0
LINE
  5
323CC
330
323BB
100
AcDbEntity
  8
0
100
AcDbLine
 10
39.99999999999953
 20
-55.80000000000001
 30
0.0
 11
42.49999999999952
 21
-55.80000000000001
 31
0.0
  0
LINE
  5
323CD
330
323BB
100
AcDbEntity
  8
0
100
AcDbLine
 10
-42.5
 20
-55.80000000000002
 30
0.0
 11
-40.0
 21
-55.80000000000002
 31
0.0
  0
LINE
  5
323CE
330
323BB
100
AcDbEntity
  8
0
100
AcDbLine
 10
40.00000000000007
 20
-65.01432219202371
 30
0.0
 11
40.00000000000007
 21
-66.9044608180903
 31
0.0
  0
LINE
  5
323CF
330
323BB
100
AcDbEntity
  8
0
100
AcDbLine
 10
40.00000000000007
 20
-55.79999999999999
 30
0.0
 11
40.00000000000007
 21
-56.87458519352332
 31
0.0
  0
LINE
  5
323D0
330
323BB
100
AcDbEntity
  8
0
100
AcDbLine
 10
-40.0
 20
-56.87458519352333
 30
0.0
 11
-40.0
 21
-55.80000000000001
 31
0.0
  0
LINE
  5
323D1
330
323BB
100
AcDbEntity
  8
0
100
AcDbLine
 10
-40.0
 20
-66.90446081809032
 30
0.0
 11
-40.0
 21
-65.01432219202373
 31
0.0
  0
LINE
  5
323D2
330
323BB
100
AcDbEntity
  8
0
100
AcDbLine
 10
42.50000000000007
 20
-66.90446081809032
 30
0.0
 11
42.50000000000007
 21
-65.01432219202371
 31
0.0
  0
LINE
  5
323D3
330
323BB
100
AcDbEntity
  8
0
100
AcDbLine
 10
42.50000000000007
 20
-56.8745851935233
 30
0.0
 11
42.50000000000007
 21
-55.79999999999999
 31
0.0
  0
LINE
  5
323D4
330
323BB
100
AcDbEntity
  8
0
100
AcDbLine
 10
-42.49999999999999
 20
-65.01432219202373
 30
0.0
 11
-42.49999999999999
 21
-66.90446081809032
 31
0.0
  0
LINE
  5
323D5
330
323BB
100
AcDbEntity
  8
0
100
AcDbLine
 10
-42.5
 20
-55.80000000000001
 30
0.0
 11
-42.5
 21
-56.87458519352333
 31
0.0
  0
LINE
  5
323D6
330
323BB
100
AcDbEntity
  8
0
100
AcDbLine
 10
40.0
 20
-4.99999999999999
 30
0.0
 11
39.99999999999953
 21
-55.80000000000001
 31
0.0
  0
LINE
  5
323D7
330
323BB
100
AcDbEntity
  8
0
100
AcDbLine
 10
-40.0
 20
-5.000000000000007
 30
0.0
 11
-40.0
 21
-55.80000000000002
 31
0.0
  0
LINE
  5
323D8
330
323BB
100
AcDbEntity
  8
0
100
AcDbLine
 10
-37.49999999999999
 20
-95.0
 30
0.0
 11
37.50000000000002
 21
-95.0
 31
0.0
  0
LINE
  5
323D9
330
323BB
100
AcDbEntity
  8
0
100
AcDbLine
 10
-42.5
 20
-5.000000000000008
 30
0.0
 11
-42.5
 21
-55.80000000000002
 31
0.0
  0
LINE
  5
323DA
330
323BB
100
AcDbEntity
  8
0
100
AcDbLine
 10
42.49999999999952
 20
-55.80000000000001
 30
0.0
 11
42.49999999999999
 21
-4.999999999999991
 31
0.0
  0
LINE
  5
323DB
330
323BB
100
AcDbEntity
  8
0
100
AcDbLine
 10
37.5
 20
-2.499999999999991
 30
0.0
 11
3.999999999999981
 21
-2.499999999999999
 31
0.0
  0
ARC
  5
323DC
330
323BB
100
AcDbEntity
  8
0
100
AcDbCircle
 10
37.5
 20
-4.999999999999992
 30
0.0
 40
2.5
100
AcDbArc
 50
0.0
 51
90.0
  0
ARC
  5
323DD
330
323BB
100
AcDbEntity
  8
0
100
AcDbCircle
 10
37.5
 20
-4.999999999999992
 30
0.0
 40
5.0
100
AcDbArc
 50
0.0
 51
90.0
  0
LINE
  5
323DE
330
323BB
100
AcDbEntity
  8
0
100
AcDbLine
 10
3.999999999999979
 20
0.0
 30
0.0
 11
37.5
 21
0.0
 31
0.0
  0
LINE
  5
323DF
330
323BB
100
AcDbEntity
  8
0
100
AcDbLine
 10
3.99999999999998
 20
-2.499999999999999
 30
0.0
 11
3.999999999999979
 21
0.0
 31
0.0
  0
LINE
  5
323E0
330
323BB
100
AcDbEntity
  8
0
100
AcDbLine
 10
-4.0
 20
0.0
 30
0.0
 11
-37.50000000000001
 21
0.0
 31
0.0
  0
LINE
  5
323E1
330
323BB
100
AcDbEntity
  8
0
100
AcDbLine
 10
-37.50000000000001
 20
-2.500000000000008
 30
0.0
 11
-3.999999999999999
 21
-2.5
 31
0.0
  0
LINE
  5
323E2
330
323BB
100
AcDbEntity
  8
0
100
AcDbLine
 10
-4.0
 20
-2.5
 30
0.0
 11
-4.0
 21
0.0
 31
0.0
  0
CIRCLE
  5
323E3
330
323BB
100
AcDbEntity
  8
0
100
AcDbCircle
 10
-0.0000000000000028
 20
-35.0
 30
0.0
 40
2.5
  0
CIRCLE
  5
323E4
330
323BB
100
AcDbEntity
  8
0
100
AcDbCircle
 10
0.0000000000000061
 20
-75.0
 30
0.0
 40
2.5
  0
LINE
  5
323E5
330
323BB
100
AcDbEntity
  8
0
100
AcDbLine
 10
40.0
 20
-4.999999999999991
 30
0.0
 11
37.5
 21
-4.999999999999992
 31
0.0
  0
ARC
  5
323E6
330
323BB
100
AcDbEntity
  8
0
100
AcDbCircle
 10
-37.50000000000001
 20
-5.000000000000007
 30
0.0
 40
2.5
100
AcDbArc
 50
90.0
 51
180.0
  0
LINE
  5
323E7
330
323BB
100
AcDbEntity
  8
0
100
AcDbLine
 10
37.5
 20
-4.999999999999992
 30
0.0
 11
-37.50000000000001
 21
-5.000000000000007
 31
0.0
  0
ARC
  5
323E8
330
323BB
100
AcDbEntity
  8
0
100
AcDbCircle
 10
-37.50000000000001
 20
-5.000000000000007
 30
0.0
 40
5.0
100
AcDbArc
 50
90.0
 51
180.0
  0
LINE
  5
323E9
330
323BB
100
AcDbEntity
  8
0
100
AcDbLine
 10
-37.50000000000001
 20
-5.000000000000007
 30
0.0
 11
-40.0
 21
-5.000000000000007
 31
0.0
  0
LINE
  5
323EA
330
323BB
100
AcDbEntity
  8
0
100
AcDbLine
 10
37.50000000000002
 20
-95.0
 30
0.0
 11
40.00000000000001
 21
-95.0
 31
0.0
  0
LINE
  5
323EB
330
323BB
100
AcDbEntity
  8
0
100
AcDbLine
 10
-39.99999999999999
 20
-95.0
 30
0.0
 11
-37.49999999999999
 21
-95.0
 31
0.0
  0
ENDBLK
  5
323BD
330
323BB
100
AcDbEntity
  8
0
100
AcDbBlockEnd
  0
BLOCK
  5
323ED
330
323EC
100
AcDbEntity
  8
0
100
AcDbBlockBegin
  2
GLI660_80_2.5-Bottom
 70
     0
 10
0.0
 20
0.0
 30
0.0
  3
GLI660_80_2.5-Bottom
  1

  0
LINE
  5
323EF
330
323EC
100
AcDbEntity
  8
0
100
AcDbLine
 10
13.21432219202371
 20
2.500000000000001
 30
0.0
 11
15.10446081809032
 21
2.5
 31
0.0
  0
LINE
  5
323F0
330
323EC
100
AcDbEntity
  8
0
100
AcDbLine
 10
15.10446081809032
 20
0.0
 30
0.0
 11
13.21432219202371
 21
0.0
 31
0.0
  0
LINE
  5
323F1
330
323EC
100
AcDbEntity
  8
0
100
AcDbLine
 10
3.99999999999998
 20
2.500000000000007
 30
0.0
 11
5.074585193523292
 21
2.500000000000007
 31
0.0
  0
LINE
  5
323F2
330
323EC
100
AcDbEntity
  8
0
100
AcDbLine
 10
3.99999999999998
 20
2.499999999999999
 30
0.0
 11
3.999999999999979
 21
0.0
 31
0.0
  0
LINE
  5
323F3
330
323EC
100
AcDbEntity
  8
0
100
AcDbLine
 10
5.074585193523293
 20
0.0
 30
0.0
 11
3.999999999999979
 21
0.0
 31
0.0
  0
LINE
  5
323F4
330
323EC
100
AcDbEntity
  8
0
100
AcDbLine
 10
-15.10446081809034
 20
2.500000000000007
 30
0.0
 11
-13.21432219202373
 21
2.500000000000007
 31
0.0
  0
LINE
  5
323F5
330
323EC
100
AcDbEntity
  8
0
100
AcDbLine
 10
-13.21432219202373
 20
0.0
 30
0.0
 11
-15.10446081809034
 21
0.0
 31
0.0
  0
LINE
  5
323F6
330
323EC
100
AcDbEntity
  8
0
100
AcDbLine
 10
-3.999999999999999
 20
0.0
 30
0.0
 11
-5.074585193523311
 21
0.0
 31
0.0
  0
LINE
  5
323F7
330
323EC
100
AcDbEntity
  8
0
100
AcDbLine
 10
-4.0
 20
0.0
 30
0.0
 11
-4.0
 21
2.5
 31
0.0
  0
LINE
  5
323F8
330
323EC
100
AcDbEntity
  8
0
100
AcDbLine
 10
-5.074585193523311
 20
2.500000000000009
 30
0.0
 11
-3.999999999999998
 21
2.500000000000008
 31
0.0
  0
LINE
  5
323F9
330
323EC
100
AcDbEntity
  8
0
100
AcDbLine
 10
5.074585193523294
 20
2.500000000000001
 30
0.0
 11
13.21432219202372
 21
2.5
 31
0.0
  0
LINE
  5
323FA
330
323EC
100
AcDbEntity
  8
0
100
AcDbLine
 10
13.21432219202372
 20
0.0
 30
0.0
 11
5.074585193523294
 21
0.0
 31
0.0
  0
LINE
  5
323FB
330
323EC
100
AcDbEntity
  8
0
100
AcDbLine
 10
15.10446081809032
 20
2.5
 30
0.0
 11
37.5
 21
2.499999999999991
 31
0.0
  0
LINE
  5
323FC
330
323EC
100
AcDbEntity
  8
0
100
AcDbLine
 10
37.5
 20
0.0
 30
0.0
 11
15.10446081809033
 21
0.0
 31
0.0
  0
LINE
  5
323FD
330
323EC
100
AcDbEntity
  8
0
100
AcDbLine
 10
37.5
 20
1.816901138190493
 30
0.0
 11
37.5
 21
0.0
 31
0.0
  0
LINE
  5
323FE
330
323EC
100
AcDbEntity
  8
0
100
AcDbLine
 10
37.5
 20
2.499999999999991
 30
0.0
 11
37.5
 21
1.816901138190493
 31
0.0
  0
SPLINE
  5
323FF
330
323EC
100
AcDbEntity
  8
0
100
AcDbSpline
210
0.0
220
0.0
230
1.0
 70
     8
 71
     3
 72
     8
 73
     4
 74
     0
 42
0.000000001
 43
0.0000000001
 40
-1.0
 40
-1.0
 40
-1.0
 40
-1.0
 40
0.0
 40
0.0
 40
0.0
 40
0.0
 10
37.5
 20
2.499999999999991
 30
0.0
 10
37.83879333779296
 20
2.499999999999991
 30
0.0
 10
38.17743362740915
 20
2.569801529465491
 30
0.0
 10
38.48861184274183
 20
2.703775571859184
 30
0.0
  0
SPLINE
  5
32400
330
323EC
100
AcDbEntity
  8
0
100
AcDbSpline
210
0.0
220
0.0
230
1.0
 70
     8
 71
     3
 72
     8
 73
     4
 74
     0
 42
0.000000001
 43
0.0000000001
 40
0.0
 40
0.0
 40
0.0
 40
0.0
 40
1.0
 40
1.0
 40
1.0
 40
1.0
 10
39.47722368548368
 20
0.4075511437183767
 30
0.0
 10
38.85486725481829
 20
0.1396030589309917
 30
0.0
 10
38.17758667558592
 20
-0.0000000000000086
 30
0.0
 10
37.5
 20
-0.0000000000000083
 30
0.0
  0
SPLINE
  5
32401
330
323EC
100
AcDbEntity
  8
0
100
AcDbSpline
210
0.0
220
0.0
230
1.0
 70
     8
 71
     3
 72
    14
 73
    10
 74
     0
 42
0.000000001
 43
0.0000000001
 40
-1.0
 40
-1.0
 40
-1.0
 40
-1.0
 40
-0.935935862670748
 40
-0.935935862670748
 40
-0.935935862670748
 40
-0.7894653656269499
 40
-0.7894653656269499
 40
-0.7894653656269499
 40
0.0
 40
0.0
 40
0.0
 40
0.0
 10
38.48861184274185
 20
2.703775571859188
 30
0.0
 10
38.58600088929389
 20
2.745705255906948
 30
0.0
 10
38.67960789187937
 20
2.793375461297759
 30
0.0
 10
38.76860235602915
 20
2.845783654718658
 30
0.0
 10
38.97207131606794
 20
2.965605047147236
 30
0.0
 10
39.15090876541441
 20
3.110295575383632
 30
0.0
 10
39.30048489512266
 20
3.265568063475783
 30
0.0
 10
40.10668939577286
 20
4.10247552304985
 30
0.0
 10
40.0
 20
5.000000045639221
 30
0.0
 10
40.0
 20
5.000000000000031
 30
0.0
  0
SPLINE
  5
32402
330
323EC
100
AcDbEntity
  8
0
100
AcDbSpline
210
0.0
220
0.0
230
1.0
 70
     8
 71
     3
 72
    14
 73
    10
 74
     0
 42
0.000000001
 43
0.0000000001
 40
0.0
 40
0.0
 40
0.0
 40
0.0
 40
0.7894653656269499
 40
0.7894653656269499
 40
0.7894653656269499
 40
0.935935862670748
 40
0.935935862670748
 40
0.935935862670748
 40
1.0
 40
1.0
 40
1.0
 40
1.0
 10
42.49999999999999
 20
5.000000000000071
 30
0.0
 10
42.49999999999999
 20
5.000000091278452
 30
0.0
 10
42.71337879154573
 20
3.204951046099704
 30
0.0
 10
41.10096979024532
 20
1.531136126951573
 30
0.0
 10
40.80181753082883
 20
1.220591150767271
 30
0.0
 10
40.44414263213589
 20
0.9312100942944818
 30
0.0
 10
40.03720471205831
 20
0.6915673094373254
 30
0.0
 10
39.85921578375874
 20
0.5867509225955267
 30
0.0
 10
39.67200177858779
 20
0.4914105118139053
 30
0.0
 10
39.4772236854837
 20
0.4075511437183867
 30
0.0
  0
LINE
  5
32403
330
323EC
100
AcDbEntity
  8
0
100
AcDbLine
 10
-5.074585193523314
 20
0.0
 30
0.0
 11
-13.21432219202374
 21
0.0
 31
0.0
  0
LINE
  5
32404
330
323EC
100
AcDbEntity
  8
0
100
AcDbLine
 10
-13.21432219202374
 20
2.500000000000006
 30
0.0
 11
-5.074585193523314
 21
2.500000000000003
 31
0.0
  0
LINE
  5
32405
330
323EC
100
AcDbEntity
  8
0
100
AcDbLine
 10
-15.10446081809034
 20
0.0
 30
0.0
 11
-37.50000000000001
 21
0.0
 31
0.0
  0
LINE
  5
32406
330
323EC
100
AcDbEntity
  8
0
100
AcDbLine
 10
-37.50000000000001
 20
2.500000000000008
 30
0.0
 11
-15.10446081809034
 21
2.500000000000007
 31
0.0
  0
LINE
  5
32407
330
323EC
100
AcDbEntity
  8
0
100
AcDbLine
 10
-37.50000000000001
 20
2.500000000000008
 30
0.0
 11
-37.50000000000001
 21
1.816901138190509
 31
0.0
  0
LINE
  5
32408
330
323EC
100
AcDbEntity
  8
0
100
AcDbLine
 10
-37.50000000000001
 20
1.816901138190509
 30
0.0
 11
-37.50000000000002
 21
0.0
 31
0.0
  0
SPLINE
  5
32409
330
323EC
100
AcDbEntity
  8
0
100
AcDbSpline
210
0.0
220
0.0
230
1.0
 70
     8
 71
     3
 72
     8
 73
     4
 74
     0
 42
0.000000001
 43
0.0000000001
 40
-1.0
 40
-1.0
 40
-1.0
 40
-1.0
 40
0.0
 40
0.0
 40
0.0
 40
0.0
 10
-37.50000000000001
 20
0.0000000000000083
 30
0.0
 10
-38.17758667558594
 20
0.0000000000000084
 30
0.0
 10
-38.85486725481832
 20
0.1396030589310089
 30
0.0
 10
-39.47722368548369
 20
0.4075511437183942
 30
0.0
  0
SPLINE
  5
3240A
330
323EC
100
AcDbEntity
  8
0
100
AcDbSpline
210
0.0
220
0.0
230
1.0
 70
     8
 71
     3
 72
     8
 73
     4
 74
     0
 42
0.000000001
 43
0.0000000001
 40
0.0
 40
0.0
 40
0.0
 40
0.0
 40
1.0
 40
1.0
 40
1.0
 40
1.0
 10
-38.48861184274186
 20
2.703775571859201
 30
0.0
 10
-38.17743362740916
 20
2.569801529465508
 30
0.0
 10
-37.83879333779297
 20
2.500000000000008
 30
0.0
 10
-37.50000000000001
 20
2.500000000000008
 30
0.0
  0
SPLINE
  5
3240B
330
323EC
100
AcDbEntity
  8
0
100
AcDbSpline
210
0.0
220
0.0
230
1.0
 70
     8
 71
     3
 72
    14
 73
    10
 74
     0
 42
0.000000001
 43
0.0000000001
 40
-1.0
 40
-1.0
 40
-1.0
 40
-1.0
 40
-0.935935862670748
 40
-0.935935862670748
 40
-0.935935862670748
 40
-0.7894653656269499
 40
-0.7894653656269499
 40
-0.7894653656269499
 40
0.0
 40
0.0
 40
0.0
 40
0.0
 10
-39.47722368548372
 20
0.4075511437184042
 30
0.0
 10
-39.67200177858781
 20
0.4914105118139229
 30
0.0
 10
-39.85921578375876
 20
0.5867509225955445
 30
0.0
 10
-40.03720471205832
 20
0.6915673094373432
 30
0.0
 10
-40.44414263213591
 20
0.9312100942944999
 30
0.0
 10
-40.80181753082885
 20
1.220591150767289
 30
0.0
 10
-41.10096979024533
 20
1.531136126951591
 30
0.0
 10
-42.71337879154574
 20
3.204951046099723
 30
0.0
 10
-42.5
 20
5.00000009127847
 30
0.0
 10
-42.5
 20
5.000000000000089
 30
0.0
  0
SPLINE
  5
3240C
330
323EC
100
AcDbEntity
  8
0
100
AcDbSpline
210
0.0
220
0.0
230
1.0
 70
     8
 71
     3
 72
    14
 73
    10
 74
     0
 42
0.000000001
 43
0.0000000001
 40
0.0
 40
0.0
 40
0.0
 40
0.0
 40
0.7894653656269499
 40
0.7894653656269499
 40
0.7894653656269499
 40
0.935935862670748
 40
0.935935862670748
 40
0.935935862670748
 40
1.0
 40
1.0
 40
1.0
 40
1.0
 10
-40.0
 20
5.000000000000048
 30
0.0
 10
-40.0
 20
5.000000045639239
 30
0.0
 10
-40.10668939577287
 20
4.102475523049868
 30
0.0
 10
-39.30048489512267
 20
3.265568063475801
 30
0.0
 10
-39.15090876541443
 20
3.11029557538365
 30
0.0
 10
-38.97207131606796
 20
2.965605047147254
 30
0.0
 10
-38.76860235602917
 20
2.845783654718676
 30
0.0
 10
-38.67960789187939
 20
2.793375461297776
 30
0.0
 10
-38.58600088929391
 20
2.745705255906965
 30
0.0
 10
-38.48861184274186
 20
2.703775571859205
 30
0.0
  0
CIRCLE
  5
3240D
330
323EC
100
AcDbEntity
  8
0
100
AcDbCircle
 10
-0.0000000000000029
 20
35.0
 30
0.0
 40
2.5
  0
CIRCLE
  5
3240E
330
323EC
100
AcDbEntity
  8
0
100
AcDbCircle
 10
0.000000000000006
 20
75.0
 30
0.0
 40
2.5
  0
LINE
  5
3240F
330
323EC
100
AcDbEntity
  8
0
100
AcDbLine
 10
-37.50000000000001
 20
5.000000000000007
 30
0.0
 11
37.5
 21
4.999999999999992
 31
0.0
  0
LINE
  5
32410
330
323EC
100
AcDbEntity
  8
0
100
AcDbLine
 10
42.5
 20
4.99999999999999
 30
0.0
 11
37.5
 21
4.999999999999992
 31
0.0
  0
LINE
  5
32411
330
323EC
100
AcDbEntity
  8
0
100
AcDbLine
 10
-37.50000000000001
 20
5.000000000000007
 30
0.0
 11
-42.5
 21
5.000000000000008
 31
0.0
  0
LINE
  5
32412
330
323EC
100
AcDbEntity
  8
0
100
AcDbLine
 10
-37.49999999999999
 20
95.0
 30
0.0
 11
37.50000000000002
 21
95.0
 31
0.0
  0
LINE
  5
32413
330
323EC
100
AcDbEntity
  8
0
100
AcDbLine
 10
-42.49999999999999
 20
95.00000000000001
 30
0.0
 11
-42.5
 21
5.000000000000017
 31
0.0
  0
LINE
  5
32414
330
323EC
100
AcDbEntity
  8
0
100
AcDbLine
 10
42.5
 20
94.99999999999998
 30
0.0
 11
42.49999999999999
 21
4.999999999999982
 31
0.0
  0
LINE
  5
32415
330
323EC
100
AcDbEntity
  8
0
100
AcDbLine
 10
-37.49999999999999
 20
95.0
 30
0.0
 11
-42.49999999999999
 21
95.0
 31
0.0
  0
LINE
  5
32416
330
323EC
100
AcDbEntity
  8
0
100
AcDbLine
 10
42.50000000000001
 20
95.0
 30
0.0
 11
37.50000000000002
 21
95.0
 31
0.0
  0
ENDBLK
  5
323EE
330
323EC
100
AcDbEntity
  8
0
100
AcDbBlockEnd
  0
BLOCK
  5
32418
330
32417
100
AcDbEntity
  8
0
100
AcDbBlockBegin
  2
GLI660_80_2.5-ISO
 70
     0
 10
0.0
 20
0.0
 30
0.0
  3
GLI660_80_2.5-ISO
  1

  0
ELLIPSE
  5
3241A
330
32417
100
AcDbEntity
  8
0
100
AcDbEllipse
 10
-1.767892371443613
 20
-112.5799866954444
 30
0.0
 11
-2.499999999999739
 21
-4.330127018922343
 31
0.0
210
0.0
220
0.0
230
1.0
 40
0.5773502691896257
 41
4.188790204786285
 42
5.497787143781964
  0
LINE
  5
3241B
330
32417
100
AcDbEntity
  8
0
100
AcDbLine
 10
-5.303426277376446
 20
-114.6212281477637
 30
0.0
 11
-3.535659324410072
 21
-115.6418488739233
 31
0.0
  0
ELLIPSE
  5
3241C
330
32417
100
AcDbEntity
  8
0
100
AcDbEllipse
 10
-0.0001254184772437
 20
-113.6006074216041
 30
0.0
 11
2.500000000000252
 21
4.330127018922047
 31
0.0
210
0.0
220
0.0
230
1.0
 40
0.5773502691896267
 41
1.047197551196768
 42
2.356194490192585
  0
LINE
  5
3241D
330
32417
100
AcDbEntity
  8
0
100
AcDbLine
 10
-0.9151889279384395
 20
-110.1855439121429
 30
0.0
 11
-2.6829558809048
 21
-109.1649231859833
 31
0.0
  0
ELLIPSE
  5
3241E
330
32417
100
AcDbEntity
  8
0
100
AcDbEllipse
 10
-60.10420181933385
 20
-78.89950273217573
 30
0.0
 11
-2.49999999999974
 21
-4.330127018922343
 31
0.0
210
0.0
220
0.0
230
0.9999999999999998
 40
0.5773502691896258
 41
4.188790204786285
 42
5.49778714378196
  0
LINE
  5
3241F
330
32417
100
AcDbEntity
  8
0
100
AcDbLine
 10
-63.63973572526659
 20
-80.94074418449507
 30
0.0
 11
-61.87196877230021
 21
-81.96136491065471
 31
0.0
  0
ELLIPSE
  5
32420
330
32417
100
AcDbEntity
  8
0
100
AcDbEllipse
 10
-58.33643486636747
 20
-79.9201234583354
 30
0.0
 11
2.500000000000258
 21
4.330127018922044
 31
0.0
210
0.0
220
0.0
230
1.0
 40
0.5773502691896258
 41
1.047197551196767
 42
2.35619449019258
  0
LINE
  5
32421
330
32417
100
AcDbEntity
  8
0
100
AcDbLine
 10
-59.25149837582856
 20
-76.5050599488743
 30
0.0
 11
-61.01926532879494
 21
-75.48443922271464
 31
0.0
  0
LINE
  5
32422
330
32417
100
AcDbEntity
  8
0
100
AcDbLine
 10
-2.6829558809048
 20
-109.1649231859833
 30
0.0
 11
14.56311999924422
 21
-93.87194218693755
 31
0.0
  0
LINE
  5
32423
330
32417
100
AcDbEntity
  8
0
100
AcDbLine
 10
15.89964983911853
 20
-92.17299310248428
 30
0.0
 11
21.65531306783318
 21
-81.72292463252606
 31
0.0
  0
LINE
  5
32424
330
32417
100
AcDbEntity
  8
0
100
AcDbLine
 10
22.41515954513618
 20
-79.05682974755503
 30
0.0
 11
22.41515954513592
 21
99.69416012088387
 31
0.0
  0
LINE
  5
32425
330
32417
100
AcDbEntity
  8
0
100
AcDbLine
 10
16.33088695221059
 20
-94.89256291309722
 30
0.0
 11
-0.9151889279384395
 21
-110.1855439121429
 31
0.0
  0
LINE
  5
32426
330
32417
100
AcDbEntity
  8
0
100
AcDbLine
 10
-34.15338294978755
 20
132.3540233579927
 30
0.0
 11
-34.15338294978756
 21
-46.39696651044605
 31
0.0
  0
LINE
  5
32427
330
32417
100
AcDbEntity
  8
0
100
AcDbLine
 10
-34.91322942709056
 20
-49.06306139541708
 30
0.0
 11
-40.66889265580522
 21
-59.5131298653753
 31
0.0
  0
LINE
  5
32428
330
32417
100
AcDbEntity
  8
0
100
AcDbLine
 10
-42.00542249567952
 20
-61.21207894982856
 30
0.0
 11
-59.25149837582856
 21
-76.5050599488743
 31
0.0
  0
LINE
  5
32429
330
32417
100
AcDbEntity
  8
0
100
AcDbLine
 10
23.42308002079956
 20
-82.74354535868573
 30
0.0
 11
17.6674167920849
 21
-93.19361382864395
 31
0.0
  0
LINE
  5
3242A
330
32417
100
AcDbEntity
  8
0
100
AcDbLine
 10
-61.01926532879494
 20
-75.48443922271464
 30
0.0
 11
-43.7731894486459
 21
-60.1914582236689
 31
0.0
  0
LINE
  5
3242B
330
32417
100
AcDbEntity
  8
0
100
AcDbLine
 10
-42.43665960877159
 20
-58.49250913921564
 30
0.0
 11
-36.68099638005692
 21
-48.04244066925743
 31
0.0
  0
LINE
  5
3242C
330
32417
100
AcDbEntity
  8
0
100
AcDbLine
 10
24.1829264981023
 20
98.67353939472421
 30
0.0
 11
24.18292649810255
 21
-80.0774504737147
 31
0.0
  0
LINE
  5
3242D
330
32417
100
AcDbEntity
  8
0
100
AcDbLine
 10
22.41515954513592
 20
99.69416012088387
 30
0.0
 11
24.1829264981023
 21
98.67353939472421
 31
0.0
  0
LINE
  5
3242E
330
32417
100
AcDbEntity
  8
0
100
AcDbLine
 10
-35.92114990275393
 20
133.3746440841523
 30
0.0
 11
-34.15338294978755
 21
132.3540233579927
 31
0.0
  0
LINE
  5
3242F
330
32417
100
AcDbEntity
  8
0
100
AcDbLine
 10
-35.92114990275393
 20
-45.37634578428637
 30
0.0
 11
-35.92114990275393
 21
133.3746440841523
 31
0.0
  0
ELLIPSE
  5
32430
330
32417
100
AcDbEntity
  8
0
100
AcDbEllipse
 10
13.83106919167545
 20
-91.13989137936876
 30
0.0
 11
-1.999999999999994
 21
-3.464101615137758
 31
0.0
210
0.0
220
0.0
230
1.0
 40
0.5773502691896258
 41
1.047197551196596
 42
1.60570291183478
  0
ELLIPSE
  5
32431
330
32417
100
AcDbEntity
  8
0
100
AcDbEllipse
 10
19.58673242039012
 20
-80.68982290941054
 30
0.0
 11
-2.000000000000201
 21
-3.464101615137638
 31
0.0
210
0.0
220
0.0
230
1.0
 40
0.5773502691896267
 41
1.605702911834887
 42
2.356194490192589
  0
LINE
  5
32432
330
32417
100
AcDbEntity
  8
0
100
AcDbLine
 10
14.56311999924422
 20
-93.87194218693755
 30
0.0
 11
16.33088695221059
 21
-94.89256291309722
 31
0.0
  0
ELLIPSE
  5
32433
330
32417
100
AcDbEntity
  8
0
100
AcDbEllipse
 10
-36.98181007453374
 20
-48.02995967230149
 30
0.0
 11
2.0
 21
3.464101615137755
 31
0.0
210
0.0
220
0.0
230
1.0
 40
0.5773502691896257
 41
4.747295565424574
 42
5.497787143782138
  0
ELLIPSE
  5
32434
330
32417
100
AcDbEntity
  8
0
100
AcDbEllipse
 10
-42.73747330324841
 20
-58.4800281422597
 30
0.0
 11
1.999999999999793
 21
3.464101615137874
 31
0.0
210
0.0
220
0.0
230
1.0
 40
0.5773502691896259
 41
4.188790204786288
 42
4.747295565424541
  0
ELLIPSE
  5
32435
330
32417
100
AcDbEntity
  8
0
100
AcDbEllipse
 10
15.59883614464182
 20
-92.16051210552841
 30
0.0
 11
1.999999999999791
 21
3.464101615137876
 31
0.0
210
0.0
220
0.0
230
1.0
 40
0.5773502691896257
 41
4.188790204786286
 42
4.74729556542454
  0
LINE
  5
32436
330
32417
100
AcDbEntity
  8
0
100
AcDbLine
 10
17.6674167920849
 20
-93.19361382864395
 30
0.0
 11
15.89964983911853
 21
-92.17299310248428
 31
0.0
  0
LINE
  5
32437
330
32417
100
AcDbEntity
  8
0
100
AcDbLine
 10
21.65531306783318
 20
-81.72292463252606
 30
0.0
 11
23.42308002079956
 21
-82.74354535868573
 31
0.0
  0
ELLIPSE
  5
32438
330
32417
100
AcDbEntity
  8
0
100
AcDbEllipse
 10
21.3544993733565
 20
-81.71044363557021
 30
0.0
 11
1.999999999999995
 21
3.464101615137758
 31
0.0
210
0.0
220
0.0
230
1.0
 40
0.5773502691896259
 41
4.747295565424579
 42
5.497787143782137
  0
LINE
  5
32439
330
32417
100
AcDbEntity
  8
0
100
AcDbLine
 10
24.18292649810255
 20
-80.0774504737147
 30
0.0
 11
22.41515954513618
 21
-79.05682974755503
 31
0.0
  0
ELLIPSE
  5
3243A
330
32417
100
AcDbEntity
  8
0
100
AcDbEllipse
 10
20.40716225671027
 20
-41.50527896459745
 30
0.0
 11
2.0
 21
-3.464101615137754
 31
0.0
210
0.0
220
0.0
230
1.0
 40
0.577350269189626
 41
5.759586531581284
 42
6.287191988850987
  0
ELLIPSE
  5
3243B
330
32417
100
AcDbEntity
  8
0
100
AcDbEllipse
 10
-44.50524025621477
 20
-57.45940741610003
 30
0.0
 11
-2.0
 21
-3.464101615137755
 31
0.0
210
0.0
220
0.0
230
1.0
 40
0.5773502691896257
 41
1.047197551196599
 42
1.605702911834782
  0
LINE
  5
3243C
330
32417
100
AcDbEntity
  8
0
100
AcDbLine
 10
-43.7731894486459
 20
-60.1914582236689
 30
0.0
 11
-42.00542249567952
 21
-61.21207894982856
 31
0.0
  0
LINE
  5
3243D
330
32417
100
AcDbEntity
  8
0
100
AcDbLine
 10
-40.66889265580522
 20
-59.5131298653753
 30
0.0
 11
-42.43665960877159
 21
-58.49250913921564
 31
0.0
  0
ELLIPSE
  5
3243E
330
32417
100
AcDbEntity
  8
0
100
AcDbEllipse
 10
-38.74957702750011
 20
-47.00933894614182
 30
0.0
 11
-2.000000000000206
 21
-3.464101615137635
 31
0.0
210
0.0
220
0.0
230
1.0
 40
0.5773502691896258
 41
1.605702911834887
 42
2.356194490192589
  0
LINE
  5
3243F
330
32417
100
AcDbEntity
  8
0
100
AcDbLine
 10
-36.68099638005692
 20
-48.04244066925743
 30
0.0
 11
-34.91322942709056
 21
-49.06306139541708
 31
0.0
  0
LINE
  5
32440
330
32417
100
AcDbEntity
  8
0
100
AcDbLine
 10
-34.15338294978756
 20
-46.39696651044602
 30
0.0
 11
-35.92114990275393
 21
-45.37634578428637
 31
0.0
  0
LINE
  5
32441
330
32417
100
AcDbEntity
  8
0
100
AcDbLine
 10
22.41515954513616
 20
-44.96476334310975
 30
0.0
 11
22.40716225671028
 21
-44.96938057973522
 31
0.0
  0
LINE
  5
32442
330
32417
100
AcDbEntity
  8
0
100
AcDbLine
 10
58.33618402941289
 20
120.4331732764479
 30
0.0
 11
22.41515954513592
 21
99.69416012088387
 31
0.0
  0
LINE
  5
32443
330
32417
100
AcDbEntity
  8
0
100
AcDbLine
 10
-5.303426277376397
 20
-151.0519398820209
 30
0.0
 11
-5.303426277376446
 21
-114.6212281477637
 31
0.0
  0
LINE
  5
32444
330
32417
100
AcDbEntity
  8
0
100
AcDbLine
 10
-61.87196877230021
 20
-81.96136491065471
 30
0.0
 11
-61.87196877230021
 21
-118.3920766449119
 31
0.0
  0
LINE
  5
32445
330
32417
100
AcDbEntity
  8
0
100
AcDbLine
 10
1.767641534489072
 20
153.0930365135569
 30
0.0
 11
-34.15338294978755
 21
132.3540233579927
 31
0.0
  0
LINE
  5
32446
330
32417
100
AcDbEntity
  8
0
100
AcDbLine
 10
-63.63973572526659
 20
-80.94074418449507
 30
0.0
 11
-63.63973572526659
 21
-117.3714559187523
 31
0.0
  0
LINE
  5
32447
330
32417
100
AcDbEntity
  8
0
100
AcDbLine
 10
-60.10420181933383
 20
-123.4951802757102
 30
0.0
 11
-7.071193230342771
 21
-154.1138020605
 31
0.0
  0
LINE
  5
32448
330
32417
100
AcDbEntity
  8
0
100
AcDbLine
 10
-60.10420181933383
 20
-121.4539388233909
 30
0.0
 11
-7.071193230342771
 21
-152.0725606081806
 31
0.0
  0
LINE
  5
32449
330
32417
100
AcDbEntity
  8
0
100
AcDbLine
 10
-0.000125418477297
 20
154.1136572397166
 30
0.0
 11
-35.92114990275393
 21
133.3746440841523
 31
0.0
  0
LINE
  5
3244A
330
32417
100
AcDbEntity
  8
0
100
AcDbLine
 10
-3.535659324410023
 20
-152.0725606081806
 30
0.0
 11
-3.535659324410072
 21
-115.6418488739233
 31
0.0
  0
LINE
  5
3244B
330
32417
100
AcDbEntity
  8
0
100
AcDbLine
 10
24.1829264981023
 20
98.67353939472421
 30
0.0
 11
60.10395098237925
 21
119.4125525502882
 31
0.0
  0
ELLIPSE
  5
3244C
330
32417
100
AcDbEntity
  8
0
100
AcDbEllipse
 10
28.07201379462831
 20
96.83642208763684
 30
0.0
 11
1.249999999999874
 21
2.165063509461186
 31
0.0
210
0.0
220
0.0
230
1.0
 40
0.5773502691896267
 41
3.926990816986997
 42
5.497787143781897
  0
ELLIPSE
  5
3244D
330
32417
100
AcDbEntity
  8
0
100
AcDbEllipse
 10
29.83978074759468
 20
95.81580136147719
 30
0.0
 11
-1.249999999999996
 21
-2.165063509461098
 31
0.0
210
0.0
220
0.0
230
1.0
 40
0.5773502691896267
 41
0.0
 42
6.283185307179586
  0
ELLIPSE
  5
3244E
330
32417
100
AcDbEntity
  8
0
100
AcDbEllipse
 10
28.07201379462834
 20
80.50649046908231
 30
0.0
 11
1.249999999999902
 21
2.165063509461234
 31
0.0
210
0.0
220
0.0
230
0.9999999999999998
 40
0.5773502691896267
 41
3.926990816987
 42
5.497787143781893
  0
ELLIPSE
  5
3244F
330
32417
100
AcDbEntity
  8
0
100
AcDbEllipse
 10
28.07201379462835
 20
64.17655885052774
 30
0.0
 11
1.249999999999929
 21
2.165063509461281
 31
0.0
210
0.0
220
0.0
230
0.9999999999999998
 40
0.5773502691896267
 41
3.926990816986998
 42
5.497787143781895
  0
ELLIPSE
  5
32450
330
32417
100
AcDbEntity
  8
0
100
AcDbEllipse
 10
28.07201379462838
 20
47.84662723197321
 30
0.0
 11
1.249999999999956
 21
2.165063509461328
 31
0.0
210
0.0
220
0.0
230
1.0
 40
0.5773502691896269
 41
3.926990816986998
 42
5.49778714378191
  0
ELLIPSE
  5
32451
330
32417
100
AcDbEntity
  8
0
100
AcDbEllipse
 10
28.07201379462841
 20
31.51669561341867
 30
0.0
 11
1.249999999999984
 21
2.165063509461377
 31
0.0
210
0.0
220
0.0
230
0.9999999999999998
 40
0.5773502691896269
 41
3.926990816987
 42
5.497787143781896
  0
ELLIPSE
  5
32452
330
32417
100
AcDbEntity
  8
0
100
AcDbEllipse
 10
28.07201379462842
 20
15.18676399486416
 30
0.0
 11
1.250000000000012
 21
2.165063509461424
 31
0.0
210
0.0
220
0.0
230
0.9999999999999998
 40
0.5773502691896267
 41
3.926990816986997
 42
5.497787143781895
  0
ELLIPSE
  5
32453
330
32417
100
AcDbEntity
  8
0
100
AcDbEllipse
 10
28.07201379462845
 20
-1.143167623690377
 30
0.0
 11
1.25000000000004
 21
2.165063509461472
 31
0.0
210
0.0
220
0.0
230
1.0
 40
0.5773502691896267
 41
3.926990816987
 42
5.497787143781895
  0
ELLIPSE
  5
32454
330
32417
100
AcDbEntity
  8
0
100
AcDbEllipse
 10
28.07201379462847
 20
-17.47309924224492
 30
0.0
 11
1.250000000000067
 21
2.165063509461519
 31
0.0
210
0.0
220
0.0
230
0.9999999999999998
 40
0.5773502691896269
 41
3.926990816986998
 42
5.497787143781894
  0
ELLIPSE
  5
32455
330
32417
100
AcDbEntity
  8
0
100
AcDbEllipse
 10
28.07201379462849
 20
-33.80303086079945
 30
0.0
 11
1.250000000000094
 21
2.165063509461567
 31
0.0
210
0.0
220
0.0
230
1.0
 40
0.5773502691896267
 41
3.926990816986998
 42
5.497787143781895
  0
ELLIPSE
  5
32456
330
32417
100
AcDbEntity
  8
0
100
AcDbEllipse
 10
28.07201379462852
 20
-50.13296247935397
 30
0.0
 11
1.250000000000122
 21
2.165063509461615
 31
0.0
210
0.0
220
0.0
230
1.0
 40
0.5773502691896267
 41
3.926990816987
 42
5.497787143781901
  0
ELLIPSE
  5
32457
330
32417
100
AcDbEntity
  8
0
100
AcDbEllipse
 10
28.07201379462854
 20
-66.46289409790852
 30
0.0
 11
1.250000000000149
 21
2.165063509461662
 31
0.0
210
0.0
220
0.0
230
1.0
 40
0.5773502691896269
 41
3.926990816986998
 42
5.497787143781894
  0
ELLIPSE
  5
32458
330
32417
100
AcDbEntity
  8
0
100
AcDbEllipse
 10
28.07201379462856
 20
-82.79282571646305
 30
0.0
 11
1.250000000000177
 21
2.16506350946171
 31
0.0
210
0.0
220
0.0
230
1.0
 40
0.5773502691896267
 41
3.926990816987
 42
5.497787143781898
  0
ELLIPSE
  5
32459
330
32417
100
AcDbEntity
  8
0
100
AcDbEllipse
 10
29.83978074759493
 20
-83.8134464426227
 30
0.0
 11
-1.249999999999996
 21
-2.165063509461098
 31
0.0
210
0.0
220
0.0
230
1.0
 40
0.5773502691896267
 41
0.0
 42
6.283185307179586
  0
ELLIPSE
  5
3245A
330
32417
100
AcDbEntity
  8
0
100
AcDbEllipse
 10
29.83978074759491
 20
-67.48351482406817
 30
0.0
 11
-1.249999999999996
 21
-2.165063509461098
 31
0.0
210
0.0
220
0.0
230
1.0
 40
0.5773502691896267
 41
0.0
 42
6.283185307179586
  0
ELLIPSE
  5
3245B
330
32417
100
AcDbEntity
  8
0
100
AcDbEllipse
 10
29.83978074759488
 20
-51.15358320551364
 30
0.0
 11
-1.249999999999996
 21
-2.165063509461098
 31
0.0
210
0.0
220
0.0
230
1.0
 40
0.5773502691896267
 41
0.0
 42
6.283185307179586
  0
ELLIPSE
  5
3245C
330
32417
100
AcDbEntity
  8
0
100
AcDbEllipse
 10
29.83978074759487
 20
-34.82365158695912
 30
0.0
 11
-1.249999999999996
 21
-2.165063509461098
 31
0.0
210
0.0
220
0.0
230
1.0
 40
0.5773502691896267
 41
0.0
 42
6.283185307179586
  0
ELLIPSE
  5
3245D
330
32417
100
AcDbEntity
  8
0
100
AcDbEllipse
 10
29.83978074759484
 20
-18.49371996840458
 30
0.0
 11
-1.249999999999996
 21
-2.165063509461098
 31
0.0
210
0.0
220
0.0
230
1.0
 40
0.5773502691896267
 41
0.0
 42
6.283185307179586
  0
ELLIPSE
  5
3245E
330
32417
100
AcDbEntity
  8
0
100
AcDbEllipse
 10
29.83978074759481
 20
-2.163788349850044
 30
0.0
 11
-1.249999999999996
 21
-2.165063509461098
 31
0.0
210
0.0
220
0.0
230
1.0
 40
0.5773502691896267
 41
0.0
 42
6.283185307179586
  0
ELLIPSE
  5
3245F
330
32417
100
AcDbEntity
  8
0
100
AcDbEllipse
 10
29.83978074759479
 20
14.1661432687045
 30
0.0
 11
-1.249999999999996
 21
-2.165063509461098
 31
0.0
210
0.0
220
0.0
230
1.0
 40
0.5773502691896267
 41
0.0
 42
6.283185307179586
  0
ELLIPSE
  5
32460
330
32417
100
AcDbEntity
  8
0
100
AcDbEllipse
 10
29.83978074759477
 20
30.49607488725902
 30
0.0
 11
-1.249999999999996
 21
-2.165063509461098
 31
0.0
210
0.0
220
0.0
230
1.0
 40
0.5773502691896267
 41
0.0
 42
6.283185307179586
  0
ELLIPSE
  5
32461
330
32417
100
AcDbEntity
  8
0
100
AcDbEllipse
 10
29.83978074759475
 20
46.82600650581356
 30
0.0
 11
-1.249999999999996
 21
-2.165063509461098
 31
0.0
210
0.0
220
0.0
230
1.0
 40
0.5773502691896267
 41
0.0
 42
6.283185307179586
  0
ELLIPSE
  5
32462
330
32417
100
AcDbEntity
  8
0
100
AcDbEllipse
 10
29.83978074759472
 20
63.15593812436809
 30
0.0
 11
-1.249999999999996
 21
-2.165063509461098
 31
0.0
210
0.0
220
0.0
230
1.0
 40
0.5773502691896267
 41
0.0
 42
6.283185307179586
  0
ELLIPSE
  5
32463
330
32417
100
AcDbEntity
  8
0
100
AcDbEllipse
 10
29.83978074759471
 20
79.48586974292261
 30
0.0
 11
-1.249999999999996
 21
-2.165063509461098
 31
0.0
210
0.0
220
0.0
230
1.0
 40
0.5773502691896267
 41
0.0
 42
6.283185307179586
  0
LINE
  5
32464
330
32417
100
AcDbEntity
  8
0
100
AcDbLine
 10
1.767641534489063
 20
-81.64973050316426
 30
0.0
 11
-61.87196877230021
 21
-118.3920766449119
 31
0.0
  0
LINE
  5
32465
330
32417
100
AcDbEntity
  8
0
100
AcDbLine
 10
-61.87196877230021
 20
-118.3920766449119
 30
0.0
 11
-63.63973572526659
 21
-117.3714559187523
 31
0.0
  0
LINE
  5
32466
330
32417
100
AcDbEntity
  8
0
100
AcDbLine
 10
-5.30342627737637
 20
-151.0519398820209
 30
0.0
 11
-7.071193230342758
 21
-152.0725606081806
 31
0.0
  0
ELLIPSE
  5
32467
330
32417
100
AcDbEntity
  8
0
100
AcDbEllipse
 10
-7.071193230342758
 20
-150.0313191558613
 30
0.0
 11
1.25
 21
-2.165063509461096
 31
0.0
210
0.0
220
0.0
230
1.0
 40
0.5773502691896259
 41
5.497787143782137
 42
7.06858347057703
  0
LINE
  5
32468
330
32417
100
AcDbEntity
  8
0
100
AcDbLine
 10
3.535408487455433
 20
-84.71159268164326
 30
0.0
 11
-60.10420181933383
 21
-121.4539388233909
 31
0.0
  0
LINE
  5
32469
330
32417
100
AcDbEntity
  8
0
100
AcDbLine
 10
-3.535659324410023
 20
-152.0725606081806
 30
0.0
 11
60.10395098237925
 21
-115.3302144664329
 31
0.0
  0
ELLIPSE
  5
3246A
330
32417
100
AcDbEntity
  8
0
100
AcDbEllipse
 10
-60.10420181933383
 20
-119.4126973710716
 30
0.0
 11
2.50000000000026
 21
-4.330127018922043
 31
0.0
210
0.0
220
0.0
230
1.0
 40
0.5773502691896259
 41
3.926990816986998
 42
5.497787143781897
  0
LINE
  5
3246B
330
32417
100
AcDbEntity
  8
0
100
AcDbLine
 10
-5.303426277376397
 20
-151.0519398820209
 30
0.0
 11
-3.535659324410023
 21
-152.0725606081806
 31
0.0
  0
LINE
  5
3246C
330
32417
100
AcDbEntity
  8
0
100
AcDbLine
 10
-7.071193230342758
 20
-152.0725606081806
 30
0.0
 11
-7.071193230342758
 21
-154.1138020605
 31
0.0
  0
LINE
  5
3246D
330
32417
100
AcDbEntity
  8
0
100
AcDbLine
 10
-60.10420181933383
 20
-121.4539388233909
 30
0.0
 11
-60.10420181933383
 21
-123.4951802757102
 31
0.0
  0
ELLIPSE
  5
3246E
330
32417
100
AcDbEntity
  8
0
100
AcDbEllipse
 10
-7.071193230342758
 20
-150.0313191558613
 30
0.0
 11
2.5
 21
-4.330127018922192
 31
0.0
210
0.0
220
0.0
230
1.0
 40
0.5773502691896259
 41
5.497787143782137
 42
7.068583470577038
  0
ELLIPSE
  5
3246F
330
32417
100
AcDbEntity
  8
0
100
AcDbEllipse
 10
-60.10420181933383
 20
-119.4126973710716
 30
0.0
 11
1.25000000000013
 21
-2.165063509461021
 31
0.0
210
0.0
220
0.0
230
1.0
 40
0.5773502691896259
 41
3.926990816987002
 42
5.497787143781899
  0
LINE
  5
32470
330
32417
100
AcDbEntity
  8
0
100
AcDbLine
 10
59.06841707644652
 20
-117.6191000330358
 30
0.0
 11
-4.571193230342753
 21
-154.3614461747835
 31
0.0
  0
LINE
  5
32471
330
32417
100
AcDbEntity
  8
0
100
AcDbLine
 10
1.767641534489063
 20
-81.64973050316426
 30
0.0
 11
1.76764153448905
 21
-45.06587304926937
 31
0.0
  0
LINE
  5
32472
330
32417
100
AcDbEntity
  8
0
100
AcDbLine
 10
1.76764153448905
 20
-45.06587304926937
 30
0.0
 11
1.767641534489072
 21
153.0930365135569
 31
0.0
  0
LINE
  5
32473
330
32417
100
AcDbEntity
  8
0
100
AcDbLine
 10
5.303175440421807
 20
153.0930365135569
 30
0.0
 11
5.303175440421799
 21
-40.83937574116557
 31
0.0
  0
ELLIPSE
  5
32474
330
32417
100
AcDbEntity
  8
0
100
AcDbEllipse
 10
3.535408487455442
 20
152.0724157873973
 30
0.0
 11
2.5
 21
-0.0000000000001495
 31
0.0
210
0.0
220
0.0
230
1.0
 40
0.5773502691896258
 41
0.7853981633976961
 42
2.356194490192592
  0
LINE
  5
32475
330
32417
100
AcDbEntity
  8
0
100
AcDbLine
 10
16.03458800676794
 20
-91.92799734176775
 30
0.0
 11
3.535408487455433
 21
-84.71159268164326
 31
0.0
  0
ELLIPSE
  5
32476
330
32417
100
AcDbEntity
  8
0
100
AcDbEllipse
 10
3.535408487455442
 20
152.0724157873973
 30
0.0
 11
-5.0
 21
-0.0000000000002975
 31
0.0
210
0.0
220
0.0
230
1.0
 40
0.5773502691896258
 41
3.926990816987
 42
5.497787143781897
  0
LINE
  5
32477
330
32417
100
AcDbEntity
  8
0
100
AcDbLine
 10
7.070942393388177
 20
154.1136572397166
 30
0.0
 11
5.303175440421807
 21
153.0930365135569
 31
0.0
  0
LINE
  5
32478
330
32417
100
AcDbEntity
  8
0
100
AcDbLine
 10
1.767641534489072
 20
153.0930365135569
 30
0.0
 11
-0.000125418477297
 21
154.1136572397166
 31
0.0
  0
ELLIPSE
  5
32479
330
32417
100
AcDbEntity
  8
0
100
AcDbEllipse
 10
3.535408487455433
 20
-82.67035122932393
 30
0.0
 11
-1.249999999999871
 21
2.165063509461172
 31
0.0
210
0.0
220
0.0
230
1.0
 40
0.5773502691896258
 41
0.7853981633976863
 42
2.356194490192587
  0
ELLIPSE
  5
3247A
330
32417
100
AcDbEntity
  8
0
100
AcDbEllipse
 10
56.56841707644651
 20
-113.2889730141136
 30
0.0
 11
2.500000000000004
 21
-4.330127018922191
 31
0.0
210
0.0
220
0.0
230
1.0
 40
0.5773502691896259
 41
0.0
 42
0.7853981633974465
  0
ELLIPSE
  5
3247B
330
32417
100
AcDbEntity
  8
0
100
AcDbEllipse
 10
-28.49652870029518
 20
121.3313195154684
 30
0.0
 11
1.25
 21
2.165063509461097
 31
0.0
210
0.0
220
0.0
230
1.0
 40
0.5773502691896259
 41
0.0
 42
6.283185307179586
  0
ELLIPSE
  5
3247C
330
32417
100
AcDbEntity
  8
0
100
AcDbEllipse
 10
-30.26429565326155
 20
122.3519402416281
 30
0.0
 11
1.24999999999987
 21
2.165063509461171
 31
0.0
210
0.0
220
0.0
230
1.0
 40
0.5773502691896258
 41
3.926990816987
 42
5.497787143781901
  0
ELLIPSE
  5
3247D
330
32417
100
AcDbEntity
  8
0
100
AcDbEllipse
 10
-28.49652870029518
 20
105.0013878969139
 30
0.0
 11
1.25
 21
2.165063509461097
 31
0.0
210
0.0
220
0.0
230
1.0
 40
0.5773502691896259
 41
0.0
 42
6.283185307179586
  0
ELLIPSE
  5
3247E
330
32417
100
AcDbEntity
  8
0
100
AcDbEllipse
 10
-28.49652870029518
 20
88.67145627835938
 30
0.0
 11
1.25
 21
2.165063509461097
 31
0.0
210
0.0
220
0.0
230
1.0
 40
0.5773502691896259
 41
0.0
 42
6.283185307179586
  0
ELLIPSE
  5
3247F
330
32417
100
AcDbEntity
  8
0
100
AcDbEllipse
 10
-28.49652870029518
 20
72.34152465980486
 30
0.0
 11
1.25
 21
2.165063509461097
 31
0.0
210
0.0
220
0.0
230
1.0
 40
0.5773502691896259
 41
0.0
 42
6.283185307179586
  0
ELLIPSE
  5
32480
330
32417
100
AcDbEntity
  8
0
100
AcDbEllipse
 10
-28.49652870029518
 20
56.01159304125033
 30
0.0
 11
1.25
 21
2.165063509461097
 31
0.0
210
0.0
220
0.0
230
1.0
 40
0.5773502691896259
 41
0.0
 42
6.283185307179586
  0
ELLIPSE
  5
32481
330
32417
100
AcDbEntity
  8
0
100
AcDbEllipse
 10
-28.49652870029518
 20
39.68166142269581
 30
0.0
 11
1.25
 21
2.165063509461097
 31
0.0
210
0.0
220
0.0
230
1.0
 40
0.5773502691896259
 41
0.0
 42
6.283185307179586
  0
ELLIPSE
  5
32482
330
32417
100
AcDbEntity
  8
0
100
AcDbEllipse
 10
-28.49652870029519
 20
23.35172980414129
 30
0.0
 11
1.25
 21
2.165063509461097
 31
0.0
210
0.0
220
0.0
230
1.0
 40
0.5773502691896259
 41
0.0
 42
6.283185307179586
  0
ELLIPSE
  5
32483
330
32417
100
AcDbEntity
  8
0
100
AcDbEllipse
 10
-28.49652870029519
 20
7.02179818558676
 30
0.0
 11
1.25
 21
2.165063509461097
 31
0.0
210
0.0
220
0.0
230
1.0
 40
0.5773502691896259
 41
0.0
 42
6.283185307179586
  0
ELLIPSE
  5
32484
330
32417
100
AcDbEntity
  8
0
100
AcDbEllipse
 10
-28.49652870029519
 20
-9.308133432967746
 30
0.0
 11
1.25
 21
2.165063509461097
 31
0.0
210
0.0
220
0.0
230
1.0
 40
0.5773502691896259
 41
0.0
 42
6.283185307179586
  0
ELLIPSE
  5
32485
330
32417
100
AcDbEntity
  8
0
100
AcDbEllipse
 10
-28.49652870029519
 20
-25.63806505152227
 30
0.0
 11
1.25
 21
2.165063509461097
 31
0.0
210
0.0
220
0.0
230
1.0
 40
0.5773502691896259
 41
0.0
 42
6.283185307179586
  0
ELLIPSE
  5
32486
330
32417
100
AcDbEntity
  8
0
100
AcDbEllipse
 10
-28.49652870029519
 20
-41.9679966700768
 30
0.0
 11
1.25
 21
2.165063509461097
 31
0.0
210
0.0
220
0.0
230
1.0
 40
0.5773502691896259
 41
0.0
 42
6.283185307179586
  0
ELLIPSE
  5
32487
330
32417
100
AcDbEntity
  8
0
100
AcDbEllipse
 10
-30.26429565326156
 20
-40.94737594391713
 30
0.0
 11
1.24999999999987
 21
2.165063509461171
 31
0.0
210
0.0
220
0.0
230
1.0
 40
0.5773502691896258
 41
3.926990816987
 42
5.497787143781897
  0
ELLIPSE
  5
32488
330
32417
100
AcDbEntity
  8
0
100
AcDbEllipse
 10
-30.26429565326156
 20
-24.61744432536261
 30
0.0
 11
1.24999999999987
 21
2.165063509461171
 31
0.0
210
0.0
220
0.0
230
1.0
 40
0.5773502691896258
 41
3.926990816987
 42
5.497787143781897
  0
ELLIPSE
  5
32489
330
32417
100
AcDbEntity
  8
0
100
AcDbEllipse
 10
-30.26429565326156
 20
-8.28751270680808
 30
0.0
 11
1.24999999999987
 21
2.165063509461171
 31
0.0
210
0.0
220
0.0
230
1.0
 40
0.5773502691896258
 41
3.926990816987
 42
5.497787143781897
  0
ELLIPSE
  5
3248A
330
32417
100
AcDbEntity
  8
0
100
AcDbEllipse
 10
-30.26429565326156
 20
8.042418911746409
 30
0.0
 11
1.24999999999987
 21
2.165063509461171
 31
0.0
210
0.0
220
0.0
230
1.0
 40
0.5773502691896258
 41
3.926990816987
 42
5.497787143781897
  0
ELLIPSE
  5
3248B
330
32417
100
AcDbEntity
  8
0
100
AcDbEllipse
 10
-30.26429565326156
 20
24.37235053030093
 30
0.0
 11
1.24999999999987
 21
2.165063509461171
 31
0.0
210
0.0
220
0.0
230
1.0
 40
0.5773502691896258
 41
3.926990816987
 42
5.497787143781897
  0
ELLIPSE
  5
3248C
330
32417
100
AcDbEntity
  8
0
100
AcDbEllipse
 10
-30.26429565326155
 20
40.70228214885545
 30
0.0
 11
1.24999999999987
 21
2.165063509461171
 31
0.0
210
0.0
220
0.0
230
1.0
 40
0.5773502691896258
 41
3.926990816987
 42
5.497787143781897
  0
ELLIPSE
  5
3248D
330
32417
100
AcDbEntity
  8
0
100
AcDbEllipse
 10
-30.26429565326155
 20
57.03221376740998
 30
0.0
 11
1.24999999999987
 21
2.165063509461171
 31
0.0
210
0.0
220
0.0
230
1.0
 40
0.5773502691896258
 41
3.926990816987
 42
5.497787143781897
  0
ELLIPSE
  5
3248E
330
32417
100
AcDbEntity
  8
0
100
AcDbEllipse
 10
-30.26429565326155
 20
73.36214538596451
 30
0.0
 11
1.24999999999987
 21
2.165063509461171
 31
0.0
210
0.0
220
0.0
230
1.0
 40
0.5773502691896258
 41
3.926990816987
 42
5.497787143781897
  0
ELLIPSE
  5
3248F
330
32417
100
AcDbEntity
  8
0
100
AcDbEllipse
 10
-30.26429565326155
 20
89.69207700451903
 30
0.0
 11
1.24999999999987
 21
2.165063509461171
 31
0.0
210
0.0
220
0.0
230
1.0
 40
0.5773502691896258
 41
3.926990816987
 42
5.497787143781901
  0
ELLIPSE
  5
32490
330
32417
100
AcDbEntity
  8
0
100
AcDbEllipse
 10
-30.26429565326155
 20
106.0220086230735
 30
0.0
 11
1.24999999999987
 21
2.165063509461171
 31
0.0
210
0.0
220
0.0
230
1.0
 40
0.5773502691896258
 41
3.926990816987
 42
5.497787143781901
  0
ELLIPSE
  5
32491
330
32417
100
AcDbEntity
  8
0
100
AcDbEllipse
 10
39.95140771856267
 20
118.8001801145924
 30
0.0
 11
-1.25
 21
2.165063509461096
 31
0.0
210
0.0
220
0.0
230
1.0
 40
0.5773502691896259
 41
0.0
 42
6.283185307179586
  0
ELLIPSE
  5
32492
330
32417
100
AcDbEntity
  8
0
100
AcDbEllipse
 10
52.6793297799205
 20
119.6166766955202
 30
0.0
 11
-1.249999999999871
 21
2.16506350946117
 31
0.0
210
0.0
220
0.0
230
1.0
 40
0.5773502691896261
 41
3.699191480289948
 42
8.867179134069946
  0
LINE
  5
32493
330
32417
100
AcDbEntity
  8
0
100
AcDbLine
 10
58.33618402941289
 20
122.4744147287672
 30
0.0
 11
58.33618402941289
 21
120.4331732764478
 31
0.0
  0
LINE
  5
32494
330
32417
100
AcDbEntity
  8
0
100
AcDbLine
 10
58.33618402941289
 20
122.4744147287672
 30
0.0
 11
34.64810685966353
 21
136.1507324593066
 31
0.0
  0
LINE
  5
32495
330
32417
100
AcDbEntity
  8
0
100
AcDbLine
 10
34.64810685966353
 20
106.7568555459087
 30
0.0
 11
34.64810685966353
 21
136.1507324593066
 31
0.0
  0
ELLIPSE
  5
32496
330
32417
100
AcDbEntity
  8
0
100
AcDbEllipse
 10
41.71917467152903
 20
119.8208008407521
 30
0.0
 11
1.250000000000125
 21
-2.165063509461015
 31
0.0
210
0.0
220
0.0
230
1.0
 40
0.5773502691896261
 41
3.926990816987
 42
5.497787143781895
  0
ELLIPSE
  5
32497
330
32417
100
AcDbEntity
  8
0
100
AcDbEllipse
 10
54.44709673288688
 20
120.6372974216798
 30
0.0
 11
1.250000000000125
 21
-2.165063509461015
 31
0.0
210
0.0
220
0.0
230
1.0
 40
0.5773502691896261
 41
3.926990816987002
 42
5.497787143781895
  0
SPLINE
  5
32498
330
32417
100
AcDbEntity
  8
0
100
AcDbSpline
210
0.0
220
0.0
230
1.0
 70
     8
 71
     3
 72
    11
 73
     7
 74
     0
 42
0.000000001
 43
0.0000000001
 40
0.0
 40
0.0
 40
0.0
 40
0.0
 40
0.7894653656269499
 40
0.7894653656269499
 40
0.7894653656269499
 40
0.8000000000329681
 40
0.8000000000329681
 40
0.8000000000329681
 40
0.8000000000329681
 10
60.10395098237919
 20
-78.74635701253801
 30
0.0
 10
60.10395091783563
 20
-77.34006799535373
 30
0.0
 10
61.52412386070735
 20
-75.31346443070194
 30
0.0
 10
61.56754440162245
 20
-73.25199724777397
 30
0.0
 10
61.5681238057916
 20
-73.22448900731443
 30
0.0
 10
61.56841173000025
 20
-73.19701337495499
 30
0.0
 10
61.56840309286842
 20
-73.16957685907069
 30
0.0
  0
LINE
  5
32499
330
32417
100
AcDbEntity
  8
0
100
AcDbLine
 10
60.10395098237925
 20
-115.3302144664329
 30
0.0
 11
60.10395098237922
 21
-78.74635701253807
 31
0.0
  0
ELLIPSE
  5
3249A
330
32417
100
AcDbEntity
  8
0
100
AcDbEllipse
 10
56.56841707644652
 20
121.4537940026076
 30
0.0
 11
2.5
 21
0.0000000000000003
 31
0.0
210
0.0
220
0.0
230
1.0
 40
0.5773502691896258
 41
5.497787143782143
 42
7.068583470577039
  0
ELLIPSE
  5
3249B
330
32417
100
AcDbEntity
  8
0
100
AcDbEllipse
 10
56.56841707644652
 20
121.4537940026076
 30
0.0
 11
5.0
 21
0.0000000000000003
 31
0.0
210
0.0
220
0.0
230
1.0
 40
0.5773502691896258
 41
5.497787143782137
 42
7.068583470577034
  0
LINE
  5
3249C
330
32417
100
AcDbEntity
  8
0
100
AcDbLine
 10
60.10395098237922
 20
-78.74635701253807
 30
0.0
 11
60.10395098237925
 21
119.4125525502882
 31
0.0
  0
LINE
  5
3249D
330
32417
100
AcDbEntity
  8
0
100
AcDbLine
 10
60.10395098237925
 20
123.4950354549269
 30
0.0
 11
58.33618402941289
 21
122.4744147287672
 31
0.0
  0
LINE
  5
3249E
330
32417
100
AcDbEntity
  8
0
100
AcDbLine
 10
36.4158738126299
 20
137.1713531854663
 30
0.0
 11
60.10395098237925
 21
123.4950354549269
 31
0.0
  0
LINE
  5
3249F
330
32417
100
AcDbEntity
  8
0
100
AcDbLine
 10
34.64810685966353
 20
136.1507324593066
 30
0.0
 11
36.4158738126299
 21
137.1713531854663
 31
0.0
  0
LINE
  5
324A0
330
32417
100
AcDbEntity
  8
0
100
AcDbLine
 10
60.10395098237925
 20
119.4125525502882
 30
0.0
 11
58.33618402941289
 21
120.4331732764479
 31
0.0
  0
LINE
  5
324A1
330
32417
100
AcDbEntity
  8
0
100
AcDbLine
 10
61.56841707644652
 20
-73.16958165428356
 30
0.0
 11
61.56841707644652
 21
121.4537940026076
 31
0.0
  0
ELLIPSE
  5
324A2
330
32417
100
AcDbEntity
  8
0
100
AcDbEllipse
 10
25.45571870423839
 20
112.8805799028665
 30
0.0
 11
1.250000000000125
 21
-2.165063509461015
 31
0.0
210
0.0
220
0.0
230
1.0
 40
0.5773502691896261
 41
3.926990816987
 42
5.497787143781898
  0
ELLIPSE
  5
324A3
330
32417
100
AcDbEntity
  8
0
100
AcDbEllipse
 10
23.68795175127201
 20
-35.10942539028388
 30
0.0
 11
-1.25
 21
2.165063509461096
 31
0.0
210
0.0
220
0.0
230
0.9999999999999998
 40
0.5773502691896259
 41
0.0184041555356727
 42
1.552392171259226
  0
ELLIPSE
  5
324A4
330
32417
100
AcDbEntity
  8
0
100
AcDbEllipse
 10
23.68795175127201
 20
-18.77949377172935
 30
0.0
 11
-1.25
 21
2.165063509461095
 31
0.0
210
0.0
220
0.0
230
1.0
 40
0.577350269189626
 41
0.0184041555356913
 42
1.552392171259205
  0
ELLIPSE
  5
324A5
330
32417
100
AcDbEntity
  8
0
100
AcDbEllipse
 10
23.68795175127201
 20
-2.449562153174831
 30
0.0
 11
-1.25
 21
2.165063509461096
 31
0.0
210
0.0
220
0.0
230
0.9999999999999998
 40
0.577350269189626
 41
0.0184041555357117
 42
1.552392171259187
  0
ELLIPSE
  5
324A6
330
32417
100
AcDbEntity
  8
0
100
AcDbEllipse
 10
23.68795175127201
 20
13.88036946537969
 30
0.0
 11
-1.25
 21
2.165063509461096
 31
0.0
210
0.0
220
0.0
230
0.9999999999999998
 40
0.577350269189626
 41
0.0184041555357304
 42
1.552392171259167
  0
ELLIPSE
  5
324A7
330
32417
100
AcDbEntity
  8
0
100
AcDbEllipse
 10
23.68795175127201
 20
30.21030108393422
 30
0.0
 11
-1.25
 21
2.165063509461096
 31
0.0
210
0.0
220
0.0
230
0.9999999999999998
 40
0.5773502691896259
 41
0.0184041555357526
 42
1.552392171259146
  0
ELLIPSE
  5
324A8
330
32417
100
AcDbEntity
  8
0
100
AcDbEllipse
 10
23.68795175127201
 20
46.54023270248874
 30
0.0
 11
-1.25
 21
2.165063509461096
 31
0.0
210
0.0
220
0.0
230
1.0
 40
0.577350269189626
 41
0.0184041555357766
 42
1.55239217125912
  0
ELLIPSE
  5
324A9
330
32417
100
AcDbEntity
  8
0
100
AcDbEllipse
 10
23.68795175127202
 20
62.87016432104326
 30
0.0
 11
-1.25
 21
2.165063509461096
 31
0.0
210
0.0
220
0.0
230
0.9999999999999998
 40
0.577350269189626
 41
0.0184041555357979
 42
1.5523921712591
  0
ELLIPSE
  5
324AA
330
32417
100
AcDbEntity
  8
0
100
AcDbEllipse
 10
23.68795175127202
 20
79.20009593959775
 30
0.0
 11
-1.25
 21
2.165063509461096
 31
0.0
210
0.0
220
0.0
230
0.9999999999999998
 40
0.577350269189626
 41
0.0184041555358157
 42
1.552392171259079
  0
ELLIPSE
  5
324AB
330
32417
100
AcDbEntity
  8
0
100
AcDbEllipse
 10
23.68795175127202
 20
95.53002755815228
 30
0.0
 11
-1.25
 21
2.165063509461096
 31
0.0
210
0.0
220
0.0
230
1.0
 40
0.577350269189626
 41
0.0184041555358396
 42
1.552392171259056
  0
ELLIPSE
  5
324AC
330
32417
100
AcDbEntity
  8
0
100
AcDbEllipse
 10
23.68795175127202
 20
111.8599591767068
 30
0.0
 11
1.25
 21
-2.165063509461096
 31
0.0
210
0.0
220
0.0
230
1.0
 40
0.5773502691896259
 41
0.0
 42
6.283185307179586
  0
ELLIPSE
  5
324AD
330
32417
100
AcDbEntity
  8
0
100
AcDbEllipse
 10
12.72779664288055
 20
79.40422008482968
 30
0.0
 11
1.250000000000125
 21
-2.165063509461015
 31
0.0
210
0.0
220
0.0
230
1.0
 40
0.5773502691896261
 41
3.926990816987
 42
5.497787143781899
  0
ELLIPSE
  5
324AE
330
32417
100
AcDbEntity
  8
0
100
AcDbEllipse
 10
12.72779664288055
 20
14.0844936106116
 30
0.0
 11
1.250000000000125
 21
-2.165063509461015
 31
0.0
210
0.0
220
0.0
230
1.0
 40
0.5773502691896261
 41
3.926990816986998
 42
5.497787143781896
  0
ELLIPSE
  5
324AF
330
32417
100
AcDbEntity
  8
0
100
AcDbEllipse
 10
12.72779664288055
 20
95.73415170338421
 30
0.0
 11
1.250000000000125
 21
-2.165063509461015
 31
0.0
210
0.0
220
0.0
230
1.0
 40
0.5773502691896261
 41
3.926990816987
 42
5.497787143781899
  0
ELLIPSE
  5
324B0
330
32417
100
AcDbEntity
  8
0
100
AcDbEllipse
 10
12.72779664288055
 20
30.41442522916613
 30
0.0
 11
1.250000000000125
 21
-2.165063509461015
 31
0.0
210
0.0
220
0.0
230
1.0
 40
0.5773502691896261
 41
3.926990816986998
 42
5.497787143781896
  0
ELLIPSE
  5
324B1
330
32417
100
AcDbEntity
  8
0
100
AcDbEllipse
 10
10.96002968991417
 20
78.38359935867003
 30
0.0
 11
1.25
 21
-2.165063509461096
 31
0.0
210
0.0
220
0.0
230
1.0
 40
0.5773502691896259
 41
0.0
 42
6.283185307179586
  0
ELLIPSE
  5
324B2
330
32417
100
AcDbEntity
  8
0
100
AcDbEllipse
 10
10.96002968991417
 20
13.06387288445194
 30
0.0
 11
1.25
 21
-2.165063509461096
 31
0.0
210
0.0
220
0.0
230
1.0
 40
0.5773502691896259
 41
0.0
 42
6.283185307179586
  0
ELLIPSE
  5
324B3
330
32417
100
AcDbEntity
  8
0
100
AcDbEllipse
 10
10.96002968991417
 20
94.71353097722456
 30
0.0
 11
1.25
 21
-2.165063509461096
 31
0.0
210
0.0
220
0.0
230
1.0
 40
0.5773502691896259
 41
0.0
 42
6.283185307179586
  0
ELLIPSE
  5
324B4
330
32417
100
AcDbEntity
  8
0
100
AcDbEllipse
 10
10.96002968991417
 20
29.39380450300646
 30
0.0
 11
1.25
 21
-2.165063509461096
 31
0.0
210
0.0
220
0.0
230
1.0
 40
0.5773502691896259
 41
0.0
 42
6.283185307179586
  0
ELLIPSE
  5
324B5
330
32417
100
AcDbEntity
  8
0
100
AcDbEllipse
 10
25.45571870423839
 20
129.210511521421
 30
0.0
 11
1.250000000000125
 21
-2.165063509461015
 31
0.0
210
0.0
220
0.0
230
1.0
 40
0.5773502691896261
 41
3.926990816987
 42
5.497787143781898
  0
ELLIPSE
  5
324B6
330
32417
100
AcDbEntity
  8
0
100
AcDbEllipse
 10
23.68795175127202
 20
128.1898907952613
 30
0.0
 11
1.25
 21
-2.165063509461096
 31
0.0
210
0.0
220
0.0
230
1.0
 40
0.5773502691896259
 41
0.0
 42
6.283185307179586
  0
ELLIPSE
  5
324B7
330
32417
100
AcDbEntity
  8
0
100
AcDbEllipse
 10
12.72779664288055
 20
112.0640833219387
 30
0.0
 11
1.250000000000125
 21
-2.165063509461015
 31
0.0
210
0.0
220
0.0
230
1.0
 40
0.5773502691896261
 41
3.926990816987
 42
5.497787143781899
  0
ELLIPSE
  5
324B8
330
32417
100
AcDbEntity
  8
0
100
AcDbEllipse
 10
12.72779664288055
 20
46.74435684772065
 30
0.0
 11
1.250000000000125
 21
-2.165063509461015
 31
0.0
210
0.0
220
0.0
230
1.0
 40
0.5773502691896261
 41
3.926990816986997
 42
5.497787143781893
  0
ELLIPSE
  5
324B9
330
32417
100
AcDbEntity
  8
0
100
AcDbEllipse
 10
10.96002968991418
 20
111.0434625957791
 30
0.0
 11
1.25
 21
-2.165063509461096
 31
0.0
210
0.0
220
0.0
230
1.0
 40
0.5773502691896259
 41
0.0
 42
6.283185307179586
  0
ELLIPSE
  5
324BA
330
32417
100
AcDbEntity
  8
0
100
AcDbEllipse
 10
10.96002968991417
 20
45.72373612156098
 30
0.0
 11
1.25
 21
-2.165063509461096
 31
0.0
210
0.0
220
0.0
230
1.0
 40
0.5773502691896259
 41
0.0
 42
6.283185307179586
  0
ELLIPSE
  5
324BB
330
32417
100
AcDbEntity
  8
0
100
AcDbEllipse
 10
12.72779664288055
 20
-2.245438007942901
 30
0.0
 11
1.250000000000125
 21
-2.165063509461015
 31
0.0
210
0.0
220
0.0
230
1.0
 40
0.5773502691896261
 41
3.926990816987
 42
5.497787143781895
  0
ELLIPSE
  5
324BC
330
32417
100
AcDbEntity
  8
0
100
AcDbEllipse
 10
12.72779664288055
 20
144.7239465590478
 30
0.0
 11
1.250000000000125
 21
-2.165063509461015
 31
0.0
210
0.0
220
0.0
230
1.0
 40
0.5773502691896261
 41
3.926990816987
 42
5.497787143781899
  0
ELLIPSE
  5
324BD
330
32417
100
AcDbEntity
  8
0
100
AcDbEllipse
 10
12.72779664288054
 20
-34.90530124505195
 30
0.0
 11
1.250000000000125
 21
-2.165063509461015
 31
0.0
210
0.0
220
0.0
230
0.9999999999999998
 40
0.5773502691896259
 41
3.926990816987
 42
5.497787143781894
  0
ELLIPSE
  5
324BE
330
32417
100
AcDbEntity
  8
0
100
AcDbEllipse
 10
10.96002968991417
 20
-3.266058734102568
 30
0.0
 11
1.25
 21
-2.165063509461096
 31
0.0
210
0.0
220
0.0
230
1.0
 40
0.5773502691896259
 41
0.0
 42
6.283185307179586
  0
ELLIPSE
  5
324BF
330
32417
100
AcDbEntity
  8
0
100
AcDbEllipse
 10
10.96002968991418
 20
143.7033258328881
 30
0.0
 11
1.25
 21
-2.165063509461096
 31
0.0
210
0.0
220
0.0
230
1.0
 40
0.5773502691896259
 41
0.0
 42
6.283185307179586
  0
ELLIPSE
  5
324C0
330
32417
100
AcDbEntity
  8
0
100
AcDbEllipse
 10
10.96002968991417
 20
-35.92592197121162
 30
0.0
 11
1.25
 21
-2.165063509461096
 31
0.0
210
0.0
220
0.0
230
1.0
 40
0.5773502691896259
 41
0.0
 42
6.283185307179586
  0
ELLIPSE
  5
324C1
330
32417
100
AcDbEntity
  8
0
100
AcDbEllipse
 10
16.26333054881324
 20
61.0330470139559
 30
0.0
 11
-3.499999999999999
 21
6.062177826491065
 31
0.0
210
0.0
220
0.0
230
1.0
 40
0.5773502691896258
 41
0.2553025216024094
 42
2.886290131987383
  0
ELLIPSE
  5
324C2
330
32417
100
AcDbEntity
  8
0
100
AcDbEllipse
 10
16.26333054881324
 20
126.3527734881739
 30
0.0
 11
-3.499999999999999
 21
6.062177826491065
 31
0.0
210
0.0
220
0.0
230
1.0
 40
0.5773502691896258
 41
0.255302521602407
 42
2.886290131987383
  0
ELLIPSE
  5
324C3
330
32417
100
AcDbEntity
  8
0
100
AcDbEllipse
 10
16.26333054881323
 20
-20.61661107881672
 30
0.0
 11
-3.499999999999998
 21
6.062177826491065
 31
0.0
210
0.0
220
0.0
230
0.9999999999999998
 40
0.577350269189626
 41
0.2553025216024052
 42
2.886290131987386
  0
ELLIPSE
  5
324C4
330
32417
100
AcDbEntity
  8
0
100
AcDbEllipse
 10
14.49556359584686
 20
60.01242628779623
 30
0.0
 11
3.500000000000001
 21
-6.062177826491071
 31
0.0
210
0.0
220
0.0
230
1.0
 40
0.577350269189626
 41
0.0
 42
6.283185307179586
  0
ELLIPSE
  5
324C5
330
32417
100
AcDbEntity
  8
0
100
AcDbEllipse
 10
14.49556359584686
 20
125.3321527620143
 30
0.0
 11
3.500000000000001
 21
-6.062177826491071
 31
0.0
210
0.0
220
0.0
230
1.0
 40
0.577350269189626
 41
0.0
 42
6.283185307179586
  0
ELLIPSE
  5
324C6
330
32417
100
AcDbEntity
  8
0
100
AcDbEllipse
 10
14.49556359584686
 20
-21.63723180497637
 30
0.0
 11
3.500000000000001
 21
-6.062177826491071
 31
0.0
210
0.0
220
0.0
230
1.0
 40
0.577350269189626
 41
0.0
 42
6.283185307179586
  0
LINE
  5
324C7
330
32417
100
AcDbEntity
  8
0
100
AcDbLine
 10
30.75901956313753
 20
140.4373395091772
 30
0.0
 11
7.070942393388177
 21
154.1136572397166
 31
0.0
  0
LINE
  5
324C8
330
32417
100
AcDbEntity
  8
0
100
AcDbLine
 10
30.75901956313753
 20
104.5114899483574
 30
0.0
 11
30.75901956313753
 21
140.4373395091772
 31
0.0
  0
LINE
  5
324C9
330
32417
100
AcDbEntity
  8
0
100
AcDbLine
 10
28.99125261017116
 20
-35.01586766061298
 30
0.0
 11
28.99125261017116
 21
-33.5228327330405
 31
0.0
  0
LINE
  5
324CA
330
32417
100
AcDbEntity
  8
0
100
AcDbLine
 10
28.99125261017116
 20
-18.68593604205838
 30
0.0
 11
28.99125261017116
 21
-17.19290111448595
 31
0.0
  0
LINE
  5
324CB
330
32417
100
AcDbEntity
  8
0
100
AcDbLine
 10
28.99125261017116
 20
-2.356004423503765
 30
0.0
 11
28.99125261017116
 21
-0.8629694959313916
 31
0.0
  0
LINE
  5
324CC
330
32417
100
AcDbEntity
  8
0
100
AcDbLine
 10
28.99125261017116
 20
13.97392719505081
 30
0.0
 11
28.99125261017116
 21
15.46696212262311
 31
0.0
  0
LINE
  5
324CD
330
32417
100
AcDbEntity
  8
0
100
AcDbLine
 10
28.99125261017116
 20
30.30385881360541
 30
0.0
 11
28.99125261017116
 21
31.79689374117773
 31
0.0
  0
LINE
  5
324CE
330
32417
100
AcDbEntity
  8
0
100
AcDbLine
 10
28.99125261017116
 20
46.63379043216005
 30
0.0
 11
28.99125261017116
 21
48.12682535973225
 31
0.0
  0
LINE
  5
324CF
330
32417
100
AcDbEntity
  8
0
100
AcDbLine
 10
28.99125261017116
 20
62.96372205071467
 30
0.0
 11
28.99125261017116
 21
64.45675697828683
 31
0.0
  0
LINE
  5
324D0
330
32417
100
AcDbEntity
  8
0
100
AcDbLine
 10
28.99125261017116
 20
79.29365366926927
 30
0.0
 11
28.99125261017116
 21
80.78668859684135
 31
0.0
  0
LINE
  5
324D1
330
32417
100
AcDbEntity
  8
0
100
AcDbLine
 10
28.99125261017116
 20
95.62358528782382
 30
0.0
 11
28.99125261017116
 21
97.11662021539593
 31
0.0
  0
LINE
  5
324D2
330
32417
100
AcDbEntity
  8
0
100
AcDbLine
 10
28.99125261017116
 20
103.4908692221978
 30
0.0
 11
28.99125261017116
 21
139.4167187830175
 31
0.0
  0
LINE
  5
324D3
330
32417
100
AcDbEntity
  8
0
100
AcDbLine
 10
5.303175440421807
 20
153.0930365135569
 30
0.0
 11
28.99125261017116
 21
139.4167187830175
 31
0.0
  0
LINE
  5
324D4
330
32417
100
AcDbEntity
  8
0
100
AcDbLine
 10
28.99125261017116
 20
139.4167187830175
 30
0.0
 11
30.75901956313753
 21
140.4373395091772
 31
0.0
  0
ELLIPSE
  5
324D5
330
32417
100
AcDbEntity
  8
0
100
AcDbEllipse
 10
-19.44556190110735
 20
-128.5982839065085
 30
0.0
 11
-2.5
 21
0.0000000000001497
 31
0.0
210
0.0
220
0.0
230
1.0
 40
0.5773502691896258
 41
0.0
 42
6.283185307179586
  0
ELLIPSE
  5
324D6
330
32417
100
AcDbEntity
  8
0
100
AcDbEllipse
 10
-19.44556190110735
 20
-130.6395253588278
 30
0.0
 11
-2.5
 21
-0.0000000000001492
 31
0.0
210
0.0
220
0.0
230
1.0
 40
0.5773502691896258
 41
3.926990816986991
 42
5.497787143781888
  0
LINE
  5
324D7
330
32417
100
AcDbEntity
  8
0
100
AcDbLine
 10
5.303175440421799
 20
-40.8393757411656
 30
0.0
 11
21.13921306427915
 21
-45.08262923378709
 31
0.0
  0
SPLINE
  5
324D8
330
32417
100
AcDbEntity
  8
0
100
AcDbSpline
210
0.0
220
0.0
230
1.0
 70
     8
 71
     3
 72
     8
 73
     4
 74
     0
 42
0.000000001
 43
0.0000000001
 40
0.0
 40
0.0
 40
0.0
 40
0.0
 40
1.0
 40
1.0
 40
1.0
 40
1.0
 10
4.460030213755912
 20
-40.80208931041354
 30
0.0
 10
4.774800393854738
 20
-40.78005873270226
 30
0.0
 10
5.063612373847568
 20
-40.79543781856684
 30
0.0
 10
5.303175440421799
 20
-40.83937574116565
 30
0.0
  0
SPLINE
  5
324D9
330
32417
100
AcDbEntity
  8
0
100
AcDbSpline
210
0.0
220
0.0
230
1.0
 70
     8
 71
     3
 72
    14
 73
    10
 74
     0
 42
0.000000001
 43
0.0000000001
 40
0.0
 40
0.0
 40
0.0
 40
0.0
 40
0.7894653656269499
 40
0.7894653656269499
 40
0.7894653656269499
 40
0.935935862670748
 40
0.935935862670748
 40
0.935935862670748
 40
1.0
 40
1.0
 40
1.0
 40
1.0
 10
1.767641534489032
 20
-45.0658730492693
 30
0.0
 10
1.767641502217252
 20
-43.65958401345289
 30
0.0
 10
2.326846383189722
 20
-41.86872601049294
 30
0.0
 10
3.488701992513028
 20
-41.13631969467668
 30
0.0
 10
3.704262517395031
 20
-41.00043543453509
 30
0.0
 10
3.933031344247446
 20
-40.90237233272733
 30
0.0
 10
4.161632144769309
 20
-40.84812035292817
 30
0.0
 10
4.26161892281534
 20
-40.82439129926627
 30
0.0
 10
4.361516994602476
 20
-40.80898418805016
 30
0.0
 10
4.460030213755898
 20
-40.80208931041337
 30
0.0
  0
ENDBLK
  5
32419
330
32417
100
AcDbEntity
  8
0
100
AcDbBlockEnd
  0
ENDSEC
  0
SECTION
  2
ENTITIES
  0
INSERT
  5
324DA
330
1F
100
AcDbEntity
  8
0
100
AcDbBlockReference
  2
GLI660_80_2.5-Front
 10
0.0
 20
0.0
 30
0.0
  0
INSERT
  5
324DB
330
1F
100
AcDbEntity
  8
0
100
AcDbBlockReference
  2
GLI660_80_2.5-Left
 10
130.2500000000001
 20
0.0
 30
0.0
  0
INSERT
  5
324DC
330
1F
100
AcDbEntity
  8
0
100
AcDbBlockReference
  2
GLI660_80_2.5-Right
 10
-130.25
 20
0.0
 30
0.0
  0
INSERT
  5
324DD
330
1F
100
AcDbEntity
  8
0
100
AcDbBlockReference
  2
GLI660_80_2.5-Top
 10
0.0
 20
-90.25000000000002
 30
0.0
  0
INSERT
  5
324DE
330
1F
100
AcDbEntity
  8
0
100
AcDbBlockReference
  2
GLI660_80_2.5-Bottom
 10
0.0
 20
377.75
 30
0.0
  0
INSERT
  5
324DF
330
1F
100
AcDbEntity
  8
0
100
AcDbBlockReference
  2
GLI660_80_2.5-ISO
 10
193.8897357252668
 20
-245.2091671333454
 30
0.0
  0
MTEXT
  5
324E0
330
1F
100
AcDbEntity
  8
0
100
AcDbMText
 10
0.0
 20
-273.0
 30
0.0
 40
13.71052631578948
 41
0.0
 71
     5
 72
     5
  1
GLI660/80/2.5
 73
     1
 44
1.0
1001
ACAD
1000
MTEXTBEGIN
1070
    73
1070
     1
1070
    44
1040
1.0
1070
    74
1070
     0
1000
MTEXTEND
  0
ENDSEC
  0
SECTION
  2
OBJECTS
  0
DICTIONARY
  5
C
330
0
100
AcDbDictionary
281
     1
  3
ACAD_CIP_PREVIOUS_PRODUCT_INFO
350
1A5
  3
ACAD_COLOR
350
73
  3
ACAD_DETAILVIEWSTYLE
350
1AB
  3
ACAD_GROUP
350
D
  3
ACAD_LAYOUT
350
1A
  3
ACAD_MATERIAL
350
72
  3
ACAD_MLEADERSTYLE
350
D7
  3
ACAD_MLINESTYLE
350
17
  3
ACAD_PLOTSETTINGS
350
19
  3
ACAD_PLOTSTYLENAME
350
E
  3
ACAD_SCALELIST
350
B6
  3
ACAD_SECTIONVIEWSTYLE
350
1A8
  3
ACAD_TABLESTYLE
350
86
  3
ACAD_VISUALSTYLE
350
99
  3
ACDB_RECOMPOSE_DATA
350
325DA
  3
AcDbVariableDictionary
350
66
  3
DWGPROPS
350
325DB
  0
DICTIONARY
  5
32532
330
8
100
AcDbDictionary
280
     1
281
     1
  0
DICTIONARY
  5
18E
330
2
100
AcDbDictionary
280
     1
281
     1
  3
ACAD_LAYERSTATES
360
18F
  0
DICTIONARY
  5
E6
330
10
100
AcDbDictionary
280
     1
281
     1
  0
DICTIONARY
  5
15D
330
1F
100
AcDbDictionary
280
     1
281
     1
  3
ACAD_LAYOUTSELFREF
360
3253A
  0
DICTIONARY
  5
324E4
330
58
100
AcDbDictionary
280
     1
281
     1
  3
ACAD_LAYOUTSELFREF
360
3253C
  0
DICTIONARY
  5
324E6
330
5D
100
AcDbDictionary
280
     1
281
     1
  3
ACAD_LAYOUTSELFREF
360
3253F
  0
XRECORD
  5
1A5
102
{ACAD_REACTORS
330
C
102
}
330
C
100
AcDbXrecord
280
     1
300
ACD
300
2021
300
87393ACD_2021_0F
  0
DICTIONARY
  5
73
102
{ACAD_REACTORS
330
C
102
}
330
C
100
AcDbDictionary
281
     1
  0
DICTIONARY
  5
1AB
102
{ACAD_REACTORS
330
C
102
}
330
C
100
AcDbDictionary
281
     1
  3
Imperial24
350
1AC
  0
DICTIONARY
  5
D
102
{ACAD_REACTORS
330
C
102
}
330
C
100
AcDbDictionary
281
     1
  0
DICTIONARY
  5
1A
102
{ACAD_REACTORS
330
C
102
}
330
C
100
AcDbDictionary
281
     1
  3
Layout1
350
59
  3
Layout2
350
5E
  3
Model
350
22
  0
DICTIONARY
  5
72
102
{ACAD_REACTORS
330
C
102
}
330
C
100
AcDbDictionary
281
     1
  3
ByBlock
350
97
  3
ByLayer
350
96
  3
Global
350
98
  0
DICTIONARY
  5
D7
102
{ACAD_REACTORS
330
C
102
}
330
C
100
AcDbDictionary
281
     1
  3
Standard
350
D8
  0
DICTIONARY
  5
17
102
{ACAD_REACTORS
330
C
102
}
330
C
100
AcDbDictionary
281
     1
  3
Standard
350
18
  0
DICTIONARY
  5
19
102
{ACAD_REACTORS
330
C
102
}
330
C
100
AcDbDictionary
281
     1
  0
ACDBDICTIONARYWDFLT
  5
E
102
{ACAD_REACTORS
330
C
102
}
330
C
100
AcDbDictionary
281
     1
  3
Normal
350
F
100
AcDbDictionaryWithDefault
340
F
  0
DICTIONARY
  5
B6
102
{ACAD_REACTORS
330
C
102
}
330
C
100
AcDbDictionary
281
     1
  3
A0
350
B7
  3
A1
350
124
  3
A2
350
125
  3
A3
350
126
  3
A4
350
127
  3
A5
350
128
  3
A6
350
129
  3
A7
350
12A
  3
A8
350
12B
  3
A9
350
12C
  3
B0
350
12D
  3
B1
350
12E
  3
B2
350
12F
  3
B3
350
130
  3
B4
350
131
  3
B5
350
132
  3
B6
350
133
  3
B7
350
134
  3
B8
350
135
  3
B9
350
136
  3
C0
350
137
  3
C1
350
138
  3
C2
350
139
  3
C3
350
13A
  3
C4
350
13B
  3
C5
350
13C
  3
C6
350
13D
  3
C7
350
13E
  3
C8
350
13F
  3
C9
350
140
  3
D0
350
141
  3
D1
350
142
  3
D2
350
143
  0
DICTIONARY
  5
1A8
102
{ACAD_REACTORS
330
C
102
}
330
C
100
AcDbDictionary
281
     1
  3
Imperial24
350
1AA
  0
DICTIONARY
  5
86
102
{ACAD_REACTORS
330
C
102
}
330
C
100
AcDbDictionary
281
     1
  3
Standard
350
87
  0
DICTIONARY
  5
99
102
{ACAD_REACTORS
330
C
102
}
330
C
100
AcDbDictionary
281
     1
  3
2dWireframe
350
9F
  3
Basic
350
9E
  3
Brighten
350
A5
  3
ColorChange
350
A9
  3
Conceptual
350
A2
  3
Dim
350
A4
  3
EdgeColorOff
350
175
  3
Facepattern
350
A8
  3
Flat
350
9A
  3
FlatWithEdges
350
9B
  3
Gouraud
350
9C
  3
GouraudWithEdges
350
9D
  3
Hidden
350
A1
  3
JitterOff
350
173
  3
Linepattern
350
A7
  3
OverhangOff
350
174
  3
Realistic
350
A3
  3
Shaded
350
182
  3
Shaded with edges
350
181
  3
Shades of Gray
350
17E
  3
Sketchy
350
17F
  3
Thicken
350
A6
  3
Wireframe
350
A0
  3
X-Ray
350
180
  0
XRECORD
  5
325DA
102
{ACAD_REACTORS
330
C
102
}
330
C
100
AcDbXrecord
280
     1
 90
        1
330
87
  0
DICTIONARY
  5
66
102
{ACAD_REACTORS
330
C
102
}
330
C
100
AcDbDictionary
281
     1
  3
CANNOSCALE
350
F0
  3
CMLEADERSTYLE
350
EF
  3
CTABLESTYLE
350
89
  3
CVIEWDETAILSTYLE
350
1B7
  3
CVIEWSECTIONSTYLE
350
1B8
  3
DIMASSOC
350
67
  3
HIDETEXT
350
6B
  3
INDEXCTL
350
3258D
  3
LAYEREVAL
350
14D
  3
LAYERNOTIFY
350
14E
  3
LIGHTINGUNITS
350
3258B
  3
MSLTSCALE
350
3258A
  3
SORTENTS
350
3258C
  3
XCLIPFRAME
350
325D8
  0
XRECORD
  5
325DB
102
{ACAD_REACTORS
330
C
102
}
330
C
100
AcDbXrecord
280
     1
  1
DWGPROPS COOKIE
  2

  3

  4

  6

  7

  8
truole
  9

300
=
301
=
302
=
303
=
304
=
305
=
306
=
307
=
308
=
309
=
 40
0.0131712962962963
 41
2460413.378657408
 42
2460413.419189815
  1

 90
        0
  0
DICTIONARY
  5
18F
102
{ACAD_REACTORS
330
18E
102
}
330
18E
100
AcDbDictionary
281
     1
  0
XRECORD
  5
3253A
102
{ACAD_REACTORS
330
15D
102
}
330
15D
100
AcDbXrecord
280
     1
340
1F
  0
XRECORD
  5
3253C
102
{ACAD_REACTORS
330
324E4
102
}
330
324E4
100
AcDbXrecord
280
     1
340
58
  0
XRECORD
  5
3253F
102
{ACAD_REACTORS
330
324E6
102
}
330
324E6
100
AcDbXrecord
280
     1
340
5D
  0
ACDBDETAILVIEWSTYLE
  5
1AC
102
{ACAD_XDICTIONARY
360
3261A
102
}
102
{ACAD_REACTORS
330
1AB
102
}
330
1AB
100
AcDbModelDocViewStyle
 70
     0
  3
Imperial24
290
     0
100
AcDbDetailViewStyle
 70
     0
 71
     0
 90
        3
 71
     1
340
11
 40
0.24
340
0
 40
0.24
300

 40
0.36
280
     3
 71
     2
340
16
 90
       25
 71
     3
340
11
 40
0.24
 90
        1
 40
0.75
 90
        1
300
%<\AcVar ViewType \f "%tc1">% %<\AcVar ViewDetailId>%\PSCALE %<\AcVar ViewScale \f "%sn">%
 71
     4
340
16
 90
       25
340
16
 90
       25
280
     0
  0
LAYOUT
  5
59
102
{ACAD_XDICTIONARY
360
325DE
102
}
102
{ACAD_REACTORS
330
1A
102
}
330
1A
100
AcDbPlotSettings
  1

  2
None
  4

  6

 40
0.0
 41
0.0
 42
0.0
 43
0.0
 44
0.0
 45
0.0
 46
0.0
 47
0.0
 48
0.0
 49
0.0
140
0.0
141
0.0
142
1.0
143
1.0
 70
   688
 72
     0
 73
     0
 74
     5
  7

 75
    16
147
1.0
148
0.0
149
0.0
100
AcDbLayout
  1
Layout1
 70
     1
 71
     1
 10
0.0
 20
0.0
 11
12.0
 21
9.0
 12
0.0
 22
0.0
 32
0.0
 14
0.0
 24
0.0
 34
0.0
 15
0.0
 25
0.0
 35
0.0
146
0.0
 13
0.0
 23
0.0
 33
0.0
 16
1.0
 26
0.0
 36
0.0
 17
0.0
 27
1.0
 37
0.0
 76
     0
330
58
  0
LAYOUT
  5
5E
102
{ACAD_XDICTIONARY
360
325E0
102
}
102
{ACAD_REACTORS
330
1A
102
}
330
1A
100
AcDbPlotSettings
  1

  2
None
  4

  6

 40
0.0
 41
0.0
 42
0.0
 43
0.0
 44
0.0
 45
0.0
 46
0.0
 47
0.0
 48
0.0
 49
0.0
140
0.0
141
0.0
142
1.0
143
1.0
 70
   688
 72
     0
 73
     0
 74
     5
  7

 75
    16
147
1.0
148
0.0
149
0.0
100
AcDbLayout
  1
Layout2
 70
     1
 71
     2
 10
0.0
 20
0.0
 11
12.0
 21
9.0
 12
0.0
 22
0.0
 32
0.0
 14
0.0
 24
0.0
 34
0.0
 15
0.0
 25
0.0
 35
0.0
146
0.0
 13
0.0
 23
0.0
 33
0.0
 16
1.0
 26
0.0
 36
0.0
 17
0.0
 27
1.0
 37
0.0
 76
     0
330
5D
  0
LAYOUT
  5
22
102
{ACAD_XDICTIONARY
360
325DC
102
}
102
{ACAD_REACTORS
330
1A
102
}
330
1A
100
AcDbPlotSettings
  1

  2
none_device
  4
ANSI_A_(8.50_x_11.00_Inches)
  6

 40
6.349999904632568
 41
19.04999923706055
 42
6.350006103515625
 43
19.04998779296875
 44
215.8999938964844
 45
279.3999938964844
 46
0.0
 47
0.0
 48
0.0
 49
0.0
140
0.0
141
0.0
142
1.0
143
2.584895464708373
 70
 11952
 72
     0
 73
     1
 74
     0
  7

 75
     0
147
0.3868628397755418
148
0.0
149
0.0
100
AcDbLayout
  1
Model
 70
     1
 71
     0
 10
0.0
 20
0.0
 11
12.0
 21
9.0
 12
0.0
 22
0.0
 32
0.0
 14
0.0
 24
0.0
 34
0.0
 15
0.0
 25
0.0
 35
0.0
146
0.0
 13
0.0
 23
0.0
 33
0.0
 16
1.0
 26
0.0
 36
0.0
 17
0.0
 27
1.0
 37
0.0
 76
     0
330
1F
331
94
  0
MATERIAL
  5
97
102
{ACAD_XDICTIONARY
360
188
102
}
102
{ACAD_REACTORS
330
72
102
}
330
72
100
AcDbMaterial
  1
ByBlock
  0
MATERIAL
  5
96
102
{ACAD_XDICTIONARY
360
186
102
}
102
{ACAD_REACTORS
330
72
102
}
330
72
100
AcDbMaterial
  1
ByLayer
  0
MATERIAL
  5
98
102
{ACAD_XDICTIONARY
360
110
102
}
102
{ACAD_REACTORS
330
72
102
}
330
72
100
AcDbMaterial
  1
Global
 43
0.0208000000566244
 43
0.0
 43
0.0
 43
0.0
 43
0.0
 43
0.0208000000566244
 43
0.0
 43
0.0
 43
0.0
 43
0.0
 43
1.0
 43
0.0
 43
0.0
 43
0.0
 43
0.0
 43
1.0
 49
0.0208000000566244
 49
0.0
 49
0.0
 49
0.0
 49
0.0
 49
0.0208000000566244
 49
0.0
 49
0.0
 49
0.0
 49
0.0
 49
1.0
 49
0.0
 49
0.0
 49
0.0
 49
0.0
 49
1.0
142
0.0208000000566244
142
0.0
142
0.0
142
0.0
142
0.0
142
0.0208000000566244
142
0.0
142
0.0
142
0.0
142
0.0
142
1.0
142
0.0
142
0.0
142
0.0
142
0.0
142
1.0
144
0.0208000000566244
144
0.0
144
0.0
144
0.0
144
0.0
144
0.0208000000566244
144
0.0
144
0.0
144
0.0
144
0.0
144
1.0
144
0.0
144
0.0
144
0.0
144
0.0
144
1.0
1001
ACAD
1070
    -1
1070
     3
1070
     0
1000

1071
        0
1070
     0
  0
MLEADERSTYLE
  5
D8
102
{ACAD_XDICTIONARY
360
32606
102
}
102
{ACAD_REACTORS
330
D7
102
}
330
D7
100
AcDbMLeaderStyle
170
     2
171
     1
172
     0
 90
        2
 40
0.0
 41
0.0
173
     1
 91
-1056964608
340
14
 92
       -2
290
     1
 42
0.09
291
     1
 43
0.36
  3
Standard
 44
0.18
300

342
11
174
     1
178
     1
175
     1
176
     0
 93
-1056964608
 45
0.18
292
     0
297
     0
 46
0.18
 94
-1056964608
 47
1.0
 49
1.0
140
1.0
293
     1
141
0.0
294
     1
177
     0
142
1.0
295
     0
296
     0
143
0.125
1001
ACAD_MLEADERVER
1070
     2
  0
MLINESTYLE
  5
18
102
{ACAD_REACTORS
330
17
102
}
330
17
100
AcDbMlineStyle
  2
STANDARD
 70
     0
  3

 62
   256
 51
90.0
 52
90.0
 71
     2
 49
0.5
 62
   256
  6
BYLAYER
 49
-0.5
 62
   256
  6
BYLAYER
  0
ACDBPLACEHOLDER
  5
F
102
{ACAD_REACTORS
330
E
102
}
330
E
  0
SCALE
  5
B7
102
{ACAD_REACTORS
330
B6
102
}
330
B6
100
AcDbScale
 70
     0
300
1:1
140
1.0
141
1.0
290
     1
  0
SCALE
  5
124
102
{ACAD_REACTORS
330
B6
102
}
330
B6
100
AcDbScale
 70
     0
300
1:2
140
1.0
141
2.0
290
     0
  0
SCALE
  5
125
102
{ACAD_REACTORS
330
B6
102
}
330
B6
100
AcDbScale
 70
     0
300
1:4
140
1.0
141
4.0
290
     0
  0
SCALE
  5
126
102
{ACAD_REACTORS
330
B6
102
}
330
B6
100
AcDbScale
 70
     0
300
1:5
140
1.0
141
5.0
290
     0
  0
SCALE
  5
127
102
{ACAD_REACTORS
330
B6
102
}
330
B6
100
AcDbScale
 70
     0
300
1:8
140
1.0
141
8.0
290
     0
  0
SCALE
  5
128
102
{ACAD_REACTORS
330
B6
102
}
330
B6
100
AcDbScale
 70
     0
300
1:10
140
1.0
141
10.0
290
     0
  0
SCALE
  5
129
102
{ACAD_REACTORS
330
B6
102
}
330
B6
100
AcDbScale
 70
     0
300
1:16
140
1.0
141
16.0
290
     0
  0
SCALE
  5
12A
102
{ACAD_REACTORS
330
B6
102
}
330
B6
100
AcDbScale
 70
     0
300
1:20
140
1.0
141
20.0
290
     0
  0
SCALE
  5
12B
102
{ACAD_REACTORS
330
B6
102
}
330
B6
100
AcDbScale
 70
     0
300
1:30
140
1.0
141
30.0
290
     0
  0
SCALE
  5
12C
102
{ACAD_REACTORS
330
B6
102
}
330
B6
100
AcDbScale
 70
     0
300
1:40
140
1.0
141
40.0
290
     0
  0
SCALE
  5
12D
102
{ACAD_REACTORS
330
B6
102
}
330
B6
100
AcDbScale
 70
     0
300
1:50
140
1.0
141
50.0
290
     0
  0
SCALE
  5
12E
102
{ACAD_REACTORS
330
B6
102
}
330
B6
100
AcDbScale
 70
     0
300
1:100
140
1.0
141
100.0
290
     0
  0
SCALE
  5
12F
102
{ACAD_REACTORS
330
B6
102
}
330
B6
100
AcDbScale
 70
     0
300
2:1
140
2.0
141
1.0
290
     0
  0
SCALE
  5
130
102
{ACAD_REACTORS
330
B6
102
}
330
B6
100
AcDbScale
 70
     0
300
4:1
140
4.0
141
1.0
290
     0
  0
SCALE
  5
131
102
{ACAD_REACTORS
330
B6
102
}
330
B6
100
AcDbScale
 70
     0
300
8:1
140
8.0
141
1.0
290
     0
  0
SCALE
  5
132
102
{ACAD_REACTORS
330
B6
102
}
330
B6
100
AcDbScale
 70
     0
300
10:1
140
10.0
141
1.0
290
     0
  0
SCALE
  5
133
102
{ACAD_REACTORS
330
B6
102
}
330
B6
100
AcDbScale
 70
     0
300
100:1
140
100.0
141
1.0
290
     0
  0
SCALE
  5
134
102
{ACAD_REACTORS
330
B6
102
}
330
B6
100
AcDbScale
 70
     0
300
1/128" = 1'-0"
140
0.0078125
141
12.0
290
     0
  0
SCALE
  5
135
102
{ACAD_REACTORS
330
B6
102
}
330
B6
100
AcDbScale
 70
     0
300
1/64" = 1'-0"
140
0.015625
141
12.0
290
     0
  0
SCALE
  5
136
102
{ACAD_REACTORS
330
B6
102
}
330
B6
100
AcDbScale
 70
     0
300
1/32" = 1'-0"
140
0.03125
141
12.0
290
     0
  0
SCALE
  5
137
102
{ACAD_REACTORS
330
B6
102
}
330
B6
100
AcDbScale
 70
     0
300
1/16" = 1'-0"
140
0.0625
141
12.0
290
     0
  0
SCALE
  5
138
102
{ACAD_REACTORS
330
B6
102
}
330
B6
100
AcDbScale
 70
     0
300
3/32" = 1'-0"
140
0.09375
141
12.0
290
     0
  0
SCALE
  5
139
102
{ACAD_REACTORS
330
B6
102
}
330
B6
100
AcDbScale
 70
     0
300
1/8" = 1'-0"
140
0.125
141
12.0
290
     0
  0
SCALE
  5
13A
102
{ACAD_REACTORS
330
B6
102
}
330
B6
100
AcDbScale
 70
     0
300
3/16" = 1'-0"
140
0.1875
141
12.0
290
     0
  0
SCALE
  5
13B
102
{ACAD_REACTORS
330
B6
102
}
330
B6
100
AcDbScale
 70
     0
300
1/4" = 1'-0"
140
0.25
141
12.0
290
     0
  0
SCALE
  5
13C
102
{ACAD_REACTORS
330
B6
102
}
330
B6
100
AcDbScale
 70
     0
300
3/8" = 1'-0"
140
0.375
141
12.0
290
     0
  0
SCALE
  5
13D
102
{ACAD_REACTORS
330
B6
102
}
330
B6
100
AcDbScale
 70
     0
300
1/2" = 1'-0"
140
0.5
141
12.0
290
     0
  0
SCALE
  5
13E
102
{ACAD_REACTORS
330
B6
102
}
330
B6
100
AcDbScale
 70
     0
300
3/4" = 1'-0"
140
0.75
141
12.0
290
     0
  0
SCALE
  5
13F
102
{ACAD_REACTORS
330
B6
102
}
330
B6
100
AcDbScale
 70
     0
300
1" = 1'-0"
140
1.0
141
12.0
290
     0
  0
SCALE
  5
140
102
{ACAD_REACTORS
330
B6
102
}
330
B6
100
AcDbScale
 70
     0
300
1-1/2" = 1'-0"
140
1.5
141
12.0
290
     0
  0
SCALE
  5
141
102
{ACAD_REACTORS
330
B6
102
}
330
B6
100
AcDbScale
 70
     0
300
3" = 1'-0"
140
3.0
141
12.0
290
     0
  0
SCALE
  5
142
102
{ACAD_REACTORS
330
B6
102
}
330
B6
100
AcDbScale
 70
     0
300
6" = 1'-0"
140
6.0
141
12.0
290
     0
  0
SCALE
  5
143
102
{ACAD_REACTORS
330
B6
102
}
330
B6
100
AcDbScale
 70
     0
300
1'-0" = 1'-0"
140
12.0
141
12.0
290
     0
  0
ACDBSECTIONVIEWSTYLE
  5
1AA
102
{ACAD_XDICTIONARY
360
32618
102
}
102
{ACAD_REACTORS
330
1A8
102
}
330
1A8
100
AcDbModelDocViewStyle
 70
     0
  3
Imperial24
290
     0
100
AcDbSectionViewStyle
 70
     0
 71
     0
 90
       78
 71
     1
340
11
 40
0.24
340
0
340
0
 40
0.24
300
I, O, Q, S, X, Z
 40
0.48
 90
        3
 40
0.18
 90
        1
 71
     2
340
16
 90
       25
340
16
 90
       50
 40
0.24
 40
0.0
 40
0.24
 71
     3
340
11
 40
0.24
 90
        1
 40
0.75
 90
        1
300
%<\AcVar ViewType \f "%tc1">% %<\AcVar ViewSectionStartId>%-%<\AcVar ViewSectionEndId>%\PSCALE %<\AcVar ViewScale \f "%sn">%
 71
     4
300
ANSI31
 40
1.0
 90
        0
290
     0
290
     0
 90
        6
 40
0.0
 40
1.570796326794896
 40
0.2617993877991494
 40
1.308996938995747
 40
-0.2617993877991494
 40
1.832595714594046
  0
TABLESTYLE
  5
87
102
{ACAD_XDICTIONARY
360
104
102
}
102
{ACAD_REACTORS
330
86
102
}
330
86
100
AcDbTableStyle
  3
Standard
 70
     0
 71
     0
 40
0.06
 41
0.06
280
     0
281
     0
  7
Standard
140
0.18
170
     2
 62
     0
 63
     7
283
     0
274
    -2
284
     1
 64
     0
275
    -2
285
     1
 65
     0
276
    -2
286
     1
 66
     0
277
    -2
287
     1
 67
     0
278
    -2
288
     1
 68
     0
279
    -2
289
     1
 69
     0
  7
Standard
140
0.25
170
     5
 62
     0
 63
     7
283
     0
274
    -2
284
     1
 64
     0
275
    -2
285
     1
 65
     0
276
    -2
286
     1
 66
     0
277
    -2
287
     1
 67
     0
278
    -2
288
     1
 68
     0
279
    -2
289
     1
 69
     0
  7
Standard
140
0.18
170
     5
 62
     0
 63
     7
283
     0
274
    -2
284
     1
 64
     0
275
    -2
285
     1
 65
     0
276
    -2
286
     1
 66
     0
277
    -2
287
     1
 67
     0
278
    -2
288
     1
 68
     0
279
    -2
289
     1
 69
     0
  0
VISUALSTYLE
  5
9F
102
{ACAD_XDICTIONARY
360
325F0
102
}
102
{ACAD_REACTORS
330
99
102
}
330
99
100
AcDbVisualStyle
  2
2dWireframe
 70
     4
 71
     0
 72
     2
 73
     1
 90
        0
 40
-0.6
 41
-30.0
 62
     5
 63
     7
 74
     1
 91
        4
 64
     7
 65
   257
 75
     1
175
     1
 42
1.0
 92
        0
 66
   257
 43
1.0
 76
     1
 77
     6
 78
     2
 67
     7
 79
     5
170
     0
171
     0
290
     0
174
     0
 93
        1
 44
0.0
173
     0
291
     0
 45
0.0
1001
ACAD
1000
AcDbSavedByObjectVersion
1070
     0
  0
VISUALSTYLE
  5
9E
102
{ACAD_XDICTIONARY
360
325EE
102
}
102
{ACAD_REACTORS
330
99
102
}
330
99
100
AcDbVisualStyle
  2
Basic
 70
     7
 71
     1
 72
     0
 73
     1
 90
        0
 40
-0.6
 41
-30.0
 62
     5
 63
     7
 74
     0
 91
        4
 64
     7
 65
   257
 75
     1
175
     1
 42
1.0
 92
        8
 66
     7
 43
1.0
 76
     1
 77
     6
 78
     2
 67
     7
 79
     5
170
     0
171
     0
290
     0
174
     0
 93
        1
 44
0.0
173
     0
291
     1
 45
0.0
1001
ACAD
1000
AcDbSavedByObjectVersion
1070
     0
  0
VISUALSTYLE
  5
A5
102
{ACAD_XDICTIONARY
360
325FC
102
}
102
{ACAD_REACTORS
330
99
102
}
330
99
100
AcDbVisualStyle
  2
Brighten
 70
    12
 71
     2
 72
     2
 73
     1
 90
        0
 40
-0.6
 41
-30.0
 62
     5
 63
     7
 74
     1
 91
        4
 64
     7
 65
   257
 75
     1
175
     1
 42
1.0
 92
        8
 66
     7
 43
1.0
 76
     1
 77
     6
 78
     2
 67
     7
 79
     5
170
     0
171
     0
290
     0
174
     0
 93
        1
 44
50.0
173
     0
291
     1
 45
0.0
1001
ACAD
1000
AcDbSavedByObjectVersion
1070
     0
  0
VISUALSTYLE
  5
A9
102
{ACAD_XDICTIONARY
360
32604
102
}
102
{ACAD_REACTORS
330
99
102
}
330
99
100
AcDbVisualStyle
  2
ColorChange
 70
    16
 71
     2
 72
     2
 73
     3
 90
        0
 40
-0.6
 41
-30.0
 62
     5
 63
     8
 74
     1
 91
        4
 64
     7
 65
   257
 75
     1
175
     1
 42
1.0
 92
        8
 66
     8
 43
1.0
 76
     1
 77
     6
 78
     2
 67
     7
 79
     5
170
     0
171
     0
290
     0
174
     0
 93
        1
 44
0.0
173
     0
291
     1
 45
0.0
1001
ACAD
1000
AcDbSavedByObjectVersion
1070
     0
  0
VISUALSTYLE
  5
A2
102
{ACAD_XDICTIONARY
360
325F6
102
}
102
{ACAD_REACTORS
330
99
102
}
330
99
100
AcDbVisualStyle
  2
Conceptual
 70
     9
 71
     3
 72
     2
 73
     1
 90
        0
 40
-0.6
 41
-30.0
 62
     5
 63
     7
 74
     2
 91
        2
 64
     7
 65
   257
 75
     1
175
     1
 42
40.0
 92
        8
 66
     7
 43
1.0
 76
     1
 77
     6
 78
     2
 67
     7
 79
     3
170
     0
171
     0
290
     0
174
     0
 93
        1
 44
0.0
173
     0
291
     0
 45
0.0
1001
ACAD
1000
AcDbSavedByObjectVersion
1070
     0
  0
VISUALSTYLE
  5
A4
102
{ACAD_XDICTIONARY
360
325FA
102
}
102
{ACAD_REACTORS
330
99
102
}
330
99
100
AcDbVisualStyle
  2
Dim
 70
    11
 71
     2
 72
     2
 73
     1
 90
        0
 40
-0.6
 41
-30.0
 62
     5
 63
     7
 74
     1
 91
        4
 64
     7
 65
   257
 75
     1
175
     1
 42
1.0
 92
        8
 66
     7
 43
1.0
 76
     1
 77
     6
 78
     2
 67
     7
 79
     5
170
     0
171
     0
290
     0
174
     0
 93
        1
 44
-50.0
173
     0
291
     1
 45
0.0
1001
ACAD
1000
AcDbSavedByObjectVersion
1070
     0
  0
VISUALSTYLE
  5
175
102
{ACAD_XDICTIONARY
360
3260C
102
}
102
{ACAD_REACTORS
330
99
102
}
330
99
100
AcDbVisualStyle
  2
EdgeColorOff
 70
    22
 71
     2
 72
     2
 73
     0
 90
        0
 40
-0.6
 41
-30.0
 62
     5
 63
     7
 74
     1
 91
        4
 64
     7
 65
   257
 75
     1
175
     1
 42
1.0
 92
        8
 66
     7
 43
1.0
 76
     1
 77
     6
 78
     2
 67
     7
 79
     5
170
     0
171
     0
290
     0
174
     0
 93
        1
 44
0.0
173
     0
291
     1
 45
0.0
1001
ACAD
1000
AcDbSavedByObjectVersion
1070
     0
  0
VISUALSTYLE
  5
A8
102
{ACAD_XDICTIONARY
360
32602
102
}
102
{ACAD_REACTORS
330
99
102
}
330
99
100
AcDbVisualStyle
  2
Facepattern
 70
    15
 71
     2
 72
     2
 73
     1
 90
        0
 40
-0.6
 41
-30.0
 62
     5
 63
     7
 74
     1
 91
        4
 64
     7
 65
   257
 75
     1
175
     1
 42
1.0
 92
        8
 66
     7
 43
1.0
 76
     1
 77
     6
 78
     2
 67
     7
 79
     5
170
     0
171
     0
290
     0
174
     0
 93
        1
 44
0.0
173
     0
291
     1
 45
0.0
1001
ACAD
1000
AcDbSavedByObjectVersion
1070
     0
  0
VISUALSTYLE
  5
9A
102
{ACAD_XDICTIONARY
360
325E6
102
}
102
{ACAD_REACTORS
330
99
102
}
330
99
100
AcDbVisualStyle
  2
Flat
 70
     0
 71
     2
 72
     1
 73
     1
 90
        2
 40
-0.6
 41
30.0
 62
     5
 63
     7
 74
     0
 91
        0
 64
     7
 65
   257
 75
     1
175
     1
 42
1.0
 92
        8
 66
     7
 43
1.0
 76
     1
 77
     6
 78
     2
 67
     7
 79
     5
170
     0
171
     0
290
     0
174
     0
 93
       13
 44
0.0
173
     0
291
     1
 45
0.0
1001
ACAD
1000
AcDbSavedByObjectVersion
1070
     0
  0
VISUALSTYLE
  5
9B
102
{ACAD_XDICTIONARY
360
325E8
102
}
102
{ACAD_REACTORS
330
99
102
}
330
99
100
AcDbVisualStyle
  2
FlatWithEdges
 70
     1
 71
     2
 72
     1
 73
     1
 90
        2
 40
-0.6
 41
30.0
 62
     5
 63
     7
 74
     1
 91
        0
 64
     7
 65
   257
 75
     1
175
     1
 42
1.0
 92
        0
 66
   257
 43
1.0
 76
     1
 77
     6
 78
     2
 67
     7
 79
     5
170
     0
171
     0
290
     0
174
     0
 93
       13
 44
0.0
173
     0
291
     1
 45
0.0
1001
ACAD
1000
AcDbSavedByObjectVersion
1070
     0
  0
VISUALSTYLE
  5
9C
102
{ACAD_XDICTIONARY
360
325EA
102
}
102
{ACAD_REACTORS
330
99
102
}
330
99
100
AcDbVisualStyle
  2
Gouraud
 70
     2
 71
     2
 72
     2
 73
     1
 90
        2
 40
-0.6
 41
30.0
 62
     5
 63
     7
 74
     0
 91
        0
 64
     7
 65
   257
 75
     1
175
     1
 42
1.0
 92
        0
 66
     7
 43
1.0
 76
     1
 77
     6
 78
     2
 67
     7
 79
     5
170
     0
171
     0
290
     0
174
     0
 93
       13
 44
0.0
173
     0
291
     1
 45
0.0
1001
ACAD
1000
AcDbSavedByObjectVersion
1070
     0
  0
VISUALSTYLE
  5
9D
102
{ACAD_XDICTIONARY
360
325EC
102
}
102
{ACAD_REACTORS
330
99
102
}
330
99
100
AcDbVisualStyle
  2
GouraudWithEdges
 70
     3
 71
     2
 72
     2
 73
     1
 90
        2
 40
-0.6
 41
30.0
 62
     5
 63
     7
 74
     1
 91
        0
 64
     7
 65
   257
 75
     1
175
     1
 42
1.0
 92
        0
 66
   257
 43
1.0
 76
     1
 77
     6
 78
     2
 67
     7
 79
     5
170
     0
171
     0
290
     0
174
     0
 93
       13
 44
0.0
173
     0
291
     1
 45
0.0
1001
ACAD
1000
AcDbSavedByObjectVersion
1070
     0
  0
VISUALSTYLE
  5
A1
102
{ACAD_XDICTIONARY
360
325F4
102
}
102
{ACAD_REACTORS
330
99
102
}
330
99
100
AcDbVisualStyle
  2
Hidden
 70
     6
 71
     1
 72
     2
 73
     2
 90
        0
 40
-0.6
 41
-30.0
 62
     5
 63
     7
 74
     2
 91
        2
 64
     7
 65
   257
 75
     2
175
     1
 42
40.0
 92
        0
 66
   257
 43
1.0
 76
     1
 77
     6
 78
     2
 67
     7
 79
     3
170
     0
171
     0
290
     0
174
     0
 93
        1
 44
0.0
173
     0
291
     0
 45
0.0
1001
ACAD
1000
AcDbSavedByObjectVersion
1070
     0
  0
VISUALSTYLE
  5
173
102
{ACAD_XDICTIONARY
360
32608
102
}
102
{ACAD_REACTORS
330
99
102
}
330
99
100
AcDbVisualStyle
  2
JitterOff
 70
    20
 71
     2
 72
     2
 73
     0
 90
        0
 40
-0.6
 41
-30.0
 62
     5
 63
     7
 74
     1
 91
        4
 64
     7
 65
   257
 75
     1
175
     1
 42
1.0
 92
       10
 66
     7
 43
1.0
 76
     1
 77
     6
 78
     2
 67
     7
 79
     5
170
     0
171
     0
290
     0
174
     0
 93
        1
 44
0.0
173
     0
291
     1
 45
0.0
1001
ACAD
1000
AcDbSavedByObjectVersion
1070
     0
  0
VISUALSTYLE
  5
A7
102
{ACAD_XDICTIONARY
360
32600
102
}
102
{ACAD_REACTORS
330
99
102
}
330
99
100
AcDbVisualStyle
  2
Linepattern
 70
    14
 71
     2
 72
     2
 73
     1
 90
        0
 40
-0.6
 41
-30.0
 62
     5
 63
     7
 74
     1
 91
        4
 64
     7
 65
   257
 75
     7
175
     7
 42
1.0
 92
        8
 66
     7
 43
1.0
 76
     1
 77
     6
 78
     2
 67
     7
 79
     5
170
     0
171
     0
290
     0
174
     0
 93
        1
 44
0.0
173
     0
291
     1
 45
0.0
1001
ACAD
1000
AcDbSavedByObjectVersion
1070
     0
  0
VISUALSTYLE
  5
174
102
{ACAD_XDICTIONARY
360
3260A
102
}
102
{ACAD_REACTORS
330
99
102
}
330
99
100
AcDbVisualStyle
  2
OverhangOff
 70
    21
 71
     2
 72
     2
 73
     0
 90
        0
 40
-0.6
 41
-30.0
 62
     5
 63
     7
 74
     1
 91
        4
 64
     7
 65
   257
 75
     1
175
     1
 42
1.0
 92
        9
 66
     7
 43
1.0
 76
     1
 77
     6
 78
     2
 67
     7
 79
     5
170
     0
171
     0
290
     0
174
     0
 93
        1
 44
0.0
173
     0
291
     1
 45
0.0
1001
ACAD
1000
AcDbSavedByObjectVersion
1070
     0
  0
VISUALSTYLE
  5
A3
102
{ACAD_XDICTIONARY
360
325F8
102
}
102
{ACAD_REACTORS
330
99
102
}
330
99
100
AcDbVisualStyle
  2
Realistic
 70
     8
 71
     2
 72
     2
 73
     0
 90
        2
 40
-0.6
 41
30.0
 62
     5
 63
     7
 74
     0
 91
        0
 64
     7
 65
   257
 75
     1
175
     1
 42
1.0
 92
        8
 66
   257
 43
1.0
 76
     1
 77
     6
 78
     2
 67
     7
 79
     3
170
     0
171
     0
290
     0
174
     0
 93
       13
 44
0.0
173
     0
291
     0
 45
0.0
1001
ACAD
1000
AcDbSavedByObjectVersion
1070
     0
  0
VISUALSTYLE
  5
182
102
{ACAD_XDICTIONARY
360
32616
102
}
102
{ACAD_REACTORS
330
99
102
}
330
99
100
AcDbVisualStyle
  2
Shaded
 70
    27
 71
     2
 72
     2
 73
     1
 90
        2
 40
-0.6
 41
30.0
 62
     5
 63
     7
 74
     0
 91
        4
 64
     7
 65
   257
 75
     1
175
     1
 42
1.0
 92
        8
 66
   257
 43
1.0
 76
     1
 77
     6
 78
     2
 67
     8
 79
     3
170
     0
171
     0
290
     0
174
     0
 93
        5
 44
0.0
173
     0
291
     0
 45
0.0
1001
ACAD
1000
AcDbSavedByObjectVersion
1070
     0
  0
VISUALSTYLE
  5
181
102
{ACAD_XDICTIONARY
360
32614
102
}
102
{ACAD_REACTORS
330
99
102
}
330
99
100
AcDbVisualStyle
  2
Shaded with edges
 70
    26
 71
     2
 72
     2
 73
     1
 90
        2
 40
-0.6
 41
30.0
 62
     5
 63
     7
 74
     1
 91
        2
 64
     7
 65
   257
 75
     2
175
     1
 42
1.0
 92
        8
 66
   257
 43
1.0
 76
     1
 77
     6
 78
     2
 67
     7
 79
     3
170
     0
171
     0
290
     0
174
     0
 93
        5
 44
0.0
173
     0
291
     0
 45
0.0
1001
ACAD
1000
AcDbSavedByObjectVersion
1070
     0
  0
VISUALSTYLE
  5
17E
102
{ACAD_XDICTIONARY
360
3260E
102
}
102
{ACAD_REACTORS
330
99
102
}
330
99
100
AcDbVisualStyle
  2
Shades of Gray
 70
    23
 71
     2
 72
     2
 73
     3
 90
        0
 40
-0.6
 41
-30.0
 62
     5
 63
     7
 74
     2
 91
        2
 64
     7
 65
     7
 75
     1
175
     1
 42
40.0
 92
        8
 66
     7
 43
1.0
 76
     1
 77
     6
 78
     2
 67
     7
 79
     3
170
     0
171
     0
290
     0
174
     0
 93
        1
 44
0.0
173
     0
291
     0
 45
0.0
1001
ACAD
1000
AcDbSavedByObjectVersion
1070
     0
  0
VISUALSTYLE
  5
17F
102
{ACAD_XDICTIONARY
360
32610
102
}
102
{ACAD_REACTORS
330
99
102
}
330
99
100
AcDbVisualStyle
  2
Sketchy
 70
    24
 71
     1
 72
     2
 73
     2
 90
        0
 40
-0.6
 41
-30.0
 62
     5
 63
     7
 74
     2
 91
        2
 64
     7
 65
     7
 75
     1
175
     1
 42
40.0
 92
       11
 66
     7
 43
1.0
 76
     1
 77
     6
 78
     2
 67
     7
 79
     6
170
     0
171
     0
290
     0
174
     0
 93
        1
 44
0.0
173
     0
291
     0
 45
0.0
1001
ACAD
1000
AcDbSavedByObjectVersion
1070
     0
  0
VISUALSTYLE
  5
A6
102
{ACAD_XDICTIONARY
360
325FE
102
}
102
{ACAD_REACTORS
330
99
102
}
330
99
100
AcDbVisualStyle
  2
Thicken
 70
    13
 71
     2
 72
     2
 73
     1
 90
        0
 40
-0.6
 41
-30.0
 62
     5
 63
     7
 74
     1
 91
        4
 64
     7
 65
   257
 75
     1
175
     1
 42
1.0
 92
       12
 66
     7
 43
1.0
 76
     1
 77
     6
 78
     2
 67
     7
 79
     5
170
     0
171
     0
290
     0
174
     0
 93
        1
 44
0.0
173
     0
291
     1
 45
0.0
1001
ACAD
1000
AcDbSavedByObjectVersion
1070
     0
  0
VISUALSTYLE
  5
A0
102
{ACAD_XDICTIONARY
360
325F2
102
}
102
{ACAD_REACTORS
330
99
102
}
330
99
100
AcDbVisualStyle
  2
Wireframe
 70
     5
 71
     0
 72
     2
 73
     0
 90
        0
 40
-0.6
 41
-30.0
 62
     5
 63
     7
 74
     1
 91
        4
 64
     7
 65
   257
 75
     1
175
     1
 42
1.0
 92
        0
 66
   257
 43
1.0
 76
     1
 77
     6
 78
     2
 67
     7
 79
     3
170
     0
171
     0
290
     0
174
     0
 93
        1
 44
0.0
173
     0
291
     0
 45
0.0
1001
ACAD
1000
AcDbSavedByObjectVersion
1070
     0
  0
VISUALSTYLE
  5
180
102
{ACAD_XDICTIONARY
360
32612
102
}
102
{ACAD_REACTORS
330
99
102
}
330
99
100
AcDbVisualStyle
  2
X-Ray
 70
    25
 71
     2
 72
     2
 73
     1
 90
        1
 40
0.5
 41
-30.0
 62
     5
 63
     7
 74
     1
 91
        0
 64
     7
 65
   257
 75
     1
175
     1
 42
1.0
 92
        8
 66
     7
 43
1.0
 76
     1
 77
     6
 78
     2
 67
     7
 79
     3
170
     0
171
     0
290
     0
174
     0
 93
       13
 44
0.0
173
     0
291
     0
 45
0.0
1001
ACAD
1000
AcDbSavedByObjectVersion
1070
     0
  0
DICTIONARYVAR
  5
F0
102
{ACAD_REACTORS
330
66
102
}
330
66
100
DictionaryVariables
280
     0
  1
1:1
  0
DICTIONARYVAR
  5
EF
102
{ACAD_REACTORS
330
66
102
}
330
66
100
DictionaryVariables
280
     0
  1
STANDARD
  0
DICTIONARYVAR
  5
89
102
{ACAD_REACTORS
330
66
102
}
330
66
100
DictionaryVariables
280
     0
  1
STANDARD
  0
DICTIONARYVAR
  5
1B7
102
{ACAD_REACTORS
330
66
102
}
330
66
100
DictionaryVariables
280
     0
  1
Imperial24
  0
DICTIONARYVAR
  5
1B8
102
{ACAD_REACTORS
330
66
102
}
330
66
100
DictionaryVariables
280
     0
  1
Imperial24
  0
DICTIONARYVAR
  5
67
102
{ACAD_REACTORS
330
66
102
}
330
66
100
DictionaryVariables
280
     0
  1
2
  0
DICTIONARYVAR
  5
6B
102
{ACAD_REACTORS
330
66
102
}
330
66
100
DictionaryVariables
280
     0
  1
1
  0
DICTIONARYVAR
  5
3258D
102
{ACAD_REACTORS
330
66
102
}
330
66
100
DictionaryVariables
280
     0
  1
0
  0
DICTIONARYVAR
  5
14D
102
{ACAD_REACTORS
330
66
102
}
330
66
100
DictionaryVariables
280
     0
  1
0
  0
DICTIONARYVAR
  5
14E
102
{ACAD_REACTORS
330
66
102
}
330
66
100
DictionaryVariables
280
     0
  1
0
  0
DICTIONARYVAR
  5
3258B
102
{ACAD_REACTORS
330
66
102
}
330
66
100
DictionaryVariables
280
     0
  1
2
  0
DICTIONARYVAR
  5
3258A
102
{ACAD_REACTORS
330
66
102
}
330
66
100
DictionaryVariables
280
     0
  1
1
  0
DICTIONARYVAR
  5
3258C
102
{ACAD_REACTORS
330
66
102
}
330
66
100
DictionaryVariables
280
     0
  1
127
  0
DICTIONARYVAR
  5
325D8
102
{ACAD_REACTORS
330
66
102
}
330
66
100
DictionaryVariables
280
     0
  1
2
  0
DICTIONARY
  5
3261A
330
1AC
100
AcDbDictionary
280
     1
281
     1
  3
ACAD_XREC_ROUNDTRIP
360
3261B
  0
DICTIONARY
  5
325DE
330
59
100
AcDbDictionary
280
     1
281
     1
  3
ACAD_XREC_ROUNDTRIP
360
325DF
  0
DICTIONARY
  5
325E0
330
5E
100
AcDbDictionary
280
     1
281
     1
  3
ACAD_XREC_ROUNDTRIP
360
325E1
  0
DICTIONARY
  5
325DC
330
22
100
AcDbDictionary
280
     1
281
     1
  3
ACAD_XREC_ROUNDTRIP
360
325DD
  0
DICTIONARY
  5
188
330
97
100
AcDbDictionary
280
     1
281
     1
  3
ACAD_XREC_ROUNDTRIP
360
325E4
  3
FBXASSET
360
189
  0
DICTIONARY
  5
186
330
96
100
AcDbDictionary
280
     1
281
     1
  3
ACAD_XREC_ROUNDTRIP
360
325E3
  3
FBXASSET
360
187
  0
DICTIONARY
  5
110
330
98
100
AcDbDictionary
280
     1
281
     1
  3
ACAD_XREC_ROUNDTRIP
360
325E5
  3
BUMPTILE
360
112
  3
DIFFUSETILE
360
111
  3
FBXASSET
360
18A
  3
OPACITYTILE
360
113
  3
REFLECTIONTILE
360
114
  0
DICTIONARY
  5
32606
330
D8
100
AcDbDictionary
280
     1
281
     1
  3
ACAD_XREC_ROUNDTRIP
360
32607
  0
DICTIONARY
  5
32618
330
1AA
100
AcDbDictionary
280
     1
281
     1
  3
ACAD_XREC_ROUNDTRIP
360
32619
  0
DICTIONARY
  5
104
330
87
100
AcDbDictionary
280
     1
281
     1
  3
ACAD_ROUNDTRIP_2008_TABLESTYLE_CELLSTYLEMAP
360
325D9
  3
ACAD_XREC_ROUNDTRIP
360
325E2
  0
DICTIONARY
  5
325F0
330
9F
100
AcDbDictionary
280
     1
281
     1
  3
ACAD_XREC_ROUNDTRIP
360
325F1
  0
DICTIONARY
  5
325EE
330
9E
100
AcDbDictionary
280
     1
281
     1
  3
ACAD_XREC_ROUNDTRIP
360
325EF
  0
DICTIONARY
  5
325FC
330
A5
100
AcDbDictionary
280
     1
281
     1
  3
ACAD_XREC_ROUNDTRIP
360
325FD
  0
DICTIONARY
  5
32604
330
A9
100
AcDbDictionary
280
     1
281
     1
  3
ACAD_XREC_ROUNDTRIP
360
32605
  0
DICTIONARY
  5
325F6
330
A2
100
AcDbDictionary
280
     1
281
     1
  3
ACAD_XREC_ROUNDTRIP
360
325F7
  0
DICTIONARY
  5
325FA
330
A4
100
AcDbDictionary
280
     1
281
     1
  3
ACAD_XREC_ROUNDTRIP
360
325FB
  0
DICTIONARY
  5
3260C
330
175
100
AcDbDictionary
280
     1
281
     1
  3
ACAD_XREC_ROUNDTRIP
360
3260D
  0
DICTIONARY
  5
32602
330
A8
100
AcDbDictionary
280
     1
281
     1
  3
ACAD_XREC_ROUNDTRIP
360
32603
  0
DICTIONARY
  5
325E6
330
9A
100
AcDbDictionary
280
     1
281
     1
  3
ACAD_XREC_ROUNDTRIP
360
325E7
  0
DICTIONARY
  5
325E8
330
9B
100
AcDbDictionary
280
     1
281
     1
  3
ACAD_XREC_ROUNDTRIP
360
325E9
  0
DICTIONARY
  5
325EA
330
9C
100
AcDbDictionary
280
     1
281
     1
  3
ACAD_XREC_ROUNDTRIP
360
325EB
  0
DICTIONARY
  5
325EC
330
9D
100
AcDbDictionary
280
     1
281
     1
  3
ACAD_XREC_ROUNDTRIP
360
325ED
  0
DICTIONARY
  5
325F4
330
A1
100
AcDbDictionary
280
     1
281
     1
  3
ACAD_XREC_ROUNDTRIP
360
325F5
  0
DICTIONARY
  5
32608
330
173
100
AcDbDictionary
280
     1
281
     1
  3
ACAD_XREC_ROUNDTRIP
360
32609
  0
DICTIONARY
  5
32600
330
A7
100
AcDbDictionary
280
     1
281
     1
  3
ACAD_XREC_ROUNDTRIP
360
32601
  0
DICTIONARY
  5
3260A
330
174
100
AcDbDictionary
280
     1
281
     1
  3
ACAD_XREC_ROUNDTRIP
360
3260B
  0
DICTIONARY
  5
325F8
330
A3
100
AcDbDictionary
280
     1
281
     1
  3
ACAD_XREC_ROUNDTRIP
360
325F9
  0
DICTIONARY
  5
32616
330
182
100
AcDbDictionary
280
     1
281
     1
  3
ACAD_XREC_ROUNDTRIP
360
32617
  0
DICTIONARY
  5
32614
330
181
100
AcDbDictionary
280
     1
281
     1
  3
ACAD_XREC_ROUNDTRIP
360
32615
  0
DICTIONARY
  5
3260E
330
17E
100
AcDbDictionary
280
     1
281
     1
  3
ACAD_XREC_ROUNDTRIP
360
3260F
  0
DICTIONARY
  5
32610
330
17F
100
AcDbDictionary
280
     1
281
     1
  3
ACAD_XREC_ROUNDTRIP
360
32611
  0
DICTIONARY
  5
325FE
330
A6
100
AcDbDictionary
280
     1
281
     1
  3
ACAD_XREC_ROUNDTRIP
360
325FF
  0
DICTIONARY
  5
325F2
330
A0
100
AcDbDictionary
280
     1
281
     1
  3
ACAD_XREC_ROUNDTRIP
360
325F3
  0
DICTIONARY
  5
32612
330
180
100
AcDbDictionary
280
     1
281
     1
  3
ACAD_XREC_ROUNDTRIP
360
32613
  0
XRECORD
  5
3261B
102
{ACAD_REACTORS
330
3261A
102
}
330
3261A
100
AcDbXrecord
280
     1
102
DISPLAYNAME
  1
Imperial24
102
FLAGS
 90
        0
  0
XRECORD
  5
325DF
102
{ACAD_REACTORS
330
325DE
102
}
330
325DE
100
AcDbXrecord
280
     1
102
SHADEPLOT
 70
     0
102
SHADEPLOTRESLEVEL
 70
     2
102
SHADEPLOTCUSTOMDPI
 70
   300
  0
XRECORD
  5
325E1
102
{ACAD_REACTORS
330
325E0
102
}
330
325E0
100
AcDbXrecord
280
     1
102
SHADEPLOT
 70
     0
102
SHADEPLOTRESLEVEL
 70
     2
102
SHADEPLOTCUSTOMDPI
 70
   300
  0
XRECORD
  5
325DD
102
{ACAD_REACTORS
330
325DC
102
}
330
325DC
100
AcDbXrecord
280
     1
102
SHADEPLOT
 70
     0
102
SHADEPLOTRESLEVEL
 70
     2
102
SHADEPLOTCUSTOMDPI
 70
   300
  0
XRECORD
  5
325E4
102
{ACAD_REACTORS
330
188
102
}
330
188
100
AcDbXrecord
280
     1
102
MATERIAL
148
0.0
149
0.0
149
0.0
 93
        0
 94
       63
282
     0
 72
     1
 77
     1
171
     1
175
     1
179
     1
273
     0
  0
XRECORD
  5
189
102
{ACAD_REACTORS
330
188
102
}
330
188
100
AcDbXrecord
280
     1
 70
     1
 90
429727718
  1
508B35C9-AEE7-456F-BE74-D52651303AC6
310
504B03040A0000080000B670623B3DEE336E79000000790000001B0000006175746F6465736B2D64657369676E2D7061636B6167652E786D6C3C3F786D6C2076657273696F6E3D22312E302220656E636F64696E673D227574662D3822203F3E3C666F726D6174733E3C666F726D61743E687474703A2F2F736368656D612E
310
6175746F6465736B2E636F6D2F64657369676E2D7061636B6167652F323030393C2F666F726D61743E3C2F666F726D6174733E504B0304140006080800B670623BD486FD9CA0000000F4000000130000005B436F6E74656E745F54797065735D2E786D6C7D8EC10E82300C865F65E91D8A1E8C310C0EEA1BF002731658846E
310
D98AC1B77784ABF1D8FE5FBFBF75BBCE937A534CCEB38643598122B6FEE978D0B0485F9C41B54DDD7D022595594E1A469170414C76A4D9A4D207E29CF43ECE46F218070CC6BECC4078ACAA135ACF422C856C0E68EA1BF5669944DDD7BCDE7B1F8E415D77AECB980613C2E4AC91FC167A2B244592486606FC29C8FD7F045B9A
310
EF7053A7E60B504B0304140006080800B670623B28ED286BEB0000007C01000008000000636F72652E786D6C8D90416EC3201045AF82665B6183218D6D61A254764FD00B204C5C94182C03558F5F9C3852BBEB6A467FFE9B197D71FA9E6FE8CBACC17AD7012D0820E3B41FAD9B3A48F1826B40272956EFE32F1B20A766D3C1
310
268314D3EAD3B24BDABB685CCCAAF3A3D94515828980F42D371D04FD696655A814B3235C8B45E9AB9A4C419F5D8653B2237A1CB163DE672FD6AC209BF3C08E0D1B30EB19C3FC9D72FCC6EB231EFA33EDE96BDD341517E5064B11EDFCBCAF57A3A2194156843498524CAA0FCA5B7268F9E185D42D21A2DCEC7FA0B48CFF8492
310
759155FBBB0F2C80A4F991FB408A72CB22977B50B96EB9C91F504B0304140006080800B670623B55019EA25F0000007C00000007000000636E782E786D6C4DCB3B0E80201045D1AD90E915ED2CF8AC45050C11660C8261F98AB1B07AC9C97D42D718D865D3E909258CFD00CCE24AC6E326A164D74DC0B4128928FF32603847
310
2BA13128B1252AC747C6BAB984FC68F0B87FE8960A5C09FE86CFB69FBA01504B0304140006080800B670623B7BC41AC871010000D40300000C0000006662782F636F72652E786D6CC553ED6E8320147D15C2DF4501B56B6D90A64BBB27D80B50A5CE54C120983EFEAE1F4DD7A56BBA5FF3879273EEE59E7310BE393735EA95
310
ED2AA333CC428A91D2B9292A5D66D8BB63B0C26823B835C67D2BC348CB46657880B1E0A535BE9DA1DC68A7B403549B42CDA0EC3AE530CA6B5864B8CB3F552343E91D5474A7B095F949962A6421D0502778E72C0840D390E18DC5F170E664C205F7BE2A66B62A605A75AC94C522DDEEE3651AEF837817C741F2CE92E02D592D
310
83FD6ECB76EC7595A651C2C9D02CB8AB9A8BBADC2AE954814544691A3016D0E883256BBA58278B17BA5A53CAC9507ED3E4DBE2C9265F691747B3DCA9ADC382819091F8E1162272A8933DE82182932144F88C09DF060D8140C84E1EEA8B8F1340BDCA9DB1093085F157AA97B557309586747CD0EF0B4EA64E983A6E0EAEEFCE
310
889E9EF17847386AA94B30211D2C0FDE0D3AF9A4610EAD5536E8DD1969631B593F67E381C33F5157F17725E5A636F6BF1491F980C8FC7B90E13E8A2F504B0304140006080800B670623B70102A487D0000009D0000000B0000006662782F636E782E786D6C4DCCD10A83201886E15B91FFDC95A5C30335ACCDFB886521330D
310
A76397BF1A1DECE883878F57749FD5A3B74D2F17830472A901D9F088930B8B849267CC01754AA418F3DF0D5018572BE160506249B16C274D761E8BCFBB7A179E27F65CB39A0F14D396184C9921B81F34C3ACA1B4B99ABB6E6F062A25AA5F69DF23ACBE504B0304140006080800B670623B3610CA3329010000120200003100
310
00006662782F42384135303843342D343331462D343546312D424341352D3532343432364645413344462F636F72652E786D6C8D515B6EC32010BC0AE22B55850D0E446E848992B43E412FE000495162B07854397EA176A4F62F3F2C9A9D991D58BEBB8F37F0AD7D30CE76905418026DA553C65E3A98E219B510EC04F7CEC5
310
3F3408EC30EA0E16180A7EF12E4D0B249D8DDAC68C5AA7F4020E21E80881BCE54B0783FCD2E3500D296646B856D320AFC34557A4CAEDCC133C449F0380794839A138B47B86DB2345744D7A44594FD0E1B867883594369BFE63BF7EEF793D0B054FC9A8456E548E63CE46FB674D8A58F068C6477CE9F510B582A2C1F80D1182
310
70F349E816B32D65AFB8DD62CCEB42FF274A937A52948C8DEB66893BCB021484D7734370E5D2E9F608A3EF93F3119479ABA0E50B14B8C298119A43CCC4FCFCECB8A18B6388CEE7EF5D5D4F994BD86CBBA182D76543B9FCAE2FD7B24DF103504B0304140006080800B670623B1B8617914E0100003303000030000000666278
310
2F42384135303843342D343331462D343546312D424341352D3532343432364645413344462F636E782E786D6CD593C16EC32010447F0571AD6CE3D489D20813A9877E410FBD62D82434182CC055F3F75D1292E692438FBD206B7698593D61BEFD1E2DF982108D773D6D6B460938E5B571FB9ECE6957AD29D90A1EBC4F7736
310
4A9C1CA1A759A682EF839FA72269D8C9D92654AD71C72206887E0E0A22CAF926B15E498B01E0AA19451807D01A34B919F16B070157417138917400F2F6FA41FCF0092A45DEE414C19BDC21783E4BD39D891265658C3D8DEA00A3ACE59CBC8678ACB54CB26EEB6BD7839D7E9348BE70AD9C8321B9BCA7F9A4A26C542347DEE0
310
50F09802D22BA6749A800A394DD62899107273365E3C82CFC6A55557BC06C10774B7ABE7AEC3B0F34CF06446280E154026D0542C187BA9DAB6628BF7B6DBB0E5A65B3EB1F58631DE64BBE083F7B65CC218087E22CABB042E51D1F2268F1FE12B3EA24D40D63E9CFE00120194D60B9D5BC67FE6D39CDF37E20AF817881F504B
310
0304140006080800B670623BBFEF2E3B690500003C100000340000006662782F42384135303843342D343331462D343546312D424341352D3532343432364645413344462F6F626A656374732E786D6CAD575D739B3814FD2B0CFB0C98D84E931D4227B6938EA793B6534F3BFB90198F0099B001899144EAECAFDF231018B0
310
D37A3FFC609090EEE7B94757C1FB7D915B2F54C88CB31BDB7727B64559CC938CA53776A576CE956DBD0F03C1B9EA2DB32D460A7A63EB693B0C52C1ABD24C257447AA5C8D66EF177F5832A68CDA569C13296F6C193FD182B8A4523CA1F2D94D88226EBADBBBBEDB2C1C8A4D05299F46424B222853B014F30C52ACC6287F389C
310
D85E1878FA7B18E87FB36AFAF62AAFF667A83F635211161F291B8999FAB3D5DDC5FCDA99CF6653677679E13B8BFBC5CAF1DF4D27CBCBE5F2FAF6EE1A8AA51290642C117467871F101B91C581D77CEA2C36869F3229E68CD1B8F61F1ED6361B89092D294B90C78C4A68EB793D190E7D1D9BDEE7A91E1B95FDE9F3BCEAEFE809
310
6A6D6F9F7D4B79F4275C90E7A04248AA51D5C4C738DAE06F72885AC4796EBE65D22A88A22223B995679120E2D50EB1542F098381188D4EA111AE3DB043FF20AF6F2B4AE3D7D83D65E5AECA730D4D3BAC91BD05FEA992B565D95F549CD6069B90AB2A63EACA38A45E4B6A87D781574F86817E4C2FCCC72690D62E2729520E37
310
9BAF234797BAF6D62B3BFC781FED37BA1E4F2B2F052FA9501A3E80569BB8F6A9A364D4FA67654E6F803383981F82F21591FF84F23D9882BC896C3FDBCF8C162508933B2E0AE4C69DD43F6BD2BE38DDDBF10BF86CB4FA784D37F3AF16075E67EC9030DECA1FC0A55373F5DFF3378C591FA9BDF485C10B0A8C8BA909E5262639
310
A8E72163488806A595734C81CB77D1DE0ED7604A303B76913CEC0272F412782FF88EFF4636D8AA56DF7B322474C4B767303F625997056C7B032C473C592B36CEBD15F3F9FF5233B7ABCDC74D257624A60F8658567497B14CE1EC3C80B76FD02011038F9EE9EB0F2E12387A9C844D3F09855125116D1D731DF8B43D2CF4E0A0
310
79A020C6BE946BCE0B7EA1E1219331CD73C228AF5A2DDD31A4B1DA918CE91350854D40A71723140BFA92E94E62B0626016CEFA5864A50E5977E8753CEDBEE1CBB7F52780D20E17AF0BA0F5F9B02A3AD07DCC732EB6D1EBB661421BE0C39E21BABF0FE16D22EA6929407C8DE596724C88B749B6DB5512BC7B228ADFD7CB7EA6
310
3A22397E690BA8D5D8D4E40CEC8CDA23C2C0B7D5898640101CEC9C6D331CE328CB93CAFBBAC70A642DF70DF95155945B52F08AA973C23469FD69ADEF84F7BB18F983A8F8C90E37F5D35980B2139A1C523540813E824EF83448CF7C72B598CE97D7CEEDDDDD3B6736BFBC771677EF66CE6A7E7139F7A793E9EDF2B2B3A8B624
310
0CDA13AA5F8388264EC4A0129909F3B7F5A16CEDF08128E97D680ACA4B9BE7B7B58BB638F0B00700EF36AE8B32A705658A68F83EE897FC2B41573190D1CCAF0B92D233A47CFEB019D9809933F67DD1A5467F8CF69AD9A5AE859342D45355448C64F968A371DC2D596ADC6E43D93D1B466F877A64E2893E54F23C4B40388995
310
525E5005DA3983ED45412510D3EFCA13737B3863F74BD30F2A12E5B4B5E489A025CE25500DB855B11ACE5BBFA185D35DD48D8DC3CE7DC69F2944DB42AA6F6CF09BCA622ADD08C7A36E7C6AE18000BAB08E040135C2D21C9D75B3A91B77BB746C403F38018DFE6EC939DD92F16B40BC05294B9CDA035AAD6D330AE27FE4786B
310
8E45145EA34A75BE1C263A676A35A8ACC6297337400BF16C54EF515F3F77CB77EB3583889C754FFA29081AA98E2222ADEF05DA3E63D2EDEA8B8756C05A7FB6CABC4A91CBF325398202CC952E70A008A830324BA200D5E5EF8F5F04C75DB4B0EE3340E071C98B823333B83577596BF3849B69F2085AA0FAFA212F26BEFF5877
310
FDE622B28D88A42E49E43326DA82D31E8CB006401E1DA726059ECEC168F97A6599036306A135688F9AD2E61A6EA178F4CD51974A9F2CCB9F36FE5EBD14601068D9C3BF01504B0304140006080000B670623B000000000000000000000000350000006662782F42384135303843342D343331462D343546312D424341352D35
310
32343432364645413344462F76657274696365732E62696E504B0304140006080800B670623BF270F1330600000004000000360000006662782F42384135303843342D343331462D343546312D424341352D3532343432364645413344462F747269616E676C65732E62696E636660600000504B0304140006080000B67062
310
3B000000000000000000000000370000006662782F42384135303843342D343331462D343546312D424341352D3532343432364645413344462F617474726962757465732E62696E504B0304140006080800B670623B08DA0BD19000000041010000360000006662782F42384135303843342D343331462D343546312D4243
310
41352D3532343432364645413344462F6469726563746F72792E786D6C858F410AC3201045AF22B36F53E9A60B35CBEEBAE80D244E44489C6234F4F835464A48035D0DF398FF9F8AF63D0E6CC63039F212F8F9020C7D47C6792B21C5FE7403D62A1188E2E60C98D7234A5830286103A55745067B9D86B8A3CF9C7F90C11DE6
310
07FB144396D7B6A82D282E9A152AD114D5EF2CB866EEE831B8EEA07A7BB5A8D7D61A2BAAEB7FD5F70921FF497D00504B0304140006080800B670623B3B4606F3FE000000A00100003B0000006662782F42384135303843342D343331462D343546312D424341352D3532343432364645413344462F7265736F75726365732F
310
636F72652E786D6C8D504B6E833010BD0A9A6D65B08134808CA354A427E8052C332156828DFCA97AFC9A40A576D7CDCCE87D344F8F9FBEE647F689CE6B6B7A6039850C8DB2A336530F315C4903D94970676DF82583CCC8197B5861107C72362E3BA4AC096842428D1D7107A5F71820538F74F4E0D50D6799CB1892C2DFF345
310
AABB9C306779A2934E701F5C0A906D4FD609C2A1B7D129F4BCD858C163D4E3AED163FAA9AF1A1D88F67CA98E6D35906AA82A52BFB39ABCD5CD915C86331BD86BD3B665CD8BD52C78D0F34F46E550061C419494B6843142CB0F5677F4D0D58717DA7494F26295FF31C565FCA7296A13AA728FBBD93C0896823C09C18BB5AFB4
310
9E65A6BD762BBE01504B010214000A0000080000B670623B3DEE336E79000000790000001B00000000000000000000000000000000006175746F6465736B2D64657369676E2D7061636B6167652E786D6C504B01021400140006080800B670623BD486FD9CA0000000F40000001300000000000000000000000000B2000000
310
5B436F6E74656E745F54797065735D2E786D6C504B01021400140006080800B670623B28ED286BEB0000007C010000080000000000000000000000000083010000636F72652E786D6C504B01021400140006080800B670623B55019EA25F0000007C000000070000000000000000000000000094020000636E782E786D6C50
310
4B01021400140006080800B670623B7BC41AC871010000D40300000C00000000000000000000000000180300006662782F636F72652E786D6C504B01021400140006080800B670623B70102A487D0000009D0000000B00000000000000000000000000B30400006662782F636E782E786D6C504B01021400140006080800B6
310
70623B3610CA3329010000120200003100000000000000000000000000590500006662782F42384135303843342D343331462D343546312D424341352D3532343432364645413344462F636F72652E786D6C504B01021400140006080800B670623B1B8617914E010000330300003000000000000000000000000000D10600
310
006662782F42384135303843342D343331462D343546312D424341352D3532343432364645413344462F636E782E786D6C504B01021400140006080800B670623BBFEF2E3B690500003C10000034000000000000000000000000006D0800006662782F42384135303843342D343331462D343546312D424341352D35323434
310
32364645413344462F6F626A656374732E786D6C504B01021400140006080000B670623B0000000000000000000000003500000000000000000000000000280E00006662782F42384135303843342D343331462D343546312D424341352D3532343432364645413344462F76657274696365732E62696E504B010214001400
310
06080800B670623BF270F133060000000400000036000000000000000000000000007B0E00006662782F42384135303843342D343331462D343546312D424341352D3532343432364645413344462F747269616E676C65732E62696E504B01021400140006080000B670623B00000000000000000000000037000000000000
310
00000000000000D50E00006662782F42384135303843342D343331462D343546312D424341352D3532343432364645413344462F617474726962757465732E62696E504B01021400140006080800B670623B08DA0BD1900000004101000036000000000000000000000000002A0F00006662782F42384135303843342D3433
310
31462D343546312D424341352D3532343432364645413344462F6469726563746F72792E786D6C504B01021400140006080800B670623B3B4606F3FE000000A00100003B000000000000000000000000000E1000006662782F42384135303843342D343331462D343546312D424341352D3532343432364645413344462F72
310
65736F75726365732F636F72652E786D6C504B0506000000000E000E0080040000651100000000
  0
XRECORD
  5
325E3
102
{ACAD_REACTORS
330
186
102
}
330
186
100
AcDbXrecord
280
     1
102
MATERIAL
148
0.0
149
0.0
149
0.0
 93
        0
 94
       63
282
     0
 72
     1
 77
     1
171
     1
175
     1
179
     1
273
     0
  0
XRECORD
  5
187
102
{ACAD_REACTORS
330
186
102
}
330
186
100
AcDbXrecord
280
     1
 70
     1
 90
429727718
  1
887D55A9-D0DD-414E-B741-A7DCD4DA2B4C
310
504B03040A0000080000B670623B3DEE336E79000000790000001B0000006175746F6465736B2D64657369676E2D7061636B6167652E786D6C3C3F786D6C2076657273696F6E3D22312E302220656E636F64696E673D227574662D3822203F3E3C666F726D6174733E3C666F726D61743E687474703A2F2F736368656D612E
310
6175746F6465736B2E636F6D2F64657369676E2D7061636B6167652F323030393C2F666F726D61743E3C2F666F726D6174733E504B0304140006080800B670623BD486FD9CA0000000F4000000130000005B436F6E74656E745F54797065735D2E786D6C7D8EC10E82300C865F65E91D8A1E8C310C0EEA1BF002731658846E
310
D98AC1B77784ABF1D8FE5FBFBF75BBCE937A534CCEB38643598122B6FEE978D0B0485F9C41B54DDD7D022595594E1A469170414C76A4D9A4D207E29CF43ECE46F218070CC6BECC4078ACAA135ACF422C856C0E68EA1BF5669944DDD7BCDE7B1F8E415D77AECB980613C2E4AC91FC167A2B244592486606FC29C8FD7F045B9A
310
EF7053A7E60B504B0304140006080800B670623BBC1638F5EC0000007C01000008000000636F72652E786D6C8D90416EC3201045AF82665B61836BE2D8C24471DB9CA01740401C94182C03558F5F9C3852BBEB6A467FFE9B197D7EF89E6EE8CB2CC17AD7032D0820E394D7D68D3DA478C67B4007C117EFE32F1B202727D3C3
310
2A83E0E3E2D3BC49CABB685CCCAAF3DA6CA20CC14440EA969B1E82BA98491632C5EC08D76296EA2A4753D06797E194AC468F2356E77DF66CCD02825543D50CACC62D39ED70FDC68EB8FD68F6F8787A6784342D1DDA1D2F5758F068A7E77DB518198D065111D2624A31A93E69DD11D6D5EC85EC3B4278B9DAFF4069D6FF8492
310
75F1B5DADE7D600104CD8FDC0782976B16B9DC83CA75CD4DFC00504B0304140006080800B670623B55019EA25F0000007C00000007000000636E782E786D6C4DCB3B0E80201045D1AD90E915ED2CF8AC45050C11660C8261F98AB1B07AC9C97D42D718D865D3E909258CFD00CCE24AC6E326A164D74DC0B4128928FF326038
310
472BA13128B1252AC747C6BAB984FC68F0B87FE8960A5C09FE86CFB69FBA01504B0304140006080800B670623B3586FFB671010000D40300000C0000006662782F636F72652E786D6CC553ED6E8320147D15C2DF4541A76D6D90A6DDD627D80B50A4CE54C120983EFEAE1F4DD7A55BBA5FF3879273EEE59E7310B6393735EA
310
95ED2AA3731C851423A5A5292A5DE6D8BB63B0C268C39935C67D29C3488B46E578803167A535BE9D2169B453DA01AA4DA16650749D7218C91A1639EEE4876A4428BC838AEE14B6429E44A9C228041AEA38EB9C0501681A32BC313F1ECE8C4C3867DE57C5CC56054CAB8E95B298A7F12E5EEED224C8E87E11242FE936C8DE96
310
AB60BB7F4D295D66D12E5B30323473E6AAE6A24E5A259C2A308F29CD82280A68FC1E256B9AAE93F489AED694323294DF34F9B678B0C957DA3DC7B3DCA9ADC33C022123F1CD2D44E450277AD04338234388F01913BE0D1A0281909D38D4171F27807A259DB1093085F157AA17B557309586747CD0CF0B46A64E983A6E0EAEEF
310
CE881F9EF1FB8E70D44297604238581EBC1B74B249C31C5AAB6CD0BB33D2C636A27ECCC62F0EFF445DC5DF95244D6DEC7F2922F30191F9F720C37DE49F504B0304140006080800B670623B4220A0FF7D0000009D0000000B0000006662782F636E782E786D6C4DCCD10A83201886E15B91FFDCE542CB0335D0EC3E6259C84A
310
C3E9D8E5AF46073BFAE0E1E315DD675BD1DBA5978F41C2FD4600B9F088930F8B849267CC01754AA418F3DF0D50183727E164506249B1EC174D6E1ECB9A0F5D7D785E68DB8151CD286E5A5363CA6B8A39E90D36D40E96B086F55A43A544F52B1D7B86D517504B0304140006080800B670623B2FA3FEDE290100001202000031
310
0000006662782F45374635344235342D363743322D343832342D383044432D4334454645303536354442422F636F72652E786D6C8D515B6EC32010BC0AE22B55850D2E386E848994D7097A0117488A1283C5A3CAF10BB523B57FF961D1ECCCECC0F2ED7DBC816FED8371B687A4C210682B9D32F6D2C314CFA883602BB8772E
310
FEA141608751F7B0C050F08B77695A20E96CD43666D43AA5177008414708E42D5F7A18E4971E876A483133C2B59A06791D2EBA22556E679EE021FA1C00CC43CA09C5717D6274C7286AD7FB06D1AEA1A8C3873DDAD3E3E98859CB0EBB1DAF67A1E02919B5C88DCA71CCD968FFAC49110B1ECDF8882FBD1EA256503418BF2342
310
106E3E08DD60B6A1EC15771B8C795DE8FF4469524F8A92B1F1AD59E2CEB20005E1F5DC105CB9F4797B84D1F7C9F908CABC55D0F2050A5C61CC1AD2F27A26E6E767C7962E8E213A9FBF7775FDCC5CC266DB960A5E970DE5F2BBBE5CCB36C50F504B0304140006080800B670623B1B8617914E01000033030000300000006662
310
782F45374635344235342D363743322D343832342D383044432D4334454645303536354442422F636E782E786D6CD593C16EC32010447F0571AD6CE3D489D20813A9877E410FBD62D82434182CC055F3F75D1292E692438FBD206B7698593D61BEFD1E2DF982108D773D6D6B460938E5B571FB9ECE6957AD29D90A1EBC4F77
310
364A9C1CA1A759A682EF839FA72269D8C9D92654AD71C72206887E0E0A22CAF926B15E498B01E0AA19451807D01A34B919F16B070157417138917400F2F6FA41FCF0092A45DEE414C19BDC21783E4BD39D891265658C3D8DEA00A3ACE59CBC8678ACB54CB26EEB6BD7839D7E9348BE70AD9C8321B9BCA7F9A4A26C542347DE
310
E050F09802D22BA6749A800A394DD62899107273365E3C82CFC6A55557BC06C10774B7ABE7AEC3B0F34CF06446280E154026D0542C187BA9DAB6628BF7B6DBB0E5A65B3EB1F58631DE64BBE083F7B65CC218087E22CABB042E51D1F2268F1FE12B3EA24D40D63E9CFE00120194D60B9D5BC67FE6D39CDF37E20AF817881F50
310
4B0304140006080800B670623B29652116630500003C100000340000006662782F45374635344235342D363743322D343832342D383044432D4334454645303536354442422F6F626A656374732E786D6CAD575D739B3814FD2B0CFB0C989834C90EA1639B24E3E9A6EDD4D3CE3E64C623834CD8006224913AFDF57B040203
310
B65BEF871F0C12D2FD3CF7E8CA7FBFCB33E3957291B2E2D674ED8969D02262715A24B76625B7D6B569BC0F7CCE98EC2D338D82E4F4D654D366E0279C55A59E8AE99654991CCDDECFFF3444440B6A1A514684B83545F44C7362934AB2988A173B2692D8C97667BB76B3702836E1A47C1E092D09A78584A5982F20C5688C7287
310
C389E904BEA3BE07BEFAD7ABA6A75739B53F43FD69212429A20365233153D70BEF2E2E6FAC4BCF9B5ADEBB0BD79ADFCF43CBBD9A4E16EF168B9BD9DD0D140BC921495BC2E9D60C1E101B9E46BED37CEA2CD6861F3329624541A3DA7F7858DBAC25C6B4A4458C3CA654405BCFEBC970E8AAD8F43E4FD558ABEC4F9FE7557F47
310
4F506B7BFBEC5BCA367FC105710E2AB8A00A554D7CB4A30DFE26FBA86D18CBF4B75418399194A72433B274C3097F33032C554B027F2046A1932B842B0FCCC0DDCBEBDB8AD2F835768F59B9ADB24C41D30C6A64AF817F2A456D59FA83F2E3DA60137255A585BCD60EC9B7929AC18DEFD49381AF1ED30BFDB109A4B1CD488294
310
C3CDE6EBC8D185AABD6568061FEE37BB95AAC7E3CA4BCE4ACAA5820FA0D526AE7DAA2869B5EE5999531BE0CC20E6FBA07C41E43FA27CF7A6206F3CDD793B4F6B919C1462CB788EDCD893FA674CDA17AB7B3B7C019F8D561FAEE966FED562DFE98C1D12C6A9FC015C2A35D7FF3D7FC398F591DA4B5FE0BFA2C0189FEA50AE22
310
92817A1ED3020951A03432862970F976B33383259812CC8E5D240BBA801CBCF8CE2BBEE3BF910DB6AAD5F79E05123AE2DB33981FB1ACCB02B69D00CB014FD68AB573A7627EF9BFD4CC2C5C7D58557C4B22FAA88925A4DBB44825CECE3D78FB060D1231F0E885BE7D673C86A3874958F593906B5502D1563157814FDAC3420D
310
F69A070A22EC4B98E23CFF171A1E5311D12C23056555ABA53B8614563B92D17D02AAB009E8F46284624E5F53D5490C560CCCC2591FF1B45421EB0EBD8EA7ED13BE7C5D7E0428CD60FEF60779EB13E6664FF711CB185F6FDED60D139A001FF60CD1FD6D086F1D51474901E26B2CB794A343BC8ED3EDB612E0DD2351FCB65CF4
310
33D511C9E14B5B40ADC6A6263DB0336A8F700DDF56271A024E70B0B3629DE21847591E55DED73D56206AB927E46FAABC5C939C55853C274C93D69FD6FA4E78BF8B11DF898C9ECD60553FAD39283BA6F18984AA23E8884F83F45C5F5F859797B31B2B9C84A1E5B9DE9D35BFF25C6B76152E422F9C5DCC3D847F5801ED09D5AF
310
41441327A25FF15487F9EB725FB666F048A4701E9A827292E6F97569A32DF61DEC01C0BB8DCBBCCC684E0B49147C1FD54BF685A0AB18C868E6973949E819523E3DAC463660E68C7D9F55A9D1EFA3BD7A76A16AE1A810F95CE59B82A4D968A376DC2E8B44BBDD86B27B368CDE0ED548C7137DA860591A83706223A12CA712B4
310
7306DBF39C0A20A6DF95C7FAF670C6EED7A61F946493D1D6926782963813403548A78AE470DEF80D2D9CEAA26E4D1C76F60BFE74219A06527D6B82DF641A51616F703CAAC6A7160E08A00BEB4810A0274592A1B36E3675E36E978A0DE80727A0D6DF2D39A75BD27E0D8837276589537B40ABB56D5A41F48F1C6FCD3188C4EB
310
A6929D2FFB89CE995A4D00AE813BDD032DC48B56BD437DFDDC2DD7AED70C2272D63DE9A72068A45A92F0A4BE17A8A06B9366E16707AD80B1FC649459952097E74BB23805982B55E0401150A165964402AA8BDF9F3E7386BB686EDCA780C0D382E5392BF460A6EFB2C6EA1937D3F809B440D5F5435C4C5CF7A9EEFAF54564BD
310
2182DA24162F98680B4E7930C21A0079709CEAEB99A372305ABE0C0D7D6078105A83F6A0296DAEE1068A47DD1C55A9F4C9B2FC69E3EFD44B81028E963DF81B504B0304140006080000B670623B000000000000000000000000350000006662782F45374635344235342D363743322D343832342D383044432D433445464530
310
3536354442422F76657274696365732E62696E504B0304140006080800B670623BF270F1330600000004000000360000006662782F45374635344235342D363743322D343832342D383044432D4334454645303536354442422F747269616E676C65732E62696E636660600000504B0304140006080000B670623B00000000
310
0000000000000000370000006662782F45374635344235342D363743322D343832342D383044432D4334454645303536354442422F617474726962757465732E62696E504B0304140006080800B670623B08DA0BD19000000041010000360000006662782F45374635344235342D363743322D343832342D383044432D4334
310
454645303536354442422F6469726563746F72792E786D6C858F410AC3201045AF22B36F53E9A60B35CBEEBAE80D244E44489C6234F4F835464A48035D0DF398FF9F8AF63D0E6CC63039F212F8F9020C7D47C6792B21C5FE7403D62A1188E2E60C98D7234A5830286103A55745067B9D86B8A3CF9C7F90C11DE607FB144396
310
D7B6A82D282E9A152AD114D5EF2CB866EEE831B8EEA07A7BB5A8D7D61A2BAAEB7FD5F70921FF497D00504B0304140006080800B670623B6378F24DFF000000A00100003B0000006662782F45374635344235342D363743322D343832342D383044432D4334454645303536354442422F7265736F75726365732F636F72652E
310
786D6C8D504B6E833010BD0A9A6D65B0094E42641C85B639412F6099496225D8C89FAAC7AF09546A77DDCC8CDE47F3F4C4F16B7C149FE88371B603565228D06A37187BED20C50BD9437194C23B177FC9A0B06AC40E6618A4B87A97A615D2CE46B431A3D60DB8822A048C50E8473E3A08FA86A32A558A5911EEE5A4F45D5DB1
310
6465A6B34E8A107D0E502C4FE609D26370C96B0CA25A58295232C3AA3143FE692E063D485EF7F5AEE71BD2D2F39634AFFC44DAF7DD9E9CCE6F9CD25DCBFA762BAAD92C4534E34F46ED51451C40D694B6843142EB0FD61C283F34FC85EE0F948A6A96FF31A569F8A729191B37F51A77B105902C0779125254735F793DCBCC7B
310
EE567E03504B010214000A0000080000B670623B3DEE336E79000000790000001B00000000000000000000000000000000006175746F6465736B2D64657369676E2D7061636B6167652E786D6C504B01021400140006080800B670623BD486FD9CA0000000F40000001300000000000000000000000000B20000005B436F6E
310
74656E745F54797065735D2E786D6C504B01021400140006080800B670623BBC1638F5EC0000007C010000080000000000000000000000000083010000636F72652E786D6C504B01021400140006080800B670623B55019EA25F0000007C000000070000000000000000000000000095020000636E782E786D6C504B010214
310
00140006080800B670623B3586FFB671010000D40300000C00000000000000000000000000190300006662782F636F72652E786D6C504B01021400140006080800B670623B4220A0FF7D0000009D0000000B00000000000000000000000000B40400006662782F636E782E786D6C504B01021400140006080800B670623B2F
310
A3FEDE290100001202000031000000000000000000000000005A0500006662782F45374635344235342D363743322D343832342D383044432D4334454645303536354442422F636F72652E786D6C504B01021400140006080800B670623B1B8617914E010000330300003000000000000000000000000000D2060000666278
310
2F45374635344235342D363743322D343832342D383044432D4334454645303536354442422F636E782E786D6C504B01021400140006080800B670623B29652116630500003C10000034000000000000000000000000006E0800006662782F45374635344235342D363743322D343832342D383044432D4334454645303536
310
354442422F6F626A656374732E786D6C504B01021400140006080000B670623B0000000000000000000000003500000000000000000000000000230E00006662782F45374635344235342D363743322D343832342D383044432D4334454645303536354442422F76657274696365732E62696E504B01021400140006080800
310
B670623BF270F13306000000040000003600000000000000000000000000760E00006662782F45374635344235342D363743322D343832342D383044432D4334454645303536354442422F747269616E676C65732E62696E504B01021400140006080000B670623B0000000000000000000000003700000000000000000000
310
000000D00E00006662782F45374635344235342D363743322D343832342D383044432D4334454645303536354442422F617474726962757465732E62696E504B01021400140006080800B670623B08DA0BD190000000410100003600000000000000000000000000250F00006662782F45374635344235342D363743322D34
310
3832342D383044432D4334454645303536354442422F6469726563746F72792E786D6C504B01021400140006080800B670623B6378F24DFF000000A00100003B00000000000000000000000000091000006662782F45374635344235342D363743322D343832342D383044432D4334454645303536354442422F7265736F75
310
726365732F636F72652E786D6C504B0506000000000E000E0080040000611100000000
  0
XRECORD
  5
325E5
102
{ACAD_REACTORS
330
110
102
}
330
110
100
AcDbXrecord
280
     1
102
MATERIAL
148
0.0
149
0.0
149
0.0
 93
        0
 94
       63
282
     0
 72
     1
 77
     1
171
     1
175
     1
179
     1
273
     0
  0
XRECORD
  5
112
102
{ACAD_REACTORS
330
110
102
}
330
110
100
AcDbXrecord
280
     1
270
     1
271
     1
  0
XRECORD
  5
111
102
{ACAD_REACTORS
330
110
102
}
330
110
100
AcDbXrecord
280
     1
270
     1
271
     1
  0
XRECORD
  5
18A
102
{ACAD_REACTORS
330
110
102
}
330
110
100
AcDbXrecord
280
     1
 70
     0
 90
1778669749
  1
9BF507EE-FAF7-4A99-A33D-4EE51894BC40
310
504B03040A0000080000B670623B3DEE336E79000000790000001B0000006175746F6465736B2D64657369676E2D7061636B6167652E786D6C3C3F786D6C2076657273696F6E3D22312E302220656E636F64696E673D227574662D3822203F3E3C666F726D6174733E3C666F726D61743E687474703A2F2F736368656D612E
310
6175746F6465736B2E636F6D2F64657369676E2D7061636B6167652F323030393C2F666F726D61743E3C2F666F726D6174733E504B0304140006080800B670623BD486FD9CA0000000F4000000130000005B436F6E74656E745F54797065735D2E786D6C7D8EC10E82300C865F65E91D8A1E8C310C0EEA1BF002731658846E
310
D98AC1B77784ABF1D8FE5FBFBF75BBCE937A534CCEB38643598122B6FEE978D0B0485F9C41B54DDD7D022595594E1A469170414C76A4D9A4D207E29CF43ECE46F218070CC6BECC4078ACAA135ACF422C856C0E68EA1BF5669944DDD7BCDE7B1F8E415D77AECB980613C2E4AC91FC167A2B244592486606FC29C8FD7F045B9A
310
EF7053A7E60B504B0304140006080800B670623BCA089DFFEC0000007C01000008000000636F72652E786D6C8D90416E83301045AF62CDB632D8402020E32882F604BD80653BC44AB011B6AB1EBF262152BBEB6A467FFE9B197D76FA9EEFE84BAFDE38DB03CD08206DA553C64E3DC470C1474027CE56E7C22F1B202B66DDC3
310
260367D3EAE2B24BD2D9A06D48AA754AEFA2F05E0740F29E9A1EBCBCEA59642286E4F0B76C11F226269DD15797E0188D42CF2346A57DE662F40ABCAEC77628C6120F654571D50C04B7F5B9C1E3997CD4F550BE3745C3F20DE62C98F9755FAE5A04AD801784B498524C8A4F5A75E4D055873772EC0861F966FF03C545FD138A
310
C686B2D8DF7D621E384D8F3C069CE55B16A93C824A75CB8DFF00504B0304140006080800B670623B55019EA25F0000007C00000007000000636E782E786D6C4DCB3B0E80201045D1AD90E915ED2CF8AC45050C11660C8261F98AB1B07AC9C97D42D718D865D3E909258CFD00CCE24AC6E326A164D74DC0B4128928FF326038
310
472BA13128B1252AC747C6BAB984FC68F0B87FE8960A5C09FE86CFB69FBA01504B0304140006080800B670623B68FC0B7272010000D40300000C0000006662782F636F72652E786D6CC5535B6E833010BC8AE5DF0A6C1E8124328E22D29EA01770C0A128602363A31CBFCB234A53A555FA553EC09AD9F5CE8C31DB5DDA060D
310
D2F4B556190E7C8A9154852E6B5565D8D993B7C668C799D1DA7E29C3488956667884316795D1AE5BA0422B2B950554E9522EA0E87B69312A1A5864B82F3E642B7CE12C54F467BF13C55954D20F7CA0A18EB3DE1A1080E621E31BF3D3F1C2C88C73E65C5D2E6C5DC2B4FA544B8379921C36797888BC3C8A032F4E73EA6D927D
310
EA1DF6F42D49F2E8350D5346C666CE6CDD5ED515460A2B4BCC434A375E1078347C0FE22D5D6DE3D50B5D6F2965642CBF6B725DF96493AB958DC245EEDCD6631E809089F8E61622B2A81703E8219C913144F84C09DF070D8140C8561C9BAB8F3340832CAC363130A576376A108D933095FA747AD0CF0B46E64E983A6D0EAE1F
310
CE089F9EF1FB8E70D44255604258581E9D1D75B259C3125A278D37D80B52DAB4A279CEC62F0EFF44DDC43F9454E8469BFF5244960322CBEF41C6FBC83F01504B0304140006080800B670623B0F71DDB67E0000009D0000000B0000006662782F636E782E786D6C4DCCD10A83201886E15B91FFDCA54DB73F502386BB8F5816
310
32D3703976F9ABD1C18E3E78F87855FB990379BBFCF2296AE02706C4C5471A7C9C349475A408A4352AA7B4FEDD80C47E761A7606A3A69CCA72D0E0C6BE8475D3E0E3F3409428EA6B27A84079A782899AA2EC1A7AE3ECCC2FD858CB2D544655BFD2B67BD87C01504B0304140006080800B670623BE134B4FB28010000120200
310
00310000006662782F38353834323741342D343835462D343034322D383541392D4331303331363839454531452F636F72652E786D6C8D515B6EC32010BC0AE22B55850D0EA424C24451959EA0172086A42831583CAA1CBF503B52FB971F16CDCECC0EACD8DFC71BF836215AEF7A481A0C817183D7D65D7A98D3197108F652
310
04EFD31F1A044E8DA6871586525C82CFD3020DDE25E352419DD76601558C264130DCCAA58771F832A36A544E8511AFCDA486ABBA988634A55D7852C4144A00300FA927949C71DABD1D28A29C7D208A6987383B6CD13BC16BB2E1DBE3911C453B0BA5C8D9EA456E758963CFD684674DAA588A64C747FC2118958C86B2C3788B
310
0841B8FB247487D98EB257CC77188BB6D2FF89F2A49F1465EBD2BA5BE2CEB2082511EDDC9042FB7CBA3DC298FBE4430275DE2A9AE1054ADC60CC08E3A29D89E5F9C5714317C7987C28DFBBBA9E0A97B0D97643A568EB864AF95D5FA9759BF207504B0304140006080800B670623B1B8617914E010000330300003000000066
310
62782F38353834323741342D343835462D343034322D383541392D4331303331363839454531452F636E782E786D6CD593C16EC32010447F0571AD6CE3D489D20813A9877E410FBD62D82434182CC055F3F75D1292E692438FBD206B7698593D61BEFD1E2DF982108D773D6D6B460938E5B571FB9ECE6957AD29D90A1EBC4F
310
77364A9C1CA1A759A682EF839FA72269D8C9D92654AD71C72206887E0E0A22CAF926B15E498B01E0AA19451807D01A34B919F16B070157417138917400F2F6FA41FCF0092A45DEE414C19BDC21783E4BD39D891265658C3D8DEA00A3ACE59CBC8678ACB54CB26EEB6BD7839D7E9348BE70AD9C8321B9BCA7F9A4A26C542347
310
DEE050F09802D22BA6749A800A394DD62899107273365E3C82CFC6A55557BC06C10774B7ABE7AEC3B0F34CF06446280E154026D0542C187BA9DAB6628BF7B6DBB0E5A65B3EB1F58631DE64BBE083F7B65CC218087E22CABB042E51D1F2268F1FE12B3EA24D40D63E9CFE00120194D60B9D5BC67FE6D39CDF37E20AF817881F
310
504B0304140006080800B670623B5933D422630500003B100000340000006662782F38353834323741342D343835462D343034322D383541392D4331303331363839454531452F6F626A656374732E786D6CAD575B6FA33814FE2B887D0642934E9B156594264D158D3A534DD4D13E548A0C38942D60649B4EBABF7E3F8321
310
40924EF6928780CDF1B97EE762EFF32E4B8D37CA45C2F21BD3B547A641F39045491EDF98A5DC5AD7A6F1D9F73863B243661A39C9E88DA9B64DDF8B392B0BBD15D12D295339D85DDEFE618890E6D434C2940871638AF08566C426A5641115AF764424B1E3EDCE76ED9AB0CF36E6A47819302D08A7B984A6D8CFC1C5A89572FB
310
CB91E9F89EA3BEFB9EFAD754E3D3544E654F5F7E920B49F2F040D880CDD89D2CEE2E2EA7D6E56432B6269F2E5CEB7679BBB0DCABF168FE693E9FCEEEA6102C240727AD09A75BD3BF876F78127A4EFDA9D5582B7E4CA590E5390D2BFB6161A5B3E618D182E611E2985001691DAB47FDA5AB7CD3F93C566B2DB2BB7D9E55DD13
310
1D468DEECDB3AB290BFE8409E21C54704115AA6AFF68436BFC8DF65E0B184BF5B74418199194272435D224E084BF9B3E481589EFF5D828747285706581E9BB7B7E5D5D911ABFC6EE312DB7659A2A689A7E85EC0DF04FA5A8344BFEA2FCB834E8845895492EAFB541F2BDA0A63FF59C6AD3F7D4637CA13FD68E34B629891172
310
98597F1D183A57B9B75A98FE9765B05BAB7C3C2EBCE0ACA05C2AF8005A4DE09AA7F29216EB9E15397500C6F47CBE77CA7778FE2BD277AF0AE2C693DD6437D1522427B9D8329E2136F6A8FA19A3E6C56ADF0E5F50CF06D48734EDCEBF22F69C56D97EC138153F804B85E6FABFC7AFEFB32E523BE1F3BD372418E363EDCA7548
310
52949E8724474014288D94610BB57C1BEC4C7F854A89CA8E5324F55B871CBC78CE1BBEE3BFE68D6A5589EF3C730474506FCFA8FCF0659516D0ED04580EEA6425581B77CAE797FF4BCECC16EB2FEB926F49481F746159D06D922712BD730FDEAE42BD40F42C7AA5EF3F198F60E86110D6DD20645A9480B795CF95E3E3A659A8
310
C55E724F408873315335CFFB8584874484344D494E59D94869DB90C26A5B64F49C802CAC1D3ABE18A098D3B7444D123D8A9E5AE8F5214F0AE5B2B6E9B575DA3E61CBD3EA2B4009FA940524DD1305FB6A1FB294F14DF0BEA90BA109ECE1481FDC3FFAE8D60E75141700BE82725371B4873751B2DD960265F788137FACE6DD40
310
B575E4F0A5C99F46629D92131467A41EE11ABD8D4CCC039CA0AFB37C93A08B232B8F0AEFCA1E0A1015DF13FC83322B362463652ECF71D3A8B1A7D1BE65DE1D62C44F22C317D35F574FEB16153BA2D13E543D10A80E74C4A65E78A6B7CBCBD1D5DD9DB59C2DAFACC96C3AB566E3F1C29ADCDD5DBAD7D3C9ED7C822ED74F80A6
310
41755310DE4443F44A9E68373FADF6596BFA0F440AE7BECE2727AE9F4F2B1B53B1E7E00CF0DD1E5C65454A339A4BA2D0FBA05ED2EF0443458F47BDBFCA484CCFE0F2ED7E3DD0013B679C7B5499467F0ECEEADDB9CA85A34CE44B99053949D2C1416DB85DE4B136BB7165FBAC0B7AB3542BED4F8CA182A549847A1319316519
310
95A83A67147B9E5101C47487F2485F1ECE38FD568F839204296D3479219888530154036E6528FBFBC66F98E0D4107563A2D7D9AFF8D389681A08F58D89F22693900A3B407754734FC51C10C010D6D640809EE4718AC1BA3ED4AEDB53CA37283F68805A7E4B72CEB0A4EDEAD5DD8C14059A76AFAA56BA6901E13F32BC51C720
310
12AF41295B5BF61BAD3195181FB506E6B40F4C10AF5AF40EF9F5B159AE5DD1F43C72D635E94310D45C2D49785C5D0B94D3B54AB3C5A38349C0587D338AB48C11CBF339599C02CCA54A70A008A8D03C0B2201D5F9EFCF8F9CE12A9A19CB0410789EB32C63B95ECCF455D658BFE0621A3DA32C5075FB101723D77DAE867E7D0F
310
D90444509B44E2151B4DC2290B065803200FBAA9BE9D392A0603F2D5C2D00D6302A615680F66D2FA166E2079D4C551A54AB758161FCEFD4E450A14704CECFEDF504B0304140006080000B670623B000000000000000000000000350000006662782F38353834323741342D343835462D343034322D383541392D4331303331
310
363839454531452F76657274696365732E62696E504B0304140006080800B670623BF270F1330600000004000000360000006662782F38353834323741342D343835462D343034322D383541392D4331303331363839454531452F747269616E676C65732E62696E636660600000504B0304140006080000B670623B000000
310
000000000000000000370000006662782F38353834323741342D343835462D343034322D383541392D4331303331363839454531452F617474726962757465732E62696E504B0304140006080800B670623B08DA0BD19000000041010000360000006662782F38353834323741342D343835462D343034322D383541392D43
310
31303331363839454531452F6469726563746F72792E786D6C858F410AC3201045AF22B36F53E9A60B35CBEEBAE80D244E44489C6234F4F835464A48035D0DF398FF9F8AF63D0E6CC63039F212F8F9020C7D47C6792B21C5FE7403D62A1188E2E60C98D7234A5830286103A55745067B9D86B8A3CF9C7F90C11DE607FB1443
310
96D7B6A82D282E9A152AD114D5EF2CB866EEE831B8EEA07A7BB5A8D7D61A2BAAEB7FD5F70921FF497D00504B0304140006080800B670623BD9A3B367FE000000A00100003B0000006662782F38353834323741342D343835462D343034322D383541392D4331303331363839454531452F7265736F75726365732F636F7265
310
2E786D6C8D504B6E833010BD0A9A6D65B01D0201194711694FD00B586642AD043BF2A7EAF16B122AB5BB6E6646EFA3797AE2F8B5DC8A4FF4C1383B002B291468B59B8C9D0748F1420E501CA5F0CEC55F3228AC5A708015062966EFD27D83B4B3116DCCA875136EA00A012314FA968F0182FEC045952AC5AC08D7F2AEF455CD
310
58B232D3592745883E07289E4FD609D26370C96B0CA27AB252A464A64D63A6FCD35C0C7A904D73EE467EE664DCD58CD4ED4849D79C5A723ED1B7A61977AF2D6F45B59AA58866F9C9A83DAA8813484E6947182394BFB3BAA7FBBEDEBFD0434FA9A856F91F53BA4FFF342563E38E6F719FB60092E5200F428A6AED2BAF479979
310
AFDDCA6F504B010214000A0000080000B670623B3DEE336E79000000790000001B00000000000000000000000000000000006175746F6465736B2D64657369676E2D7061636B6167652E786D6C504B01021400140006080800B670623BD486FD9CA0000000F40000001300000000000000000000000000B20000005B436F6E
310
74656E745F54797065735D2E786D6C504B01021400140006080800B670623BCA089DFFEC0000007C010000080000000000000000000000000083010000636F72652E786D6C504B01021400140006080800B670623B55019EA25F0000007C000000070000000000000000000000000095020000636E782E786D6C504B010214
310
00140006080800B670623B68FC0B7272010000D40300000C00000000000000000000000000190300006662782F636F72652E786D6C504B01021400140006080800B670623B0F71DDB67E0000009D0000000B00000000000000000000000000B50400006662782F636E782E786D6C504B01021400140006080800B670623BE1
310
34B4FB280100001202000031000000000000000000000000005C0500006662782F38353834323741342D343835462D343034322D383541392D4331303331363839454531452F636F72652E786D6C504B01021400140006080800B670623B1B8617914E010000330300003000000000000000000000000000D3060000666278
310
2F38353834323741342D343835462D343034322D383541392D4331303331363839454531452F636E782E786D6C504B01021400140006080800B670623B5933D422630500003B10000034000000000000000000000000006F0800006662782F38353834323741342D343835462D343034322D383541392D4331303331363839
310
454531452F6F626A656374732E786D6C504B01021400140006080000B670623B0000000000000000000000003500000000000000000000000000240E00006662782F38353834323741342D343835462D343034322D383541392D4331303331363839454531452F76657274696365732E62696E504B01021400140006080800
310
B670623BF270F13306000000040000003600000000000000000000000000770E00006662782F38353834323741342D343835462D343034322D383541392D4331303331363839454531452F747269616E676C65732E62696E504B01021400140006080000B670623B0000000000000000000000003700000000000000000000
310
000000D10E00006662782F38353834323741342D343835462D343034322D383541392D4331303331363839454531452F617474726962757465732E62696E504B01021400140006080800B670623B08DA0BD190000000410100003600000000000000000000000000260F00006662782F38353834323741342D343835462D34
310
3034322D383541392D4331303331363839454531452F6469726563746F72792E786D6C504B01021400140006080800B670623BD9A3B367FE000000A00100003B000000000000000000000000000A1000006662782F38353834323741342D343835462D343034322D383541392D4331303331363839454531452F7265736F75
310
726365732F636F72652E786D6C504B0506000000000E000E0080040000611100000000
  0
XRECORD
  5
113
102
{ACAD_REACTORS
330
110
102
}
330
110
100
AcDbXrecord
280
     1
270
     1
271
     1
  0
XRECORD
  5
114
102
{ACAD_REACTORS
330
110
102
}
330
110
100
AcDbXrecord
280
     1
270
     1
271
     1
  0
XRECORD
  5
32607
102
{ACAD_REACTORS
330
32606
102
}
330
32606
100
AcDbXrecord
280
     1
102
ACAD_ROUNDTRIP_2012_MLEADER_STYLE
298
     1
  0
XRECORD
  5
32619
102
{ACAD_REACTORS
330
32618
102
}
330
32618
100
AcDbXrecord
280
     1
102
DISPLAYNAME
  1
Imperial24
102
FLAGS
 90
        0
  0
CELLSTYLEMAP
  5
325D9
102
{ACAD_REACTORS
330
104
102
}
330
104
100
AcDbCellStyleMap
 90
        3
300
CELLSTYLE
  1
TABLEFORMAT_BEGIN
 90
        5
170
     1
 91
        0
 92
    32768
 62
   257
 93
        1
300
CONTENTFORMAT
  1
CONTENTFORMAT_BEGIN
 90
        0
 91
        0
 92
      512
 93
        0
300

 40
0.0
140
1.0
 94
        5
 62
     0
340
11
144
0.25
309
CONTENTFORMAT_END
171
     1
301
MARGIN
  1
CELLMARGIN_BEGIN
 40
0.06
 40
0.06
 40
0.06
 40
0.06
 40
0.18
 40
0.18
309
CELLMARGIN_END
 94
        6
 95
        1
302
GRIDFORMAT
  1
GRIDFORMAT_BEGIN
 90
        0
 91
        1
 62
     0
 92
       -2
340
0
 93
        0
 40
0.045
309
GRIDFORMAT_END
 95
        2
302
GRIDFORMAT
  1
GRIDFORMAT_BEGIN
 90
        0
 91
        1
 62
     0
 92
       -2
340
0
 93
        0
 40
0.045
309
GRIDFORMAT_END
 95
        4
302
GRIDFORMAT
  1
GRIDFORMAT_BEGIN
 90
        0
 91
        1
 62
     0
 92
       -2
340
0
 93
        0
 40
0.045
309
GRIDFORMAT_END
 95
        8
302
GRIDFORMAT
  1
GRIDFORMAT_BEGIN
 90
        0
 91
        1
 62
     0
 92
       -2
340
0
 93
        0
 40
0.045
309
GRIDFORMAT_END
 95
       16
302
GRIDFORMAT
  1
GRIDFORMAT_BEGIN
 90
        0
 91
        1
 62
     0
 92
       -2
340
0
 93
        0
 40
0.045
309
GRIDFORMAT_END
 95
       32
302
GRIDFORMAT
  1
GRIDFORMAT_BEGIN
 90
        0
 91
        1
 62
     0
 92
       -2
340
0
 93
        0
 40
0.045
309
GRIDFORMAT_END
309
TABLEFORMAT_END
  1
CELLSTYLE_BEGIN
 90
        1
 91
        1
300
_TITLE
309
CELLSTYLE_END
300
CELLSTYLE
  1
TABLEFORMAT_BEGIN
 90
        5
170
     1
 91
        0
 92
        0
 62
   257
 93
        1
300
CONTENTFORMAT
  1
CONTENTFORMAT_BEGIN
 90
        0
 91
        0
 92
      512
 93
        0
300

 40
0.0
140
1.0
 94
        5
 62
     0
340
11
144
0.18
309
CONTENTFORMAT_END
171
     1
301
MARGIN
  1
CELLMARGIN_BEGIN
 40
0.06
 40
0.06
 40
0.06
 40
0.06
 40
0.18
 40
0.18
309
CELLMARGIN_END
 94
        6
 95
        1
302
GRIDFORMAT
  1
GRIDFORMAT_BEGIN
 90
        0
 91
        1
 62
     0
 92
       -2
340
0
 93
        0
 40
0.045
309
GRIDFORMAT_END
 95
        2
302
GRIDFORMAT
  1
GRIDFORMAT_BEGIN
 90
        0
 91
        1
 62
     0
 92
       -2
340
0
 93
        0
 40
0.045
309
GRIDFORMAT_END
 95
        4
302
GRIDFORMAT
  1
GRIDFORMAT_BEGIN
 90
        0
 91
        1
 62
     0
 92
       -2
340
0
 93
        0
 40
0.045
309
GRIDFORMAT_END
 95
        8
302
GRIDFORMAT
  1
GRIDFORMAT_BEGIN
 90
        0
 91
        1
 62
     0
 92
       -2
340
0
 93
        0
 40
0.045
309
GRIDFORMAT_END
 95
       16
302
GRIDFORMAT
  1
GRIDFORMAT_BEGIN
 90
        0
 91
        1
 62
     0
 92
       -2
340
0
 93
        0
 40
0.045
309
GRIDFORMAT_END
 95
       32
302
GRIDFORMAT
  1
GRIDFORMAT_BEGIN
 90
        0
 91
        1
 62
     0
 92
       -2
340
0
 93
        0
 40
0.045
309
GRIDFORMAT_END
309
TABLEFORMAT_END
  1
CELLSTYLE_BEGIN
 90
        2
 91
        1
300
_HEADER
309
CELLSTYLE_END
300
CELLSTYLE
  1
TABLEFORMAT_BEGIN
 90
        5
170
     1
 91
        0
 92
        0
 62
   257
 93
        1
300
CONTENTFORMAT
  1
CONTENTFORMAT_BEGIN
 90
        0
 91
        0
 92
      512
 93
        0
300

 40
0.0
140
1.0
 94
        2
 62
     0
340
11
144
0.18
309
CONTENTFORMAT_END
171
     1
301
MARGIN
  1
CELLMARGIN_BEGIN
 40
0.06
 40
0.06
 40
0.06
 40
0.06
 40
0.18
 40
0.18
309
CELLMARGIN_END
 94
        6
 95
        1
302
GRIDFORMAT
  1
GRIDFORMAT_BEGIN
 90
        0
 91
        1
 62
     0
 92
       -2
340
0
 93
        0
 40
0.045
309
GRIDFORMAT_END
 95
        2
302
GRIDFORMAT
  1
GRIDFORMAT_BEGIN
 90
        0
 91
        1
 62
     0
 92
       -2
340
0
 93
        0
 40
0.045
309
GRIDFORMAT_END
 95
        4
302
GRIDFORMAT
  1
GRIDFORMAT_BEGIN
 90
        0
 91
        1
 62
     0
 92
       -2
340
0
 93
        0
 40
0.045
309
GRIDFORMAT_END
 95
        8
302
GRIDFORMAT
  1
GRIDFORMAT_BEGIN
 90
        0
 91
        1
 62
     0
 92
       -2
340
0
 93
        0
 40
0.045
309
GRIDFORMAT_END
 95
       16
302
GRIDFORMAT
  1
GRIDFORMAT_BEGIN
 90
        0
 91
        1
 62
     0
 92
       -2
340
0
 93
        0
 40
0.045
309
GRIDFORMAT_END
 95
       32
302
GRIDFORMAT
  1
GRIDFORMAT_BEGIN
 90
        0
 91
        1
 62
     0
 92
       -2
340
0
 93
        0
 40
0.045
309
GRIDFORMAT_END
309
TABLEFORMAT_END
  1
CELLSTYLE_BEGIN
 90
        3
 91
        2
300
_DATA
309
CELLSTYLE_END
  0
XRECORD
  5
325E2
102
{ACAD_REACTORS
330
104
102
}
330
104
100
AcDbXrecord
280
     1
102
ACAD_ROUNDTRIP_PRE2007_TABLESTYLE
 90
      512
 91
        0
  1

 92
      512
 93
        0
  2

 94
      512
 95
        0
  3

  0
XRECORD
  5
325F1
102
{ACAD_REACTORS
330
325F0
102
}
330
325F0
100
AcDbXrecord
280
     1
102
RTVSPost2010Prop28
280
     1
102
RTVSPost2010PropOp28
 70
     1
102
RTVSPost2010Prop29
280
     1
102
RTVSPost2010PropOp29
 70
     1
102
RTVSPost2010Prop30
280
     0
102
RTVSPost2010PropOp30
 70
     1
102
RTVSPost2010Prop31
280
     0
102
RTVSPost2010PropOp31
 70
     1
102
RTVSPost2010Prop32
280
     0
102
RTVSPost2010PropOp32
 70
     1
102
RTVSPost2010Prop33
280
     0
102
RTVSPost2010PropOp33
 70
     1
102
RTVSPost2010Prop34
280
     0
102
RTVSPost2010PropOp34
 70
     1
102
RTVSPost2010Prop35
280
     0
102
RTVSPost2010PropOp35
 70
     1
102
RTVSPost2010Prop36
280
     0
102
RTVSPost2010PropOp36
 70
     1
102
RTVSPost2010Prop37
 90
       50
102
RTVSPost2010PropOp37
 70
     1
102
RTVSPost2010Prop38
140
0.0
102
RTVSPost2010PropOp38
 70
     1
102
RTVSPost2010Prop39
140
1.0
102
RTVSPost2010PropOp39
 70
     1
102
RTVSPost2010Prop40
 90
        0
102
RTVSPost2010PropOp40
 70
     1
102
RTVSPost2010Prop41ColorIndex
 90
       18
102
RTVSPost2010Prop41ColorRGB
 90
        0
102
RTVSPost2010PropOp41
 70
     1
102
RTVSPost2010Prop42
 90
       50
102
RTVSPost2010PropOp42
 70
     1
102
RTVSPost2010Prop43
 90
        3
102
RTVSPost2010PropOp43
 70
     1
102
RTVSPost2010Prop44ColorIndex
 90
        5
102
RTVSPost2010Prop44ColorRGB
 90
      255
102
RTVSPost2010PropOp44
 70
     1
102
RTVSPost2010Prop45
280
     0
102
RTVSPost2010PropOp45
 70
     1
102
RTVSPost2010Prop46
 90
       50
102
RTVSPost2010PropOp46
 70
     1
102
RTVSPost2010Prop47
 90
       50
102
RTVSPost2010PropOp47
 70
     1
102
RTVSPost2010Prop48
 90
       50
102
RTVSPost2010PropOp48
 70
     1
102
RTVSPost2010Prop49
280
     0
102
RTVSPost2010PropOp49
 70
     1
102
RTVSPost2010Prop50
 90
       50
102
RTVSPost2010PropOp50
 70
     1
102
RTVSPost2010Prop51ColorIndex
 90
      256
102
RTVSPost2010Prop51ColorRGB
 90
-16777216
102
RTVSPost2010PropOp51
 70
     0
102
RTVSPost2010Prop52
140
1.0
102
RTVSPost2010PropOp52
 70
     0
102
RTVSPost2010Prop53
 90
        2
102
RTVSPost2010PropOp53
 70
     1
102
RTVSPost2010Prop54
  1
strokes_ogs.tif
102
RTVSPost2010PropOp54
 70
     1
102
RTVSPost2010Prop55
280
     0
102
RTVSPost2010PropOp55
 70
     1
102
RTVSPost2010Prop56
140
1.0
102
RTVSPost2010PropOp56
 70
     1
102
RTVSPost2010Prop57
140
1.0
102
RTVSPost2010PropOp57
 70
     1
102
RTVSPropertyOp0
 70
     1
102
RTVSPropertyOp1
 70
     1
102
RTVSPropertyOp2
 70
     1
102
RTVSPropertyOp3
 70
     1
102
RTVSPropertyOp4
 70
     1
102
RTVSPropertyOp5
 70
     1
102
RTVSPropertyOp6
 70
     1
102
RTVSPropertyOp7
 70
     1
102
RTVSPropertyOp8
 70
     1
102
RTVSPropertyOp9
 70
     1
102
RTVSPropertyOp10
 70
     1
102
RTVSPropertyOp11
 70
     1
102
RTVSPropertyOp12
 70
     1
102
RTVSPropertyOp13
 70
     1
102
RTVSPropertyOp14
 70
     1
102
RTVSPropertyOp15
 70
     1
102
RTVSPropertyOp16
 70
     1
102
RTVSPropertyOp17
 70
     1
102
RTVSPropertyOp18
 70
     1
102
RTVSPropertyOp19
 70
     1
102
RTVSPropertyOp20
 70
     1
102
RTVSPropertyOp21
 70
     1
102
RTVSPropertyOp22
 70
     1
102
RTVSPropertyOp23
 70
     1
102
RTVSPropertyOp24
 70
     1
102
RTVSPropertyOp25
 70
     1
102
RTVSPropertyOp26
 70
     1
102
RTVSPropertyOp27
 70
     1
102
RTVSPropertyOp28
 70
     1
102
RTVSPropertyOp29
 70
     1
102
RTVSPropertyOp30
 70
     1
102
RTVSPropertyOp31
 70
     1
102
RTVSPropertyOp32
 70
     1
102
RTVSPropertyOp33
 70
     1
102
RTVSPropertyOp34
 70
     1
102
RTVSPropertyOp35
 70
     1
102
RTVSPropertyOp36
 70
     1
102
RTVSPropertyOp37
 70
     1
102
RTVSPropertyOp38
 70
     1
102
RTVSPropertyOp39
 70
     1
102
RTVSPropertyOp40
 70
     1
102
RTVSPropertyOp41
 70
     1
102
RTVSPropertyOp42
 70
     1
102
RTVSPropertyOp43
 70
     1
102
RTVSPropertyOp44
 70
     1
102
RTVSPropertyOp45
 70
     1
102
RTVSPropertyOp46
 70
     1
102
RTVSPropertyOp47
 70
     1
102
RTVSPropertyOp48
 70
     1
102
RTVSPropertyOp49
 70
     1
102
RTVSPropertyOp50
 70
     1
102
RTVSPropertyOp51
 70
     0
102
RTVSPropertyOp52
 70
     0
102
RTVSPropertyOp53
 70
     1
102
RTVSPropertyOp54
 70
     1
102
RTVSPropertyOp55
 70
     1
102
RTVSPropertyOp56
 70
     1
102
RTVSPropertyOp57
 70
     1
102
RTVSPropertyOp58
 70
     1
102
RTVSPropertyOp59
 70
     1
102
RTVSPropertyOp60
 70
     1
102
RTVSPropertyOp61
 70
     1
102
RTVSPropertyOp62
 70
     1
  0
XRECORD
  5
325EF
102
{ACAD_REACTORS
330
325EE
102
}
330
325EE
100
AcDbXrecord
280
     1
102
RTVSPost2010Prop28
280
     0
102
RTVSPost2010PropOp28
 70
     1
102
RTVSPost2010Prop29
280
     1
102
RTVSPost2010PropOp29
 70
     1
102
RTVSPost2010Prop30
280
     1
102
RTVSPost2010PropOp30
 70
     1
102
RTVSPost2010Prop31
280
     0
102
RTVSPost2010PropOp31
 70
     1
102
RTVSPost2010Prop32
280
     0
102
RTVSPost2010PropOp32
 70
     1
102
RTVSPost2010Prop33
280
     0
102
RTVSPost2010PropOp33
 70
     1
102
RTVSPost2010Prop34
280
     0
102
RTVSPost2010PropOp34
 70
     1
102
RTVSPost2010Prop35
280
     0
102
RTVSPost2010PropOp35
 70
     1
102
RTVSPost2010Prop36
280
     0
102
RTVSPost2010PropOp36
 70
     1
102
RTVSPost2010Prop37
 90
       50
102
RTVSPost2010PropOp37
 70
     1
102
RTVSPost2010Prop38
140
0.0
102
RTVSPost2010PropOp38
 70
     1
102
RTVSPost2010Prop39
140
1.0
102
RTVSPost2010PropOp39
 70
     1
102
RTVSPost2010Prop40
 90
        0
102
RTVSPost2010PropOp40
 70
     1
102
RTVSPost2010Prop41ColorIndex
 90
       18
102
RTVSPost2010Prop41ColorRGB
 90
        0
102
RTVSPost2010PropOp41
 70
     1
102
RTVSPost2010Prop42
 90
       50
102
RTVSPost2010PropOp42
 70
     1
102
RTVSPost2010Prop43
 90
        3
102
RTVSPost2010PropOp43
 70
     1
102
RTVSPost2010Prop44ColorIndex
 90
        5
102
RTVSPost2010Prop44ColorRGB
 90
      255
102
RTVSPost2010PropOp44
 70
     1
102
RTVSPost2010Prop45
280
     0
102
RTVSPost2010PropOp45
 70
     1
102
RTVSPost2010Prop46
 90
       50
102
RTVSPost2010PropOp46
 70
     1
102
RTVSPost2010Prop47
 90
       50
102
RTVSPost2010PropOp47
 70
     1
102
RTVSPost2010Prop48
 90
       50
102
RTVSPost2010PropOp48
 70
     1
102
RTVSPost2010Prop49
280
     0
102
RTVSPost2010PropOp49
 70
     1
102
RTVSPost2010Prop50
 90
       50
102
RTVSPost2010PropOp50
 70
     1
102
RTVSPost2010Prop51ColorIndex
 90
      256
102
RTVSPost2010Prop51ColorRGB
 90
-16777216
102
RTVSPost2010PropOp51
 70
     0
102
RTVSPost2010Prop52
140
1.0
102
RTVSPost2010PropOp52
 70
     0
102
RTVSPost2010Prop53
 90
        2
102
RTVSPost2010PropOp53
 70
     1
102
RTVSPost2010Prop54
  1
strokes_ogs.tif
102
RTVSPost2010PropOp54
 70
     1
102
RTVSPost2010Prop55
280
     0
102
RTVSPost2010PropOp55
 70
     1
102
RTVSPost2010Prop56
140
1.0
102
RTVSPost2010PropOp56
 70
     1
102
RTVSPost2010Prop57
140
1.0
102
RTVSPost2010PropOp57
 70
     1
102
RTVSPropertyOp0
 70
     1
102
RTVSPropertyOp1
 70
     1
102
RTVSPropertyOp2
 70
     1
102
RTVSPropertyOp3
 70
     1
102
RTVSPropertyOp4
 70
     1
102
RTVSPropertyOp5
 70
     1
102
RTVSPropertyOp6
 70
     1
102
RTVSPropertyOp7
 70
     1
102
RTVSPropertyOp8
 70
     1
102
RTVSPropertyOp9
 70
     1
102
RTVSPropertyOp10
 70
     1
102
RTVSPropertyOp11
 70
     1
102
RTVSPropertyOp12
 70
     1
102
RTVSPropertyOp13
 70
     1
102
RTVSPropertyOp14
 70
     1
102
RTVSPropertyOp15
 70
     1
102
RTVSPropertyOp16
 70
     1
102
RTVSPropertyOp17
 70
     1
102
RTVSPropertyOp18
 70
     1
102
RTVSPropertyOp19
 70
     1
102
RTVSPropertyOp20
 70
     1
102
RTVSPropertyOp21
 70
     1
102
RTVSPropertyOp22
 70
     1
102
RTVSPropertyOp23
 70
     1
102
RTVSPropertyOp24
 70
     1
102
RTVSPropertyOp25
 70
     1
102
RTVSPropertyOp26
 70
     1
102
RTVSPropertyOp27
 70
     1
102
RTVSPropertyOp28
 70
     1
102
RTVSPropertyOp29
 70
     1
102
RTVSPropertyOp30
 70
     1
102
RTVSPropertyOp31
 70
     1
102
RTVSPropertyOp32
 70
     1
102
RTVSPropertyOp33
 70
     1
102
RTVSPropertyOp34
 70
     1
102
RTVSPropertyOp35
 70
     1
102
RTVSPropertyOp36
 70
     1
102
RTVSPropertyOp37
 70
     1
102
RTVSPropertyOp38
 70
     1
102
RTVSPropertyOp39
 70
     1
102
RTVSPropertyOp40
 70
     1
102
RTVSPropertyOp41
 70
     1
102
RTVSPropertyOp42
 70
     1
102
RTVSPropertyOp43
 70
     1
102
RTVSPropertyOp44
 70
     1
102
RTVSPropertyOp45
 70
     1
102
RTVSPropertyOp46
 70
     1
102
RTVSPropertyOp47
 70
     1
102
RTVSPropertyOp48
 70
     1
102
RTVSPropertyOp49
 70
     1
102
RTVSPropertyOp50
 70
     1
102
RTVSPropertyOp51
 70
     0
102
RTVSPropertyOp52
 70
     0
102
RTVSPropertyOp53
 70
     1
102
RTVSPropertyOp54
 70
     1
102
RTVSPropertyOp55
 70
     1
102
RTVSPropertyOp56
 70
     1
102
RTVSPropertyOp57
 70
     1
102
RTVSPropertyOp58
 70
     1
102
RTVSPropertyOp59
 70
     1
102
RTVSPropertyOp60
 70
     1
102
RTVSPropertyOp61
 70
     1
102
RTVSPropertyOp62
 70
     1
  0
XRECORD
  5
325FD
102
{ACAD_REACTORS
330
325FC
102
}
330
325FC
100
AcDbXrecord
280
     1
102
RTVSPost2010Prop28
280
     0
102
RTVSPost2010PropOp28
 70
     1
102
RTVSPost2010Prop29
280
     1
102
RTVSPost2010PropOp29
 70
     1
102
RTVSPost2010Prop30
280
     1
102
RTVSPost2010PropOp30
 70
     1
102
RTVSPost2010Prop31
280
     0
102
RTVSPost2010PropOp31
 70
     1
102
RTVSPost2010Prop32
280
     0
102
RTVSPost2010PropOp32
 70
     1
102
RTVSPost2010Prop33
280
     0
102
RTVSPost2010PropOp33
 70
     1
102
RTVSPost2010Prop34
280
     0
102
RTVSPost2010PropOp34
 70
     1
102
RTVSPost2010Prop35
280
     0
102
RTVSPost2010PropOp35
 70
     1
102
RTVSPost2010Prop36
280
     0
102
RTVSPost2010PropOp36
 70
     1
102
RTVSPost2010Prop37
 90
       50
102
RTVSPost2010PropOp37
 70
     1
102
RTVSPost2010Prop38
140
0.0
102
RTVSPost2010PropOp38
 70
     1
102
RTVSPost2010Prop39
140
1.0
102
RTVSPost2010PropOp39
 70
     1
102
RTVSPost2010Prop40
 90
        0
102
RTVSPost2010PropOp40
 70
     1
102
RTVSPost2010Prop41ColorIndex
 90
       18
102
RTVSPost2010Prop41ColorRGB
 90
        0
102
RTVSPost2010PropOp41
 70
     1
102
RTVSPost2010Prop42
 90
       50
102
RTVSPost2010PropOp42
 70
     1
102
RTVSPost2010Prop43
 90
        3
102
RTVSPost2010PropOp43
 70
     1
102
RTVSPost2010Prop44ColorIndex
 90
        5
102
RTVSPost2010Prop44ColorRGB
 90
      255
102
RTVSPost2010PropOp44
 70
     1
102
RTVSPost2010Prop45
280
     0
102
RTVSPost2010PropOp45
 70
     1
102
RTVSPost2010Prop46
 90
       50
102
RTVSPost2010PropOp46
 70
     1
102
RTVSPost2010Prop47
 90
       50
102
RTVSPost2010PropOp47
 70
     1
102
RTVSPost2010Prop48
 90
       50
102
RTVSPost2010PropOp48
 70
     1
102
RTVSPost2010Prop49
280
     0
102
RTVSPost2010PropOp49
 70
     1
102
RTVSPost2010Prop50
 90
       50
102
RTVSPost2010PropOp50
 70
     1
102
RTVSPost2010Prop51ColorIndex
 90
      256
102
RTVSPost2010Prop51ColorRGB
 90
-16777216
102
RTVSPost2010PropOp51
 70
     0
102
RTVSPost2010Prop52
140
1.0
102
RTVSPost2010PropOp52
 70
     0
102
RTVSPost2010Prop53
 90
        2
102
RTVSPost2010PropOp53
 70
     1
102
RTVSPost2010Prop54
  1
strokes_ogs.tif
102
RTVSPost2010PropOp54
 70
     1
102
RTVSPost2010Prop55
280
     0
102
RTVSPost2010PropOp55
 70
     1
102
RTVSPost2010Prop56
140
1.0
102
RTVSPost2010PropOp56
 70
     1
102
RTVSPost2010Prop57
140
1.0
102
RTVSPost2010PropOp57
 70
     1
102
RTVSPropertyOp0
 70
     1
102
RTVSPropertyOp1
 70
     1
102
RTVSPropertyOp2
 70
     1
102
RTVSPropertyOp3
 70
     1
102
RTVSPropertyOp4
 70
     1
102
RTVSPropertyOp5
 70
     1
102
RTVSPropertyOp6
 70
     1
102
RTVSPropertyOp7
 70
     1
102
RTVSPropertyOp8
 70
     1
102
RTVSPropertyOp9
 70
     1
102
RTVSPropertyOp10
 70
     1
102
RTVSPropertyOp11
 70
     1
102
RTVSPropertyOp12
 70
     1
102
RTVSPropertyOp13
 70
     1
102
RTVSPropertyOp14
 70
     1
102
RTVSPropertyOp15
 70
     1
102
RTVSPropertyOp16
 70
     1
102
RTVSPropertyOp17
 70
     1
102
RTVSPropertyOp18
 70
     1
102
RTVSPropertyOp19
 70
     1
102
RTVSPropertyOp20
 70
     1
102
RTVSPropertyOp21
 70
     1
102
RTVSPropertyOp22
 70
     1
102
RTVSPropertyOp23
 70
     1
102
RTVSPropertyOp24
 70
     1
102
RTVSPropertyOp25
 70
     1
102
RTVSPropertyOp26
 70
     1
102
RTVSPropertyOp27
 70
     1
102
RTVSPropertyOp28
 70
     1
102
RTVSPropertyOp29
 70
     1
102
RTVSPropertyOp30
 70
     1
102
RTVSPropertyOp31
 70
     1
102
RTVSPropertyOp32
 70
     1
102
RTVSPropertyOp33
 70
     1
102
RTVSPropertyOp34
 70
     1
102
RTVSPropertyOp35
 70
     1
102
RTVSPropertyOp36
 70
     1
102
RTVSPropertyOp37
 70
     1
102
RTVSPropertyOp38
 70
     1
102
RTVSPropertyOp39
 70
     1
102
RTVSPropertyOp40
 70
     1
102
RTVSPropertyOp41
 70
     1
102
RTVSPropertyOp42
 70
     1
102
RTVSPropertyOp43
 70
     1
102
RTVSPropertyOp44
 70
     1
102
RTVSPropertyOp45
 70
     1
102
RTVSPropertyOp46
 70
     1
102
RTVSPropertyOp47
 70
     1
102
RTVSPropertyOp48
 70
     1
102
RTVSPropertyOp49
 70
     1
102
RTVSPropertyOp50
 70
     1
102
RTVSPropertyOp51
 70
     0
102
RTVSPropertyOp52
 70
     0
102
RTVSPropertyOp53
 70
     1
102
RTVSPropertyOp54
 70
     1
102
RTVSPropertyOp55
 70
     1
102
RTVSPropertyOp56
 70
     1
102
RTVSPropertyOp57
 70
     1
102
RTVSPropertyOp58
 70
     1
102
RTVSPropertyOp59
 70
     1
102
RTVSPropertyOp60
 70
     1
102
RTVSPropertyOp61
 70
     1
102
RTVSPropertyOp62
 70
     1
  0
XRECORD
  5
32605
102
{ACAD_REACTORS
330
32604
102
}
330
32604
100
AcDbXrecord
280
     1
102
RTVSPost2010Prop28
280
     0
102
RTVSPost2010PropOp28
 70
     1
102
RTVSPost2010Prop29
280
     1
102
RTVSPost2010PropOp29
 70
     1
102
RTVSPost2010Prop30
280
     1
102
RTVSPost2010PropOp30
 70
     1
102
RTVSPost2010Prop31
280
     0
102
RTVSPost2010PropOp31
 70
     1
102
RTVSPost2010Prop32
280
     0
102
RTVSPost2010PropOp32
 70
     1
102
RTVSPost2010Prop33
280
     0
102
RTVSPost2010PropOp33
 70
     1
102
RTVSPost2010Prop34
280
     0
102
RTVSPost2010PropOp34
 70
     1
102
RTVSPost2010Prop35
280
     0
102
RTVSPost2010PropOp35
 70
     1
102
RTVSPost2010Prop36
280
     0
102
RTVSPost2010PropOp36
 70
     1
102
RTVSPost2010Prop37
 90
       50
102
RTVSPost2010PropOp37
 70
     1
102
RTVSPost2010Prop38
140
0.0
102
RTVSPost2010PropOp38
 70
     1
102
RTVSPost2010Prop39
140
1.0
102
RTVSPost2010PropOp39
 70
     1
102
RTVSPost2010Prop40
 90
        0
102
RTVSPost2010PropOp40
 70
     1
102
RTVSPost2010Prop41ColorIndex
 90
       18
102
RTVSPost2010Prop41ColorRGB
 90
        0
102
RTVSPost2010PropOp41
 70
     1
102
RTVSPost2010Prop42
 90
       50
102
RTVSPost2010PropOp42
 70
     1
102
RTVSPost2010Prop43
 90
        3
102
RTVSPost2010PropOp43
 70
     1
102
RTVSPost2010Prop44ColorIndex
 90
        5
102
RTVSPost2010Prop44ColorRGB
 90
      255
102
RTVSPost2010PropOp44
 70
     1
102
RTVSPost2010Prop45
280
     0
102
RTVSPost2010PropOp45
 70
     1
102
RTVSPost2010Prop46
 90
       50
102
RTVSPost2010PropOp46
 70
     1
102
RTVSPost2010Prop47
 90
       50
102
RTVSPost2010PropOp47
 70
     1
102
RTVSPost2010Prop48
 90
       50
102
RTVSPost2010PropOp48
 70
     1
102
RTVSPost2010Prop49
280
     0
102
RTVSPost2010PropOp49
 70
     1
102
RTVSPost2010Prop50
 90
       50
102
RTVSPost2010PropOp50
 70
     1
102
RTVSPost2010Prop51ColorIndex
 90
      256
102
RTVSPost2010Prop51ColorRGB
 90
-16777216
102
RTVSPost2010PropOp51
 70
     0
102
RTVSPost2010Prop52
140
1.0
102
RTVSPost2010PropOp52
 70
     0
102
RTVSPost2010Prop53
 90
        2
102
RTVSPost2010PropOp53
 70
     1
102
RTVSPost2010Prop54
  1
strokes_ogs.tif
102
RTVSPost2010PropOp54
 70
     1
102
RTVSPost2010Prop55
280
     0
102
RTVSPost2010PropOp55
 70
     1
102
RTVSPost2010Prop56
140
1.0
102
RTVSPost2010PropOp56
 70
     1
102
RTVSPost2010Prop57
140
1.0
102
RTVSPost2010PropOp57
 70
     1
102
RTVSPropertyOp0
 70
     1
102
RTVSPropertyOp1
 70
     1
102
RTVSPropertyOp2
 70
     1
102
RTVSPropertyOp3
 70
     1
102
RTVSPropertyOp4
 70
     1
102
RTVSPropertyOp5
 70
     1
102
RTVSPropertyOp6
 70
     1
102
RTVSPropertyOp7
 70
     1
102
RTVSPropertyOp8
 70
     1
102
RTVSPropertyOp9
 70
     1
102
RTVSPropertyOp10
 70
     1
102
RTVSPropertyOp11
 70
     1
102
RTVSPropertyOp12
 70
     1
102
RTVSPropertyOp13
 70
     1
102
RTVSPropertyOp14
 70
     1
102
RTVSPropertyOp15
 70
     1
102
RTVSPropertyOp16
 70
     1
102
RTVSPropertyOp17
 70
     1
102
RTVSPropertyOp18
 70
     1
102
RTVSPropertyOp19
 70
     1
102
RTVSPropertyOp20
 70
     1
102
RTVSPropertyOp21
 70
     1
102
RTVSPropertyOp22
 70
     1
102
RTVSPropertyOp23
 70
     1
102
RTVSPropertyOp24
 70
     1
102
RTVSPropertyOp25
 70
     1
102
RTVSPropertyOp26
 70
     1
102
RTVSPropertyOp27
 70
     1
102
RTVSPropertyOp28
 70
     1
102
RTVSPropertyOp29
 70
     1
102
RTVSPropertyOp30
 70
     1
102
RTVSPropertyOp31
 70
     1
102
RTVSPropertyOp32
 70
     1
102
RTVSPropertyOp33
 70
     1
102
RTVSPropertyOp34
 70
     1
102
RTVSPropertyOp35
 70
     1
102
RTVSPropertyOp36
 70
     1
102
RTVSPropertyOp37
 70
     1
102
RTVSPropertyOp38
 70
     1
102
RTVSPropertyOp39
 70
     1
102
RTVSPropertyOp40
 70
     1
102
RTVSPropertyOp41
 70
     1
102
RTVSPropertyOp42
 70
     1
102
RTVSPropertyOp43
 70
     1
102
RTVSPropertyOp44
 70
     1
102
RTVSPropertyOp45
 70
     1
102
RTVSPropertyOp46
 70
     1
102
RTVSPropertyOp47
 70
     1
102
RTVSPropertyOp48
 70
     1
102
RTVSPropertyOp49
 70
     1
102
RTVSPropertyOp50
 70
     1
102
RTVSPropertyOp51
 70
     0
102
RTVSPropertyOp52
 70
     0
102
RTVSPropertyOp53
 70
     1
102
RTVSPropertyOp54
 70
     1
102
RTVSPropertyOp55
 70
     1
102
RTVSPropertyOp56
 70
     1
102
RTVSPropertyOp57
 70
     1
102
RTVSPropertyOp58
 70
     1
102
RTVSPropertyOp59
 70
     1
102
RTVSPropertyOp60
 70
     1
102
RTVSPropertyOp61
 70
     1
102
RTVSPropertyOp62
 70
     1
  0
XRECORD
  5
325F7
102
{ACAD_REACTORS
330
325F6
102
}
330
325F6
100
AcDbXrecord
280
     1
102
RTVSPost2010Prop28
280
     0
102
RTVSPost2010PropOp28
 70
     1
102
RTVSPost2010Prop29
280
     1
102
RTVSPost2010PropOp29
 70
     1
102
RTVSPost2010Prop30
280
     1
102
RTVSPost2010PropOp30
 70
     1
102
RTVSPost2010Prop31
280
     0
102
RTVSPost2010PropOp31
 70
     1
102
RTVSPost2010Prop32
280
     0
102
RTVSPost2010PropOp32
 70
     1
102
RTVSPost2010Prop33
280
     0
102
RTVSPost2010PropOp33
 70
     1
102
RTVSPost2010Prop34
280
     0
102
RTVSPost2010PropOp34
 70
     1
102
RTVSPost2010Prop35
280
     0
102
RTVSPost2010PropOp35
 70
     1
102
RTVSPost2010Prop36
280
     0
102
RTVSPost2010PropOp36
 70
     1
102
RTVSPost2010Prop37
 90
       50
102
RTVSPost2010PropOp37
 70
     1
102
RTVSPost2010Prop38
140
0.0
102
RTVSPost2010PropOp38
 70
     1
102
RTVSPost2010Prop39
140
1.0
102
RTVSPost2010PropOp39
 70
     1
102
RTVSPost2010Prop40
 90
        0
102
RTVSPost2010PropOp40
 70
     1
102
RTVSPost2010Prop41ColorIndex
 90
       18
102
RTVSPost2010Prop41ColorRGB
 90
        0
102
RTVSPost2010PropOp41
 70
     1
102
RTVSPost2010Prop42
 90
       50
102
RTVSPost2010PropOp42
 70
     1
102
RTVSPost2010Prop43
 90
        3
102
RTVSPost2010PropOp43
 70
     1
102
RTVSPost2010Prop44ColorIndex
 90
        5
102
RTVSPost2010Prop44ColorRGB
 90
      255
102
RTVSPost2010PropOp44
 70
     1
102
RTVSPost2010Prop45
280
     0
102
RTVSPost2010PropOp45
 70
     1
102
RTVSPost2010Prop46
 90
       50
102
RTVSPost2010PropOp46
 70
     1
102
RTVSPost2010Prop47
 90
       50
102
RTVSPost2010PropOp47
 70
     1
102
RTVSPost2010Prop48
 90
       50
102
RTVSPost2010PropOp48
 70
     1
102
RTVSPost2010Prop49
280
     0
102
RTVSPost2010PropOp49
 70
     1
102
RTVSPost2010Prop50
 90
       50
102
RTVSPost2010PropOp50
 70
     1
102
RTVSPost2010Prop51ColorIndex
 90
      256
102
RTVSPost2010Prop51ColorRGB
 90
-16777216
102
RTVSPost2010PropOp51
 70
     0
102
RTVSPost2010Prop52
140
1.0
102
RTVSPost2010PropOp52
 70
     0
102
RTVSPost2010Prop53
 90
        2
102
RTVSPost2010PropOp53
 70
     1
102
RTVSPost2010Prop54
  1
strokes_ogs.tif
102
RTVSPost2010PropOp54
 70
     1
102
RTVSPost2010Prop55
280
     0
102
RTVSPost2010PropOp55
 70
     1
102
RTVSPost2010Prop56
140
1.0
102
RTVSPost2010PropOp56
 70
     1
102
RTVSPost2010Prop57
140
1.0
102
RTVSPost2010PropOp57
 70
     1
102
RTVSPropertyOp0
 70
     1
102
RTVSPropertyOp1
 70
     1
102
RTVSPropertyOp2
 70
     1
102
RTVSPropertyOp3
 70
     1
102
RTVSPropertyOp4
 70
     1
102
RTVSPropertyOp5
 70
     1
102
RTVSPropertyOp6
 70
     1
102
RTVSPropertyOp7
 70
     1
102
RTVSPropertyOp8
 70
     1
102
RTVSPropertyOp9
 70
     1
102
RTVSPropertyOp10
 70
     1
102
RTVSPropertyOp11
 70
     1
102
RTVSPropertyOp12
 70
     1
102
RTVSPropertyOp13
 70
     1
102
RTVSPropertyOp14
 70
     1
102
RTVSPropertyOp15
 70
     1
102
RTVSPropertyOp16
 70
     1
102
RTVSPropertyOp17
 70
     1
102
RTVSPropertyOp18
 70
     1
102
RTVSPropertyOp19
 70
     1
102
RTVSPropertyOp20
 70
     1
102
RTVSPropertyOp21
 70
     1
102
RTVSPropertyOp22
 70
     1
102
RTVSPropertyOp23
 70
     1
102
RTVSPropertyOp24
 70
     1
102
RTVSPropertyOp25
 70
     1
102
RTVSPropertyOp26
 70
     1
102
RTVSPropertyOp27
 70
     1
102
RTVSPropertyOp28
 70
     1
102
RTVSPropertyOp29
 70
     1
102
RTVSPropertyOp30
 70
     1
102
RTVSPropertyOp31
 70
     1
102
RTVSPropertyOp32
 70
     1
102
RTVSPropertyOp33
 70
     1
102
RTVSPropertyOp34
 70
     1
102
RTVSPropertyOp35
 70
     1
102
RTVSPropertyOp36
 70
     1
102
RTVSPropertyOp37
 70
     1
102
RTVSPropertyOp38
 70
     1
102
RTVSPropertyOp39
 70
     1
102
RTVSPropertyOp40
 70
     1
102
RTVSPropertyOp41
 70
     1
102
RTVSPropertyOp42
 70
     1
102
RTVSPropertyOp43
 70
     1
102
RTVSPropertyOp44
 70
     1
102
RTVSPropertyOp45
 70
     1
102
RTVSPropertyOp46
 70
     1
102
RTVSPropertyOp47
 70
     1
102
RTVSPropertyOp48
 70
     1
102
RTVSPropertyOp49
 70
     1
102
RTVSPropertyOp50
 70
     1
102
RTVSPropertyOp51
 70
     0
102
RTVSPropertyOp52
 70
     0
102
RTVSPropertyOp53
 70
     1
102
RTVSPropertyOp54
 70
     1
102
RTVSPropertyOp55
 70
     1
102
RTVSPropertyOp56
 70
     1
102
RTVSPropertyOp57
 70
     1
102
RTVSPropertyOp58
 70
     1
102
RTVSPropertyOp59
 70
     1
102
RTVSPropertyOp60
 70
     1
102
RTVSPropertyOp61
 70
     1
102
RTVSPropertyOp62
 70
     1
  0
XRECORD
  5
325FB
102
{ACAD_REACTORS
330
325FA
102
}
330
325FA
100
AcDbXrecord
280
     1
102
RTVSPost2010Prop28
280
     0
102
RTVSPost2010PropOp28
 70
     1
102
RTVSPost2010Prop29
280
     1
102
RTVSPost2010PropOp29
 70
     1
102
RTVSPost2010Prop30
280
     1
102
RTVSPost2010PropOp30
 70
     1
102
RTVSPost2010Prop31
280
     0
102
RTVSPost2010PropOp31
 70
     1
102
RTVSPost2010Prop32
280
     0
102
RTVSPost2010PropOp32
 70
     1
102
RTVSPost2010Prop33
280
     0
102
RTVSPost2010PropOp33
 70
     1
102
RTVSPost2010Prop34
280
     0
102
RTVSPost2010PropOp34
 70
     1
102
RTVSPost2010Prop35
280
     0
102
RTVSPost2010PropOp35
 70
     1
102
RTVSPost2010Prop36
280
     0
102
RTVSPost2010PropOp36
 70
     1
102
RTVSPost2010Prop37
 90
       50
102
RTVSPost2010PropOp37
 70
     1
102
RTVSPost2010Prop38
140
0.0
102
RTVSPost2010PropOp38
 70
     1
102
RTVSPost2010Prop39
140
1.0
102
RTVSPost2010PropOp39
 70
     1
102
RTVSPost2010Prop40
 90
        0
102
RTVSPost2010PropOp40
 70
     1
102
RTVSPost2010Prop41ColorIndex
 90
       18
102
RTVSPost2010Prop41ColorRGB
 90
        0
102
RTVSPost2010PropOp41
 70
     1
102
RTVSPost2010Prop42
 90
       50
102
RTVSPost2010PropOp42
 70
     1
102
RTVSPost2010Prop43
 90
        3
102
RTVSPost2010PropOp43
 70
     1
102
RTVSPost2010Prop44ColorIndex
 90
        5
102
RTVSPost2010Prop44ColorRGB
 90
      255
102
RTVSPost2010PropOp44
 70
     1
102
RTVSPost2010Prop45
280
     0
102
RTVSPost2010PropOp45
 70
     1
102
RTVSPost2010Prop46
 90
       50
102
RTVSPost2010PropOp46
 70
     1
102
RTVSPost2010Prop47
 90
       50
102
RTVSPost2010PropOp47
 70
     1
102
RTVSPost2010Prop48
 90
       50
102
RTVSPost2010PropOp48
 70
     1
102
RTVSPost2010Prop49
280
     0
102
RTVSPost2010PropOp49
 70
     1
102
RTVSPost2010Prop50
 90
       50
102
RTVSPost2010PropOp50
 70
     1
102
RTVSPost2010Prop51ColorIndex
 90
      256
102
RTVSPost2010Prop51ColorRGB
 90
-16777216
102
RTVSPost2010PropOp51
 70
     0
102
RTVSPost2010Prop52
140
1.0
102
RTVSPost2010PropOp52
 70
     0
102
RTVSPost2010Prop53
 90
        2
102
RTVSPost2010PropOp53
 70
     1
102
RTVSPost2010Prop54
  1
strokes_ogs.tif
102
RTVSPost2010PropOp54
 70
     1
102
RTVSPost2010Prop55
280
     0
102
RTVSPost2010PropOp55
 70
     1
102
RTVSPost2010Prop56
140
1.0
102
RTVSPost2010PropOp56
 70
     1
102
RTVSPost2010Prop57
140
1.0
102
RTVSPost2010PropOp57
 70
     1
102
RTVSPropertyOp0
 70
     1
102
RTVSPropertyOp1
 70
     1
102
RTVSPropertyOp2
 70
     1
102
RTVSPropertyOp3
 70
     1
102
RTVSPropertyOp4
 70
     1
102
RTVSPropertyOp5
 70
     1
102
RTVSPropertyOp6
 70
     1
102
RTVSPropertyOp7
 70
     1
102
RTVSPropertyOp8
 70
     1
102
RTVSPropertyOp9
 70
     1
102
RTVSPropertyOp10
 70
     1
102
RTVSPropertyOp11
 70
     1
102
RTVSPropertyOp12
 70
     1
102
RTVSPropertyOp13
 70
     1
102
RTVSPropertyOp14
 70
     1
102
RTVSPropertyOp15
 70
     1
102
RTVSPropertyOp16
 70
     1
102
RTVSPropertyOp17
 70
     1
102
RTVSPropertyOp18
 70
     1
102
RTVSPropertyOp19
 70
     1
102
RTVSPropertyOp20
 70
     1
102
RTVSPropertyOp21
 70
     1
102
RTVSPropertyOp22
 70
     1
102
RTVSPropertyOp23
 70
     1
102
RTVSPropertyOp24
 70
     1
102
RTVSPropertyOp25
 70
     1
102
RTVSPropertyOp26
 70
     1
102
RTVSPropertyOp27
 70
     1
102
RTVSPropertyOp28
 70
     1
102
RTVSPropertyOp29
 70
     1
102
RTVSPropertyOp30
 70
     1
102
RTVSPropertyOp31
 70
     1
102
RTVSPropertyOp32
 70
     1
102
RTVSPropertyOp33
 70
     1
102
RTVSPropertyOp34
 70
     1
102
RTVSPropertyOp35
 70
     1
102
RTVSPropertyOp36
 70
     1
102
RTVSPropertyOp37
 70
     1
102
RTVSPropertyOp38
 70
     1
102
RTVSPropertyOp39
 70
     1
102
RTVSPropertyOp40
 70
     1
102
RTVSPropertyOp41
 70
     1
102
RTVSPropertyOp42
 70
     1
102
RTVSPropertyOp43
 70
     1
102
RTVSPropertyOp44
 70
     1
102
RTVSPropertyOp45
 70
     1
102
RTVSPropertyOp46
 70
     1
102
RTVSPropertyOp47
 70
     1
102
RTVSPropertyOp48
 70
     1
102
RTVSPropertyOp49
 70
     1
102
RTVSPropertyOp50
 70
     1
102
RTVSPropertyOp51
 70
     0
102
RTVSPropertyOp52
 70
     0
102
RTVSPropertyOp53
 70
     1
102
RTVSPropertyOp54
 70
     1
102
RTVSPropertyOp55
 70
     1
102
RTVSPropertyOp56
 70
     1
102
RTVSPropertyOp57
 70
     1
102
RTVSPropertyOp58
 70
     1
102
RTVSPropertyOp59
 70
     1
102
RTVSPropertyOp60
 70
     1
102
RTVSPropertyOp61
 70
     1
102
RTVSPropertyOp62
 70
     1
  0
XRECORD
  5
3260D
102
{ACAD_REACTORS
330
3260C
102
}
330
3260C
100
AcDbXrecord
280
     1
102
RTVSPost2010Prop28
280
     0
102
RTVSPost2010PropOp28
 70
     1
102
RTVSPost2010Prop29
280
     1
102
RTVSPost2010PropOp29
 70
     1
102
RTVSPost2010Prop30
280
     1
102
RTVSPost2010PropOp30
 70
     1
102
RTVSPost2010Prop31
280
     0
102
RTVSPost2010PropOp31
 70
     1
102
RTVSPost2010Prop32
280
     0
102
RTVSPost2010PropOp32
 70
     1
102
RTVSPost2010Prop33
280
     0
102
RTVSPost2010PropOp33
 70
     1
102
RTVSPost2010Prop34
280
     0
102
RTVSPost2010PropOp34
 70
     1
102
RTVSPost2010Prop35
280
     0
102
RTVSPost2010PropOp35
 70
     1
102
RTVSPost2010Prop36
280
     0
102
RTVSPost2010PropOp36
 70
     1
102
RTVSPost2010Prop37
 90
       50
102
RTVSPost2010PropOp37
 70
     1
102
RTVSPost2010Prop38
140
0.0
102
RTVSPost2010PropOp38
 70
     1
102
RTVSPost2010Prop39
140
1.0
102
RTVSPost2010PropOp39
 70
     1
102
RTVSPost2010Prop40
 90
        0
102
RTVSPost2010PropOp40
 70
     1
102
RTVSPost2010Prop41ColorIndex
 90
       18
102
RTVSPost2010Prop41ColorRGB
 90
        0
102
RTVSPost2010PropOp41
 70
     1
102
RTVSPost2010Prop42
 90
       50
102
RTVSPost2010PropOp42
 70
     1
102
RTVSPost2010Prop43
 90
        3
102
RTVSPost2010PropOp43
 70
     1
102
RTVSPost2010Prop44ColorIndex
 90
        5
102
RTVSPost2010Prop44ColorRGB
 90
      255
102
RTVSPost2010PropOp44
 70
     1
102
RTVSPost2010Prop45
280
     0
102
RTVSPost2010PropOp45
 70
     1
102
RTVSPost2010Prop46
 90
       50
102
RTVSPost2010PropOp46
 70
     1
102
RTVSPost2010Prop47
 90
       50
102
RTVSPost2010PropOp47
 70
     1
102
RTVSPost2010Prop48
 90
       50
102
RTVSPost2010PropOp48
 70
     1
102
RTVSPost2010Prop49
280
     0
102
RTVSPost2010PropOp49
 70
     1
102
RTVSPost2010Prop50
 90
       50
102
RTVSPost2010PropOp50
 70
     1
102
RTVSPost2010Prop51ColorIndex
 90
      256
102
RTVSPost2010Prop51ColorRGB
 90
-16777216
102
RTVSPost2010PropOp51
 70
     0
102
RTVSPost2010Prop52
140
1.0
102
RTVSPost2010PropOp52
 70
     0
102
RTVSPost2010Prop53
 90
        2
102
RTVSPost2010PropOp53
 70
     1
102
RTVSPost2010Prop54
  1
strokes_ogs.tif
102
RTVSPost2010PropOp54
 70
     1
102
RTVSPost2010Prop55
280
     0
102
RTVSPost2010PropOp55
 70
     1
102
RTVSPost2010Prop56
140
1.0
102
RTVSPost2010PropOp56
 70
     1
102
RTVSPost2010Prop57
140
1.0
102
RTVSPost2010PropOp57
 70
     1
102
RTVSPropertyOp0
 70
     0
102
RTVSPropertyOp1
 70
     0
102
RTVSPropertyOp2
 70
     0
102
RTVSPropertyOp3
 70
     0
102
RTVSPropertyOp4
 70
     0
102
RTVSPropertyOp5
 70
     0
102
RTVSPropertyOp6
 70
     0
102
RTVSPropertyOp7
 70
     0
102
RTVSPropertyOp8
 70
     0
102
RTVSPropertyOp9
 70
     0
102
RTVSPropertyOp10
 70
     0
102
RTVSPropertyOp11
 70
     0
102
RTVSPropertyOp12
 70
     0
102
RTVSPropertyOp13
 70
     0
102
RTVSPropertyOp14
 70
     2
102
RTVSPropertyOp15
 70
     0
102
RTVSPropertyOp16
 70
     0
102
RTVSPropertyOp17
 70
     0
102
RTVSPropertyOp18
 70
     0
102
RTVSPropertyOp19
 70
     0
102
RTVSPropertyOp20
 70
     0
102
RTVSPropertyOp21
 70
     0
102
RTVSPropertyOp22
 70
     0
102
RTVSPropertyOp23
 70
     0
102
RTVSPropertyOp24
 70
     0
102
RTVSPropertyOp25
 70
     0
102
RTVSPropertyOp26
 70
     0
102
RTVSPropertyOp27
 70
     0
102
RTVSPropertyOp28
 70
     1
102
RTVSPropertyOp29
 70
     1
102
RTVSPropertyOp30
 70
     1
102
RTVSPropertyOp31
 70
     1
102
RTVSPropertyOp32
 70
     1
102
RTVSPropertyOp33
 70
     1
102
RTVSPropertyOp34
 70
     1
102
RTVSPropertyOp35
 70
     1
102
RTVSPropertyOp36
 70
     1
102
RTVSPropertyOp37
 70
     1
102
RTVSPropertyOp38
 70
     1
102
RTVSPropertyOp39
 70
     1
102
RTVSPropertyOp40
 70
     1
102
RTVSPropertyOp41
 70
     1
102
RTVSPropertyOp42
 70
     1
102
RTVSPropertyOp43
 70
     1
102
RTVSPropertyOp44
 70
     1
102
RTVSPropertyOp45
 70
     1
102
RTVSPropertyOp46
 70
     1
102
RTVSPropertyOp47
 70
     1
102
RTVSPropertyOp48
 70
     1
102
RTVSPropertyOp49
 70
     1
102
RTVSPropertyOp50
 70
     1
102
RTVSPropertyOp51
 70
     0
102
RTVSPropertyOp52
 70
     0
102
RTVSPropertyOp53
 70
     1
102
RTVSPropertyOp54
 70
     1
102
RTVSPropertyOp55
 70
     1
102
RTVSPropertyOp56
 70
     1
102
RTVSPropertyOp57
 70
     1
102
RTVSPropertyOp58
 70
     1
102
RTVSPropertyOp59
 70
     1
102
RTVSPropertyOp60
 70
     1
102
RTVSPropertyOp61
 70
     1
102
RTVSPropertyOp62
 70
     1
  0
XRECORD
  5
32603
102
{ACAD_REACTORS
330
32602
102
}
330
32602
100
AcDbXrecord
280
     1
102
RTVSPost2010Prop28
280
     0
102
RTVSPost2010PropOp28
 70
     1
102
RTVSPost2010Prop29
280
     1
102
RTVSPost2010PropOp29
 70
     1
102
RTVSPost2010Prop30
280
     1
102
RTVSPost2010PropOp30
 70
     1
102
RTVSPost2010Prop31
280
     0
102
RTVSPost2010PropOp31
 70
     1
102
RTVSPost2010Prop32
280
     0
102
RTVSPost2010PropOp32
 70
     1
102
RTVSPost2010Prop33
280
     0
102
RTVSPost2010PropOp33
 70
     1
102
RTVSPost2010Prop34
280
     0
102
RTVSPost2010PropOp34
 70
     1
102
RTVSPost2010Prop35
280
     0
102
RTVSPost2010PropOp35
 70
     1
102
RTVSPost2010Prop36
280
     0
102
RTVSPost2010PropOp36
 70
     1
102
RTVSPost2010Prop37
 90
       50
102
RTVSPost2010PropOp37
 70
     1
102
RTVSPost2010Prop38
140
0.0
102
RTVSPost2010PropOp38
 70
     1
102
RTVSPost2010Prop39
140
1.0
102
RTVSPost2010PropOp39
 70
     1
102
RTVSPost2010Prop40
 90
        0
102
RTVSPost2010PropOp40
 70
     1
102
RTVSPost2010Prop41ColorIndex
 90
       18
102
RTVSPost2010Prop41ColorRGB
 90
        0
102
RTVSPost2010PropOp41
 70
     1
102
RTVSPost2010Prop42
 90
       50
102
RTVSPost2010PropOp42
 70
     1
102
RTVSPost2010Prop43
 90
        3
102
RTVSPost2010PropOp43
 70
     1
102
RTVSPost2010Prop44ColorIndex
 90
        5
102
RTVSPost2010Prop44ColorRGB
 90
      255
102
RTVSPost2010PropOp44
 70
     1
102
RTVSPost2010Prop45
280
     0
102
RTVSPost2010PropOp45
 70
     1
102
RTVSPost2010Prop46
 90
       50
102
RTVSPost2010PropOp46
 70
     1
102
RTVSPost2010Prop47
 90
       50
102
RTVSPost2010PropOp47
 70
     1
102
RTVSPost2010Prop48
 90
       50
102
RTVSPost2010PropOp48
 70
     1
102
RTVSPost2010Prop49
280
     0
102
RTVSPost2010PropOp49
 70
     1
102
RTVSPost2010Prop50
 90
       50
102
RTVSPost2010PropOp50
 70
     1
102
RTVSPost2010Prop51ColorIndex
 90
      256
102
RTVSPost2010Prop51ColorRGB
 90
-16777216
102
RTVSPost2010PropOp51
 70
     0
102
RTVSPost2010Prop52
140
1.0
102
RTVSPost2010PropOp52
 70
     0
102
RTVSPost2010Prop53
 90
        2
102
RTVSPost2010PropOp53
 70
     1
102
RTVSPost2010Prop54
  1
strokes_ogs.tif
102
RTVSPost2010PropOp54
 70
     1
102
RTVSPost2010Prop55
280
     0
102
RTVSPost2010PropOp55
 70
     1
102
RTVSPost2010Prop56
140
1.0
102
RTVSPost2010PropOp56
 70
     1
102
RTVSPost2010Prop57
140
1.0
102
RTVSPost2010PropOp57
 70
     1
102
RTVSPropertyOp0
 70
     1
102
RTVSPropertyOp1
 70
     1
102
RTVSPropertyOp2
 70
     1
102
RTVSPropertyOp3
 70
     1
102
RTVSPropertyOp4
 70
     1
102
RTVSPropertyOp5
 70
     1
102
RTVSPropertyOp6
 70
     1
102
RTVSPropertyOp7
 70
     1
102
RTVSPropertyOp8
 70
     1
102
RTVSPropertyOp9
 70
     1
102
RTVSPropertyOp10
 70
     1
102
RTVSPropertyOp11
 70
     1
102
RTVSPropertyOp12
 70
     1
102
RTVSPropertyOp13
 70
     1
102
RTVSPropertyOp14
 70
     1
102
RTVSPropertyOp15
 70
     1
102
RTVSPropertyOp16
 70
     1
102
RTVSPropertyOp17
 70
     1
102
RTVSPropertyOp18
 70
     1
102
RTVSPropertyOp19
 70
     1
102
RTVSPropertyOp20
 70
     1
102
RTVSPropertyOp21
 70
     1
102
RTVSPropertyOp22
 70
     1
102
RTVSPropertyOp23
 70
     1
102
RTVSPropertyOp24
 70
     1
102
RTVSPropertyOp25
 70
     1
102
RTVSPropertyOp26
 70
     1
102
RTVSPropertyOp27
 70
     1
102
RTVSPropertyOp28
 70
     1
102
RTVSPropertyOp29
 70
     1
102
RTVSPropertyOp30
 70
     1
102
RTVSPropertyOp31
 70
     1
102
RTVSPropertyOp32
 70
     1
102
RTVSPropertyOp33
 70
     1
102
RTVSPropertyOp34
 70
     1
102
RTVSPropertyOp35
 70
     1
102
RTVSPropertyOp36
 70
     1
102
RTVSPropertyOp37
 70
     1
102
RTVSPropertyOp38
 70
     1
102
RTVSPropertyOp39
 70
     1
102
RTVSPropertyOp40
 70
     1
102
RTVSPropertyOp41
 70
     1
102
RTVSPropertyOp42
 70
     1
102
RTVSPropertyOp43
 70
     1
102
RTVSPropertyOp44
 70
     1
102
RTVSPropertyOp45
 70
     1
102
RTVSPropertyOp46
 70
     1
102
RTVSPropertyOp47
 70
     1
102
RTVSPropertyOp48
 70
     1
102
RTVSPropertyOp49
 70
     1
102
RTVSPropertyOp50
 70
     1
102
RTVSPropertyOp51
 70
     0
102
RTVSPropertyOp52
 70
     0
102
RTVSPropertyOp53
 70
     1
102
RTVSPropertyOp54
 70
     1
102
RTVSPropertyOp55
 70
     1
102
RTVSPropertyOp56
 70
     1
102
RTVSPropertyOp57
 70
     1
102
RTVSPropertyOp58
 70
     1
102
RTVSPropertyOp59
 70
     1
102
RTVSPropertyOp60
 70
     1
102
RTVSPropertyOp61
 70
     1
102
RTVSPropertyOp62
 70
     1
  0
XRECORD
  5
325E7
102
{ACAD_REACTORS
330
325E6
102
}
330
325E6
100
AcDbXrecord
280
     1
102
RTVSPost2010Prop28
280
     0
102
RTVSPost2010PropOp28
 70
     1
102
RTVSPost2010Prop29
280
     1
102
RTVSPost2010PropOp29
 70
     1
102
RTVSPost2010Prop30
280
     1
102
RTVSPost2010PropOp30
 70
     1
102
RTVSPost2010Prop31
280
     0
102
RTVSPost2010PropOp31
 70
     1
102
RTVSPost2010Prop32
280
     0
102
RTVSPost2010PropOp32
 70
     1
102
RTVSPost2010Prop33
280
     0
102
RTVSPost2010PropOp33
 70
     1
102
RTVSPost2010Prop34
280
     0
102
RTVSPost2010PropOp34
 70
     1
102
RTVSPost2010Prop35
280
     0
102
RTVSPost2010PropOp35
 70
     1
102
RTVSPost2010Prop36
280
     0
102
RTVSPost2010PropOp36
 70
     1
102
RTVSPost2010Prop37
 90
       50
102
RTVSPost2010PropOp37
 70
     1
102
RTVSPost2010Prop38
140
0.0
102
RTVSPost2010PropOp38
 70
     1
102
RTVSPost2010Prop39
140
1.0
102
RTVSPost2010PropOp39
 70
     1
102
RTVSPost2010Prop40
 90
        0
102
RTVSPost2010PropOp40
 70
     1
102
RTVSPost2010Prop41ColorIndex
 90
       18
102
RTVSPost2010Prop41ColorRGB
 90
        0
102
RTVSPost2010PropOp41
 70
     1
102
RTVSPost2010Prop42
 90
       50
102
RTVSPost2010PropOp42
 70
     1
102
RTVSPost2010Prop43
 90
        3
102
RTVSPost2010PropOp43
 70
     1
102
RTVSPost2010Prop44ColorIndex
 90
        5
102
RTVSPost2010Prop44ColorRGB
 90
      255
102
RTVSPost2010PropOp44
 70
     1
102
RTVSPost2010Prop45
280
     0
102
RTVSPost2010PropOp45
 70
     1
102
RTVSPost2010Prop46
 90
       50
102
RTVSPost2010PropOp46
 70
     1
102
RTVSPost2010Prop47
 90
       50
102
RTVSPost2010PropOp47
 70
     1
102
RTVSPost2010Prop48
 90
       50
102
RTVSPost2010PropOp48
 70
     1
102
RTVSPost2010Prop49
280
     0
102
RTVSPost2010PropOp49
 70
     1
102
RTVSPost2010Prop50
 90
       50
102
RTVSPost2010PropOp50
 70
     1
102
RTVSPost2010Prop51ColorIndex
 90
      256
102
RTVSPost2010Prop51ColorRGB
 90
-16777216
102
RTVSPost2010PropOp51
 70
     0
102
RTVSPost2010Prop52
140
1.0
102
RTVSPost2010PropOp52
 70
     0
102
RTVSPost2010Prop53
 90
        2
102
RTVSPost2010PropOp53
 70
     1
102
RTVSPost2010Prop54
  1
strokes_ogs.tif
102
RTVSPost2010PropOp54
 70
     1
102
RTVSPost2010Prop55
280
     0
102
RTVSPost2010PropOp55
 70
     1
102
RTVSPost2010Prop56
140
1.0
102
RTVSPost2010PropOp56
 70
     1
102
RTVSPost2010Prop57
140
1.0
102
RTVSPost2010PropOp57
 70
     1
102
RTVSPropertyOp0
 70
     1
102
RTVSPropertyOp1
 70
     1
102
RTVSPropertyOp2
 70
     1
102
RTVSPropertyOp3
 70
     1
102
RTVSPropertyOp4
 70
     1
102
RTVSPropertyOp5
 70
     1
102
RTVSPropertyOp6
 70
     1
102
RTVSPropertyOp7
 70
     1
102
RTVSPropertyOp8
 70
     1
102
RTVSPropertyOp9
 70
     1
102
RTVSPropertyOp10
 70
     1
102
RTVSPropertyOp11
 70
     1
102
RTVSPropertyOp12
 70
     1
102
RTVSPropertyOp13
 70
     1
102
RTVSPropertyOp14
 70
     1
102
RTVSPropertyOp15
 70
     1
102
RTVSPropertyOp16
 70
     1
102
RTVSPropertyOp17
 70
     1
102
RTVSPropertyOp18
 70
     1
102
RTVSPropertyOp19
 70
     1
102
RTVSPropertyOp20
 70
     1
102
RTVSPropertyOp21
 70
     1
102
RTVSPropertyOp22
 70
     1
102
RTVSPropertyOp23
 70
     1
102
RTVSPropertyOp24
 70
     1
102
RTVSPropertyOp25
 70
     1
102
RTVSPropertyOp26
 70
     1
102
RTVSPropertyOp27
 70
     1
102
RTVSPropertyOp28
 70
     1
102
RTVSPropertyOp29
 70
     1
102
RTVSPropertyOp30
 70
     1
102
RTVSPropertyOp31
 70
     1
102
RTVSPropertyOp32
 70
     1
102
RTVSPropertyOp33
 70
     1
102
RTVSPropertyOp34
 70
     1
102
RTVSPropertyOp35
 70
     1
102
RTVSPropertyOp36
 70
     1
102
RTVSPropertyOp37
 70
     1
102
RTVSPropertyOp38
 70
     1
102
RTVSPropertyOp39
 70
     1
102
RTVSPropertyOp40
 70
     1
102
RTVSPropertyOp41
 70
     1
102
RTVSPropertyOp42
 70
     1
102
RTVSPropertyOp43
 70
     1
102
RTVSPropertyOp44
 70
     1
102
RTVSPropertyOp45
 70
     1
102
RTVSPropertyOp46
 70
     1
102
RTVSPropertyOp47
 70
     1
102
RTVSPropertyOp48
 70
     1
102
RTVSPropertyOp49
 70
     1
102
RTVSPropertyOp50
 70
     1
102
RTVSPropertyOp51
 70
     0
102
RTVSPropertyOp52
 70
     0
102
RTVSPropertyOp53
 70
     1
102
RTVSPropertyOp54
 70
     1
102
RTVSPropertyOp55
 70
     1
102
RTVSPropertyOp56
 70
     1
102
RTVSPropertyOp57
 70
     1
102
RTVSPropertyOp58
 70
     1
102
RTVSPropertyOp59
 70
     1
102
RTVSPropertyOp60
 70
     1
102
RTVSPropertyOp61
 70
     1
102
RTVSPropertyOp62
 70
     1
  0
XRECORD
  5
325E9
102
{ACAD_REACTORS
330
325E8
102
}
330
325E8
100
AcDbXrecord
280
     1
102
RTVSPost2010Prop28
280
     0
102
RTVSPost2010PropOp28
 70
     1
102
RTVSPost2010Prop29
280
     1
102
RTVSPost2010PropOp29
 70
     1
102
RTVSPost2010Prop30
280
     1
102
RTVSPost2010PropOp30
 70
     1
102
RTVSPost2010Prop31
280
     0
102
RTVSPost2010PropOp31
 70
     1
102
RTVSPost2010Prop32
280
     0
102
RTVSPost2010PropOp32
 70
     1
102
RTVSPost2010Prop33
280
     0
102
RTVSPost2010PropOp33
 70
     1
102
RTVSPost2010Prop34
280
     0
102
RTVSPost2010PropOp34
 70
     1
102
RTVSPost2010Prop35
280
     0
102
RTVSPost2010PropOp35
 70
     1
102
RTVSPost2010Prop36
280
     0
102
RTVSPost2010PropOp36
 70
     1
102
RTVSPost2010Prop37
 90
       50
102
RTVSPost2010PropOp37
 70
     1
102
RTVSPost2010Prop38
140
0.0
102
RTVSPost2010PropOp38
 70
     1
102
RTVSPost2010Prop39
140
1.0
102
RTVSPost2010PropOp39
 70
     1
102
RTVSPost2010Prop40
 90
        0
102
RTVSPost2010PropOp40
 70
     1
102
RTVSPost2010Prop41ColorIndex
 90
       18
102
RTVSPost2010Prop41ColorRGB
 90
        0
102
RTVSPost2010PropOp41
 70
     1
102
RTVSPost2010Prop42
 90
       50
102
RTVSPost2010PropOp42
 70
     1
102
RTVSPost2010Prop43
 90
        3
102
RTVSPost2010PropOp43
 70
     1
102
RTVSPost2010Prop44ColorIndex
 90
        5
102
RTVSPost2010Prop44ColorRGB
 90
      255
102
RTVSPost2010PropOp44
 70
     1
102
RTVSPost2010Prop45
280
     0
102
RTVSPost2010PropOp45
 70
     1
102
RTVSPost2010Prop46
 90
       50
102
RTVSPost2010PropOp46
 70
     1
102
RTVSPost2010Prop47
 90
       50
102
RTVSPost2010PropOp47
 70
     1
102
RTVSPost2010Prop48
 90
       50
102
RTVSPost2010PropOp48
 70
     1
102
RTVSPost2010Prop49
280
     0
102
RTVSPost2010PropOp49
 70
     1
102
RTVSPost2010Prop50
 90
       50
102
RTVSPost2010PropOp50
 70
     1
102
RTVSPost2010Prop51ColorIndex
 90
      256
102
RTVSPost2010Prop51ColorRGB
 90
-16777216
102
RTVSPost2010PropOp51
 70
     0
102
RTVSPost2010Prop52
140
1.0
102
RTVSPost2010PropOp52
 70
     0
102
RTVSPost2010Prop53
 90
        2
102
RTVSPost2010PropOp53
 70
     1
102
RTVSPost2010Prop54
  1
strokes_ogs.tif
102
RTVSPost2010PropOp54
 70
     1
102
RTVSPost2010Prop55
280
     0
102
RTVSPost2010PropOp55
 70
     1
102
RTVSPost2010Prop56
140
1.0
102
RTVSPost2010PropOp56
 70
     1
102
RTVSPost2010Prop57
140
1.0
102
RTVSPost2010PropOp57
 70
     1
102
RTVSPropertyOp0
 70
     1
102
RTVSPropertyOp1
 70
     1
102
RTVSPropertyOp2
 70
     1
102
RTVSPropertyOp3
 70
     1
102
RTVSPropertyOp4
 70
     1
102
RTVSPropertyOp5
 70
     1
102
RTVSPropertyOp6
 70
     1
102
RTVSPropertyOp7
 70
     1
102
RTVSPropertyOp8
 70
     1
102
RTVSPropertyOp9
 70
     1
102
RTVSPropertyOp10
 70
     1
102
RTVSPropertyOp11
 70
     1
102
RTVSPropertyOp12
 70
     1
102
RTVSPropertyOp13
 70
     1
102
RTVSPropertyOp14
 70
     1
102
RTVSPropertyOp15
 70
     1
102
RTVSPropertyOp16
 70
     1
102
RTVSPropertyOp17
 70
     1
102
RTVSPropertyOp18
 70
     1
102
RTVSPropertyOp19
 70
     1
102
RTVSPropertyOp20
 70
     1
102
RTVSPropertyOp21
 70
     1
102
RTVSPropertyOp22
 70
     1
102
RTVSPropertyOp23
 70
     1
102
RTVSPropertyOp24
 70
     1
102
RTVSPropertyOp25
 70
     1
102
RTVSPropertyOp26
 70
     1
102
RTVSPropertyOp27
 70
     1
102
RTVSPropertyOp28
 70
     1
102
RTVSPropertyOp29
 70
     1
102
RTVSPropertyOp30
 70
     1
102
RTVSPropertyOp31
 70
     1
102
RTVSPropertyOp32
 70
     1
102
RTVSPropertyOp33
 70
     1
102
RTVSPropertyOp34
 70
     1
102
RTVSPropertyOp35
 70
     1
102
RTVSPropertyOp36
 70
     1
102
RTVSPropertyOp37
 70
     1
102
RTVSPropertyOp38
 70
     1
102
RTVSPropertyOp39
 70
     1
102
RTVSPropertyOp40
 70
     1
102
RTVSPropertyOp41
 70
     1
102
RTVSPropertyOp42
 70
     1
102
RTVSPropertyOp43
 70
     1
102
RTVSPropertyOp44
 70
     1
102
RTVSPropertyOp45
 70
     1
102
RTVSPropertyOp46
 70
     1
102
RTVSPropertyOp47
 70
     1
102
RTVSPropertyOp48
 70
     1
102
RTVSPropertyOp49
 70
     1
102
RTVSPropertyOp50
 70
     1
102
RTVSPropertyOp51
 70
     0
102
RTVSPropertyOp52
 70
     0
102
RTVSPropertyOp53
 70
     1
102
RTVSPropertyOp54
 70
     1
102
RTVSPropertyOp55
 70
     1
102
RTVSPropertyOp56
 70
     1
102
RTVSPropertyOp57
 70
     1
102
RTVSPropertyOp58
 70
     1
102
RTVSPropertyOp59
 70
     1
102
RTVSPropertyOp60
 70
     1
102
RTVSPropertyOp61
 70
     1
102
RTVSPropertyOp62
 70
     1
  0
XRECORD
  5
325EB
102
{ACAD_REACTORS
330
325EA
102
}
330
325EA
100
AcDbXrecord
280
     1
102
RTVSPost2010Prop28
280
     0
102
RTVSPost2010PropOp28
 70
     1
102
RTVSPost2010Prop29
280
     1
102
RTVSPost2010PropOp29
 70
     1
102
RTVSPost2010Prop30
280
     1
102
RTVSPost2010PropOp30
 70
     1
102
RTVSPost2010Prop31
280
     0
102
RTVSPost2010PropOp31
 70
     1
102
RTVSPost2010Prop32
280
     0
102
RTVSPost2010PropOp32
 70
     1
102
RTVSPost2010Prop33
280
     0
102
RTVSPost2010PropOp33
 70
     1
102
RTVSPost2010Prop34
280
     0
102
RTVSPost2010PropOp34
 70
     1
102
RTVSPost2010Prop35
280
     0
102
RTVSPost2010PropOp35
 70
     1
102
RTVSPost2010Prop36
280
     0
102
RTVSPost2010PropOp36
 70
     1
102
RTVSPost2010Prop37
 90
       50
102
RTVSPost2010PropOp37
 70
     1
102
RTVSPost2010Prop38
140
0.0
102
RTVSPost2010PropOp38
 70
     1
102
RTVSPost2010Prop39
140
1.0
102
RTVSPost2010PropOp39
 70
     1
102
RTVSPost2010Prop40
 90
        0
102
RTVSPost2010PropOp40
 70
     1
102
RTVSPost2010Prop41ColorIndex
 90
       18
102
RTVSPost2010Prop41ColorRGB
 90
        0
102
RTVSPost2010PropOp41
 70
     1
102
RTVSPost2010Prop42
 90
       50
102
RTVSPost2010PropOp42
 70
     1
102
RTVSPost2010Prop43
 90
        3
102
RTVSPost2010PropOp43
 70
     1
102
RTVSPost2010Prop44ColorIndex
 90
        5
102
RTVSPost2010Prop44ColorRGB
 90
      255
102
RTVSPost2010PropOp44
 70
     1
102
RTVSPost2010Prop45
280
     0
102
RTVSPost2010PropOp45
 70
     1
102
RTVSPost2010Prop46
 90
       50
102
RTVSPost2010PropOp46
 70
     1
102
RTVSPost2010Prop47
 90
       50
102
RTVSPost2010PropOp47
 70
     1
102
RTVSPost2010Prop48
 90
       50
102
RTVSPost2010PropOp48
 70
     1
102
RTVSPost2010Prop49
280
     0
102
RTVSPost2010PropOp49
 70
     1
102
RTVSPost2010Prop50
 90
       50
102
RTVSPost2010PropOp50
 70
     1
102
RTVSPost2010Prop51ColorIndex
 90
      256
102
RTVSPost2010Prop51ColorRGB
 90
-16777216
102
RTVSPost2010PropOp51
 70
     0
102
RTVSPost2010Prop52
140
1.0
102
RTVSPost2010PropOp52
 70
     0
102
RTVSPost2010Prop53
 90
        2
102
RTVSPost2010PropOp53
 70
     1
102
RTVSPost2010Prop54
  1
strokes_ogs.tif
102
RTVSPost2010PropOp54
 70
     1
102
RTVSPost2010Prop55
280
     0
102
RTVSPost2010PropOp55
 70
     1
102
RTVSPost2010Prop56
140
1.0
102
RTVSPost2010PropOp56
 70
     1
102
RTVSPost2010Prop57
140
1.0
102
RTVSPost2010PropOp57
 70
     1
102
RTVSPropertyOp0
 70
     1
102
RTVSPropertyOp1
 70
     1
102
RTVSPropertyOp2
 70
     1
102
RTVSPropertyOp3
 70
     1
102
RTVSPropertyOp4
 70
     1
102
RTVSPropertyOp5
 70
     1
102
RTVSPropertyOp6
 70
     1
102
RTVSPropertyOp7
 70
     1
102
RTVSPropertyOp8
 70
     1
102
RTVSPropertyOp9
 70
     1
102
RTVSPropertyOp10
 70
     1
102
RTVSPropertyOp11
 70
     1
102
RTVSPropertyOp12
 70
     1
102
RTVSPropertyOp13
 70
     1
102
RTVSPropertyOp14
 70
     1
102
RTVSPropertyOp15
 70
     1
102
RTVSPropertyOp16
 70
     1
102
RTVSPropertyOp17
 70
     1
102
RTVSPropertyOp18
 70
     1
102
RTVSPropertyOp19
 70
     1
102
RTVSPropertyOp20
 70
     1
102
RTVSPropertyOp21
 70
     1
102
RTVSPropertyOp22
 70
     1
102
RTVSPropertyOp23
 70
     1
102
RTVSPropertyOp24
 70
     1
102
RTVSPropertyOp25
 70
     1
102
RTVSPropertyOp26
 70
     1
102
RTVSPropertyOp27
 70
     1
102
RTVSPropertyOp28
 70
     1
102
RTVSPropertyOp29
 70
     1
102
RTVSPropertyOp30
 70
     1
102
RTVSPropertyOp31
 70
     1
102
RTVSPropertyOp32
 70
     1
102
RTVSPropertyOp33
 70
     1
102
RTVSPropertyOp34
 70
     1
102
RTVSPropertyOp35
 70
     1
102
RTVSPropertyOp36
 70
     1
102
RTVSPropertyOp37
 70
     1
102
RTVSPropertyOp38
 70
     1
102
RTVSPropertyOp39
 70
     1
102
RTVSPropertyOp40
 70
     1
102
RTVSPropertyOp41
 70
     1
102
RTVSPropertyOp42
 70
     1
102
RTVSPropertyOp43
 70
     1
102
RTVSPropertyOp44
 70
     1
102
RTVSPropertyOp45
 70
     1
102
RTVSPropertyOp46
 70
     1
102
RTVSPropertyOp47
 70
     1
102
RTVSPropertyOp48
 70
     1
102
RTVSPropertyOp49
 70
     1
102
RTVSPropertyOp50
 70
     1
102
RTVSPropertyOp51
 70
     0
102
RTVSPropertyOp52
 70
     0
102
RTVSPropertyOp53
 70
     1
102
RTVSPropertyOp54
 70
     1
102
RTVSPropertyOp55
 70
     1
102
RTVSPropertyOp56
 70
     1
102
RTVSPropertyOp57
 70
     1
102
RTVSPropertyOp58
 70
     1
102
RTVSPropertyOp59
 70
     1
102
RTVSPropertyOp60
 70
     1
102
RTVSPropertyOp61
 70
     1
102
RTVSPropertyOp62
 70
     1
  0
XRECORD
  5
325ED
102
{ACAD_REACTORS
330
325EC
102
}
330
325EC
100
AcDbXrecord
280
     1
102
RTVSPost2010Prop28
280
     0
102
RTVSPost2010PropOp28
 70
     1
102
RTVSPost2010Prop29
280
     1
102
RTVSPost2010PropOp29
 70
     1
102
RTVSPost2010Prop30
280
     1
102
RTVSPost2010PropOp30
 70
     1
102
RTVSPost2010Prop31
280
     0
102
RTVSPost2010PropOp31
 70
     1
102
RTVSPost2010Prop32
280
     0
102
RTVSPost2010PropOp32
 70
     1
102
RTVSPost2010Prop33
280
     0
102
RTVSPost2010PropOp33
 70
     1
102
RTVSPost2010Prop34
280
     0
102
RTVSPost2010PropOp34
 70
     1
102
RTVSPost2010Prop35
280
     0
102
RTVSPost2010PropOp35
 70
     1
102
RTVSPost2010Prop36
280
     0
102
RTVSPost2010PropOp36
 70
     1
102
RTVSPost2010Prop37
 90
       50
102
RTVSPost2010PropOp37
 70
     1
102
RTVSPost2010Prop38
140
0.0
102
RTVSPost2010PropOp38
 70
     1
102
RTVSPost2010Prop39
140
1.0
102
RTVSPost2010PropOp39
 70
     1
102
RTVSPost2010Prop40
 90
        0
102
RTVSPost2010PropOp40
 70
     1
102
RTVSPost2010Prop41ColorIndex
 90
       18
102
RTVSPost2010Prop41ColorRGB
 90
        0
102
RTVSPost2010PropOp41
 70
     1
102
RTVSPost2010Prop42
 90
       50
102
RTVSPost2010PropOp42
 70
     1
102
RTVSPost2010Prop43
 90
        3
102
RTVSPost2010PropOp43
 70
     1
102
RTVSPost2010Prop44ColorIndex
 90
        5
102
RTVSPost2010Prop44ColorRGB
 90
      255
102
RTVSPost2010PropOp44
 70
     1
102
RTVSPost2010Prop45
280
     0
102
RTVSPost2010PropOp45
 70
     1
102
RTVSPost2010Prop46
 90
       50
102
RTVSPost2010PropOp46
 70
     1
102
RTVSPost2010Prop47
 90
       50
102
RTVSPost2010PropOp47
 70
     1
102
RTVSPost2010Prop48
 90
       50
102
RTVSPost2010PropOp48
 70
     1
102
RTVSPost2010Prop49
280
     0
102
RTVSPost2010PropOp49
 70
     1
102
RTVSPost2010Prop50
 90
       50
102
RTVSPost2010PropOp50
 70
     1
102
RTVSPost2010Prop51ColorIndex
 90
      256
102
RTVSPost2010Prop51ColorRGB
 90
-16777216
102
RTVSPost2010PropOp51
 70
     0
102
RTVSPost2010Prop52
140
1.0
102
RTVSPost2010PropOp52
 70
     0
102
RTVSPost2010Prop53
 90
        2
102
RTVSPost2010PropOp53
 70
     1
102
RTVSPost2010Prop54
  1
strokes_ogs.tif
102
RTVSPost2010PropOp54
 70
     1
102
RTVSPost2010Prop55
280
     0
102
RTVSPost2010PropOp55
 70
     1
102
RTVSPost2010Prop56
140
1.0
102
RTVSPost2010PropOp56
 70
     1
102
RTVSPost2010Prop57
140
1.0
102
RTVSPost2010PropOp57
 70
     1
102
RTVSPropertyOp0
 70
     1
102
RTVSPropertyOp1
 70
     1
102
RTVSPropertyOp2
 70
     1
102
RTVSPropertyOp3
 70
     1
102
RTVSPropertyOp4
 70
     1
102
RTVSPropertyOp5
 70
     1
102
RTVSPropertyOp6
 70
     1
102
RTVSPropertyOp7
 70
     1
102
RTVSPropertyOp8
 70
     1
102
RTVSPropertyOp9
 70
     1
102
RTVSPropertyOp10
 70
     1
102
RTVSPropertyOp11
 70
     1
102
RTVSPropertyOp12
 70
     1
102
RTVSPropertyOp13
 70
     1
102
RTVSPropertyOp14
 70
     1
102
RTVSPropertyOp15
 70
     1
102
RTVSPropertyOp16
 70
     1
102
RTVSPropertyOp17
 70
     1
102
RTVSPropertyOp18
 70
     1
102
RTVSPropertyOp19
 70
     1
102
RTVSPropertyOp20
 70
     1
102
RTVSPropertyOp21
 70
     1
102
RTVSPropertyOp22
 70
     1
102
RTVSPropertyOp23
 70
     1
102
RTVSPropertyOp24
 70
     1
102
RTVSPropertyOp25
 70
     1
102
RTVSPropertyOp26
 70
     1
102
RTVSPropertyOp27
 70
     1
102
RTVSPropertyOp28
 70
     1
102
RTVSPropertyOp29
 70
     1
102
RTVSPropertyOp30
 70
     1
102
RTVSPropertyOp31
 70
     1
102
RTVSPropertyOp32
 70
     1
102
RTVSPropertyOp33
 70
     1
102
RTVSPropertyOp34
 70
     1
102
RTVSPropertyOp35
 70
     1
102
RTVSPropertyOp36
 70
     1
102
RTVSPropertyOp37
 70
     1
102
RTVSPropertyOp38
 70
     1
102
RTVSPropertyOp39
 70
     1
102
RTVSPropertyOp40
 70
     1
102
RTVSPropertyOp41
 70
     1
102
RTVSPropertyOp42
 70
     1
102
RTVSPropertyOp43
 70
     1
102
RTVSPropertyOp44
 70
     1
102
RTVSPropertyOp45
 70
     1
102
RTVSPropertyOp46
 70
     1
102
RTVSPropertyOp47
 70
     1
102
RTVSPropertyOp48
 70
     1
102
RTVSPropertyOp49
 70
     1
102
RTVSPropertyOp50
 70
     1
102
RTVSPropertyOp51
 70
     0
102
RTVSPropertyOp52
 70
     0
102
RTVSPropertyOp53
 70
     1
102
RTVSPropertyOp54
 70
     1
102
RTVSPropertyOp55
 70
     1
102
RTVSPropertyOp56
 70
     1
102
RTVSPropertyOp57
 70
     1
102
RTVSPropertyOp58
 70
     1
102
RTVSPropertyOp59
 70
     1
102
RTVSPropertyOp60
 70
     1
102
RTVSPropertyOp61
 70
     1
102
RTVSPropertyOp62
 70
     1
  0
XRECORD
  5
325F5
102
{ACAD_REACTORS
330
325F4
102
}
330
325F4
100
AcDbXrecord
280
     1
102
RTVSPost2010Prop28
280
     0
102
RTVSPost2010PropOp28
 70
     1
102
RTVSPost2010Prop29
280
     1
102
RTVSPost2010PropOp29
 70
     1
102
RTVSPost2010Prop30
280
     1
102
RTVSPost2010PropOp30
 70
     1
102
RTVSPost2010Prop31
280
     0
102
RTVSPost2010PropOp31
 70
     1
102
RTVSPost2010Prop32
280
     0
102
RTVSPost2010PropOp32
 70
     1
102
RTVSPost2010Prop33
280
     0
102
RTVSPost2010PropOp33
 70
     1
102
RTVSPost2010Prop34
280
     0
102
RTVSPost2010PropOp34
 70
     1
102
RTVSPost2010Prop35
280
     0
102
RTVSPost2010PropOp35
 70
     1
102
RTVSPost2010Prop36
280
     0
102
RTVSPost2010PropOp36
 70
     1
102
RTVSPost2010Prop37
 90
       50
102
RTVSPost2010PropOp37
 70
     1
102
RTVSPost2010Prop38
140
0.0
102
RTVSPost2010PropOp38
 70
     1
102
RTVSPost2010Prop39
140
1.0
102
RTVSPost2010PropOp39
 70
     1
102
RTVSPost2010Prop40
 90
        0
102
RTVSPost2010PropOp40
 70
     1
102
RTVSPost2010Prop41ColorIndex
 90
       18
102
RTVSPost2010Prop41ColorRGB
 90
        0
102
RTVSPost2010PropOp41
 70
     1
102
RTVSPost2010Prop42
 90
       50
102
RTVSPost2010PropOp42
 70
     1
102
RTVSPost2010Prop43
 90
        3
102
RTVSPost2010PropOp43
 70
     1
102
RTVSPost2010Prop44ColorIndex
 90
        5
102
RTVSPost2010Prop44ColorRGB
 90
      255
102
RTVSPost2010PropOp44
 70
     1
102
RTVSPost2010Prop45
280
     0
102
RTVSPost2010PropOp45
 70
     1
102
RTVSPost2010Prop46
 90
       50
102
RTVSPost2010PropOp46
 70
     1
102
RTVSPost2010Prop47
 90
       50
102
RTVSPost2010PropOp47
 70
     1
102
RTVSPost2010Prop48
 90
       50
102
RTVSPost2010PropOp48
 70
     1
102
RTVSPost2010Prop49
280
     0
102
RTVSPost2010PropOp49
 70
     1
102
RTVSPost2010Prop50
 90
       50
102
RTVSPost2010PropOp50
 70
     1
102
RTVSPost2010Prop51ColorIndex
 90
      256
102
RTVSPost2010Prop51ColorRGB
 90
-16777216
102
RTVSPost2010PropOp51
 70
     0
102
RTVSPost2010Prop52
140
1.0
102
RTVSPost2010PropOp52
 70
     0
102
RTVSPost2010Prop53
 90
        2
102
RTVSPost2010PropOp53
 70
     1
102
RTVSPost2010Prop54
  1
strokes_ogs.tif
102
RTVSPost2010PropOp54
 70
     1
102
RTVSPost2010Prop55
280
     0
102
RTVSPost2010PropOp55
 70
     1
102
RTVSPost2010Prop56
140
1.0
102
RTVSPost2010PropOp56
 70
     1
102
RTVSPost2010Prop57
140
1.0
102
RTVSPost2010PropOp57
 70
     1
102
RTVSPropertyOp0
 70
     1
102
RTVSPropertyOp1
 70
     1
102
RTVSPropertyOp2
 70
     1
102
RTVSPropertyOp3
 70
     1
102
RTVSPropertyOp4
 70
     1
102
RTVSPropertyOp5
 70
     1
102
RTVSPropertyOp6
 70
     1
102
RTVSPropertyOp7
 70
     1
102
RTVSPropertyOp8
 70
     1
102
RTVSPropertyOp9
 70
     1
102
RTVSPropertyOp10
 70
     1
102
RTVSPropertyOp11
 70
     1
102
RTVSPropertyOp12
 70
     1
102
RTVSPropertyOp13
 70
     1
102
RTVSPropertyOp14
 70
     1
102
RTVSPropertyOp15
 70
     1
102
RTVSPropertyOp16
 70
     1
102
RTVSPropertyOp17
 70
     1
102
RTVSPropertyOp18
 70
     1
102
RTVSPropertyOp19
 70
     1
102
RTVSPropertyOp20
 70
     1
102
RTVSPropertyOp21
 70
     1
102
RTVSPropertyOp22
 70
     1
102
RTVSPropertyOp23
 70
     1
102
RTVSPropertyOp24
 70
     1
102
RTVSPropertyOp25
 70
     1
102
RTVSPropertyOp26
 70
     1
102
RTVSPropertyOp27
 70
     1
102
RTVSPropertyOp28
 70
     1
102
RTVSPropertyOp29
 70
     1
102
RTVSPropertyOp30
 70
     1
102
RTVSPropertyOp31
 70
     1
102
RTVSPropertyOp32
 70
     1
102
RTVSPropertyOp33
 70
     1
102
RTVSPropertyOp34
 70
     1
102
RTVSPropertyOp35
 70
     1
102
RTVSPropertyOp36
 70
     1
102
RTVSPropertyOp37
 70
     1
102
RTVSPropertyOp38
 70
     1
102
RTVSPropertyOp39
 70
     1
102
RTVSPropertyOp40
 70
     1
102
RTVSPropertyOp41
 70
     1
102
RTVSPropertyOp42
 70
     1
102
RTVSPropertyOp43
 70
     1
102
RTVSPropertyOp44
 70
     1
102
RTVSPropertyOp45
 70
     1
102
RTVSPropertyOp46
 70
     1
102
RTVSPropertyOp47
 70
     1
102
RTVSPropertyOp48
 70
     1
102
RTVSPropertyOp49
 70
     1
102
RTVSPropertyOp50
 70
     1
102
RTVSPropertyOp51
 70
     0
102
RTVSPropertyOp52
 70
     0
102
RTVSPropertyOp53
 70
     1
102
RTVSPropertyOp54
 70
     1
102
RTVSPropertyOp55
 70
     1
102
RTVSPropertyOp56
 70
     1
102
RTVSPropertyOp57
 70
     1
102
RTVSPropertyOp58
 70
     1
102
RTVSPropertyOp59
 70
     1
102
RTVSPropertyOp60
 70
     1
102
RTVSPropertyOp61
 70
     1
102
RTVSPropertyOp62
 70
     1
  0
XRECORD
  5
32609
102
{ACAD_REACTORS
330
32608
102
}
330
32608
100
AcDbXrecord
280
     1
102
RTVSPost2010Prop28
280
     0
102
RTVSPost2010PropOp28
 70
     1
102
RTVSPost2010Prop29
280
     1
102
RTVSPost2010PropOp29
 70
     1
102
RTVSPost2010Prop30
280
     1
102
RTVSPost2010PropOp30
 70
     1
102
RTVSPost2010Prop31
280
     0
102
RTVSPost2010PropOp31
 70
     1
102
RTVSPost2010Prop32
280
     0
102
RTVSPost2010PropOp32
 70
     1
102
RTVSPost2010Prop33
280
     0
102
RTVSPost2010PropOp33
 70
     1
102
RTVSPost2010Prop34
280
     0
102
RTVSPost2010PropOp34
 70
     1
102
RTVSPost2010Prop35
280
     0
102
RTVSPost2010PropOp35
 70
     1
102
RTVSPost2010Prop36
280
     0
102
RTVSPost2010PropOp36
 70
     1
102
RTVSPost2010Prop37
 90
       50
102
RTVSPost2010PropOp37
 70
     1
102
RTVSPost2010Prop38
140
0.0
102
RTVSPost2010PropOp38
 70
     1
102
RTVSPost2010Prop39
140
1.0
102
RTVSPost2010PropOp39
 70
     1
102
RTVSPost2010Prop40
 90
        0
102
RTVSPost2010PropOp40
 70
     1
102
RTVSPost2010Prop41ColorIndex
 90
       18
102
RTVSPost2010Prop41ColorRGB
 90
        0
102
RTVSPost2010PropOp41
 70
     1
102
RTVSPost2010Prop42
 90
       50
102
RTVSPost2010PropOp42
 70
     1
102
RTVSPost2010Prop43
 90
        3
102
RTVSPost2010PropOp43
 70
     1
102
RTVSPost2010Prop44ColorIndex
 90
        5
102
RTVSPost2010Prop44ColorRGB
 90
      255
102
RTVSPost2010PropOp44
 70
     1
102
RTVSPost2010Prop45
280
     0
102
RTVSPost2010PropOp45
 70
     1
102
RTVSPost2010Prop46
 90
       50
102
RTVSPost2010PropOp46
 70
     1
102
RTVSPost2010Prop47
 90
       50
102
RTVSPost2010PropOp47
 70
     1
102
RTVSPost2010Prop48
 90
       50
102
RTVSPost2010PropOp48
 70
     1
102
RTVSPost2010Prop49
280
     0
102
RTVSPost2010PropOp49
 70
     1
102
RTVSPost2010Prop50
 90
       50
102
RTVSPost2010PropOp50
 70
     1
102
RTVSPost2010Prop51ColorIndex
 90
      256
102
RTVSPost2010Prop51ColorRGB
 90
-16777216
102
RTVSPost2010PropOp51
 70
     0
102
RTVSPost2010Prop52
140
1.0
102
RTVSPost2010PropOp52
 70
     0
102
RTVSPost2010Prop53
 90
        2
102
RTVSPost2010PropOp53
 70
     1
102
RTVSPost2010Prop54
  1
strokes_ogs.tif
102
RTVSPost2010PropOp54
 70
     1
102
RTVSPost2010Prop55
280
     0
102
RTVSPost2010PropOp55
 70
     1
102
RTVSPost2010Prop56
140
1.0
102
RTVSPost2010PropOp56
 70
     1
102
RTVSPost2010Prop57
140
1.0
102
RTVSPost2010PropOp57
 70
     1
102
RTVSPropertyOp0
 70
     0
102
RTVSPropertyOp1
 70
     0
102
RTVSPropertyOp2
 70
     0
102
RTVSPropertyOp3
 70
     0
102
RTVSPropertyOp4
 70
     0
102
RTVSPropertyOp5
 70
     0
102
RTVSPropertyOp6
 70
     0
102
RTVSPropertyOp7
 70
     0
102
RTVSPropertyOp8
 70
     0
102
RTVSPropertyOp9
 70
     0
102
RTVSPropertyOp10
 70
     0
102
RTVSPropertyOp11
 70
     0
102
RTVSPropertyOp12
 70
     0
102
RTVSPropertyOp13
 70
     0
102
RTVSPropertyOp14
 70
     2
102
RTVSPropertyOp15
 70
     0
102
RTVSPropertyOp16
 70
     0
102
RTVSPropertyOp17
 70
     0
102
RTVSPropertyOp18
 70
     0
102
RTVSPropertyOp19
 70
     0
102
RTVSPropertyOp20
 70
     0
102
RTVSPropertyOp21
 70
     0
102
RTVSPropertyOp22
 70
     0
102
RTVSPropertyOp23
 70
     0
102
RTVSPropertyOp24
 70
     0
102
RTVSPropertyOp25
 70
     0
102
RTVSPropertyOp26
 70
     0
102
RTVSPropertyOp27
 70
     0
102
RTVSPropertyOp28
 70
     1
102
RTVSPropertyOp29
 70
     1
102
RTVSPropertyOp30
 70
     1
102
RTVSPropertyOp31
 70
     1
102
RTVSPropertyOp32
 70
     1
102
RTVSPropertyOp33
 70
     1
102
RTVSPropertyOp34
 70
     1
102
RTVSPropertyOp35
 70
     1
102
RTVSPropertyOp36
 70
     1
102
RTVSPropertyOp37
 70
     1
102
RTVSPropertyOp38
 70
     1
102
RTVSPropertyOp39
 70
     1
102
RTVSPropertyOp40
 70
     1
102
RTVSPropertyOp41
 70
     1
102
RTVSPropertyOp42
 70
     1
102
RTVSPropertyOp43
 70
     1
102
RTVSPropertyOp44
 70
     1
102
RTVSPropertyOp45
 70
     1
102
RTVSPropertyOp46
 70
     1
102
RTVSPropertyOp47
 70
     1
102
RTVSPropertyOp48
 70
     1
102
RTVSPropertyOp49
 70
     1
102
RTVSPropertyOp50
 70
     1
102
RTVSPropertyOp51
 70
     0
102
RTVSPropertyOp52
 70
     0
102
RTVSPropertyOp53
 70
     1
102
RTVSPropertyOp54
 70
     1
102
RTVSPropertyOp55
 70
     1
102
RTVSPropertyOp56
 70
     1
102
RTVSPropertyOp57
 70
     1
102
RTVSPropertyOp58
 70
     1
102
RTVSPropertyOp59
 70
     1
102
RTVSPropertyOp60
 70
     1
102
RTVSPropertyOp61
 70
     1
102
RTVSPropertyOp62
 70
     1
  0
XRECORD
  5
32601
102
{ACAD_REACTORS
330
32600
102
}
330
32600
100
AcDbXrecord
280
     1
102
RTVSPost2010Prop28
280
     0
102
RTVSPost2010PropOp28
 70
     1
102
RTVSPost2010Prop29
280
     1
102
RTVSPost2010PropOp29
 70
     1
102
RTVSPost2010Prop30
280
     1
102
RTVSPost2010PropOp30
 70
     1
102
RTVSPost2010Prop31
280
     0
102
RTVSPost2010PropOp31
 70
     1
102
RTVSPost2010Prop32
280
     0
102
RTVSPost2010PropOp32
 70
     1
102
RTVSPost2010Prop33
280
     0
102
RTVSPost2010PropOp33
 70
     1
102
RTVSPost2010Prop34
280
     0
102
RTVSPost2010PropOp34
 70
     1
102
RTVSPost2010Prop35
280
     0
102
RTVSPost2010PropOp35
 70
     1
102
RTVSPost2010Prop36
280
     0
102
RTVSPost2010PropOp36
 70
     1
102
RTVSPost2010Prop37
 90
       50
102
RTVSPost2010PropOp37
 70
     1
102
RTVSPost2010Prop38
140
0.0
102
RTVSPost2010PropOp38
 70
     1
102
RTVSPost2010Prop39
140
1.0
102
RTVSPost2010PropOp39
 70
     1
102
RTVSPost2010Prop40
 90
        0
102
RTVSPost2010PropOp40
 70
     1
102
RTVSPost2010Prop41ColorIndex
 90
       18
102
RTVSPost2010Prop41ColorRGB
 90
        0
102
RTVSPost2010PropOp41
 70
     1
102
RTVSPost2010Prop42
 90
       50
102
RTVSPost2010PropOp42
 70
     1
102
RTVSPost2010Prop43
 90
        3
102
RTVSPost2010PropOp43
 70
     1
102
RTVSPost2010Prop44ColorIndex
 90
        5
102
RTVSPost2010Prop44ColorRGB
 90
      255
102
RTVSPost2010PropOp44
 70
     1
102
RTVSPost2010Prop45
280
     0
102
RTVSPost2010PropOp45
 70
     1
102
RTVSPost2010Prop46
 90
       50
102
RTVSPost2010PropOp46
 70
     1
102
RTVSPost2010Prop47
 90
       50
102
RTVSPost2010PropOp47
 70
     1
102
RTVSPost2010Prop48
 90
       50
102
RTVSPost2010PropOp48
 70
     1
102
RTVSPost2010Prop49
280
     0
102
RTVSPost2010PropOp49
 70
     1
102
RTVSPost2010Prop50
 90
       50
102
RTVSPost2010PropOp50
 70
     1
102
RTVSPost2010Prop51ColorIndex
 90
      256
102
RTVSPost2010Prop51ColorRGB
 90
-16777216
102
RTVSPost2010PropOp51
 70
     0
102
RTVSPost2010Prop52
140
1.0
102
RTVSPost2010PropOp52
 70
     0
102
RTVSPost2010Prop53
 90
        2
102
RTVSPost2010PropOp53
 70
     1
102
RTVSPost2010Prop54
  1
strokes_ogs.tif
102
RTVSPost2010PropOp54
 70
     1
102
RTVSPost2010Prop55
280
     0
102
RTVSPost2010PropOp55
 70
     1
102
RTVSPost2010Prop56
140
1.0
102
RTVSPost2010PropOp56
 70
     1
102
RTVSPost2010Prop57
140
1.0
102
RTVSPost2010PropOp57
 70
     1
102
RTVSPropertyOp0
 70
     1
102
RTVSPropertyOp1
 70
     1
102
RTVSPropertyOp2
 70
     1
102
RTVSPropertyOp3
 70
     1
102
RTVSPropertyOp4
 70
     1
102
RTVSPropertyOp5
 70
     1
102
RTVSPropertyOp6
 70
     1
102
RTVSPropertyOp7
 70
     1
102
RTVSPropertyOp8
 70
     1
102
RTVSPropertyOp9
 70
     1
102
RTVSPropertyOp10
 70
     1
102
RTVSPropertyOp11
 70
     1
102
RTVSPropertyOp12
 70
     1
102
RTVSPropertyOp13
 70
     1
102
RTVSPropertyOp14
 70
     1
102
RTVSPropertyOp15
 70
     1
102
RTVSPropertyOp16
 70
     1
102
RTVSPropertyOp17
 70
     1
102
RTVSPropertyOp18
 70
     1
102
RTVSPropertyOp19
 70
     1
102
RTVSPropertyOp20
 70
     1
102
RTVSPropertyOp21
 70
     1
102
RTVSPropertyOp22
 70
     1
102
RTVSPropertyOp23
 70
     1
102
RTVSPropertyOp24
 70
     1
102
RTVSPropertyOp25
 70
     1
102
RTVSPropertyOp26
 70
     1
102
RTVSPropertyOp27
 70
     1
102
RTVSPropertyOp28
 70
     1
102
RTVSPropertyOp29
 70
     1
102
RTVSPropertyOp30
 70
     1
102
RTVSPropertyOp31
 70
     1
102
RTVSPropertyOp32
 70
     1
102
RTVSPropertyOp33
 70
     1
102
RTVSPropertyOp34
 70
     1
102
RTVSPropertyOp35
 70
     1
102
RTVSPropertyOp36
 70
     1
102
RTVSPropertyOp37
 70
     1
102
RTVSPropertyOp38
 70
     1
102
RTVSPropertyOp39
 70
     1
102
RTVSPropertyOp40
 70
     1
102
RTVSPropertyOp41
 70
     1
102
RTVSPropertyOp42
 70
     1
102
RTVSPropertyOp43
 70
     1
102
RTVSPropertyOp44
 70
     1
102
RTVSPropertyOp45
 70
     1
102
RTVSPropertyOp46
 70
     1
102
RTVSPropertyOp47
 70
     1
102
RTVSPropertyOp48
 70
     1
102
RTVSPropertyOp49
 70
     1
102
RTVSPropertyOp50
 70
     1
102
RTVSPropertyOp51
 70
     0
102
RTVSPropertyOp52
 70
     0
102
RTVSPropertyOp53
 70
     1
102
RTVSPropertyOp54
 70
     1
102
RTVSPropertyOp55
 70
     1
102
RTVSPropertyOp56
 70
     1
102
RTVSPropertyOp57
 70
     1
102
RTVSPropertyOp58
 70
     1
102
RTVSPropertyOp59
 70
     1
102
RTVSPropertyOp60
 70
     1
102
RTVSPropertyOp61
 70
     1
102
RTVSPropertyOp62
 70
     1
  0
XRECORD
  5
3260B
102
{ACAD_REACTORS
330
3260A
102
}
330
3260A
100
AcDbXrecord
280
     1
102
RTVSPost2010Prop28
280
     0
102
RTVSPost2010PropOp28
 70
     1
102
RTVSPost2010Prop29
280
     1
102
RTVSPost2010PropOp29
 70
     1
102
RTVSPost2010Prop30
280
     1
102
RTVSPost2010PropOp30
 70
     1
102
RTVSPost2010Prop31
280
     0
102
RTVSPost2010PropOp31
 70
     1
102
RTVSPost2010Prop32
280
     0
102
RTVSPost2010PropOp32
 70
     1
102
RTVSPost2010Prop33
280
     0
102
RTVSPost2010PropOp33
 70
     1
102
RTVSPost2010Prop34
280
     0
102
RTVSPost2010PropOp34
 70
     1
102
RTVSPost2010Prop35
280
     0
102
RTVSPost2010PropOp35
 70
     1
102
RTVSPost2010Prop36
280
     0
102
RTVSPost2010PropOp36
 70
     1
102
RTVSPost2010Prop37
 90
       50
102
RTVSPost2010PropOp37
 70
     1
102
RTVSPost2010Prop38
140
0.0
102
RTVSPost2010PropOp38
 70
     1
102
RTVSPost2010Prop39
140
1.0
102
RTVSPost2010PropOp39
 70
     1
102
RTVSPost2010Prop40
 90
        0
102
RTVSPost2010PropOp40
 70
     1
102
RTVSPost2010Prop41ColorIndex
 90
       18
102
RTVSPost2010Prop41ColorRGB
 90
        0
102
RTVSPost2010PropOp41
 70
     1
102
RTVSPost2010Prop42
 90
       50
102
RTVSPost2010PropOp42
 70
     1
102
RTVSPost2010Prop43
 90
        3
102
RTVSPost2010PropOp43
 70
     1
102
RTVSPost2010Prop44ColorIndex
 90
        5
102
RTVSPost2010Prop44ColorRGB
 90
      255
102
RTVSPost2010PropOp44
 70
     1
102
RTVSPost2010Prop45
280
     0
102
RTVSPost2010PropOp45
 70
     1
102
RTVSPost2010Prop46
 90
       50
102
RTVSPost2010PropOp46
 70
     1
102
RTVSPost2010Prop47
 90
       50
102
RTVSPost2010PropOp47
 70
     1
102
RTVSPost2010Prop48
 90
       50
102
RTVSPost2010PropOp48
 70
     1
102
RTVSPost2010Prop49
280
     0
102
RTVSPost2010PropOp49
 70
     1
102
RTVSPost2010Prop50
 90
       50
102
RTVSPost2010PropOp50
 70
     1
102
RTVSPost2010Prop51ColorIndex
 90
      256
102
RTVSPost2010Prop51ColorRGB
 90
-16777216
102
RTVSPost2010PropOp51
 70
     0
102
RTVSPost2010Prop52
140
1.0
102
RTVSPost2010PropOp52
 70
     0
102
RTVSPost2010Prop53
 90
        2
102
RTVSPost2010PropOp53
 70
     1
102
RTVSPost2010Prop54
  1
strokes_ogs.tif
102
RTVSPost2010PropOp54
 70
     1
102
RTVSPost2010Prop55
280
     0
102
RTVSPost2010PropOp55
 70
     1
102
RTVSPost2010Prop56
140
1.0
102
RTVSPost2010PropOp56
 70
     1
102
RTVSPost2010Prop57
140
1.0
102
RTVSPost2010PropOp57
 70
     1
102
RTVSPropertyOp0
 70
     0
102
RTVSPropertyOp1
 70
     0
102
RTVSPropertyOp2
 70
     0
102
RTVSPropertyOp3
 70
     0
102
RTVSPropertyOp4
 70
     0
102
RTVSPropertyOp5
 70
     0
102
RTVSPropertyOp6
 70
     0
102
RTVSPropertyOp7
 70
     0
102
RTVSPropertyOp8
 70
     0
102
RTVSPropertyOp9
 70
     0
102
RTVSPropertyOp10
 70
     0
102
RTVSPropertyOp11
 70
     0
102
RTVSPropertyOp12
 70
     0
102
RTVSPropertyOp13
 70
     0
102
RTVSPropertyOp14
 70
     2
102
RTVSPropertyOp15
 70
     0
102
RTVSPropertyOp16
 70
     0
102
RTVSPropertyOp17
 70
     0
102
RTVSPropertyOp18
 70
     0
102
RTVSPropertyOp19
 70
     0
102
RTVSPropertyOp20
 70
     0
102
RTVSPropertyOp21
 70
     0
102
RTVSPropertyOp22
 70
     0
102
RTVSPropertyOp23
 70
     0
102
RTVSPropertyOp24
 70
     0
102
RTVSPropertyOp25
 70
     0
102
RTVSPropertyOp26
 70
     0
102
RTVSPropertyOp27
 70
     0
102
RTVSPropertyOp28
 70
     1
102
RTVSPropertyOp29
 70
     1
102
RTVSPropertyOp30
 70
     1
102
RTVSPropertyOp31
 70
     1
102
RTVSPropertyOp32
 70
     1
102
RTVSPropertyOp33
 70
     1
102
RTVSPropertyOp34
 70
     1
102
RTVSPropertyOp35
 70
     1
102
RTVSPropertyOp36
 70
     1
102
RTVSPropertyOp37
 70
     1
102
RTVSPropertyOp38
 70
     1
102
RTVSPropertyOp39
 70
     1
102
RTVSPropertyOp40
 70
     1
102
RTVSPropertyOp41
 70
     1
102
RTVSPropertyOp42
 70
     1
102
RTVSPropertyOp43
 70
     1
102
RTVSPropertyOp44
 70
     1
102
RTVSPropertyOp45
 70
     1
102
RTVSPropertyOp46
 70
     1
102
RTVSPropertyOp47
 70
     1
102
RTVSPropertyOp48
 70
     1
102
RTVSPropertyOp49
 70
     1
102
RTVSPropertyOp50
 70
     1
102
RTVSPropertyOp51
 70
     0
102
RTVSPropertyOp52
 70
     0
102
RTVSPropertyOp53
 70
     1
102
RTVSPropertyOp54
 70
     1
102
RTVSPropertyOp55
 70
     1
102
RTVSPropertyOp56
 70
     1
102
RTVSPropertyOp57
 70
     1
102
RTVSPropertyOp58
 70
     1
102
RTVSPropertyOp59
 70
     1
102
RTVSPropertyOp60
 70
     1
102
RTVSPropertyOp61
 70
     1
102
RTVSPropertyOp62
 70
     1
  0
XRECORD
  5
325F9
102
{ACAD_REACTORS
330
325F8
102
}
330
325F8
100
AcDbXrecord
280
     1
102
RTVSPost2010Prop28
280
     0
102
RTVSPost2010PropOp28
 70
     1
102
RTVSPost2010Prop29
280
     1
102
RTVSPost2010PropOp29
 70
     1
102
RTVSPost2010Prop30
280
     1
102
RTVSPost2010PropOp30
 70
     1
102
RTVSPost2010Prop31
280
     0
102
RTVSPost2010PropOp31
 70
     1
102
RTVSPost2010Prop32
280
     0
102
RTVSPost2010PropOp32
 70
     1
102
RTVSPost2010Prop33
280
     0
102
RTVSPost2010PropOp33
 70
     1
102
RTVSPost2010Prop34
280
     0
102
RTVSPost2010PropOp34
 70
     1
102
RTVSPost2010Prop35
280
     0
102
RTVSPost2010PropOp35
 70
     1
102
RTVSPost2010Prop36
280
     0
102
RTVSPost2010PropOp36
 70
     1
102
RTVSPost2010Prop37
 90
       50
102
RTVSPost2010PropOp37
 70
     1
102
RTVSPost2010Prop38
140
0.0
102
RTVSPost2010PropOp38
 70
     1
102
RTVSPost2010Prop39
140
1.0
102
RTVSPost2010PropOp39
 70
     1
102
RTVSPost2010Prop40
 90
        0
102
RTVSPost2010PropOp40
 70
     1
102
RTVSPost2010Prop41ColorIndex
 90
       18
102
RTVSPost2010Prop41ColorRGB
 90
        0
102
RTVSPost2010PropOp41
 70
     1
102
RTVSPost2010Prop42
 90
       50
102
RTVSPost2010PropOp42
 70
     1
102
RTVSPost2010Prop43
 90
        3
102
RTVSPost2010PropOp43
 70
     1
102
RTVSPost2010Prop44ColorIndex
 90
        5
102
RTVSPost2010Prop44ColorRGB
 90
      255
102
RTVSPost2010PropOp44
 70
     1
102
RTVSPost2010Prop45
280
     0
102
RTVSPost2010PropOp45
 70
     1
102
RTVSPost2010Prop46
 90
       50
102
RTVSPost2010PropOp46
 70
     1
102
RTVSPost2010Prop47
 90
       50
102
RTVSPost2010PropOp47
 70
     1
102
RTVSPost2010Prop48
 90
       50
102
RTVSPost2010PropOp48
 70
     1
102
RTVSPost2010Prop49
280
     0
102
RTVSPost2010PropOp49
 70
     1
102
RTVSPost2010Prop50
 90
       50
102
RTVSPost2010PropOp50
 70
     1
102
RTVSPost2010Prop51ColorIndex
 90
      256
102
RTVSPost2010Prop51ColorRGB
 90
-16777216
102
RTVSPost2010PropOp51
 70
     0
102
RTVSPost2010Prop52
140
1.0
102
RTVSPost2010PropOp52
 70
     0
102
RTVSPost2010Prop53
 90
        2
102
RTVSPost2010PropOp53
 70
     1
102
RTVSPost2010Prop54
  1
strokes_ogs.tif
102
RTVSPost2010PropOp54
 70
     1
102
RTVSPost2010Prop55
280
     0
102
RTVSPost2010PropOp55
 70
     1
102
RTVSPost2010Prop56
140
1.0
102
RTVSPost2010PropOp56
 70
     1
102
RTVSPost2010Prop57
140
1.0
102
RTVSPost2010PropOp57
 70
     1
102
RTVSPropertyOp0
 70
     1
102
RTVSPropertyOp1
 70
     1
102
RTVSPropertyOp2
 70
     1
102
RTVSPropertyOp3
 70
     1
102
RTVSPropertyOp4
 70
     1
102
RTVSPropertyOp5
 70
     1
102
RTVSPropertyOp6
 70
     1
102
RTVSPropertyOp7
 70
     1
102
RTVSPropertyOp8
 70
     1
102
RTVSPropertyOp9
 70
     1
102
RTVSPropertyOp10
 70
     1
102
RTVSPropertyOp11
 70
     1
102
RTVSPropertyOp12
 70
     1
102
RTVSPropertyOp13
 70
     1
102
RTVSPropertyOp14
 70
     1
102
RTVSPropertyOp15
 70
     1
102
RTVSPropertyOp16
 70
     1
102
RTVSPropertyOp17
 70
     1
102
RTVSPropertyOp18
 70
     1
102
RTVSPropertyOp19
 70
     1
102
RTVSPropertyOp20
 70
     1
102
RTVSPropertyOp21
 70
     1
102
RTVSPropertyOp22
 70
     1
102
RTVSPropertyOp23
 70
     1
102
RTVSPropertyOp24
 70
     1
102
RTVSPropertyOp25
 70
     1
102
RTVSPropertyOp26
 70
     1
102
RTVSPropertyOp27
 70
     1
102
RTVSPropertyOp28
 70
     1
102
RTVSPropertyOp29
 70
     1
102
RTVSPropertyOp30
 70
     1
102
RTVSPropertyOp31
 70
     1
102
RTVSPropertyOp32
 70
     1
102
RTVSPropertyOp33
 70
     1
102
RTVSPropertyOp34
 70
     1
102
RTVSPropertyOp35
 70
     1
102
RTVSPropertyOp36
 70
     1
102
RTVSPropertyOp37
 70
     1
102
RTVSPropertyOp38
 70
     1
102
RTVSPropertyOp39
 70
     1
102
RTVSPropertyOp40
 70
     1
102
RTVSPropertyOp41
 70
     1
102
RTVSPropertyOp42
 70
     1
102
RTVSPropertyOp43
 70
     1
102
RTVSPropertyOp44
 70
     1
102
RTVSPropertyOp45
 70
     1
102
RTVSPropertyOp46
 70
     1
102
RTVSPropertyOp47
 70
     1
102
RTVSPropertyOp48
 70
     1
102
RTVSPropertyOp49
 70
     1
102
RTVSPropertyOp50
 70
     1
102
RTVSPropertyOp51
 70
     0
102
RTVSPropertyOp52
 70
     0
102
RTVSPropertyOp53
 70
     1
102
RTVSPropertyOp54
 70
     1
102
RTVSPropertyOp55
 70
     1
102
RTVSPropertyOp56
 70
     1
102
RTVSPropertyOp57
 70
     1
102
RTVSPropertyOp58
 70
     1
102
RTVSPropertyOp59
 70
     1
102
RTVSPropertyOp60
 70
     1
102
RTVSPropertyOp61
 70
     1
102
RTVSPropertyOp62
 70
     1
  0
XRECORD
  5
32617
102
{ACAD_REACTORS
330
32616
102
}
330
32616
100
AcDbXrecord
280
     1
102
RTVSPost2010Prop28
280
     0
102
RTVSPost2010PropOp28
 70
     1
102
RTVSPost2010Prop29
280
     1
102
RTVSPost2010PropOp29
 70
     1
102
RTVSPost2010Prop30
280
     1
102
RTVSPost2010PropOp30
 70
     1
102
RTVSPost2010Prop31
280
     0
102
RTVSPost2010PropOp31
 70
     1
102
RTVSPost2010Prop32
280
     0
102
RTVSPost2010PropOp32
 70
     1
102
RTVSPost2010Prop33
280
     0
102
RTVSPost2010PropOp33
 70
     1
102
RTVSPost2010Prop34
280
     0
102
RTVSPost2010PropOp34
 70
     1
102
RTVSPost2010Prop35
280
     0
102
RTVSPost2010PropOp35
 70
     1
102
RTVSPost2010Prop36
280
     0
102
RTVSPost2010PropOp36
 70
     1
102
RTVSPost2010Prop37
 90
       50
102
RTVSPost2010PropOp37
 70
     1
102
RTVSPost2010Prop38
140
0.0
102
RTVSPost2010PropOp38
 70
     1
102
RTVSPost2010Prop39
140
1.0
102
RTVSPost2010PropOp39
 70
     1
102
RTVSPost2010Prop40
 90
        0
102
RTVSPost2010PropOp40
 70
     1
102
RTVSPost2010Prop41ColorIndex
 90
       18
102
RTVSPost2010Prop41ColorRGB
 90
        0
102
RTVSPost2010PropOp41
 70
     1
102
RTVSPost2010Prop42
 90
       50
102
RTVSPost2010PropOp42
 70
     1
102
RTVSPost2010Prop43
 90
        3
102
RTVSPost2010PropOp43
 70
     1
102
RTVSPost2010Prop44ColorIndex
 90
        5
102
RTVSPost2010Prop44ColorRGB
 90
      255
102
RTVSPost2010PropOp44
 70
     1
102
RTVSPost2010Prop45
280
     0
102
RTVSPost2010PropOp45
 70
     1
102
RTVSPost2010Prop46
 90
       50
102
RTVSPost2010PropOp46
 70
     1
102
RTVSPost2010Prop47
 90
       50
102
RTVSPost2010PropOp47
 70
     1
102
RTVSPost2010Prop48
 90
       50
102
RTVSPost2010PropOp48
 70
     1
102
RTVSPost2010Prop49
280
     0
102
RTVSPost2010PropOp49
 70
     1
102
RTVSPost2010Prop50
 90
       50
102
RTVSPost2010PropOp50
 70
     1
102
RTVSPost2010Prop51ColorIndex
 90
      256
102
RTVSPost2010Prop51ColorRGB
 90
-16777216
102
RTVSPost2010PropOp51
 70
     0
102
RTVSPost2010Prop52
140
1.0
102
RTVSPost2010PropOp52
 70
     0
102
RTVSPost2010Prop53
 90
        2
102
RTVSPost2010PropOp53
 70
     1
102
RTVSPost2010Prop54
  1
strokes_ogs.tif
102
RTVSPost2010PropOp54
 70
     1
102
RTVSPost2010Prop55
280
     0
102
RTVSPost2010PropOp55
 70
     1
102
RTVSPost2010Prop56
140
1.0
102
RTVSPost2010PropOp56
 70
     1
102
RTVSPost2010Prop57
140
1.0
102
RTVSPost2010PropOp57
 70
     1
102
RTVSPropertyOp0
 70
     1
102
RTVSPropertyOp1
 70
     1
102
RTVSPropertyOp2
 70
     1
102
RTVSPropertyOp3
 70
     1
102
RTVSPropertyOp4
 70
     1
102
RTVSPropertyOp5
 70
     1
102
RTVSPropertyOp6
 70
     1
102
RTVSPropertyOp7
 70
     1
102
RTVSPropertyOp8
 70
     1
102
RTVSPropertyOp9
 70
     1
102
RTVSPropertyOp10
 70
     1
102
RTVSPropertyOp11
 70
     1
102
RTVSPropertyOp12
 70
     1
102
RTVSPropertyOp13
 70
     1
102
RTVSPropertyOp14
 70
     1
102
RTVSPropertyOp15
 70
     1
102
RTVSPropertyOp16
 70
     1
102
RTVSPropertyOp17
 70
     1
102
RTVSPropertyOp18
 70
     1
102
RTVSPropertyOp19
 70
     1
102
RTVSPropertyOp20
 70
     1
102
RTVSPropertyOp21
 70
     1
102
RTVSPropertyOp22
 70
     1
102
RTVSPropertyOp23
 70
     1
102
RTVSPropertyOp24
 70
     1
102
RTVSPropertyOp25
 70
     1
102
RTVSPropertyOp26
 70
     1
102
RTVSPropertyOp27
 70
     1
102
RTVSPropertyOp28
 70
     1
102
RTVSPropertyOp29
 70
     1
102
RTVSPropertyOp30
 70
     1
102
RTVSPropertyOp31
 70
     1
102
RTVSPropertyOp32
 70
     1
102
RTVSPropertyOp33
 70
     1
102
RTVSPropertyOp34
 70
     1
102
RTVSPropertyOp35
 70
     1
102
RTVSPropertyOp36
 70
     1
102
RTVSPropertyOp37
 70
     1
102
RTVSPropertyOp38
 70
     1
102
RTVSPropertyOp39
 70
     1
102
RTVSPropertyOp40
 70
     1
102
RTVSPropertyOp41
 70
     1
102
RTVSPropertyOp42
 70
     1
102
RTVSPropertyOp43
 70
     1
102
RTVSPropertyOp44
 70
     1
102
RTVSPropertyOp45
 70
     1
102
RTVSPropertyOp46
 70
     1
102
RTVSPropertyOp47
 70
     1
102
RTVSPropertyOp48
 70
     1
102
RTVSPropertyOp49
 70
     1
102
RTVSPropertyOp50
 70
     1
102
RTVSPropertyOp51
 70
     0
102
RTVSPropertyOp52
 70
     0
102
RTVSPropertyOp53
 70
     1
102
RTVSPropertyOp54
 70
     1
102
RTVSPropertyOp55
 70
     1
102
RTVSPropertyOp56
 70
     1
102
RTVSPropertyOp57
 70
     1
102
RTVSPropertyOp58
 70
     1
102
RTVSPropertyOp59
 70
     1
102
RTVSPropertyOp60
 70
     1
102
RTVSPropertyOp61
 70
     1
102
RTVSPropertyOp62
 70
     1
  0
XRECORD
  5
32615
102
{ACAD_REACTORS
330
32614
102
}
330
32614
100
AcDbXrecord
280
     1
102
RTVSPost2010Prop28
280
     0
102
RTVSPost2010PropOp28
 70
     1
102
RTVSPost2010Prop29
280
     1
102
RTVSPost2010PropOp29
 70
     1
102
RTVSPost2010Prop30
280
     1
102
RTVSPost2010PropOp30
 70
     1
102
RTVSPost2010Prop31
280
     0
102
RTVSPost2010PropOp31
 70
     1
102
RTVSPost2010Prop32
280
     0
102
RTVSPost2010PropOp32
 70
     1
102
RTVSPost2010Prop33
280
     0
102
RTVSPost2010PropOp33
 70
     1
102
RTVSPost2010Prop34
280
     0
102
RTVSPost2010PropOp34
 70
     1
102
RTVSPost2010Prop35
280
     0
102
RTVSPost2010PropOp35
 70
     1
102
RTVSPost2010Prop36
280
     0
102
RTVSPost2010PropOp36
 70
     1
102
RTVSPost2010Prop37
 90
       50
102
RTVSPost2010PropOp37
 70
     1
102
RTVSPost2010Prop38
140
0.0
102
RTVSPost2010PropOp38
 70
     1
102
RTVSPost2010Prop39
140
1.0
102
RTVSPost2010PropOp39
 70
     1
102
RTVSPost2010Prop40
 90
        0
102
RTVSPost2010PropOp40
 70
     1
102
RTVSPost2010Prop41ColorIndex
 90
       18
102
RTVSPost2010Prop41ColorRGB
 90
        0
102
RTVSPost2010PropOp41
 70
     1
102
RTVSPost2010Prop42
 90
       50
102
RTVSPost2010PropOp42
 70
     1
102
RTVSPost2010Prop43
 90
        3
102
RTVSPost2010PropOp43
 70
     1
102
RTVSPost2010Prop44ColorIndex
 90
        5
102
RTVSPost2010Prop44ColorRGB
 90
      255
102
RTVSPost2010PropOp44
 70
     1
102
RTVSPost2010Prop45
280
     0
102
RTVSPost2010PropOp45
 70
     1
102
RTVSPost2010Prop46
 90
       50
102
RTVSPost2010PropOp46
 70
     1
102
RTVSPost2010Prop47
 90
       50
102
RTVSPost2010PropOp47
 70
     1
102
RTVSPost2010Prop48
 90
       50
102
RTVSPost2010PropOp48
 70
     1
102
RTVSPost2010Prop49
280
     0
102
RTVSPost2010PropOp49
 70
     1
102
RTVSPost2010Prop50
 90
       50
102
RTVSPost2010PropOp50
 70
     1
102
RTVSPost2010Prop51ColorIndex
 90
      256
102
RTVSPost2010Prop51ColorRGB
 90
-16777216
102
RTVSPost2010PropOp51
 70
     0
102
RTVSPost2010Prop52
140
1.0
102
RTVSPost2010PropOp52
 70
     0
102
RTVSPost2010Prop53
 90
        2
102
RTVSPost2010PropOp53
 70
     1
102
RTVSPost2010Prop54
  1
strokes_ogs.tif
102
RTVSPost2010PropOp54
 70
     1
102
RTVSPost2010Prop55
280
     0
102
RTVSPost2010PropOp55
 70
     1
102
RTVSPost2010Prop56
140
1.0
102
RTVSPost2010PropOp56
 70
     1
102
RTVSPost2010Prop57
140
1.0
102
RTVSPost2010PropOp57
 70
     1
102
RTVSPropertyOp0
 70
     1
102
RTVSPropertyOp1
 70
     1
102
RTVSPropertyOp2
 70
     1
102
RTVSPropertyOp3
 70
     1
102
RTVSPropertyOp4
 70
     1
102
RTVSPropertyOp5
 70
     1
102
RTVSPropertyOp6
 70
     1
102
RTVSPropertyOp7
 70
     1
102
RTVSPropertyOp8
 70
     1
102
RTVSPropertyOp9
 70
     1
102
RTVSPropertyOp10
 70
     1
102
RTVSPropertyOp11
 70
     1
102
RTVSPropertyOp12
 70
     1
102
RTVSPropertyOp13
 70
     1
102
RTVSPropertyOp14
 70
     1
102
RTVSPropertyOp15
 70
     1
102
RTVSPropertyOp16
 70
     1
102
RTVSPropertyOp17
 70
     1
102
RTVSPropertyOp18
 70
     1
102
RTVSPropertyOp19
 70
     1
102
RTVSPropertyOp20
 70
     1
102
RTVSPropertyOp21
 70
     1
102
RTVSPropertyOp22
 70
     1
102
RTVSPropertyOp23
 70
     1
102
RTVSPropertyOp24
 70
     1
102
RTVSPropertyOp25
 70
     1
102
RTVSPropertyOp26
 70
     1
102
RTVSPropertyOp27
 70
     1
102
RTVSPropertyOp28
 70
     1
102
RTVSPropertyOp29
 70
     1
102
RTVSPropertyOp30
 70
     1
102
RTVSPropertyOp31
 70
     1
102
RTVSPropertyOp32
 70
     1
102
RTVSPropertyOp33
 70
     1
102
RTVSPropertyOp34
 70
     1
102
RTVSPropertyOp35
 70
     1
102
RTVSPropertyOp36
 70
     1
102
RTVSPropertyOp37
 70
     1
102
RTVSPropertyOp38
 70
     1
102
RTVSPropertyOp39
 70
     1
102
RTVSPropertyOp40
 70
     1
102
RTVSPropertyOp41
 70
     1
102
RTVSPropertyOp42
 70
     1
102
RTVSPropertyOp43
 70
     1
102
RTVSPropertyOp44
 70
     1
102
RTVSPropertyOp45
 70
     1
102
RTVSPropertyOp46
 70
     1
102
RTVSPropertyOp47
 70
     1
102
RTVSPropertyOp48
 70
     1
102
RTVSPropertyOp49
 70
     1
102
RTVSPropertyOp50
 70
     1
102
RTVSPropertyOp51
 70
     0
102
RTVSPropertyOp52
 70
     0
102
RTVSPropertyOp53
 70
     1
102
RTVSPropertyOp54
 70
     1
102
RTVSPropertyOp55
 70
     1
102
RTVSPropertyOp56
 70
     1
102
RTVSPropertyOp57
 70
     1
102
RTVSPropertyOp58
 70
     1
102
RTVSPropertyOp59
 70
     1
102
RTVSPropertyOp60
 70
     1
102
RTVSPropertyOp61
 70
     1
102
RTVSPropertyOp62
 70
     1
  0
XRECORD
  5
3260F
102
{ACAD_REACTORS
330
3260E
102
}
330
3260E
100
AcDbXrecord
280
     1
102
RTVSPost2010Prop28
280
     0
102
RTVSPost2010PropOp28
 70
     1
102
RTVSPost2010Prop29
280
     1
102
RTVSPost2010PropOp29
 70
     1
102
RTVSPost2010Prop30
280
     1
102
RTVSPost2010PropOp30
 70
     1
102
RTVSPost2010Prop31
280
     0
102
RTVSPost2010PropOp31
 70
     1
102
RTVSPost2010Prop32
280
     0
102
RTVSPost2010PropOp32
 70
     1
102
RTVSPost2010Prop33
280
     0
102
RTVSPost2010PropOp33
 70
     1
102
RTVSPost2010Prop34
280
     0
102
RTVSPost2010PropOp34
 70
     1
102
RTVSPost2010Prop35
280
     0
102
RTVSPost2010PropOp35
 70
     1
102
RTVSPost2010Prop36
280
     0
102
RTVSPost2010PropOp36
 70
     1
102
RTVSPost2010Prop37
 90
       50
102
RTVSPost2010PropOp37
 70
     1
102
RTVSPost2010Prop38
140
0.0
102
RTVSPost2010PropOp38
 70
     1
102
RTVSPost2010Prop39
140
1.0
102
RTVSPost2010PropOp39
 70
     1
102
RTVSPost2010Prop40
 90
        0
102
RTVSPost2010PropOp40
 70
     1
102
RTVSPost2010Prop41ColorIndex
 90
       18
102
RTVSPost2010Prop41ColorRGB
 90
        0
102
RTVSPost2010PropOp41
 70
     1
102
RTVSPost2010Prop42
 90
       50
102
RTVSPost2010PropOp42
 70
     1
102
RTVSPost2010Prop43
 90
        3
102
RTVSPost2010PropOp43
 70
     1
102
RTVSPost2010Prop44ColorIndex
 90
        5
102
RTVSPost2010Prop44ColorRGB
 90
      255
102
RTVSPost2010PropOp44
 70
     1
102
RTVSPost2010Prop45
280
     0
102
RTVSPost2010PropOp45
 70
     1
102
RTVSPost2010Prop46
 90
       50
102
RTVSPost2010PropOp46
 70
     1
102
RTVSPost2010Prop47
 90
       50
102
RTVSPost2010PropOp47
 70
     1
102
RTVSPost2010Prop48
 90
       50
102
RTVSPost2010PropOp48
 70
     1
102
RTVSPost2010Prop49
280
     0
102
RTVSPost2010PropOp49
 70
     1
102
RTVSPost2010Prop50
 90
       50
102
RTVSPost2010PropOp50
 70
     1
102
RTVSPost2010Prop51ColorIndex
 90
      256
102
RTVSPost2010Prop51ColorRGB
 90
-16777216
102
RTVSPost2010PropOp51
 70
     0
102
RTVSPost2010Prop52
140
1.0
102
RTVSPost2010PropOp52
 70
     0
102
RTVSPost2010Prop53
 90
        2
102
RTVSPost2010PropOp53
 70
     1
102
RTVSPost2010Prop54
  1
strokes_ogs.tif
102
RTVSPost2010PropOp54
 70
     1
102
RTVSPost2010Prop55
280
     0
102
RTVSPost2010PropOp55
 70
     1
102
RTVSPost2010Prop56
140
1.0
102
RTVSPost2010PropOp56
 70
     1
102
RTVSPost2010Prop57
140
1.0
102
RTVSPost2010PropOp57
 70
     1
102
RTVSPropertyOp0
 70
     1
102
RTVSPropertyOp1
 70
     1
102
RTVSPropertyOp2
 70
     1
102
RTVSPropertyOp3
 70
     1
102
RTVSPropertyOp4
 70
     1
102
RTVSPropertyOp5
 70
     1
102
RTVSPropertyOp6
 70
     1
102
RTVSPropertyOp7
 70
     1
102
RTVSPropertyOp8
 70
     1
102
RTVSPropertyOp9
 70
     1
102
RTVSPropertyOp10
 70
     1
102
RTVSPropertyOp11
 70
     1
102
RTVSPropertyOp12
 70
     1
102
RTVSPropertyOp13
 70
     1
102
RTVSPropertyOp14
 70
     1
102
RTVSPropertyOp15
 70
     1
102
RTVSPropertyOp16
 70
     1
102
RTVSPropertyOp17
 70
     1
102
RTVSPropertyOp18
 70
     1
102
RTVSPropertyOp19
 70
     1
102
RTVSPropertyOp20
 70
     1
102
RTVSPropertyOp21
 70
     1
102
RTVSPropertyOp22
 70
     1
102
RTVSPropertyOp23
 70
     1
102
RTVSPropertyOp24
 70
     1
102
RTVSPropertyOp25
 70
     1
102
RTVSPropertyOp26
 70
     1
102
RTVSPropertyOp27
 70
     1
102
RTVSPropertyOp28
 70
     1
102
RTVSPropertyOp29
 70
     1
102
RTVSPropertyOp30
 70
     1
102
RTVSPropertyOp31
 70
     1
102
RTVSPropertyOp32
 70
     1
102
RTVSPropertyOp33
 70
     1
102
RTVSPropertyOp34
 70
     1
102
RTVSPropertyOp35
 70
     1
102
RTVSPropertyOp36
 70
     1
102
RTVSPropertyOp37
 70
     1
102
RTVSPropertyOp38
 70
     1
102
RTVSPropertyOp39
 70
     1
102
RTVSPropertyOp40
 70
     1
102
RTVSPropertyOp41
 70
     1
102
RTVSPropertyOp42
 70
     1
102
RTVSPropertyOp43
 70
     1
102
RTVSPropertyOp44
 70
     1
102
RTVSPropertyOp45
 70
     1
102
RTVSPropertyOp46
 70
     1
102
RTVSPropertyOp47
 70
     1
102
RTVSPropertyOp48
 70
     1
102
RTVSPropertyOp49
 70
     1
102
RTVSPropertyOp50
 70
     1
102
RTVSPropertyOp51
 70
     0
102
RTVSPropertyOp52
 70
     0
102
RTVSPropertyOp53
 70
     1
102
RTVSPropertyOp54
 70
     1
102
RTVSPropertyOp55
 70
     1
102
RTVSPropertyOp56
 70
     1
102
RTVSPropertyOp57
 70
     1
102
RTVSPropertyOp58
 70
     1
102
RTVSPropertyOp59
 70
     1
102
RTVSPropertyOp60
 70
     1
102
RTVSPropertyOp61
 70
     1
102
RTVSPropertyOp62
 70
     1
  0
XRECORD
  5
32611
102
{ACAD_REACTORS
330
32610
102
}
330
32610
100
AcDbXrecord
280
     1
102
RTVSPost2010Prop28
280
     0
102
RTVSPost2010PropOp28
 70
     1
102
RTVSPost2010Prop29
280
     1
102
RTVSPost2010PropOp29
 70
     1
102
RTVSPost2010Prop30
280
     1
102
RTVSPost2010PropOp30
 70
     1
102
RTVSPost2010Prop31
280
     0
102
RTVSPost2010PropOp31
 70
     1
102
RTVSPost2010Prop32
280
     0
102
RTVSPost2010PropOp32
 70
     1
102
RTVSPost2010Prop33
280
     0
102
RTVSPost2010PropOp33
 70
     1
102
RTVSPost2010Prop34
280
     0
102
RTVSPost2010PropOp34
 70
     1
102
RTVSPost2010Prop35
280
     0
102
RTVSPost2010PropOp35
 70
     1
102
RTVSPost2010Prop36
280
     0
102
RTVSPost2010PropOp36
 70
     1
102
RTVSPost2010Prop37
 90
       50
102
RTVSPost2010PropOp37
 70
     1
102
RTVSPost2010Prop38
140
0.0
102
RTVSPost2010PropOp38
 70
     1
102
RTVSPost2010Prop39
140
1.0
102
RTVSPost2010PropOp39
 70
     1
102
RTVSPost2010Prop40
 90
        0
102
RTVSPost2010PropOp40
 70
     1
102
RTVSPost2010Prop41ColorIndex
 90
       18
102
RTVSPost2010Prop41ColorRGB
 90
        0
102
RTVSPost2010PropOp41
 70
     1
102
RTVSPost2010Prop42
 90
       50
102
RTVSPost2010PropOp42
 70
     1
102
RTVSPost2010Prop43
 90
        3
102
RTVSPost2010PropOp43
 70
     1
102
RTVSPost2010Prop44ColorIndex
 90
        5
102
RTVSPost2010Prop44ColorRGB
 90
      255
102
RTVSPost2010PropOp44
 70
     1
102
RTVSPost2010Prop45
280
     0
102
RTVSPost2010PropOp45
 70
     1
102
RTVSPost2010Prop46
 90
       50
102
RTVSPost2010PropOp46
 70
     1
102
RTVSPost2010Prop47
 90
       50
102
RTVSPost2010PropOp47
 70
     1
102
RTVSPost2010Prop48
 90
       50
102
RTVSPost2010PropOp48
 70
     1
102
RTVSPost2010Prop49
280
     0
102
RTVSPost2010PropOp49
 70
     1
102
RTVSPost2010Prop50
 90
       50
102
RTVSPost2010PropOp50
 70
     1
102
RTVSPost2010Prop51ColorIndex
 90
      256
102
RTVSPost2010Prop51ColorRGB
 90
-16777216
102
RTVSPost2010PropOp51
 70
     0
102
RTVSPost2010Prop52
140
1.0
102
RTVSPost2010PropOp52
 70
     0
102
RTVSPost2010Prop53
 90
        2
102
RTVSPost2010PropOp53
 70
     1
102
RTVSPost2010Prop54
  1
strokes_ogs.tif
102
RTVSPost2010PropOp54
 70
     1
102
RTVSPost2010Prop55
280
     0
102
RTVSPost2010PropOp55
 70
     1
102
RTVSPost2010Prop56
140
1.0
102
RTVSPost2010PropOp56
 70
     1
102
RTVSPost2010Prop57
140
1.0
102
RTVSPost2010PropOp57
 70
     1
102
RTVSPropertyOp0
 70
     1
102
RTVSPropertyOp1
 70
     1
102
RTVSPropertyOp2
 70
     1
102
RTVSPropertyOp3
 70
     1
102
RTVSPropertyOp4
 70
     1
102
RTVSPropertyOp5
 70
     1
102
RTVSPropertyOp6
 70
     1
102
RTVSPropertyOp7
 70
     1
102
RTVSPropertyOp8
 70
     1
102
RTVSPropertyOp9
 70
     1
102
RTVSPropertyOp10
 70
     1
102
RTVSPropertyOp11
 70
     1
102
RTVSPropertyOp12
 70
     1
102
RTVSPropertyOp13
 70
     1
102
RTVSPropertyOp14
 70
     1
102
RTVSPropertyOp15
 70
     1
102
RTVSPropertyOp16
 70
     1
102
RTVSPropertyOp17
 70
     1
102
RTVSPropertyOp18
 70
     1
102
RTVSPropertyOp19
 70
     1
102
RTVSPropertyOp20
 70
     1
102
RTVSPropertyOp21
 70
     1
102
RTVSPropertyOp22
 70
     1
102
RTVSPropertyOp23
 70
     1
102
RTVSPropertyOp24
 70
     1
102
RTVSPropertyOp25
 70
     1
102
RTVSPropertyOp26
 70
     1
102
RTVSPropertyOp27
 70
     1
102
RTVSPropertyOp28
 70
     1
102
RTVSPropertyOp29
 70
     1
102
RTVSPropertyOp30
 70
     1
102
RTVSPropertyOp31
 70
     1
102
RTVSPropertyOp32
 70
     1
102
RTVSPropertyOp33
 70
     1
102
RTVSPropertyOp34
 70
     1
102
RTVSPropertyOp35
 70
     1
102
RTVSPropertyOp36
 70
     1
102
RTVSPropertyOp37
 70
     1
102
RTVSPropertyOp38
 70
     1
102
RTVSPropertyOp39
 70
     1
102
RTVSPropertyOp40
 70
     1
102
RTVSPropertyOp41
 70
     1
102
RTVSPropertyOp42
 70
     1
102
RTVSPropertyOp43
 70
     1
102
RTVSPropertyOp44
 70
     1
102
RTVSPropertyOp45
 70
     1
102
RTVSPropertyOp46
 70
     1
102
RTVSPropertyOp47
 70
     1
102
RTVSPropertyOp48
 70
     1
102
RTVSPropertyOp49
 70
     1
102
RTVSPropertyOp50
 70
     1
102
RTVSPropertyOp51
 70
     0
102
RTVSPropertyOp52
 70
     0
102
RTVSPropertyOp53
 70
     1
102
RTVSPropertyOp54
 70
     1
102
RTVSPropertyOp55
 70
     1
102
RTVSPropertyOp56
 70
     1
102
RTVSPropertyOp57
 70
     1
102
RTVSPropertyOp58
 70
     1
102
RTVSPropertyOp59
 70
     1
102
RTVSPropertyOp60
 70
     1
102
RTVSPropertyOp61
 70
     1
102
RTVSPropertyOp62
 70
     1
  0
XRECORD
  5
325FF
102
{ACAD_REACTORS
330
325FE
102
}
330
325FE
100
AcDbXrecord
280
     1
102
RTVSPost2010Prop28
280
     0
102
RTVSPost2010PropOp28
 70
     1
102
RTVSPost2010Prop29
280
     1
102
RTVSPost2010PropOp29
 70
     1
102
RTVSPost2010Prop30
280
     1
102
RTVSPost2010PropOp30
 70
     1
102
RTVSPost2010Prop31
280
     0
102
RTVSPost2010PropOp31
 70
     1
102
RTVSPost2010Prop32
280
     0
102
RTVSPost2010PropOp32
 70
     1
102
RTVSPost2010Prop33
280
     0
102
RTVSPost2010PropOp33
 70
     1
102
RTVSPost2010Prop34
280
     0
102
RTVSPost2010PropOp34
 70
     1
102
RTVSPost2010Prop35
280
     0
102
RTVSPost2010PropOp35
 70
     1
102
RTVSPost2010Prop36
280
     0
102
RTVSPost2010PropOp36
 70
     1
102
RTVSPost2010Prop37
 90
       50
102
RTVSPost2010PropOp37
 70
     1
102
RTVSPost2010Prop38
140
0.0
102
RTVSPost2010PropOp38
 70
     1
102
RTVSPost2010Prop39
140
1.0
102
RTVSPost2010PropOp39
 70
     1
102
RTVSPost2010Prop40
 90
        0
102
RTVSPost2010PropOp40
 70
     1
102
RTVSPost2010Prop41ColorIndex
 90
       18
102
RTVSPost2010Prop41ColorRGB
 90
        0
102
RTVSPost2010PropOp41
 70
     1
102
RTVSPost2010Prop42
 90
       50
102
RTVSPost2010PropOp42
 70
     1
102
RTVSPost2010Prop43
 90
        3
102
RTVSPost2010PropOp43
 70
     1
102
RTVSPost2010Prop44ColorIndex
 90
        5
102
RTVSPost2010Prop44ColorRGB
 90
      255
102
RTVSPost2010PropOp44
 70
     1
102
RTVSPost2010Prop45
280
     0
102
RTVSPost2010PropOp45
 70
     1
102
RTVSPost2010Prop46
 90
       50
102
RTVSPost2010PropOp46
 70
     1
102
RTVSPost2010Prop47
 90
       50
102
RTVSPost2010PropOp47
 70
     1
102
RTVSPost2010Prop48
 90
       50
102
RTVSPost2010PropOp48
 70
     1
102
RTVSPost2010Prop49
280
     0
102
RTVSPost2010PropOp49
 70
     1
102
RTVSPost2010Prop50
 90
       50
102
RTVSPost2010PropOp50
 70
     1
102
RTVSPost2010Prop51ColorIndex
 90
      256
102
RTVSPost2010Prop51ColorRGB
 90
-16777216
102
RTVSPost2010PropOp51
 70
     0
102
RTVSPost2010Prop52
140
1.0
102
RTVSPost2010PropOp52
 70
     0
102
RTVSPost2010Prop53
 90
        2
102
RTVSPost2010PropOp53
 70
     1
102
RTVSPost2010Prop54
  1
strokes_ogs.tif
102
RTVSPost2010PropOp54
 70
     1
102
RTVSPost2010Prop55
280
     0
102
RTVSPost2010PropOp55
 70
     1
102
RTVSPost2010Prop56
140
1.0
102
RTVSPost2010PropOp56
 70
     1
102
RTVSPost2010Prop57
140
1.0
102
RTVSPost2010PropOp57
 70
     1
102
RTVSPropertyOp0
 70
     1
102
RTVSPropertyOp1
 70
     1
102
RTVSPropertyOp2
 70
     1
102
RTVSPropertyOp3
 70
     1
102
RTVSPropertyOp4
 70
     1
102
RTVSPropertyOp5
 70
     1
102
RTVSPropertyOp6
 70
     1
102
RTVSPropertyOp7
 70
     1
102
RTVSPropertyOp8
 70
     1
102
RTVSPropertyOp9
 70
     1
102
RTVSPropertyOp10
 70
     1
102
RTVSPropertyOp11
 70
     1
102
RTVSPropertyOp12
 70
     1
102
RTVSPropertyOp13
 70
     1
102
RTVSPropertyOp14
 70
     1
102
RTVSPropertyOp15
 70
     1
102
RTVSPropertyOp16
 70
     1
102
RTVSPropertyOp17
 70
     1
102
RTVSPropertyOp18
 70
     1
102
RTVSPropertyOp19
 70
     1
102
RTVSPropertyOp20
 70
     1
102
RTVSPropertyOp21
 70
     1
102
RTVSPropertyOp22
 70
     1
102
RTVSPropertyOp23
 70
     1
102
RTVSPropertyOp24
 70
     1
102
RTVSPropertyOp25
 70
     1
102
RTVSPropertyOp26
 70
     1
102
RTVSPropertyOp27
 70
     1
102
RTVSPropertyOp28
 70
     1
102
RTVSPropertyOp29
 70
     1
102
RTVSPropertyOp30
 70
     1
102
RTVSPropertyOp31
 70
     1
102
RTVSPropertyOp32
 70
     1
102
RTVSPropertyOp33
 70
     1
102
RTVSPropertyOp34
 70
     1
102
RTVSPropertyOp35
 70
     1
102
RTVSPropertyOp36
 70
     1
102
RTVSPropertyOp37
 70
     1
102
RTVSPropertyOp38
 70
     1
102
RTVSPropertyOp39
 70
     1
102
RTVSPropertyOp40
 70
     1
102
RTVSPropertyOp41
 70
     1
102
RTVSPropertyOp42
 70
     1
102
RTVSPropertyOp43
 70
     1
102
RTVSPropertyOp44
 70
     1
102
RTVSPropertyOp45
 70
     1
102
RTVSPropertyOp46
 70
     1
102
RTVSPropertyOp47
 70
     1
102
RTVSPropertyOp48
 70
     1
102
RTVSPropertyOp49
 70
     1
102
RTVSPropertyOp50
 70
     1
102
RTVSPropertyOp51
 70
     0
102
RTVSPropertyOp52
 70
     0
102
RTVSPropertyOp53
 70
     1
102
RTVSPropertyOp54
 70
     1
102
RTVSPropertyOp55
 70
     1
102
RTVSPropertyOp56
 70
     1
102
RTVSPropertyOp57
 70
     1
102
RTVSPropertyOp58
 70
     1
102
RTVSPropertyOp59
 70
     1
102
RTVSPropertyOp60
 70
     1
102
RTVSPropertyOp61
 70
     1
102
RTVSPropertyOp62
 70
     1
  0
XRECORD
  5
325F3
102
{ACAD_REACTORS
330
325F2
102
}
330
325F2
100
AcDbXrecord
280
     1
102
RTVSPost2010Prop28
280
     0
102
RTVSPost2010PropOp28
 70
     1
102
RTVSPost2010Prop29
280
     1
102
RTVSPost2010PropOp29
 70
     1
102
RTVSPost2010Prop30
280
     1
102
RTVSPost2010PropOp30
 70
     1
102
RTVSPost2010Prop31
280
     0
102
RTVSPost2010PropOp31
 70
     1
102
RTVSPost2010Prop32
280
     0
102
RTVSPost2010PropOp32
 70
     1
102
RTVSPost2010Prop33
280
     0
102
RTVSPost2010PropOp33
 70
     1
102
RTVSPost2010Prop34
280
     0
102
RTVSPost2010PropOp34
 70
     1
102
RTVSPost2010Prop35
280
     0
102
RTVSPost2010PropOp35
 70
     1
102
RTVSPost2010Prop36
280
     0
102
RTVSPost2010PropOp36
 70
     1
102
RTVSPost2010Prop37
 90
       50
102
RTVSPost2010PropOp37
 70
     1
102
RTVSPost2010Prop38
140
0.0
102
RTVSPost2010PropOp38
 70
     1
102
RTVSPost2010Prop39
140
1.0
102
RTVSPost2010PropOp39
 70
     1
102
RTVSPost2010Prop40
 90
        0
102
RTVSPost2010PropOp40
 70
     1
102
RTVSPost2010Prop41ColorIndex
 90
       18
102
RTVSPost2010Prop41ColorRGB
 90
        0
102
RTVSPost2010PropOp41
 70
     1
102
RTVSPost2010Prop42
 90
       50
102
RTVSPost2010PropOp42
 70
     1
102
RTVSPost2010Prop43
 90
        3
102
RTVSPost2010PropOp43
 70
     1
102
RTVSPost2010Prop44ColorIndex
 90
        5
102
RTVSPost2010Prop44ColorRGB
 90
      255
102
RTVSPost2010PropOp44
 70
     1
102
RTVSPost2010Prop45
280
     0
102
RTVSPost2010PropOp45
 70
     1
102
RTVSPost2010Prop46
 90
       50
102
RTVSPost2010PropOp46
 70
     1
102
RTVSPost2010Prop47
 90
       50
102
RTVSPost2010PropOp47
 70
     1
102
RTVSPost2010Prop48
 90
       50
102
RTVSPost2010PropOp48
 70
     1
102
RTVSPost2010Prop49
280
     0
102
RTVSPost2010PropOp49
 70
     1
102
RTVSPost2010Prop50
 90
       50
102
RTVSPost2010PropOp50
 70
     1
102
RTVSPost2010Prop51ColorIndex
 90
      256
102
RTVSPost2010Prop51ColorRGB
 90
-16777216
102
RTVSPost2010PropOp51
 70
     0
102
RTVSPost2010Prop52
140
1.0
102
RTVSPost2010PropOp52
 70
     0
102
RTVSPost2010Prop53
 90
        2
102
RTVSPost2010PropOp53
 70
     1
102
RTVSPost2010Prop54
  1
strokes_ogs.tif
102
RTVSPost2010PropOp54
 70
     1
102
RTVSPost2010Prop55
280
     0
102
RTVSPost2010PropOp55
 70
     1
102
RTVSPost2010Prop56
140
1.0
102
RTVSPost2010PropOp56
 70
     1
102
RTVSPost2010Prop57
140
1.0
102
RTVSPost2010PropOp57
 70
     1
102
RTVSPropertyOp0
 70
     1
102
RTVSPropertyOp1
 70
     1
102
RTVSPropertyOp2
 70
     1
102
RTVSPropertyOp3
 70
     1
102
RTVSPropertyOp4
 70
     1
102
RTVSPropertyOp5
 70
     1
102
RTVSPropertyOp6
 70
     1
102
RTVSPropertyOp7
 70
     1
102
RTVSPropertyOp8
 70
     1
102
RTVSPropertyOp9
 70
     1
102
RTVSPropertyOp10
 70
     1
102
RTVSPropertyOp11
 70
     1
102
RTVSPropertyOp12
 70
     1
102
RTVSPropertyOp13
 70
     1
102
RTVSPropertyOp14
 70
     1
102
RTVSPropertyOp15
 70
     1
102
RTVSPropertyOp16
 70
     1
102
RTVSPropertyOp17
 70
     1
102
RTVSPropertyOp18
 70
     1
102
RTVSPropertyOp19
 70
     1
102
RTVSPropertyOp20
 70
     1
102
RTVSPropertyOp21
 70
     1
102
RTVSPropertyOp22
 70
     1
102
RTVSPropertyOp23
 70
     1
102
RTVSPropertyOp24
 70
     1
102
RTVSPropertyOp25
 70
     1
102
RTVSPropertyOp26
 70
     1
102
RTVSPropertyOp27
 70
     1
102
RTVSPropertyOp28
 70
     1
102
RTVSPropertyOp29
 70
     1
102
RTVSPropertyOp30
 70
     1
102
RTVSPropertyOp31
 70
     1
102
RTVSPropertyOp32
 70
     1
102
RTVSPropertyOp33
 70
     1
102
RTVSPropertyOp34
 70
     1
102
RTVSPropertyOp35
 70
     1
102
RTVSPropertyOp36
 70
     1
102
RTVSPropertyOp37
 70
     1
102
RTVSPropertyOp38
 70
     1
102
RTVSPropertyOp39
 70
     1
102
RTVSPropertyOp40
 70
     1
102
RTVSPropertyOp41
 70
     1
102
RTVSPropertyOp42
 70
     1
102
RTVSPropertyOp43
 70
     1
102
RTVSPropertyOp44
 70
     1
102
RTVSPropertyOp45
 70
     1
102
RTVSPropertyOp46
 70
     1
102
RTVSPropertyOp47
 70
     1
102
RTVSPropertyOp48
 70
     1
102
RTVSPropertyOp49
 70
     1
102
RTVSPropertyOp50
 70
     1
102
RTVSPropertyOp51
 70
     0
102
RTVSPropertyOp52
 70
     0
102
RTVSPropertyOp53
 70
     1
102
RTVSPropertyOp54
 70
     1
102
RTVSPropertyOp55
 70
     1
102
RTVSPropertyOp56
 70
     1
102
RTVSPropertyOp57
 70
     1
102
RTVSPropertyOp58
 70
     1
102
RTVSPropertyOp59
 70
     1
102
RTVSPropertyOp60
 70
     1
102
RTVSPropertyOp61
 70
     1
102
RTVSPropertyOp62
 70
     1
  0
XRECORD
  5
32613
102
{ACAD_REACTORS
330
32612
102
}
330
32612
100
AcDbXrecord
280
     1
102
RTVSPost2010Prop28
280
     0
102
RTVSPost2010PropOp28
 70
     1
102
RTVSPost2010Prop29
280
     1
102
RTVSPost2010PropOp29
 70
     1
102
RTVSPost2010Prop30
280
     1
102
RTVSPost2010PropOp30
 70
     1
102
RTVSPost2010Prop31
280
     0
102
RTVSPost2010PropOp31
 70
     1
102
RTVSPost2010Prop32
280
     0
102
RTVSPost2010PropOp32
 70
     1
102
RTVSPost2010Prop33
280
     0
102
RTVSPost2010PropOp33
 70
     1
102
RTVSPost2010Prop34
280
     0
102
RTVSPost2010PropOp34
 70
     1
102
RTVSPost2010Prop35
280
     0
102
RTVSPost2010PropOp35
 70
     1
102
RTVSPost2010Prop36
280
     0
102
RTVSPost2010PropOp36
 70
     1
102
RTVSPost2010Prop37
 90
       50
102
RTVSPost2010PropOp37
 70
     1
102
RTVSPost2010Prop38
140
0.0
102
RTVSPost2010PropOp38
 70
     1
102
RTVSPost2010Prop39
140
1.0
102
RTVSPost2010PropOp39
 70
     1
102
RTVSPost2010Prop40
 90
        0
102
RTVSPost2010PropOp40
 70
     1
102
RTVSPost2010Prop41ColorIndex
 90
       18
102
RTVSPost2010Prop41ColorRGB
 90
        0
102
RTVSPost2010PropOp41
 70
     1
102
RTVSPost2010Prop42
 90
       50
102
RTVSPost2010PropOp42
 70
     1
102
RTVSPost2010Prop43
 90
        3
102
RTVSPost2010PropOp43
 70
     1
102
RTVSPost2010Prop44ColorIndex
 90
        5
102
RTVSPost2010Prop44ColorRGB
 90
      255
102
RTVSPost2010PropOp44
 70
     1
102
RTVSPost2010Prop45
280
     0
102
RTVSPost2010PropOp45
 70
     1
102
RTVSPost2010Prop46
 90
       50
102
RTVSPost2010PropOp46
 70
     1
102
RTVSPost2010Prop47
 90
       50
102
RTVSPost2010PropOp47
 70
     1
102
RTVSPost2010Prop48
 90
       50
102
RTVSPost2010PropOp48
 70
     1
102
RTVSPost2010Prop49
280
     0
102
RTVSPost2010PropOp49
 70
     1
102
RTVSPost2010Prop50
 90
       50
102
RTVSPost2010PropOp50
 70
     1
102
RTVSPost2010Prop51ColorIndex
 90
      256
102
RTVSPost2010Prop51ColorRGB
 90
-16777216
102
RTVSPost2010PropOp51
 70
     0
102
RTVSPost2010Prop52
140
1.0
102
RTVSPost2010PropOp52
 70
     0
102
RTVSPost2010Prop53
 90
        2
102
RTVSPost2010PropOp53
 70
     1
102
RTVSPost2010Prop54
  1
strokes_ogs.tif
102
RTVSPost2010PropOp54
 70
     1
102
RTVSPost2010Prop55
280
     0
102
RTVSPost2010PropOp55
 70
     1
102
RTVSPost2010Prop56
140
1.0
102
RTVSPost2010PropOp56
 70
     1
102
RTVSPost2010Prop57
140
1.0
102
RTVSPost2010PropOp57
 70
     1
102
RTVSPropertyOp0
 70
     1
102
RTVSPropertyOp1
 70
     1
102
RTVSPropertyOp2
 70
     1
102
RTVSPropertyOp3
 70
     1
102
RTVSPropertyOp4
 70
     1
102
RTVSPropertyOp5
 70
     1
102
RTVSPropertyOp6
 70
     1
102
RTVSPropertyOp7
 70
     1
102
RTVSPropertyOp8
 70
     1
102
RTVSPropertyOp9
 70
     1
102
RTVSPropertyOp10
 70
     1
102
RTVSPropertyOp11
 70
     1
102
RTVSPropertyOp12
 70
     1
102
RTVSPropertyOp13
 70
     1
102
RTVSPropertyOp14
 70
     1
102
RTVSPropertyOp15
 70
     1
102
RTVSPropertyOp16
 70
     1
102
RTVSPropertyOp17
 70
     1
102
RTVSPropertyOp18
 70
     1
102
RTVSPropertyOp19
 70
     1
102
RTVSPropertyOp20
 70
     1
102
RTVSPropertyOp21
 70
     1
102
RTVSPropertyOp22
 70
     1
102
RTVSPropertyOp23
 70
     1
102
RTVSPropertyOp24
 70
     1
102
RTVSPropertyOp25
 70
     1
102
RTVSPropertyOp26
 70
     1
102
RTVSPropertyOp27
 70
     1
102
RTVSPropertyOp28
 70
     1
102
RTVSPropertyOp29
 70
     1
102
RTVSPropertyOp30
 70
     1
102
RTVSPropertyOp31
 70
     1
102
RTVSPropertyOp32
 70
     1
102
RTVSPropertyOp33
 70
     1
102
RTVSPropertyOp34
 70
     1
102
RTVSPropertyOp35
 70
     1
102
RTVSPropertyOp36
 70
     1
102
RTVSPropertyOp37
 70
     1
102
RTVSPropertyOp38
 70
     1
102
RTVSPropertyOp39
 70
     1
102
RTVSPropertyOp40
 70
     1
102
RTVSPropertyOp41
 70
     1
102
RTVSPropertyOp42
 70
     1
102
RTVSPropertyOp43
 70
     1
102
RTVSPropertyOp44
 70
     1
102
RTVSPropertyOp45
 70
     1
102
RTVSPropertyOp46
 70
     1
102
RTVSPropertyOp47
 70
     1
102
RTVSPropertyOp48
 70
     1
102
RTVSPropertyOp49
 70
     1
102
RTVSPropertyOp50
 70
     1
102
RTVSPropertyOp51
 70
     0
102
RTVSPropertyOp52
 70
     0
102
RTVSPropertyOp53
 70
     1
102
RTVSPropertyOp54
 70
     1
102
RTVSPropertyOp55
 70
     1
102
RTVSPropertyOp56
 70
     1
102
RTVSPropertyOp57
 70
     1
102
RTVSPropertyOp58
 70
     1
102
RTVSPropertyOp59
 70
     1
102
RTVSPropertyOp60
 70
     1
102
RTVSPropertyOp61
 70
     1
102
RTVSPropertyOp62
 70
     1
  0
ENDSEC
  0
EOF
